  0
SECTION
  2
HEADER
  9
$ACADVER
  1
AC1014
  9
$ACADMAINTVER
 70
     9
  9
$DWGCODEPAGE
  3
ANSI_932
  9
$INSBASE
 10
0.0
 20
0.0
 30
0.0
  9
$EXTMIN
 10
68.84141292982303
 20
48.35679510485687
 30
0.0
  9
$EXTMAX
 10
477.7161586583205
 20
360.8105598734537
 30
0.0
  9
$LIMMIN
 10
0.0
 20
0.0
  9
$LIMMAX
 10
297.0
 20
210.0
  9
$ORTHOMODE
 70
     1
  9
$REGENMODE
 70
     1
  9
$FILLMODE
 70
     1
  9
$QTEXTMODE
 70
     0
  9
$MIRRTEXT
 70
     0
  9
$DRAGMODE
 70
     2
  9
$LTSCALE
 40
2.0
  9
$OSMODE
 70
    37
  9
$ATTMODE
 70
     1
  9
$TEXTSIZE
 40
2.0
  9
$TRACEWID
 40
1.0
  9
$TEXTSTYLE
  7
STANDARD
  9
$CLAYER
  8
0
  9
$CELTYPE
  6
BYLAYER
  9
$CECOLOR
 62
   256
  9
$CELTSCALE
 40
1.0
  9
$DELOBJ
 70
     1
  9
$DISPSILH
 70
     0
  9
$DIMSCALE
 40
2.0
  9
$DIMASZ
 40
1.8
  9
$DIMEXO
 40
0.625
  9
$DIMDLI
 40
3.75
  9
$DIMRND
 40
0.0
  9
$DIMDLE
 40
0.0
  9
$DIMEXE
 40
0.8
  9
$DIMTP
 40
0.0
  9
$DIMTM
 40
0.0
  9
$DIMTXT
 40
1.8
  9
$DIMCEN
 40
2.5
  9
$DIMTSZ
 40
0.0
  9
$DIMTOL
 70
     0
  9
$DIMLIM
 70
     0
  9
$DIMTIH
 70
     0
  9
$DIMTOH
 70
     0
  9
$DIMSE1
 70
     0
  9
$DIMSE2
 70
     0
  9
$DIMTAD
 70
     1
  9
$DIMZIN
 70
     8
  9
$DIMBLK
  1

  9
$DIMASO
 70
     1
  9
$DIMSHO
 70
     1
  9
$DIMPOST
  1

  9
$DIMAPOST
  1

  9
$DIMALT
 70
     0
  9
$DIMALTD
 70
     4
  9
$DIMALTF
 40
0.0394
  9
$DIMLFAC
 40
1.0
  9
$DIMTOFL
 70
     1
  9
$DIMTVP
 40
0.0
  9
$DIMTIX
 70
     0
  9
$DIMSOXD
 70
     0
  9
$DIMSAH
 70
     0
  9
$DIMBLK1
  1

  9
$DIMBLK2
  1

  9
$DIMSTYLE
  2
STANDARD
  9
$DIMCLRD
 70
     0
  9
$DIMCLRE
 70
     0
  9
$DIMCLRT
 70
     0
  9
$DIMTFAC
 40
1.0
  9
$DIMGAP
 40
0.75
  9
$DIMJUST
 70
     0
  9
$DIMSD1
 70
     0
  9
$DIMSD2
 70
     0
  9
$DIMTOLJ
 70
     1
  9
$DIMTZIN
 70
     0
  9
$DIMALTZ
 70
     0
  9
$DIMALTTZ
 70
     0
  9
$DIMFIT
 70
     3
  9
$DIMUPT
 70
     0
  9
$DIMUNIT
 70
     8
  9
$DIMDEC
 70
     2
  9
$DIMTDEC
 70
     2
  9
$DIMALTU
 70
     8
  9
$DIMALTTD
 70
     4
  9
$DIMTXSTY
  7
STANDARD
  9
$DIMAUNIT
 70
     0
  9
$LUNITS
 70
     2
  9
$LUPREC
 70
     3
  9
$SKETCHINC
 40
1.0
  9
$FILLETRAD
 40
10.0
  9
$AUNITS
 70
     0
  9
$AUPREC
 70
     2
  9
$MENU
  1
.
  9
$ELEVATION
 40
0.0
  9
$PELEVATION
 40
0.0
  9
$THICKNESS
 40
0.0
  9
$LIMCHECK
 70
     0
  9
$BLIPMODE
 70
     0
  9
$CHAMFERA
 40
0.0
  9
$CHAMFERB
 40
0.0
  9
$CHAMFERC
 40
20.0
  9
$CHAMFERD
 40
0.0
  9
$SKPOLY
 70
     0
  9
$TDCREATE
 40
2453759.642471238
  9
$TDUPDATE
 40
2454399.566970486
  9
$TDINDWG
 40
0.0842346296
  9
$TDUSRTIMER
 40
0.0842346296
  9
$USRTIMER
 70
     1
  9
$ANGBASE
 50
0.0
  9
$ANGDIR
 70
     0
  9
$PDMODE
 70
     0
  9
$PDSIZE
 40
-10.0
  9
$PLINEWID
 40
0.0
  9
$COORDS
 70
     1
  9
$SPLFRAME
 70
     0
  9
$SPLINETYPE
 70
     6
  9
$SPLINESEGS
 70
     8
  9
$ATTDIA
 70
     0
  9
$ATTREQ
 70
     1
  9
$HANDLING
 70
-16383
  9
$HANDSEED
  5
11F1
  9
$SURFTAB1
 70
     6
  9
$SURFTAB2
 70
     6
  9
$SURFTYPE
 70
     6
  9
$SURFU
 70
     6
  9
$SURFV
 70
     6
  9
$UCSNAME
  2

  9
$UCSORG
 10
0.0
 20
0.0
 30
0.0
  9
$UCSXDIR
 10
1.0
 20
0.0
 30
0.0
  9
$UCSYDIR
 10
0.0
 20
1.0
 30
0.0
  9
$PUCSNAME
  2

  9
$PUCSORG
 10
0.0
 20
0.0
 30
0.0
  9
$PUCSXDIR
 10
1.0
 20
0.0
 30
0.0
  9
$PUCSYDIR
 10
0.0
 20
1.0
 30
0.0
  9
$USERI1
 70
     0
  9
$USERI2
 70
     0
  9
$USERI3
 70
     0
  9
$USERI4
 70
     0
  9
$USERI5
 70
     0
  9
$USERR1
 40
0.0
  9
$USERR2
 40
0.0
  9
$USERR3
 40
0.0
  9
$USERR4
 40
0.0
  9
$USERR5
 40
0.0
  9
$WORLDVIEW
 70
     1
  9
$SHADEDGE
 70
     3
  9
$SHADEDIF
 70
    70
  9
$TILEMODE
 70
     1
  9
$MAXACTVP
 70
    48
  9
$PINSBASE
 10
0.0
 20
0.0
 30
0.0
  9
$PLIMCHECK
 70
     0
  9
$PEXTMIN
 10
0.0
 20
0.0
 30
0.0
  9
$PEXTMAX
 10
0.0
 20
0.0
 30
0.0
  9
$PLIMMIN
 10
0.0
 20
0.0
  9
$PLIMMAX
 10
12.0
 20
9.0
  9
$UNITMODE
 70
     0
  9
$VISRETAIN
 70
     1
  9
$PLINEGEN
 70
     0
  9
$PSLTSCALE
 70
     1
  9
$TREEDEPTH
 70
  3020
  9
$PICKSTYLE
 70
     1
  9
$CMLSTYLE
  2
STANDARD
  9
$CMLJUST
 70
     0
  9
$CMLSCALE
 40
1.0
  9
$PROXYGRAPHICS
 70
     1
  9
$MEASUREMENT
 70
     0
  0
ENDSEC
  0
SECTION
  2
CLASSES
  0
CLASS
  1
DICTIONARYVAR
  2
AcDbDictionaryVar
  3
AutoCAD 2000
 90
        0
280
     0
281
     0
  0
CLASS
  1
ACDBDICTIONARYWDFLT
  2
AcDbDictionaryWithDefault
  3
AutoCAD 2000
 90
        0
280
     0
281
     0
  0
CLASS
  1
ACDBPLACEHOLDER
  2
AcDbPlaceHolder
  3
AutoCAD 2000
 90
        0
280
     0
281
     0
  0
CLASS
  1
LAYOUT
  2
AcDbLayout
  3
AutoCAD 2000
 90
        0
280
     0
281
     0
  0
CLASS
  1
LONG_TRANSACTION
  2
AcDbLongTransaction
  3
AutoCAD 2000
 90
        0
280
     0
281
     0
  0
CLASS
  1
LWPOLYLINE
  2
AcDbPolyline
  3
AutoCAD 2000
 90
        0
280
     0
281
     1
  0
CLASS
  1
HATCH
  2
AcDbHatch
  3
AutoCAD 2000
 90
        0
280
     0
281
     1
  0
CLASS
  1
XRECORD
  2
AcDbXrecord
  3
AutoCAD 2000
 90
        0
280
     0
281
     0
  0
ENDSEC
  0
SECTION
  2
TABLES
  0
TABLE
  2
VPORT
  5
6E
330
0
100
AcDbSymbolTable
 70
     2
  0
VPORT
  5
11CB
330
6E
100
AcDbSymbolTableRecord
100
AcDbViewportTableRecord
  2
*ACTIVE
 70
     0
 10
0.0
 20
0.0
 11
1.0
 21
1.0
 12
249.5992954360035
 22
192.8261408139783
 13
0.0
 23
0.0
 14
10.0
 24
10.0
 15
10.0
 25
10.0
 16
0.0
 26
0.0
 36
1.0
 17
0.0
 27
0.0
 37
0.0
 40
338.5876977993833
 41
1.540920716112531
 42
50.0
 43
0.0
 44
0.0
 50
0.0
 51
0.0
 71
     0
 72
   100
 73
     1
 74
     3
 75
     0
 76
     0
 77
     0
 78
     0
  0
ENDTAB
  0
TABLE
  2
LTYPE
  5
69
330
0
100
AcDbSymbolTable
 70
     4
  0
LTYPE
  5
6A
330
69
100
AcDbSymbolTableRecord
100
AcDbLinetypeTableRecord
  2
BYBLOCK
 70
     0
  3

 72
    65
 73
     0
 40
0.0
  0
LTYPE
  5
6B
330
69
100
AcDbSymbolTableRecord
100
AcDbLinetypeTableRecord
  2
BYLAYER
 70
     0
  3

 72
    65
 73
     0
 40
0.0
  0
LTYPE
  5
8
330
69
100
AcDbSymbolTableRecord
100
AcDbLinetypeTableRecord
  2
CONTINUOUS
 70
     0
  3
Solid line
 72
    65
 73
     0
 40
0.0
  0
LTYPE
  5
27C
330
69
100
AcDbSymbolTableRecord
100
AcDbLinetypeTableRecord
  2
SEKKEI_A2_
 70
     0
  3
center(A2)  ____ _ ____ _ ____ _ ____ _ ____ _ 
 72
    65
 73
     4
 40
14.28749999999999
 49
9.525
 74
     0
 49
-1.587499999999999
 74
     0
 49
1.587499999999999
 74
     0
 49
-1.587499999999999
 74
     0
  0
LTYPE
  5
2B4
330
69
100
AcDbSymbolTableRecord
100
AcDbLinetypeTableRecord
  2
HIDDEN2
 70
     0
  3
Hidden (.5x) _ _ _ _ _ _ _ _ _ _ _ _ _ _ _ _ _
 72
    65
 73
     2
 40
4.762499999999999
 49
3.174999999999999
 74
     0
 49
-1.587499999999999
 74
     0
  0
LTYPE
  5
48F
330
69
100
AcDbSymbolTableRecord
100
AcDbLinetypeTableRecord
  2
SEKKEI_H
 70
     0
  3
Hidden-S _ _ _ _ _ _ _ _ _ _ _ _ _ _ _ _ _
 72
    65
 73
     2
 40
2.381249999999999
 49
1.587499999999999
 74
     0
 49
-0.79375
 74
     0
  0
ENDTAB
  0
TABLE
  2
LAYER
  5
66
330
0
100
AcDbSymbolTable
 70
     9
  0
LAYER
  5
5E
330
66
100
AcDbSymbolTableRecord
100
AcDbLayerTableRecord
  2
0
 70
     0
 62
     7
  6
CONTINUOUS
  0
LAYER
  5
3E
330
66
100
AcDbSymbolTableRecord
100
AcDbLayerTableRecord
  2
CENTER
 70
     0
 62
     3
  6
SEKKEI_A2_
  0
LAYER
  5
2B5
330
66
100
AcDbSymbolTableRecord
100
AcDbLayerTableRecord
  2
HIDS
 70
     0
 62
     1
  6
HIDDEN2
  0
LAYER
  5
2BA
330
66
100
AcDbSymbolTableRecord
100
AcDbLayerTableRecord
  2
HOJO
 70
     0
 62
     4
  6
CONTINUOUS
  0
LAYER
  5
3FA
330
66
100
AcDbSymbolTableRecord
100
AcDbLayerTableRecord
  2
TITLE
 70
     0
 62
     4
  6
CONTINUOUS
  0
ENDTAB
  0
TABLE
  2
STYLE
  5
67
330
0
100
AcDbSymbolTable
 70
     1
  0
STYLE
  5
16
330
67
100
AcDbSymbolTableRecord
100
AcDbTextStyleTableRecord
  2
STANDARD
 70
     0
 40
0.0
 41
1.0
 50
0.0
 71
     0
 42
2.0
  3
simplex.shx
  4
extfont.shx
  0
ENDTAB
  0
TABLE
  2
VIEW
  5
6C
330
0
100
AcDbSymbolTable
 70
     0
  0
ENDTAB
  0
TABLE
  2
UCS
  5
6D
330
0
100
AcDbSymbolTable
 70
     0
  0
ENDTAB
  0
TABLE
  2
APPID
  5
70
330
0
100
AcDbSymbolTable
 70
     1
  0
APPID
  5
71
330
70
100
AcDbSymbolTableRecord
100
AcDbRegAppTableRecord
  2
ACAD
 70
     0
  0
ENDTAB
  0
TABLE
  2
DIMSTYLE
  5
72
330
0
100
AcDbSymbolTable
 70
     1
  0
DIMSTYLE
105
73
102
{ACAD_REACTORS
330
856
330
8FF
102
}
330
72
100
AcDbSymbolTableRecord
100
AcDbDimStyleTableRecord
  2
STANDARD
 70
     0
  3

  4

  5

  6

  7

 40
2.0
 41
1.8
 42
0.625
 43
3.75
 44
0.8
 45
0.0
 46
0.0
 47
0.0
 48
0.0
140
1.8
141
2.5
142
0.0
143
0.0394
144
1.0
145
0.0
146
1.0
147
0.75
 71
     0
 72
     0
 73
     0
 74
     0
 75
     0
 76
     0
 77
     1
 78
     8
170
     0
171
     4
172
     1
173
     0
174
     0
175
     0
176
     0
177
     0
178
     0
270
     8
271
     2
272
     2
273
     8
274
     4
340
16
275
     0
280
     0
281
     0
282
     0
283
     1
284
     0
285
     0
286
     0
287
     3
288
     0
  0
ENDTAB
  0
TABLE
  2
BLOCK_RECORD
  5
1
330
0
100
AcDbSymbolTable
 70
    54
  0
BLOCK_RECORD
  5
2
102
{ACAD_XDICTIONARY
360
11ED
102
}
330
1
100
AcDbSymbolTableRecord
100
AcDbBlockTableRecord
  2
*MODEL_SPACE
  0
BLOCK_RECORD
  5
11C6
102
{ACAD_XDICTIONARY
360
11EF
102
}
330
1
100
AcDbSymbolTableRecord
100
AcDbBlockTableRecord
  2
*PAPER_SPACE
  0
ENDTAB
  0
ENDSEC
  0
SECTION
  2
BLOCKS
  0
BLOCK
  5
5D
330
2
100
AcDbEntity
  8
0
100
AcDbBlockBegin
  2
*MODEL_SPACE
 70
     0
 10
0.0
 20
0.0
 30
0.0
  3
*MODEL_SPACE
  1

  0
ENDBLK
  5
5F
330
2
100
AcDbEntity
  8
0
100
AcDbBlockEnd
  0
BLOCK
  5
11C8
330
11C6
100
AcDbEntity
 67
     1
  8
0
100
AcDbBlockBegin
  2
*PAPER_SPACE
 70
     0
 10
0.0
 20
0.0
 30
0.0
  3
*PAPER_SPACE
  1

  0
ENDBLK
  5
11C9
330
11C6
100
AcDbEntity
 67
     1
  8
0
100
AcDbBlockEnd
  0
ENDSEC
  0
SECTION
  2
ENTITIES
  0
ARC
  5
859
330
2
100
AcDbEntity
  8
0
100
AcDbCircle
 10
387.8019450959474
 20
120.3567951048569
 30
0.0
 40
2.5
100
AcDbArc
 50
270.0
 51
0.0
  0
ARC
  5
85A
330
2
100
AcDbEntity
  8
0
100
AcDbCircle
 10
387.8019450959474
 20
120.3567881048568
 30
0.0
 40
2.5
100
AcDbArc
 50
0.0
 51
90.0
  0
LINE
  5
85F
330
2
100
AcDbEntity
  8
CENTER
100
AcDbLine
 10
385.3019450959474
 20
98.05679610485691
 30
0.0
 11
475.3019450959474
 21
98.05679610485691
 31
0.0
  0
LINE
  5
860
330
2
100
AcDbEntity
  8
CENTER
100
AcDbLine
 10
359.3019450959474
 20
120.3567951048569
 30
0.0
 11
472.3019450959474
 21
120.3567951048568
 31
0.0
  0
LINE
  5
861
330
2
100
AcDbEntity
  8
0
100
AcDbLine
 10
383.3019450959474
 20
55.35679510485687
 30
0.0
 11
477.3019450959473
 21
55.35679510485687
 31
0.0
  0
LINE
  5
862
330
2
100
AcDbEntity
  8
0
100
AcDbLine
 10
396.3019450959474
 20
63.35679510485687
 30
0.0
 11
385.3019450959474
 21
63.35679510485687
 31
0.0
  0
LINE
  5
864
330
2
100
AcDbEntity
  8
0
100
AcDbLine
 10
366.3019450959474
 20
112.8567951048569
 30
0.0
 11
393.3019450959474
 21
112.8567951048569
 31
0.0
  0
LINE
  5
865
330
2
100
AcDbEntity
  8
0
100
AcDbLine
 10
366.3019450959474
 20
127.8567951048569
 30
0.0
 11
393.3019450959474
 21
127.8567951048569
 31
0.0
  0
LINE
  5
86B
330
2
100
AcDbEntity
  8
0
100
AcDbLine
 10
206.969107929823
 20
135.1500541048568
 30
0.0
 11
231.0485139298231
 21
152.0494451048569
 31
0.0
  0
LINE
  5
86C
330
2
100
AcDbEntity
  8
CENTER
100
AcDbLine
 10
220.591469437421
 20
120.3567951048569
 30
0.0
 11
274.5913444222251
 21
120.3567951048569
 31
0.0
  0
ARC
  5
86D
330
2
100
AcDbEntity
  8
0
100
AcDbCircle
 10
247.341406929823
 20
107.3567951048568
 30
0.0
 40
42.5
100
AcDbArc
 50
19.74990099999923
 51
160.2501069999971
  0
ARC
  5
86E
330
2
100
AcDbEntity
  8
0
100
AcDbCircle
 10
247.341406929823
 20
107.3567951048568
 30
0.0
 40
42.5
100
AcDbArc
 50
199.7498930000029
 51
340.2500920000017
  0
LINE
  5
86F
330
2
100
AcDbEntity
  8
0
100
AcDbLine
 10
206.841421929823
 20
63.35679510485687
 30
0.0
 11
287.841406929823
 21
63.35679510485687
 31
0.0
  0
LINE
  5
870
330
2
100
AcDbEntity
  8
0
100
AcDbLine
 10
204.841414929823
 20
55.35679510485687
 30
0.0
 11
289.841406929823
 21
55.35679510485687
 31
0.0
  0
LINE
  5
871
330
2
100
AcDbEntity
  8
CENTER
100
AcDbLine
 10
68.84141292982303
 20
98.05679610485691
 30
0.0
 11
224.091406929823
 21
98.05679610485691
 31
0.0
  0
LINE
  5
873
330
2
100
AcDbEntity
  8
0
100
AcDbLine
 10
207.341406929823
 20
121.7180621048569
 30
0.0
 11
207.341406929823
 21
92.99525710485687
 31
0.0
  0
LINE
  5
874
330
2
100
AcDbEntity
  8
0
100
AcDbLine
 10
204.841414929823
 20
131.0573951048568
 30
0.0
 11
204.841414929823
 21
55.35679510485687
 31
0.0
  0
LINE
  5
875
330
2
100
AcDbEntity
  8
0
100
AcDbLine
 10
107.341412929823
 20
128.5957331048569
 30
0.0
 11
107.341412929823
 21
61.05678510485694
 31
0.0
  0
LINE
  5
876
330
2
100
AcDbEntity
  8
0
100
AcDbLine
 10
75.84141292982303
 20
125.5757861048569
 30
0.0
 11
75.84141292982303
 21
70.48871910485701
 31
0.0
  0
LINE
  5
877
330
2
100
AcDbEntity
  8
0
100
AcDbLine
 10
132.341414929823
 20
60.05681510485686
 30
0.0
 11
132.341414929823
 21
136.0567921048569
 31
0.0
  0
LINE
  5
878
330
2
100
AcDbEntity
  8
0
100
AcDbLine
 10
132.341360929823
 20
67.80782510485693
 30
0.0
 11
204.841398929823
 21
67.80782510485693
 31
0.0
  0
LINE
  5
879
330
2
100
AcDbEntity
  8
0
100
AcDbLine
 10
132.341414929823
 20
60.05679510485691
 30
0.0
 11
204.841414929823
 21
60.05679510485691
 31
0.0
  0
LINE
  5
87A
330
2
100
AcDbEntity
  8
0
100
AcDbLine
 10
78.84037592982304
 20
68.0531501048568
 30
0.0
 11
107.342267929823
 21
67.3068001048569
 31
0.0
  0
LINE
  5
87B
330
2
100
AcDbEntity
  8
0
100
AcDbLine
 10
77.16459392982301
 20
68.65582210485678
 30
0.0
 11
78.84037592982304
 21
68.0531501048568
 31
0.0
  0
ARC
  5
87C
330
2
100
AcDbEntity
  8
0
100
AcDbCircle
 10
77.84141292982304
 20
70.53781510485698
 30
0.0
 40
2.0
100
AcDbArc
 50
180.0
 51
250.2197109999988
  0
LINE
  5
87D
330
2
100
AcDbEntity
  8
0
100
AcDbLine
 10
102.641338929823
 20
61.80679510485692
 30
0.0
 11
102.641338929823
 21
67.30679510485692
 31
0.0
  0
LINE
  5
87E
330
2
100
AcDbEntity
  8
0
100
AcDbLine
 10
103.341412929823
 20
61.64860810485691
 30
0.0
 11
103.341412929823
 21
67.4115391048569
 31
0.0
  0
ARC
  5
87F
330
2
100
AcDbEntity
  8
0
100
AcDbCircle
 10
107.641338929823
 20
64.55679510485691
 30
0.0
 40
7.0
100
AcDbArc
 50
163.0435029999974
 51
196.9579929999972
  0
ARC
  5
880
330
2
100
AcDbEntity
  8
0
100
AcDbCircle
 10
123.741404929823
 20
64.05679510485692
 30
0.0
 40
8.999999
100
AcDbArc
 50
163.3984990000014
 51
196.6009979999981
  0
LINE
  5
881
330
2
100
AcDbEntity
  8
0
100
AcDbLine
 10
117.341414929823
 20
67.55679510485691
 30
0.0
 11
117.341414929823
 21
60.55679510485692
 31
0.0
  0
LINE
  5
882
330
2
100
AcDbEntity
  8
0
100
AcDbLine
 10
118.341414929823
 20
67.6748651048569
 30
0.0
 11
118.341414929823
 21
60.55679510485692
 31
0.0
  0
LINE
  5
883
330
2
100
AcDbEntity
  8
0
100
AcDbLine
 10
118.341414929823
 20
67.55679510485691
 30
0.0
 11
118.341414929823
 21
60.91038510485697
 31
0.0
  0
LINE
  5
884
330
2
100
AcDbEntity
  8
0
100
AcDbLine
 10
109.341106929823
 20
60.45826710485693
 30
0.0
 11
132.341414929823
 21
60.05679510485691
 31
0.0
  0
ARC
  5
885
330
2
100
AcDbEntity
  8
0
100
AcDbCircle
 10
103.841412929823
 20
61.64860810485691
 30
0.0
 40
0.5
100
AcDbArc
 50
180.0
 51
268.5000000000005
  0
ARC
  5
886
330
2
100
AcDbEntity
  8
0
100
AcDbCircle
 10
101.902142929823
 20
62.80679510485692
 30
0.0
 40
1.0
100
AcDbArc
 50
196.9580990000021
 51
270.0
  0
LINE
  5
887
330
2
100
AcDbEntity
  8
0
100
AcDbLine
 10
103.341412929823
 20
61.80679510485692
 30
0.0
 11
101.902142929823
 21
61.80679510485692
 31
0.0
  0
LINE
  5
888
330
2
100
AcDbEntity
  8
0
100
AcDbLine
 10
103.828323929823
 20
61.14877910485694
 30
0.0
 11
107.341412929823
 21
61.05678510485694
 31
0.0
  0
LINE
  5
889
330
2
100
AcDbEntity
  8
0
100
AcDbLine
 10
108.083004929823
 20
60.79480110485696
 30
0.0
 11
109.341106929823
 21
60.45826710485693
 31
0.0
  0
ARC
  5
88A
330
2
100
AcDbEntity
  8
0
100
AcDbCircle
 10
108.341412929823
 20
61.76083710485688
 30
0.0
 40
1.0
100
AcDbArc
 50
180.0
 51
255.0243839999991
  0
LINE
  5
88B
330
2
100
AcDbEntity
  8
0
100
AcDbLine
 10
118.341414929823
 20
60.55679510485692
 30
0.0
 11
116.362410929823
 21
60.55679510485692
 31
0.0
  0
ARC
  5
88C
330
2
100
AcDbEntity
  8
0
100
AcDbCircle
 10
116.362410929823
 20
61.8567851048569
 30
0.0
 40
1.3
100
AcDbArc
 50
196.6009059999977
 51
270.0
  0
ARC
  5
88D
330
2
100
AcDbEntity
  8
0
100
AcDbCircle
 10
118.841414929823
 20
60.79251510485693
 30
0.0
 40
0.5
100
AcDbArc
 50
180.0
 51
268.9999999999982
  0
LINE
  5
88E
330
2
100
AcDbEntity
  8
0
100
AcDbLine
 10
132.341414929823
 20
67.80782510485693
 30
0.0
 11
118.341414929823
 21
67.80782510485693
 31
0.0
  0
LINE
  5
88F
330
2
100
AcDbEntity
  8
0
100
AcDbLine
 10
109.341106929823
 20
68.55679510485692
 30
0.0
 11
117.341414929823
 21
68.55679510485692
 31
0.0
  0
ARC
  5
890
330
2
100
AcDbEntity
  8
0
100
AcDbCircle
 10
101.902142929823
 20
66.30679510485691
 30
0.0
 40
1.0
100
AcDbArc
 50
90.0
 51
163.0431059999969
  0
LINE
  5
891
330
2
100
AcDbEntity
  8
0
100
AcDbLine
 10
103.341412929823
 20
67.30679510485692
 30
0.0
 11
101.902142929823
 21
67.30679510485692
 31
0.0
  0
LINE
  5
892
330
2
100
AcDbEntity
  8
0
100
AcDbLine
 10
108.083004929823
 20
68.89332910485695
 30
0.0
 11
109.341106929823
 21
68.55679510485692
 31
0.0
  0
ARC
  5
893
330
2
100
AcDbEntity
  8
0
100
AcDbCircle
 10
108.341412929823
 20
69.85936510485697
 30
0.0
 40
1.0
100
AcDbArc
 50
180.0
 51
255.0243839999991
  0
ARC
  5
894
330
2
100
AcDbEntity
  8
0
100
AcDbCircle
 10
108.341412929823
 20
69.85936510485697
 30
0.0
 40
1.0
100
AcDbArc
 50
180.0
 51
255.0243839999991
  0
ARC
  5
895
330
2
100
AcDbEntity
  8
0
100
AcDbCircle
 10
117.341414929823
 20
67.55679510485691
 30
0.0
 40
1.0
100
AcDbArc
 50
0.0
 51
90.0
  0
LINE
  5
896
330
2
100
AcDbEntity
  8
0
100
AcDbLine
 10
118.341414929823
 20
67.55679510485691
 30
0.0
 11
116.362410929823
 21
67.55679510485691
 31
0.0
  0
ARC
  5
897
330
2
100
AcDbEntity
  8
0
100
AcDbCircle
 10
116.362410929823
 20
66.2567751048569
 30
0.0
 40
1.3
100
AcDbArc
 50
90.0
 51
163.3984070000007
  0
LINE
  5
898
330
2
100
AcDbEntity
  8
CENTER
100
AcDbLine
 10
213.341406929823
 20
66.85679510485687
 30
0.0
 11
213.341406929823
 21
51.85679510485687
 31
0.0
  0
ARC
  5
899
330
2
100
AcDbEntity
  8
0
100
AcDbCircle
 10
206.841421929823
 20
61.35680510485696
 30
0.0
 40
2.0
100
AcDbArc
 50
90.0
 51
180.0
  0
LINE
  5
89A
330
2
100
AcDbEntity
  8
HIDS
  6
SEKKEI_H
100
AcDbLine
 10
210.091406929823
 20
63.35679510485687
 30
0.0
 11
210.091406929823
 21
55.35679510485687
 31
0.0
  0
LINE
  5
89B
330
2
100
AcDbEntity
  8
HIDS
  6
SEKKEI_H
100
AcDbLine
 10
216.591406929823
 20
63.35679510485687
 30
0.0
 11
216.591406929823
 21
55.35679510485687
 31
0.0
  0
LINE
  5
89C
330
2
100
AcDbEntity
  8
0
100
AcDbLine
 10
132.341360929823
 20
128.3057621048569
 30
0.0
 11
204.841398929823
 21
128.3057621048569
 31
0.0
  0
LINE
  5
89D
330
2
100
AcDbEntity
  8
0
100
AcDbLine
 10
132.341414929823
 20
136.0567921048569
 30
0.0
 11
208.2610999298231
 21
136.0567921048569
 31
0.0
  0
LINE
  5
8A0
330
2
100
AcDbEntity
  8
CENTER
100
AcDbLine
 10
114.841414929823
 20
160.0823131048569
 30
0.0
 11
114.841532929823
 21
142.2834921048568
 31
0.0
  0
ARC
  5
8A1
330
2
100
AcDbEntity
  8
0
100
AcDbCircle
 10
99.34153292982308
 20
142.5567921048569
 30
0.0
 40
0.5
100
AcDbArc
 50
0.0
 51
90.0
  0
ARC
  5
8A2
330
2
100
AcDbEntity
  8
0
100
AcDbCircle
 10
99.34153292982308
 20
155.5567921048569
 30
0.0
 40
0.5
100
AcDbArc
 50
270.0
 51
0.0
  0
LINE
  5
8A3
330
2
100
AcDbEntity
  8
0
100
AcDbLine
 10
103.341412929823
 20
111.8330031048569
 30
0.0
 11
75.84141292982303
 21
112.5531031048569
 31
0.0
  0
LINE
  5
8A4
330
2
100
AcDbEntity
  8
0
100
AcDbLine
 10
103.341412929823
 20
117.7805851048569
 30
0.0
 11
75.84141292982303
 21
117.0604891048569
 31
0.0
  0
LINE
  5
8A5
330
2
100
AcDbEntity
  8
0
100
AcDbLine
 10
78.84037592982304
 20
128.0604511048568
 30
0.0
 11
107.342267929823
 21
128.8067961048569
 31
0.0
  0
LINE
  5
8A6
330
2
100
AcDbEntity
  8
0
100
AcDbLine
 10
97.84153292982308
 20
148.5567921048569
 30
0.0
 11
131.841532929823
 21
148.5567921048569
 31
0.0
  0
LINE
  5
8A7
330
2
100
AcDbEntity
  8
0
100
AcDbLine
 10
97.84153292982308
 20
149.5567921048569
 30
0.0
 11
131.841532929823
 21
149.5567921048569
 31
0.0
  0
ARC
  5
8A8
330
2
100
AcDbEntity
  8
0
100
AcDbCircle
 10
77.84141292982304
 20
125.5757861048569
 30
0.0
 40
2.0
100
AcDbArc
 50
109.7802890000012
 51
180.0
  0
LINE
  5
8A9
330
2
100
AcDbEntity
  8
0
100
AcDbLine
 10
77.16459392982301
 20
127.4577751048569
 30
0.0
 11
78.84037592982304
 21
128.0604511048568
 31
0.0
  0
LINE
  5
8AA
330
2
100
AcDbEntity
  8
0
100
AcDbLine
 10
82.69273292982303
 20
145.5067971048569
 30
0.0
 11
97.84153292982308
 21
145.5067971048569
 31
0.0
  0
LINE
  5
8AB
330
2
100
AcDbEntity
  8
0
100
AcDbLine
 10
83.54453292982304
 20
153.2067941048568
 30
0.0
 11
97.84153292982308
 21
153.2067941048568
 31
0.0
  0
LINE
  5
8AC
330
2
100
AcDbEntity
  8
HOJO
100
AcDbLine
 10
82.80873292982306
 20
150.3716961048568
 30
0.0
 11
83.62083292982305
 21
147.8966971048569
 31
0.0
  0
LINE
  5
8AD
330
2
100
AcDbEntity
  8
HOJO
100
AcDbLine
 10
83.62083292982305
 20
147.8966971048569
 30
0.0
 11
82.69273292982303
 21
145.5067971048569
 31
0.0
  0
LINE
  5
8AE
330
2
100
AcDbEntity
  8
HOJO
100
AcDbLine
 10
83.54453292982304
 20
153.2067941048568
 30
0.0
 11
82.80873292982306
 21
150.3716961048568
 31
0.0
  0
LINE
  5
8AF
330
2
100
AcDbEntity
  8
0
100
AcDbLine
 10
97.84153292982308
 20
148.5567921048569
 30
0.0
 11
97.84153292982308
 21
144.0567921048569
 31
0.0
  0
ARC
  5
8B0
330
2
100
AcDbEntity
  8
0
100
AcDbCircle
 10
98.84153292982308
 20
144.0567921048569
 30
0.0
 40
1.0
100
AcDbArc
 50
180.0
 51
270.0
  0
LINE
  5
8B1
330
2
100
AcDbEntity
  8
0
100
AcDbLine
 10
99.34153292982308
 20
143.0567921048569
 30
0.0
 11
98.84153292982308
 21
143.0567921048569
 31
0.0
  0
LINE
  5
8B2
330
2
100
AcDbEntity
  8
0
100
AcDbLine
 10
99.34153292982308
 20
155.0567921048569
 30
0.0
 11
98.84153292982308
 21
155.0567921048569
 31
0.0
  0
LINE
  5
8B3
330
2
100
AcDbEntity
  8
0
100
AcDbLine
 10
97.84153292982308
 20
154.0567921048569
 30
0.0
 11
97.84153292982308
 21
149.5567921048569
 31
0.0
  0
ARC
  5
8B4
330
2
100
AcDbEntity
  8
0
100
AcDbCircle
 10
98.84153292982308
 20
154.0567921048569
 30
0.0
 40
1.0
100
AcDbArc
 50
90.0
 51
180.0
  0
ARC
  5
8B5
330
2
100
AcDbEntity
  8
0
100
AcDbCircle
 10
108.341412929823
 20
126.2542261048569
 30
0.0
 40
1.0
100
AcDbArc
 50
104.975616
 51
180.0
  0
LINE
  5
8B6
330
2
100
AcDbEntity
  8
0
100
AcDbLine
 10
103.341412929823
 20
105.9917751048569
 30
0.0
 11
107.341412929823
 21
105.9917751048569
 31
0.0
  0
LINE
  5
8B7
330
2
100
AcDbEntity
  8
0
100
AcDbLine
 10
103.341412929823
 20
119.3980781048568
 30
0.0
 11
107.341412929823
 21
119.3980781048568
 31
0.0
  0
LINE
  5
8B8
330
2
100
AcDbEntity
  8
0
100
AcDbLine
 10
103.341412929823
 20
119.3980781048568
 30
0.0
 11
103.341412929823
 21
105.9917751048569
 31
0.0
  0
LINE
  5
8B9
330
2
100
AcDbEntity
  8
0
100
AcDbLine
 10
102.641338929823
 20
112.0567961048569
 30
0.0
 11
102.641338929823
 21
117.5567961048569
 31
0.0
  0
ARC
  5
8BA
330
2
100
AcDbEntity
  8
0
100
AcDbCircle
 10
101.902142929823
 20
116.5567961048569
 30
0.0
 40
1.0
100
AcDbArc
 50
90.0
 51
163.0431059999969
  0
ARC
  5
8BB
330
2
100
AcDbEntity
  8
0
100
AcDbCircle
 10
101.902142929823
 20
113.0567961048569
 30
0.0
 40
1.0
100
AcDbArc
 50
196.9580990000021
 51
270.0
  0
LINE
  5
8BC
330
2
100
AcDbEntity
  8
0
100
AcDbLine
 10
103.341412929823
 20
112.0567961048569
 30
0.0
 11
101.902142929823
 21
112.0567961048569
 31
0.0
  0
LINE
  5
8BD
330
2
100
AcDbEntity
  8
0
100
AcDbLine
 10
103.341412929823
 20
117.5567961048569
 30
0.0
 11
101.902142929823
 21
117.5567961048569
 31
0.0
  0
ARC
  5
8BE
330
2
100
AcDbEntity
  8
0
100
AcDbCircle
 10
107.641338929823
 20
114.8067961048569
 30
0.0
 40
7.0
100
AcDbArc
 50
163.0435029999974
 51
196.9579929999972
  0
ARC
  5
8BF
330
2
100
AcDbEntity
  8
0
100
AcDbCircle
 10
114.841532929823
 20
-92.94318489514301
 30
0.0
 40
250.0
100
AcDbArc
 50
86.66830399999998
 51
93.33169600000003
  0
LINE
  5
8C0
330
2
100
AcDbEntity
  8
0
100
AcDbLine
 10
132.341414929823
 20
128.3057621048569
 30
0.0
 11
118.341414929823
 21
128.3057621048569
 31
0.0
  0
LINE
  5
8C1
330
2
100
AcDbEntity
  8
0
100
AcDbLine
 10
117.841414929823
 20
127.5567921048569
 30
0.0
 11
109.341106929823
 21
127.5567921048569
 31
0.0
  0
LINE
  5
8C2
330
2
100
AcDbEntity
  8
0
100
AcDbLine
 10
106.367588929823
 20
129.5953891048569
 30
0.0
 11
101.789179929823
 21
129.7152781048569
 31
0.0
  0
ARC
  5
8C3
330
2
100
AcDbEntity
  8
0
100
AcDbCircle
 10
102.841532929823
 20
149.2567971048569
 30
0.0
 40
7.0
100
AcDbArc
 50
73.04348799999949
 51
106.9580000000002
  0
ARC
  5
8C4
330
2
100
AcDbEntity
  8
0
100
AcDbCircle
 10
106.341412929823
 20
128.5957331048569
 30
0.0
 40
1.0
100
AcDbArc
 50
0.0
 51
88.50000000000054
  0
LINE
  5
8C5
330
2
100
AcDbEntity
  8
0
100
AcDbLine
 10
108.083004929823
 20
127.2202601048568
 30
0.0
 11
109.341106929823
 21
127.5567921048569
 31
0.0
  0
ARC
  5
8C6
330
2
100
AcDbEntity
  8
0
100
AcDbCircle
 10
104.591532929823
 20
154.9959941048569
 30
0.0
 40
1.0
100
AcDbArc
 50
0.0
 51
73.04309800000145
  0
ARC
  5
8C7
330
2
100
AcDbEntity
  8
0
100
AcDbCircle
 10
106.841291929823
 20
156.4285271048568
 30
0.0
 40
0.5
100
AcDbArc
 50
91.83745599999886
 51
180.0
  0
ARC
  5
8C8
330
2
100
AcDbEntity
  8
0
100
AcDbCircle
 10
105.841291929823
 20
154.0567921048569
 30
0.0
 40
0.5
100
AcDbArc
 50
270.0
 51
0.0
  0
LINE
  5
8C9
330
2
100
AcDbEntity
  8
0
100
AcDbLine
 10
105.591532929823
 20
153.5565941048569
 30
0.0
 11
105.591532929823
 21
154.9959941048569
 31
0.0
  0
LINE
  5
8CA
330
2
100
AcDbEntity
  8
0
100
AcDbLine
 10
106.341291929823
 20
154.0567921048569
 30
0.0
 11
106.341291929823
 21
156.4285271048568
 31
0.0
  0
LINE
  5
8CB
330
2
100
AcDbEntity
  8
0
100
AcDbLine
 10
118.341414929823
 20
128.5567921048569
 30
0.0
 11
116.362410929823
 21
128.5567921048569
 31
0.0
  0
LINE
  5
8CC
330
2
100
AcDbEntity
  8
0
100
AcDbLine
 10
118.341414929823
 20
135.5567921048569
 30
0.0
 11
116.362410929823
 21
135.5567921048569
 31
0.0
  0
ARC
  5
8CD
330
2
100
AcDbEntity
  8
0
100
AcDbCircle
 10
117.341414929823
 20
135.5567921048569
 30
0.0
 40
1.0
100
AcDbArc
 50
0.0
 51
90.0
  0
ARC
  5
8CE
330
2
100
AcDbEntity
  8
0
100
AcDbCircle
 10
117.841414929823
 20
128.0567921048569
 30
0.0
 40
0.5
100
AcDbArc
 50
270.0
 51
0.0
  0
ARC
  5
8CF
330
2
100
AcDbEntity
  8
0
100
AcDbCircle
 10
123.741404929823
 20
132.0567921048569
 30
0.0
 40
8.999999
100
AcDbArc
 50
163.3990020000018
 51
196.6015009999986
  0
LINE
  5
8D0
330
2
100
AcDbEntity
  8
0
100
AcDbLine
 10
117.341414929823
 20
128.5567921048569
 30
0.0
 11
117.341414929823
 21
135.5567921048569
 31
0.0
  0
ARC
  5
8D1
330
2
100
AcDbEntity
  8
0
100
AcDbCircle
 10
116.362410929823
 20
129.8568181048569
 30
0.0
 40
1.3
100
AcDbArc
 50
196.6015929999992
 51
270.0
  0
ARC
  5
8D2
330
2
100
AcDbEntity
  8
0
100
AcDbCircle
 10
116.362410929823
 20
134.2568041048569
 30
0.0
 40
1.3
100
AcDbArc
 50
90.0
 51
163.3990940000022
  0
LINE
  5
8D3
330
2
100
AcDbEntity
  8
0
100
AcDbLine
 10
118.341414929823
 20
128.0567921048569
 30
0.0
 11
118.341414929823
 21
135.5567921048569
 31
0.0
  0
LINE
  5
8D4
330
2
100
AcDbEntity
  8
0
100
AcDbLine
 10
99.84153292982307
 20
131.7145911048568
 30
0.0
 11
99.84153292982307
 21
148.5567921048569
 31
0.0
  0
ARC
  5
8D5
330
2
100
AcDbEntity
  8
0
100
AcDbCircle
 10
100.341532929823
 20
156.1351161048568
 30
0.0
 40
0.5
100
AcDbArc
 50
93.33169600000003
 51
180.0
  0
ARC
  5
8D6
330
2
100
AcDbEntity
  8
0
100
AcDbCircle
 10
100.341291929823
 20
153.0567921048569
 30
0.0
 40
0.5
100
AcDbArc
 50
90.0
 51
180.0
  0
LINE
  5
8D7
330
2
100
AcDbEntity
  8
0
100
AcDbLine
 10
100.341532929823
 20
149.5567921048569
 30
0.0
 11
100.341532929823
 21
148.5567921048569
 31
0.0
  0
LINE
  5
8D8
330
2
100
AcDbEntity
  8
0
100
AcDbLine
 10
99.84153292982307
 20
149.5567921048569
 30
0.0
 11
99.84153292982307
 21
156.1351161048568
 31
0.0
  0
LINE
  5
8D9
330
2
100
AcDbEntity
  8
0
100
AcDbLine
 10
100.091532929823
 20
153.5567921048569
 30
0.0
 11
100.091532929823
 21
154.9959941048569
 31
0.0
  0
LINE
  5
8DA
330
2
100
AcDbEntity
  8
0
100
AcDbLine
 10
99.84153292982307
 20
136.5567921048569
 30
0.0
 11
117.341414929823
 21
136.5567921048569
 31
0.0
  0
LINE
  5
8DB
330
2
100
AcDbEntity
  8
0
100
AcDbLine
 10
105.841291929823
 20
153.5567921048569
 30
0.0
 11
100.341291929823
 21
153.5567921048569
 31
0.0
  0
LINE
  5
8DC
330
2
100
AcDbEntity
  8
0
100
AcDbLine
 10
100.091532929823
 20
154.2567971048569
 30
0.0
 11
105.591532929823
 21
154.2567971048569
 31
0.0
  0
ARC
  5
8DD
330
2
100
AcDbEntity
  8
0
100
AcDbCircle
 10
101.841532929823
 20
131.7145911048568
 30
0.0
 40
2.0
100
AcDbArc
 50
180.0
 51
268.5000000000005
  0
ARC
  5
8DE
330
2
100
AcDbEntity
  8
0
100
AcDbCircle
 10
101.091532929823
 20
154.9959941048569
 30
0.0
 40
1.0
100
AcDbArc
 50
106.9581989999994
 51
180.0
  0
LINE
  5
8DF
330
2
100
AcDbEntity
  8
0
100
AcDbLine
 10
129.841532929823
 20
137.0964041048569
 30
0.0
 11
129.841532929823
 21
148.5567921048569
 31
0.0
  0
LINE
  5
8E0
330
2
100
AcDbEntity
  8
0
100
AcDbLine
 10
131.841532929823
 20
148.5567921048569
 30
0.0
 11
131.841532929823
 21
144.0567921048569
 31
0.0
  0
LINE
  5
8E1
330
2
100
AcDbEntity
  8
0
100
AcDbLine
 10
130.815203929823
 20
136.0967781048569
 30
0.0
 11
132.341414929823
 21
136.0567921048569
 31
0.0
  0
ARC
  5
8E2
330
2
100
AcDbEntity
  8
0
100
AcDbCircle
 10
130.841414929823
 20
137.0964041048569
 30
0.0
 40
1.0
100
AcDbArc
 50
180.0
 51
268.4999080000003
  0
ARC
  5
8E3
330
2
100
AcDbEntity
  8
0
100
AcDbCircle
 10
130.341532929823
 20
142.5567921048569
 30
0.0
 40
0.5
100
AcDbArc
 50
90.0
 51
180.0
  0
ARC
  5
8E4
330
2
100
AcDbEntity
  8
0
100
AcDbCircle
 10
130.841532929823
 20
144.0567921048569
 30
0.0
 40
1.0
100
AcDbArc
 50
270.0
 51
0.0
  0
LINE
  5
8E5
330
2
100
AcDbEntity
  8
0
100
AcDbLine
 10
130.341532929823
 20
143.0567921048569
 30
0.0
 11
130.841532929823
 21
143.0567921048569
 31
0.0
  0
LINE
  5
8E6
330
2
100
AcDbEntity
  8
0
100
AcDbLine
 10
124.091532929823
 20
154.2567971048569
 30
0.0
 11
129.591532929823
 21
154.2567971048569
 31
0.0
  0
ARC
  5
8E7
330
2
100
AcDbEntity
  8
0
100
AcDbCircle
 10
126.841532929823
 20
149.2567971048569
 30
0.0
 40
7.0
100
AcDbArc
 50
73.04348799999949
 51
106.9580000000002
  0
ARC
  5
8E8
330
2
100
AcDbEntity
  8
0
100
AcDbCircle
 10
125.091532929823
 20
154.9959941048569
 30
0.0
 40
1.0
100
AcDbArc
 50
106.9581989999994
 51
180.0
  0
ARC
  5
8E9
330
2
100
AcDbEntity
  8
0
100
AcDbCircle
 10
122.841532929823
 20
156.4285271048568
 30
0.0
 40
0.5
100
AcDbArc
 50
0.0
 51
88.16254400000113
  0
ARC
  5
8EA
330
2
100
AcDbEntity
  8
0
100
AcDbCircle
 10
128.591532929823
 20
154.9959941048569
 30
0.0
 40
1.0
100
AcDbArc
 50
0.0
 51
73.04309800000145
  0
ARC
  5
8EB
330
2
100
AcDbEntity
  8
0
100
AcDbCircle
 10
129.341532929823
 20
156.1351161048568
 30
0.0
 40
0.5
100
AcDbArc
 50
0.0
 51
86.66830399999998
  0
ARC
  5
8EC
330
2
100
AcDbEntity
  8
0
100
AcDbCircle
 10
130.341532929823
 20
155.5567921048569
 30
0.0
 40
0.5
100
AcDbArc
 50
180.0
 51
270.0
  0
LINE
  5
8ED
330
2
100
AcDbEntity
  8
0
100
AcDbLine
 10
130.341532929823
 20
155.0567921048569
 30
0.0
 11
130.841532929823
 21
155.0567921048569
 31
0.0
  0
LINE
  5
8EE
330
2
100
AcDbEntity
  8
0
100
AcDbLine
 10
123.841532929823
 20
153.5567921048569
 30
0.0
 11
129.341532929823
 21
153.5567921048569
 31
0.0
  0
ARC
  5
8EF
330
2
100
AcDbEntity
  8
0
100
AcDbCircle
 10
123.841532929823
 20
154.0567921048569
 30
0.0
 40
0.5
100
AcDbArc
 50
180.0
 51
270.0
  0
ARC
  5
8F0
330
2
100
AcDbEntity
  8
0
100
AcDbCircle
 10
129.341532929823
 20
153.0567921048569
 30
0.0
 40
0.5
100
AcDbArc
 50
0.0
 51
90.0
  0
LINE
  5
8F1
330
2
100
AcDbEntity
  8
0
100
AcDbLine
 10
131.841532929823
 20
154.0567921048569
 30
0.0
 11
131.841532929823
 21
149.5567921048569
 31
0.0
  0
LINE
  5
8F2
330
2
100
AcDbEntity
  8
0
100
AcDbLine
 10
131.341532929823
 20
149.5567921048569
 30
0.0
 11
131.341532929823
 21
148.5567921048569
 31
0.0
  0
LINE
  5
8F3
330
2
100
AcDbEntity
  8
0
100
AcDbLine
 10
129.841532929823
 20
149.5567921048569
 30
0.0
 11
129.841532929823
 21
156.1351161048568
 31
0.0
  0
LINE
  5
8F4
330
2
100
AcDbEntity
  8
0
100
AcDbLine
 10
124.091532929823
 20
153.5567921048569
 30
0.0
 11
124.091532929823
 21
154.9959941048569
 31
0.0
  0
LINE
  5
8F5
330
2
100
AcDbEntity
  8
0
100
AcDbLine
 10
123.341532929823
 20
154.0567921048569
 30
0.0
 11
123.341532929823
 21
156.4285271048568
 31
0.0
  0
ARC
  5
8F6
330
2
100
AcDbEntity
  8
0
100
AcDbCircle
 10
130.841532929823
 20
154.0567921048569
 30
0.0
 40
1.0
100
AcDbArc
 50
0.0
 51
90.0
  0
LINE
  5
8F7
330
2
100
AcDbEntity
  8
0
100
AcDbLine
 10
129.591532929823
 20
153.5565941048569
 30
0.0
 11
129.591532929823
 21
154.9959941048569
 31
0.0
  0
ARC
  5
8F8
330
2
100
AcDbEntity
  8
0
100
AcDbCircle
 10
209.8414369298231
 20
131.0574181048569
 30
0.0
 40
5.0
100
AcDbArc
 50
125.0623020000017
 51
180.0
  0
LINE
  5
8FB
330
2
100
AcDbEntity
  8
CENTER
100
AcDbLine
 10
247.341406929823
 20
159.9567941048569
 30
0.0
 11
247.341406929823
 21
48.35679510485687
 31
0.0
  0
LINE
  5
8FC
330
2
100
AcDbEntity
  8
0
100
AcDbLine
 10
287.341406929823
 20
121.7181921048568
 30
0.0
 11
287.341406929823
 21
92.99565810485688
 31
0.0
  0
LINE
  5
8FD
330
2
100
AcDbEntity
  8
0
100
AcDbLine
 10
289.841406929823
 20
131.0573721048569
 30
0.0
 11
289.841406929823
 21
55.35679510485687
 31
0.0
  0
LINE
  5
900
330
2
100
AcDbEntity
  8
0
100
AcDbLine
 10
234.591406929823
 20
85.59765510485688
 30
0.0
 11
235.821219929823
 21
84.35679510485687
 31
0.0
  0
LINE
  5
901
330
2
100
AcDbEntity
  8
0
100
AcDbLine
 10
235.7488169298231
 20
93.91929510485686
 30
0.0
 11
234.591406929823
 21
92.43729710485689
 31
0.0
  0
LINE
  5
902
330
2
100
AcDbEntity
  8
0
100
AcDbLine
 10
234.591406929823
 20
92.43729710485689
 30
0.0
 11
234.591406929823
 21
85.59765510485688
 31
0.0
  0
LINE
  5
903
330
2
100
AcDbEntity
  8
0
100
AcDbLine
 10
235.821219929823
 20
84.35679510485687
 30
0.0
 11
239.136511929823
 21
84.35679510485687
 31
0.0
  0
LINE
  5
904
330
2
100
AcDbEntity
  8
0
100
AcDbLine
 10
235.7488169298231
 20
93.91929510485686
 30
0.0
 11
240.035406929823
 21
93.91929510485686
 31
0.0
  0
LINE
  5
905
330
2
100
AcDbEntity
  8
0
100
AcDbLine
 10
235.6622079298229
 20
86.24771410485692
 30
0.0
 11
236.393515929823
 21
85.47739510485696
 31
0.0
  0
LINE
  5
906
330
2
100
AcDbEntity
  8
0
100
AcDbLine
 10
236.382010929823
 20
92.64927610485694
 30
0.0
 11
235.6622079298229
 21
91.7567741048569
 31
0.0
  0
LINE
  5
907
330
2
100
AcDbEntity
  8
0
100
AcDbLine
 10
235.6622079298229
 20
91.7567741048569
 30
0.0
 11
235.6622079298229
 21
86.24771410485692
 31
0.0
  0
LINE
  5
908
330
2
100
AcDbEntity
  8
0
100
AcDbLine
 10
238.376608929823
 20
89.91001810485688
 30
0.0
 11
240.966406929823
 21
89.91001810485688
 31
0.0
  0
ARC
  5
909
330
2
100
AcDbEntity
  8
0
100
AcDbCircle
 10
238.052816929823
 20
87.46958410485689
 30
0.0
 40
1.992186999999999
100
AcDbArc
 50
270.0002140000007
 51
0.0001090000031536
  0
LINE
  5
90A
330
2
100
AcDbEntity
  8
0
100
AcDbLine
 10
240.045019929823
 20
88.8641201048569
 30
0.0
 11
238.376608929823
 21
88.8641201048569
 31
0.0
  0
LINE
  5
90B
330
2
100
AcDbEntity
  8
0
100
AcDbLine
 10
239.453909929823
 20
92.64927610485694
 30
0.0
 11
236.382010929823
 21
92.64927610485694
 31
0.0
  0
LINE
  5
90C
330
2
100
AcDbEntity
  8
0
100
AcDbLine
 10
238.376608929823
 20
89.91001810485688
 30
0.0
 11
238.376608929823
 21
88.8641201048569
 31
0.0
  0
LINE
  5
90D
330
2
100
AcDbEntity
  8
0
100
AcDbLine
 10
238.052816929823
 20
85.47739510485696
 30
0.0
 11
236.393515929823
 21
85.47739510485696
 31
0.0
  0
LINE
  5
90E
330
2
100
AcDbEntity
  8
0
100
AcDbLine
 10
240.045019929823
 20
84.35679510485687
 30
0.0
 11
240.966406929823
 21
84.35679510485687
 31
0.0
  0
LINE
  5
90F
330
2
100
AcDbEntity
  8
0
100
AcDbLine
 10
240.045019929823
 20
85.11905610485696
 30
0.0
 11
239.136511929823
 21
84.35679510485687
 31
0.0
  0
LINE
  5
910
330
2
100
AcDbEntity
  8
0
100
AcDbLine
 10
240.045019929823
 20
88.8641201048569
 30
0.0
 11
240.045019929823
 21
87.46958410485689
 31
0.0
  0
LINE
  5
911
330
2
100
AcDbEntity
  8
0
100
AcDbLine
 10
240.045019929823
 20
85.11905610485696
 30
0.0
 11
240.045019929823
 21
84.35679510485687
 31
0.0
  0
LINE
  5
912
330
2
100
AcDbEntity
  8
0
100
AcDbLine
 10
240.045019929823
 20
87.86802610485693
 30
0.0
 11
240.045019929823
 21
88.66490110485694
 31
0.0
  0
LINE
  5
913
330
2
100
AcDbEntity
  8
0
100
AcDbLine
 10
240.966406929823
 20
89.91001810485688
 30
0.0
 11
240.966406929823
 21
84.35679510485687
 31
0.0
  0
LINE
  5
914
330
2
100
AcDbEntity
  8
0
100
AcDbLine
 10
240.045019929823
 20
91.92710810485692
 30
0.0
 11
240.966406929823
 21
91.92710810485692
 31
0.0
  0
LINE
  5
915
330
2
100
AcDbEntity
  8
0
100
AcDbLine
 10
240.035406929823
 20
93.91929510485686
 30
0.0
 11
240.966406929823
 21
92.88615310485687
 31
0.0
  0
LINE
  5
916
330
2
100
AcDbEntity
  8
0
100
AcDbLine
 10
240.045019929823
 20
92.07783010485689
 30
0.0
 11
240.045019929823
 21
91.92710810485692
 31
0.0
  0
LINE
  5
917
330
2
100
AcDbEntity
  8
0
100
AcDbLine
 10
240.045019929823
 20
92.07783010485689
 30
0.0
 11
239.441809929823
 21
92.64927610485694
 31
0.0
  0
LINE
  5
918
330
2
100
AcDbEntity
  8
0
100
AcDbLine
 10
240.966406929823
 20
92.88615310485687
 30
0.0
 11
240.966406929823
 21
91.92710810485692
 31
0.0
  0
LINE
  5
919
330
2
100
AcDbEntity
  8
0
100
AcDbLine
 10
249.863913929823
 20
91.92710810485692
 30
0.0
 11
250.528906929823
 21
91.92710810485692
 31
0.0
  0
LINE
  5
91A
330
2
100
AcDbEntity
  8
0
100
AcDbLine
 10
247.914206929823
 20
92.74888510485693
 30
0.0
 11
249.5752169298231
 21
92.74888510485693
 31
0.0
  0
LINE
  5
91B
330
2
100
AcDbEntity
  8
0
100
AcDbLine
 10
247.914206929823
 20
92.74888510485693
 30
0.0
 11
247.914206929823
 21
85.40269610485694
 31
0.0
  0
LINE
  5
91C
330
2
100
AcDbEntity
  8
0
100
AcDbLine
 10
246.7188179298231
 20
92.74888510485693
 30
0.0
 11
246.7188179298231
 21
85.40269610485694
 31
0.0
  0
LINE
  5
91D
330
2
100
AcDbEntity
  8
0
100
AcDbLine
 10
246.245718929823
 20
84.35679510485687
 30
0.0
 11
248.3126139298231
 21
84.35679510485687
 31
0.0
  0
LINE
  5
91E
330
2
100
AcDbEntity
  8
0
100
AcDbLine
 10
246.245718929823
 20
85.40269610485694
 30
0.0
 11
246.7188179298231
 21
85.40269610485694
 31
0.0
  0
LINE
  5
91F
330
2
100
AcDbEntity
  8
0
100
AcDbLine
 10
246.245718929823
 20
85.40269610485694
 30
0.0
 11
246.245718929823
 21
84.35679510485687
 31
0.0
  0
LINE
  5
920
330
2
100
AcDbEntity
  8
0
100
AcDbLine
 10
248.3126139298231
 20
85.40269610485694
 30
0.0
 11
248.3126139298231
 21
84.35679510485687
 31
0.0
  0
LINE
  5
921
330
2
100
AcDbEntity
  8
0
100
AcDbLine
 10
247.914206929823
 20
85.40269610485694
 30
0.0
 11
248.3126139298231
 21
85.40269610485694
 31
0.0
  0
LINE
  5
922
330
2
100
AcDbEntity
  8
0
100
AcDbLine
 10
246.7188179298231
 20
92.74888510485693
 30
0.0
 11
245.203909929823
 21
92.74888510485693
 31
0.0
  0
LINE
  5
923
330
2
100
AcDbEntity
  8
0
100
AcDbLine
 10
249.5752169298231
 20
92.74888510485693
 30
0.0
 11
249.863913929823
 21
91.92710810485692
 31
0.0
  0
LINE
  5
924
330
2
100
AcDbEntity
  8
0
100
AcDbLine
 10
250.528906929823
 20
91.92710810485692
 30
0.0
 11
250.528906929823
 21
93.91929510485686
 31
0.0
  0
LINE
  5
925
330
2
100
AcDbEntity
  8
0
100
AcDbLine
 10
255.7210149298231
 20
84.35679510485687
 30
0.0
 11
253.716406929823
 21
84.35679510485687
 31
0.0
  0
LINE
  5
926
330
2
100
AcDbEntity
  8
0
100
AcDbLine
 10
253.716406929823
 20
93.91929510485686
 30
0.0
 11
257.5389169298231
 21
93.91929510485686
 31
0.0
  0
LINE
  5
927
330
2
100
AcDbEntity
  8
0
100
AcDbLine
 10
254.189505929823
 20
92.74888510485693
 30
0.0
 11
254.189505929823
 21
85.35288510485697
 31
0.0
  0
LINE
  5
928
330
2
100
AcDbEntity
  8
0
100
AcDbLine
 10
253.716406929823
 20
85.35288510485697
 30
0.0
 11
253.716406929823
 21
84.35679510485687
 31
0.0
  0
LINE
  5
929
330
2
100
AcDbEntity
  8
0
100
AcDbLine
 10
253.716406929823
 20
85.35288510485697
 30
0.0
 11
254.189505929823
 21
85.35288510485697
 31
0.0
  0
LINE
  5
92A
330
2
100
AcDbEntity
  8
0
100
AcDbLine
 10
253.716406929823
 20
92.74888510485693
 30
0.0
 11
254.189505929823
 21
92.74888510485693
 31
0.0
  0
LINE
  5
92B
330
2
100
AcDbEntity
  8
0
100
AcDbLine
 10
253.716406929823
 20
93.91929510485686
 30
0.0
 11
253.716406929823
 21
92.74888510485693
 31
0.0
  0
ARC
  5
92C
330
2
100
AcDbEntity
  8
0
100
AcDbCircle
 10
257.5389169298231
 20
91.36680510485694
 30
0.0
 40
2.55249
100
AcDbArc
 50
286.0181270000005
 51
90.00351000000046
  0
ARC
  5
92D
330
2
100
AcDbEntity
  8
0
100
AcDbCircle
 10
257.5389169298231
 20
91.36680510485694
 30
0.0
 40
1.557193
100
AcDbArc
 50
277.4147260000004
 51
62.41184999999696
  0
LINE
  5
92E
330
2
100
AcDbEntity
  8
0
100
AcDbLine
 10
255.285208929823
 20
92.74888510485693
 30
0.0
 11
255.285208929823
 21
89.82263110485694
 31
0.0
  0
LINE
  5
92F
330
2
100
AcDbEntity
  8
0
100
AcDbLine
 10
258.622213929823
 20
84.35679510485687
 30
0.0
 11
260.091406929823
 21
84.35679510485687
 31
0.0
  0
LINE
  5
930
330
2
100
AcDbEntity
  8
0
100
AcDbLine
 10
258.2432169298229
 20
88.91341710485693
 30
0.0
 11
259.8231119298231
 21
85.35288510485697
 31
0.0
  0
LINE
  5
931
330
2
100
AcDbEntity
  8
0
100
AcDbLine
 10
255.285208929823
 20
88.82676610485697
 30
0.0
 11
257.325705929823
 21
88.82676610485697
 31
0.0
  0
LINE
  5
932
330
2
100
AcDbEntity
  8
0
100
AcDbLine
 10
255.7210149298231
 20
85.35288510485697
 30
0.0
 11
255.7210149298231
 21
84.35679510485687
 31
0.0
  0
LINE
  5
933
330
2
100
AcDbEntity
  8
0
100
AcDbLine
 10
258.622213929823
 20
85.35288510485697
 30
0.0
 11
258.622213929823
 21
84.35679510485687
 31
0.0
  0
LINE
  5
934
330
2
100
AcDbEntity
  8
0
100
AcDbLine
 10
258.622213929823
 20
85.35288510485697
 30
0.0
 11
258.8207159298229
 21
85.35288510485697
 31
0.0
  0
LINE
  5
935
330
2
100
AcDbEntity
  8
0
100
AcDbLine
 10
255.285208929823
 20
85.35288510485697
 30
0.0
 11
255.7210149298231
 21
85.35288510485697
 31
0.0
  0
LINE
  5
936
330
2
100
AcDbEntity
  8
0
100
AcDbLine
 10
257.325705929823
 20
88.82676610485697
 30
0.0
 11
258.8207159298229
 21
85.35288510485697
 31
0.0
  0
LINE
  5
937
330
2
100
AcDbEntity
  8
0
100
AcDbLine
 10
255.285208929823
 20
88.82676610485697
 30
0.0
 11
255.285208929823
 21
85.35288510485697
 31
0.0
  0
LINE
  5
938
330
2
100
AcDbEntity
  8
0
100
AcDbLine
 10
260.091406929823
 20
85.35288510485697
 30
0.0
 11
260.091406929823
 21
84.35679510485687
 31
0.0
  0
LINE
  5
939
330
2
100
AcDbEntity
  8
0
100
AcDbLine
 10
259.8231119298231
 20
85.35288510485697
 30
0.0
 11
260.091406929823
 21
85.35288510485697
 31
0.0
  0
LINE
  5
93A
330
2
100
AcDbEntity
  8
0
100
AcDbLine
 10
255.285208929823
 20
89.82263110485694
 30
0.0
 11
257.739904929823
 21
89.82263110485694
 31
0.0
  0
LINE
  5
93B
330
2
100
AcDbEntity
  8
0
100
AcDbLine
 10
255.285208929823
 20
92.74888510485693
 30
0.0
 11
258.260107929823
 21
92.74694710485693
 31
0.0
  0
LINE
  5
93C
330
2
100
AcDbEntity
  8
0
100
AcDbLine
 10
244.153906929823
 20
91.92710810485692
 30
0.0
 11
244.8615179298231
 21
91.92710810485692
 31
0.0
  0
LINE
  5
93D
330
2
100
AcDbEntity
  8
0
100
AcDbLine
 10
244.153906929823
 20
91.92710810485692
 30
0.0
 11
244.153906929823
 21
93.91929510485686
 31
0.0
  0
LINE
  5
93E
330
2
100
AcDbEntity
  8
0
100
AcDbLine
 10
244.153906929823
 20
93.91929510485686
 30
0.0
 11
250.528906929823
 21
93.91929510485686
 31
0.0
  0
LINE
  5
93F
330
2
100
AcDbEntity
  8
0
100
AcDbLine
 10
245.203909929823
 20
92.74888510485693
 30
0.0
 11
244.8615179298231
 21
91.92710810485692
 31
0.0
  0
LINE
  5
940
330
2
100
AcDbEntity
  8
CENTER
100
AcDbLine
 10
281.3414069298229
 20
66.85679510485687
 30
0.0
 11
281.341406929823
 21
51.85679510485687
 31
0.0
  0
LINE
  5
941
330
2
100
AcDbEntity
  8
HIDS
  6
SEKKEI_H
100
AcDbLine
 10
278.091406929823
 20
63.35679510485687
 30
0.0
 11
278.091406929823
 21
55.35679510485687
 31
0.0
  0
LINE
  5
942
330
2
100
AcDbEntity
  8
HIDS
  6
SEKKEI_H
100
AcDbLine
 10
284.591406929823
 20
63.35679510485687
 30
0.0
 11
284.591406929823
 21
55.35679510485687
 31
0.0
  0
ARC
  5
943
330
2
100
AcDbEntity
  8
0
100
AcDbCircle
 10
287.841406929823
 20
61.35678510485689
 30
0.0
 40
2.0
100
AcDbArc
 50
0.0
 51
90.0
  0
LINE
  5
945
330
2
100
AcDbEntity
  8
HIDS
  6
SEKKEI_H
100
AcDbLine
 10
387.0519450959474
 20
63.35679510485687
 30
0.0
 11
387.0519450959474
 21
55.35679510485687
 31
0.0
  0
LINE
  5
946
330
2
100
AcDbEntity
  8
0
100
AcDbLine
 10
383.3019450959474
 20
61.35679510485687
 30
0.0
 11
383.3019450959474
 21
55.35679510485687
 31
0.0
  0
ARC
  5
947
330
2
100
AcDbEntity
  8
0
100
AcDbCircle
 10
385.3019450959474
 20
61.35680510485696
 30
0.0
 40
2.0
100
AcDbArc
 50
90.0
 51
180.0
  0
CIRCLE
  5
94B
330
2
100
AcDbEntity
  8
0
100
AcDbCircle
 10
247.341406929823
 20
120.3567951048569
 30
0.0
 40
20.0
  0
LINE
  5
94C
330
2
100
AcDbEntity
  8
0
100
AcDbLine
 10
287.713705929823
 20
135.1500541048568
 30
0.0
 11
263.634207929823
 21
152.0494531048569
 31
0.0
  0
ARC
  5
94D
330
2
100
AcDbEntity
  8
0
100
AcDbCircle
 10
247.341406929823
 20
120.3567951048569
 30
0.0
 40
7.5
100
AcDbArc
 50
19.47120999999928
 51
340.5288089999991
  0
LINE
  5
94E
330
2
100
AcDbEntity
  8
0
100
AcDbLine
 10
251.841406929823
 20
117.8567951048569
 30
0.0
 11
251.841406929823
 21
122.8567951048569
 31
0.0
  0
LINE
  5
94F
330
2
100
AcDbEntity
  8
0
100
AcDbLine
 10
256.841406929823
 20
122.8567951048569
 30
0.0
 11
256.841406929823
 21
117.8567951048569
 31
0.0
  0
LINE
  5
950
330
2
100
AcDbEntity
  8
0
100
AcDbLine
 10
251.841406929823
 20
117.8567951048569
 30
0.0
 11
256.841406929823
 21
117.8567951048569
 31
0.0
  0
LINE
  5
951
330
2
100
AcDbEntity
  8
0
100
AcDbLine
 10
251.841406929823
 20
122.8567951048569
 30
0.0
 11
256.841406929823
 21
122.8567951048569
 31
0.0
  0
LINE
  5
952
330
2
100
AcDbEntity
  8
0
100
AcDbLine
 10
233.920919929823
 20
152.9567941048568
 30
0.0
 11
260.7619089298231
 21
152.9567941048568
 31
0.0
  0
ARC
  5
953
330
2
100
AcDbEntity
  8
0
100
AcDbCircle
 10
233.920919929823
 20
147.9568011048568
 30
0.0
 40
5.0
100
AcDbArc
 50
90.0
 51
125.0622019999994
  0
ARC
  5
954
330
2
100
AcDbEntity
  8
0
100
AcDbCircle
 10
260.762014929823
 20
147.9567861048569
 30
0.0
 40
5.0
100
AcDbArc
 50
54.93843100000127
 51
90.0
  0
ARC
  5
955
330
2
100
AcDbEntity
  8
0
100
AcDbCircle
 10
284.841406929823
 20
131.0573721048569
 30
0.0
 40
5.0
100
AcDbArc
 50
0.0
 51
54.93836999999661
  0
LINE
  5
957
330
2
100
AcDbEntity
  8
0
100
AcDbLine
 10
366.3019450959474
 20
127.8567951048569
 30
0.0
 11
366.3019450959474
 21
112.8567951048569
 31
0.0
  0
LINE
  5
959
330
2
100
AcDbEntity
  8
0
100
AcDbLine
 10
366.3019450959474
 20
122.8567951048569
 30
0.0
 11
387.8019450959474
 21
122.8567951048569
 31
0.0
  0
LINE
  5
95A
330
2
100
AcDbEntity
  8
0
100
AcDbLine
 10
366.3019450959474
 20
117.8567951048569
 30
0.0
 11
387.8019450959474
 21
117.8567951048569
 31
0.0
  0
LINE
  5
95B
330
2
100
AcDbEntity
  8
0
100
AcDbLine
 10
387.8019450959474
 20
122.8567951048569
 30
0.0
 11
387.8019450959474
 21
117.8567951048569
 31
0.0
  0
LINE
  5
95D
330
2
100
AcDbEntity
  8
0
100
AcDbLine
 10
461.3019450959474
 20
66.35679510485687
 30
0.0
 11
461.3019450959474
 21
150.4503091048569
 31
0.0
  0
ARC
  5
95E
330
2
100
AcDbEntity
  8
0
100
AcDbCircle
 10
430.3019450959474
 20
98.05679610485691
 30
0.0
 40
38.0
100
AcDbArc
 50
324.6655009999989
 51
21.29426200000361
  0
LINE
  5
95F
330
2
100
AcDbEntity
  8
CENTER
100
AcDbLine
 10
430.3019450959474
 20
48.35679510485687
 30
0.0
 11
430.3019450959474
 21
164.0568151048569
 31
0.0
  0
LINE
  5
960
330
2
100
AcDbEntity
  8
0
100
AcDbLine
 10
399.3019450959474
 20
66.35679510485687
 30
0.0
 11
399.3019450959474
 21
150.4501941048569
 31
0.0
  0
ARC
  5
961
330
2
100
AcDbEntity
  8
0
100
AcDbCircle
 10
430.3019450959474
 20
98.05679610485691
 30
0.0
 40
38.0
100
AcDbArc
 50
158.7057339999987
 51
215.3345029999985
  0
LINE
  5
962
330
2
100
AcDbEntity
  8
0
100
AcDbLine
 10
464.3019450959473
 20
63.35679510485687
 30
0.0
 11
475.3019450959474
 21
63.35679510485687
 31
0.0
  0
LINE
  5
963
330
2
100
AcDbEntity
  8
HIDS
100
AcDbLine
 10
409.3019450959474
 20
60.05679610485691
 30
0.0
 11
451.3019450959474
 21
60.05679610485691
 31
0.0
  0
ARC
  5
965
330
2
100
AcDbEntity
  8
0
100
AcDbCircle
 10
396.3019450959474
 20
66.35678510485689
 30
0.0
 40
3.0
100
AcDbArc
 50
270.0
 51
0.0
  0
LINE
  5
966
330
2
100
AcDbEntity
  8
HIDS
100
AcDbLine
 10
407.3019450959474
 20
62.05679610485692
 30
0.0
 11
407.3019450959474
 21
66.35506010485693
 31
0.0
  0
LINE
  5
967
330
2
100
AcDbEntity
  8
CENTER
100
AcDbLine
 10
390.3019450959474
 20
66.85679510485687
 30
0.0
 11
390.3019450959474
 21
51.85679510485687
 31
0.0
  0
ARC
  5
968
330
2
100
AcDbEntity
  8
HIDS
100
AcDbCircle
 10
409.3019450959474
 20
62.05679610485692
 30
0.0
 40
2.0
100
AcDbArc
 50
199.2166899999979
 51
270.0
  0
LINE
  5
969
330
2
100
AcDbEntity
  8
HIDS
  6
SEKKEI_H
100
AcDbLine
 10
393.5519450959474
 20
63.35679510485687
 30
0.0
 11
393.5519450959474
 21
55.35679510485687
 31
0.0
  0
ARC
  5
96A
330
2
100
AcDbEntity
  8
HIDS
100
AcDbCircle
 10
409.3019450959474
 20
62.05679610485692
 30
0.0
 40
2.0
100
AcDbArc
 50
180.0
 51
199.2166899999979
  0
ARC
  5
96B
330
2
100
AcDbEntity
  8
HIDS
100
AcDbCircle
 10
430.3019450959474
 20
98.05679610485691
 30
0.0
 40
38.0
100
AcDbArc
 50
215.3345029999985
 51
230.643295000001
  0
ARC
  5
96C
330
2
100
AcDbEntity
  8
HIDS
100
AcDbCircle
 10
404.3019450959474
 20
66.35506010485693
 30
0.0
 40
3.0
100
AcDbArc
 50
0.0
 51
50.643298999998
  0
LINE
  5
96D
330
2
100
AcDbEntity
  8
CENTER
100
AcDbLine
 10
470.3019450959474
 20
66.85679510485687
 30
0.0
 11
470.3019450959474
 21
51.85679510485687
 31
0.0
  0
LINE
  5
96E
330
2
100
AcDbEntity
  8
HIDS
100
AcDbLine
 10
453.3019450959474
 20
62.19966510485694
 30
0.0
 11
453.3019450959474
 21
66.35506010485693
 31
0.0
  0
ARC
  5
96F
330
2
100
AcDbEntity
  8
0
100
AcDbCircle
 10
464.3019450959473
 20
66.35679510485687
 30
0.0
 40
3.0
100
AcDbArc
 50
180.0
 51
270.0
  0
LINE
  5
970
330
2
100
AcDbEntity
  8
HIDS
  6
SEKKEI_H
100
AcDbLine
 10
467.0519450959473
 20
63.35679510485687
 30
0.0
 11
467.0519450959473
 21
55.35679510485687
 31
0.0
  0
ARC
  5
971
330
2
100
AcDbEntity
  8
HIDS
100
AcDbCircle
 10
451.3019450959474
 20
62.05679610485692
 30
0.0
 40
2.0
100
AcDbArc
 50
270.0
 51
0.0
  0
ARC
  5
972
330
2
100
AcDbEntity
  8
HIDS
100
AcDbCircle
 10
430.3019450959474
 20
98.05679610485691
 30
0.0
 40
38.0
100
AcDbArc
 50
309.3567010000019
 51
324.6654970000014
  0
ARC
  5
973
330
2
100
AcDbEntity
  8
HIDS
100
AcDbCircle
 10
456.3019450959473
 20
66.35506010485693
 30
0.0
 40
3.0
100
AcDbArc
 50
129.3567049999989
 51
180.0
  0
ARC
  5
974
330
2
100
AcDbEntity
  8
0
100
AcDbCircle
 10
475.3019450959474
 20
61.35678510485689
 30
0.0
 40
2.0
100
AcDbArc
 50
0.0
 51
90.0
  0
LINE
  5
975
330
2
100
AcDbEntity
  8
0
100
AcDbLine
 10
477.3019450959473
 20
61.35679510485687
 30
0.0
 11
477.3019450959473
 21
55.35679510485687
 31
0.0
  0
LINE
  5
976
330
2
100
AcDbEntity
  8
HIDS
  6
SEKKEI_H
100
AcDbLine
 10
473.5519450959474
 20
63.35679510485687
 30
0.0
 11
473.5519450959474
 21
55.35679510485687
 31
0.0
  0
LINE
  5
978
330
2
100
AcDbEntity
  8
HIDS
100
AcDbLine
 10
409.2670330959475
 20
135.6896351048568
 30
0.0
 11
430.3019450959474
 21
136.0567851048569
 31
0.0
  0
LINE
  5
979
330
2
100
AcDbEntity
  8
0
100
AcDbLine
 10
401.2670330959475
 20
152.4500041048568
 30
0.0
 11
430.3019450959474
 21
152.9568011048568
 31
0.0
  0
ARC
  5
97A
330
2
100
AcDbEntity
  8
0
100
AcDbCircle
 10
430.3019450959474
 20
-92.94318489514301
 30
0.0
 40
250.0
100
AcDbArc
 50
84.82601899999895
 51
95.17398100000105
  0
LINE
  5
97B
330
2
100
AcDbEntity
  8
0
100
AcDbLine
 10
400.9756510959475
 20
133.6568061048569
 30
0.0
 11
459.6943400959474
 21
133.6568061048569
 31
0.0
  0
ARC
  5
97C
330
2
100
AcDbEntity
  8
0
100
AcDbCircle
 10
430.3019450959474
 20
149.0567921048569
 30
0.0
 40
6.0
100
AcDbArc
 50
39.53427499999932
 51
140.465729000002
  0
ARC
  5
97D
330
2
100
AcDbEntity
  8
HIDS
100
AcDbCircle
 10
430.3019450959474
 20
98.05679610485691
 30
0.0
 40
38.0
100
AcDbArc
 50
129.3567049999989
 51
158.7057339999987
  0
LINE
  5
97E
330
2
100
AcDbEntity
  8
0
100
AcDbLine
 10
393.3019450959474
 20
128.8567951048569
 30
0.0
 11
393.3019450959474
 21
111.8567951048568
 31
0.0
  0
LINE
  5
97F
330
2
100
AcDbEntity
  8
0
100
AcDbLine
 10
395.3019450959473
 20
101.3567951048568
 30
0.0
 11
395.3019450959473
 21
139.3567951048569
 31
0.0
  0
LINE
  5
980
330
2
100
AcDbEntity
  8
0
100
AcDbLine
 10
396.3019450959474
 20
100.3567951048568
 30
0.0
 11
397.3019450959472
 21
100.3567951048568
 31
0.0
  0
LINE
  5
981
330
2
100
AcDbEntity
  8
0
100
AcDbLine
 10
393.3019450959474
 20
111.8567951048568
 30
0.0
 11
395.3019450959473
 21
111.8567951048568
 31
0.0
  0
ARC
  5
982
330
2
100
AcDbEntity
  8
0
100
AcDbCircle
 10
396.3019450959474
 20
101.3567911048568
 30
0.0
 40
1.0
100
AcDbArc
 50
180.0
 51
270.0
  0
ARC
  5
983
330
2
100
AcDbEntity
  8
0
100
AcDbCircle
 10
410.3019450959473
 20
149.2567971048569
 30
0.0
 40
7.0
100
AcDbArc
 50
73.04350300000075
 51
106.9580230000013
  0
LINE
  5
984
330
2
100
AcDbEntity
  8
0
100
AcDbLine
 10
407.5519450959474
 20
154.2567971048569
 30
0.0
 11
413.0519450959473
 21
154.2567971048569
 31
0.0
  0
ARC
  5
985
330
2
100
AcDbEntity
  8
HIDS
100
AcDbCircle
 10
409.3019450959474
 20
133.6899251048569
 30
0.0
 40
2.0
100
AcDbArc
 50
90.9998629999991
 51
180.0
  0
LINE
  5
986
330
2
100
AcDbEntity
  8
0
100
AcDbLine
 10
407.5519450959474
 20
153.5567921048569
 30
0.0
 11
413.3019450959474
 21
153.5567921048569
 31
0.0
  0
ARC
  5
987
330
2
100
AcDbEntity
  8
0
100
AcDbCircle
 10
401.3019450959474
 20
150.4502021048569
 30
0.0
 40
2.0
100
AcDbArc
 50
91.00064099999883
 51
180.0
  0
LINE
  5
988
330
2
100
AcDbEntity
  8
0
100
AcDbLine
 10
396.3019450959474
 20
140.3567951048569
 30
0.0
 11
397.3019450959472
 21
140.3567951048569
 31
0.0
  0
LINE
  5
989
330
2
100
AcDbEntity
  8
0
100
AcDbLine
 10
393.3019450959474
 20
128.8567951048569
 30
0.0
 11
395.3019450959473
 21
128.8567951048569
 31
0.0
  0
ARC
  5
98A
330
2
100
AcDbEntity
  8
0
100
AcDbCircle
 10
396.3019450959474
 20
139.3567951048569
 30
0.0
 40
1.0
100
AcDbArc
 50
90.0
 51
180.0
  0
LINE
  5
98B
330
2
100
AcDbEntity
  8
0
100
AcDbLine
 10
407.5519450959474
 20
153.5567921048569
 30
0.0
 11
407.5519450959474
 21
154.9959941048569
 31
0.0
  0
LINE
  5
98C
330
2
100
AcDbEntity
  8
0
100
AcDbLine
 10
407.3019450959474
 20
152.5553431048569
 30
0.0
 11
407.3019450959474
 21
155.5402141048569
 31
0.0
  0
LINE
  5
98D
330
2
100
AcDbEntity
  8
HIDS
100
AcDbLine
 10
407.8019450959474
 20
148.5567921048569
 30
0.0
 11
407.8019450959474
 21
149.5567921048569
 31
0.0
  0
LINE
  5
98E
330
2
100
AcDbEntity
  8
HIDS
100
AcDbLine
 10
407.3019450959474
 20
149.5567921048569
 30
0.0
 11
407.3019450959474
 21
152.5553431048569
 31
0.0
  0
LINE
  5
98F
330
2
100
AcDbEntity
  8
HIDS
100
AcDbLine
 10
407.8019450959474
 20
149.5567921048569
 30
0.0
 11
407.3019450959474
 21
149.5567921048569
 31
0.0
  0
LINE
  5
990
330
2
100
AcDbEntity
  8
HIDS
100
AcDbLine
 10
407.8019450959474
 20
148.5567921048569
 30
0.0
 11
407.3019450959474
 21
148.5567921048569
 31
0.0
  0
ARC
  5
991
330
2
100
AcDbEntity
  8
0
100
AcDbCircle
 10
407.8019450959474
 20
153.0567921048569
 30
0.0
 40
0.5
100
AcDbArc
 50
90.0
 51
180.0
  0
ARC
  5
992
330
2
100
AcDbEntity
  8
0
100
AcDbCircle
 10
408.5519450959473
 20
154.9959941048569
 30
0.0
 40
1.0
100
AcDbArc
 50
106.9581529999964
 51
180.0
  0
ARC
  5
993
330
2
100
AcDbEntity
  8
0
100
AcDbCircle
 10
407.8019450959474
 20
155.5402141048569
 30
0.0
 40
0.5
100
AcDbArc
 50
95.17398100000105
 51
180.0
  0
ARC
  5
994
330
2
100
AcDbEntity
  8
HIDS
100
AcDbCircle
 10
404.3019450959474
 20
129.7585291048569
 30
0.0
 40
3.0
100
AcDbArc
 50
309.3567010000019
 51
0.0
  0
LINE
  5
995
330
2
100
AcDbEntity
  8
HIDS
100
AcDbLine
 10
407.3019450959474
 20
133.6899251048569
 30
0.0
 11
407.3019450959474
 21
129.7585291048569
 31
0.0
  0
LINE
  5
996
330
2
100
AcDbEntity
  8
HIDS
100
AcDbLine
 10
407.3019450959474
 20
148.5567921048569
 30
0.0
 11
407.3019450959474
 21
133.6899251048569
 31
0.0
  0
LINE
  5
997
330
2
100
AcDbEntity
  8
0
100
AcDbLine
 10
413.8019450959474
 20
156.0432581048568
 30
0.0
 11
413.8019450959474
 21
154.0567921048569
 31
0.0
  0
ARC
  5
998
330
2
100
AcDbEntity
  8
0
100
AcDbCircle
 10
414.3019450959473
 20
156.0432581048568
 30
0.0
 40
0.5
100
AcDbArc
 50
93.67680399999908
 51
180.0
  0
ARC
  5
999
330
2
100
AcDbEntity
  8
0
100
AcDbCircle
 10
413.3019450959474
 20
154.0567921048569
 30
0.0
 40
0.5
100
AcDbArc
 50
270.0
 51
0.0
  0
LINE
  5
99A
330
2
100
AcDbEntity
  8
0
100
AcDbLine
 10
413.0519450959473
 20
153.5565941048569
 30
0.0
 11
413.0519450959473
 21
154.9959941048569
 31
0.0
  0
ARC
  5
99B
330
2
100
AcDbEntity
  8
0
100
AcDbCircle
 10
412.0519450959474
 20
154.9959941048569
 30
0.0
 40
1.0
100
AcDbArc
 50
0.0
 51
73.04309800000145
  0
LINE
  5
99C
330
2
100
AcDbEntity
  8
0
100
AcDbLine
 10
465.3019450959474
 20
101.3567951048568
 30
0.0
 11
465.3019450959474
 21
139.3567951048569
 31
0.0
  0
ARC
  5
99D
330
2
100
AcDbEntity
  8
HIDS
100
AcDbCircle
 10
430.3019450959474
 20
98.05679610485691
 30
0.0
 40
38.0
100
AcDbArc
 50
21.29426000000262
 51
50.643298999998
  0
LINE
  5
99E
330
2
100
AcDbEntity
  8
0
100
AcDbLine
 10
464.3019450959473
 20
100.3567951048568
 30
0.0
 11
463.3019450959475
 21
100.3567951048568
 31
0.0
  0
ARC
  5
99F
330
2
100
AcDbEntity
  8
0
100
AcDbCircle
 10
464.3019450959473
 20
101.3567911048568
 30
0.0
 40
1.0
100
AcDbArc
 50
270.0
 51
0.0
  0
LINE
  5
9A0
330
2
100
AcDbEntity
  8
0
100
AcDbLine
 10
453.0519450959474
 20
153.5567921048569
 30
0.0
 11
447.3019450959474
 21
153.5567921048569
 31
0.0
  0
ARC
  5
9A1
330
2
100
AcDbEntity
  8
0
100
AcDbCircle
 10
450.3019450959474
 20
149.2567971048569
 30
0.0
 40
7.0
100
AcDbArc
 50
73.04197699999868
 51
106.9564969999992
  0
LINE
  5
9A2
330
2
100
AcDbEntity
  8
0
100
AcDbLine
 10
453.0519450959474
 20
154.2567971048569
 30
0.0
 11
447.5519450959474
 21
154.2567971048569
 31
0.0
  0
LINE
  5
9A3
330
2
100
AcDbEntity
  8
0
100
AcDbLine
 10
459.3368260959474
 20
152.4500041048568
 30
0.0
 11
430.3019450959474
 21
152.9568011048568
 31
0.0
  0
LINE
  5
9A4
330
2
100
AcDbEntity
  8
HIDS
100
AcDbLine
 10
451.3368260959474
 20
135.6896351048568
 30
0.0
 11
430.3019450959474
 21
136.0567851048569
 31
0.0
  0
LINE
  5
9A5
330
2
100
AcDbEntity
  8
0
100
AcDbLine
 10
447.5519450959474
 20
153.5565941048569
 30
0.0
 11
447.5519450959474
 21
154.9959941048569
 31
0.0
  0
LINE
  5
9A6
330
2
100
AcDbEntity
  8
0
100
AcDbLine
 10
446.8019450959474
 20
156.0432581048568
 30
0.0
 11
446.8019450959474
 21
154.0567921048569
 31
0.0
  0
ARC
  5
9A7
330
2
100
AcDbEntity
  8
0
100
AcDbCircle
 10
447.3019450959474
 20
154.0567921048569
 30
0.0
 40
0.5
100
AcDbArc
 50
180.0
 51
270.0
  0
ARC
  5
9A8
330
2
100
AcDbEntity
  8
0
100
AcDbCircle
 10
446.3019450959474
 20
156.0432581048568
 30
0.0
 40
0.5
100
AcDbArc
 50
0.0
 51
86.32319600000093
  0
ARC
  5
9A9
330
2
100
AcDbEntity
  8
0
100
AcDbCircle
 10
448.5519450959474
 20
154.9959941048569
 30
0.0
 40
1.0
100
AcDbArc
 50
106.9569019999985
 51
180.0
  0
ARC
  5
9AA
330
2
100
AcDbEntity
  8
0
100
AcDbCircle
 10
459.3019450959474
 20
150.4503091048569
 30
0.0
 40
2.0
100
AcDbArc
 50
0.0
 51
89.00013700000089
  0
LINE
  5
9AB
330
2
100
AcDbEntity
  8
0
100
AcDbLine
 10
464.3019450959473
 20
140.3567951048569
 30
0.0
 11
463.3019450959475
 21
140.3567951048569
 31
0.0
  0
ARC
  5
9AC
330
2
100
AcDbEntity
  8
0
100
AcDbCircle
 10
464.3019450959473
 20
139.3567951048569
 30
0.0
 40
1.0
100
AcDbArc
 50
0.0
 51
90.0
  0
LINE
  5
9AD
330
2
100
AcDbEntity
  8
0
100
AcDbLine
 10
453.0519450959474
 20
153.5567921048569
 30
0.0
 11
453.0519450959474
 21
154.9959941048569
 31
0.0
  0
LINE
  5
9AE
330
2
100
AcDbEntity
  8
0
100
AcDbLine
 10
453.3019450959474
 20
152.5553431048569
 30
0.0
 11
453.3019450959474
 21
155.5402141048569
 31
0.0
  0
LINE
  5
9AF
330
2
100
AcDbEntity
  8
HIDS
100
AcDbLine
 10
452.8019450959474
 20
148.5567921048569
 30
0.0
 11
452.8019450959474
 21
149.5567921048569
 31
0.0
  0
LINE
  5
9B0
330
2
100
AcDbEntity
  8
HIDS
100
AcDbLine
 10
453.3019450959474
 20
149.5567921048569
 30
0.0
 11
453.3019450959474
 21
152.5553431048569
 31
0.0
  0
LINE
  5
9B1
330
2
100
AcDbEntity
  8
HIDS
100
AcDbLine
 10
452.8019450959474
 20
149.5567921048569
 30
0.0
 11
453.3019450959474
 21
149.5567921048569
 31
0.0
  0
LINE
  5
9B2
330
2
100
AcDbEntity
  8
HIDS
100
AcDbLine
 10
452.8019450959474
 20
148.5567921048569
 30
0.0
 11
453.3019450959474
 21
148.5567921048569
 31
0.0
  0
ARC
  5
9B3
330
2
100
AcDbEntity
  8
0
100
AcDbCircle
 10
452.8019450959474
 20
153.0567921048569
 30
0.0
 40
0.5
100
AcDbArc
 50
0.0
 51
90.0
  0
ARC
  5
9B4
330
2
100
AcDbEntity
  8
0
100
AcDbCircle
 10
452.0519450959474
 20
154.9959941048569
 30
0.0
 40
1.0
100
AcDbArc
 50
0.0
 51
73.04184700000355
  0
ARC
  5
9B5
330
2
100
AcDbEntity
  8
0
100
AcDbCircle
 10
452.8019450959474
 20
155.5402141048569
 30
0.0
 40
0.5
100
AcDbArc
 50
0.0
 51
84.82601899999895
  0
LINE
  5
9B6
330
2
100
AcDbEntity
  8
HIDS
100
AcDbLine
 10
453.3019450959474
 20
133.6568061048569
 30
0.0
 11
453.3019450959474
 21
129.7585291048569
 31
0.0
  0
ARC
  5
9B7
330
2
100
AcDbEntity
  8
HIDS
100
AcDbCircle
 10
451.3019450959474
 20
133.6899251048569
 30
0.0
 40
2.0
100
AcDbArc
 50
0.0
 51
89.00013700000089
  0
LINE
  5
9B8
330
2
100
AcDbEntity
  8
HIDS
100
AcDbLine
 10
453.3019450959474
 20
148.5567921048569
 30
0.0
 11
453.3019450959474
 21
133.6899251048569
 31
0.0
  0
ARC
  5
9B9
330
2
100
AcDbEntity
  8
HIDS
100
AcDbCircle
 10
456.3019450959473
 20
129.7585291048569
 30
0.0
 40
3.0
100
AcDbArc
 50
180.0
 51
230.643295000001
  0
TEXT
  5
9BA
330
2
100
AcDbEntity
  8
TITLE
100
AcDbText
 10
378.4327033449607
 20
316.4317993505517
 30
0.0
 40
5.0
  1
HLV-15R-10~240-T15
100
AcDbText
  0
TEXT
  5
9BB
330
2
100
AcDbEntity
  8
TITLE
100
AcDbText
 10
378.4327033449607
 20
308.4317993505517
 30
0.0
 40
5.0
  1
HLV-15R-10~240-T25
100
AcDbText
  0
TEXT
  5
9BC
330
2
100
AcDbEntity
  8
TITLE
100
AcDbText
 10
378.4327033449607
 20
300.4317993505517
 30
0.0
 40
5.0
  1
HLV-15R-10~120-T40
100
AcDbText
  0
TEXT
  5
9BD
330
2
100
AcDbEntity
  8
TITLE
100
AcDbText
 10
378.4327033449607
 20
292.4317993505517
 30
0.0
 40
5.0
  1
HLV-15R-10~240-S15
100
AcDbText
  0
TEXT
  5
9BE
330
2
100
AcDbEntity
  8
TITLE
100
AcDbText
 10
378.4327033449607
 20
284.4317993505518
 30
0.0
 40
5.0
  1
HLV-15R-10~240-S25
100
AcDbText
  0
LINE
  5
9BF
330
2
100
AcDbEntity
  8
CENTER
100
AcDbLine
 10
68.84141292982303
 20
306.8105448734538
 30
0.0
 11
296.841406929823
 21
306.8105448734539
 31
0.0
  0
LINE
  5
9C0
330
2
100
AcDbEntity
  8
0
100
AcDbLine
 10
207.347921929823
 20
275.8105448734539
 30
0.0
 11
287.334906929823
 21
275.8105448734539
 31
0.0
  0
LINE
  5
9C1
330
2
100
AcDbEntity
  8
0
100
AcDbLine
 10
207.347921929823
 20
337.8105448734539
 30
0.0
 11
287.334906929823
 21
337.8105448734539
 31
0.0
  0
LINE
  5
9C2
330
2
100
AcDbEntity
  8
0
100
AcDbLine
 10
208.609777929823
 20
259.8105448734539
 30
0.0
 11
239.841406929823
 21
259.8105448734539
 31
0.0
  0
LINE
  5
9C3
330
2
100
AcDbEntity
  8
0
100
AcDbLine
 10
208.609777929823
 20
353.8105598734537
 30
0.0
 11
247.341406929823
 21
353.8105598734537
 31
0.0
  0
LINE
  5
9C4
330
2
100
AcDbEntity
  8
0
100
AcDbLine
 10
132.341414929823
 20
329.8105448734539
 30
0.0
 11
208.2610999298231
 21
329.8105448734539
 31
0.0
  0
LINE
  5
9C5
330
2
100
AcDbEntity
  8
0
100
AcDbLine
 10
132.341414929823
 20
283.8105448734539
 30
0.0
 11
208.2610999298231
 21
283.8105448734539
 31
0.0
  0
LINE
  5
9C6
330
2
100
AcDbEntity
  8
0
100
AcDbLine
 10
132.341414929823
 20
268.8105448734539
 30
0.0
 11
202.841414929823
 21
268.8105448734539
 31
0.0
  0
LINE
  5
9C7
330
2
100
AcDbEntity
  8
0
100
AcDbLine
 10
202.841414929823
 20
344.8105448734539
 30
0.0
 11
132.341414929823
 21
344.8105448734539
 31
0.0
  0
LINE
  5
9C8
330
2
100
AcDbEntity
  8
CENTER
100
AcDbLine
 10
114.841414929823
 20
336.8105448734538
 30
0.0
 11
114.841414929823
 21
276.8105448734539
 31
0.0
  0
LINE
  5
9C9
330
2
100
AcDbEntity
  8
0
100
AcDbLine
 10
75.84141292982303
 20
334.3295348734538
 30
0.0
 11
75.84141292982303
 21
279.2915548734537
 31
0.0
  0
LINE
  5
9CA
330
2
100
AcDbEntity
  8
0
100
AcDbLine
 10
99.84131292982306
 20
285.8105448734539
 30
0.0
 11
99.84131292982306
 21
327.8105448734539
 31
0.0
  0
LINE
  5
9CB
330
2
100
AcDbEntity
  8
0
100
AcDbLine
 10
129.841414929823
 20
327.8105448734539
 30
0.0
 11
129.841414929823
 21
285.8105448734539
 31
0.0
  0
LINE
  5
9CC
330
2
100
AcDbEntity
  8
0
100
AcDbLine
 10
132.341414929823
 20
268.8105448734539
 30
0.0
 11
132.341414929823
 21
344.8105448734539
 31
0.0
  0
LINE
  5
9CD
330
2
100
AcDbEntity
  8
0
100
AcDbLine
 10
100.646965929823
 20
278.0792518734538
 30
0.0
 11
75.92283510670961
 21
278.7267016742441
 31
0.0
  0
LINE
  5
9CE
330
2
100
AcDbEntity
  8
0
100
AcDbLine
 10
78.84037592982309
 20
276.8068898734538
 30
0.0
 11
100.819050000008
 21
276.2313605893309
 31
0.0
  0
LINE
  5
9CF
330
2
100
AcDbEntity
  8
0
100
AcDbLine
 10
103.341412929823
 20
281.6143468734538
 30
0.0
 11
75.84141292982303
 21
280.8942238734538
 31
0.0
  0
LINE
  5
9D0
330
2
100
AcDbEntity
  8
0
100
AcDbLine
 10
77.16459392982307
 20
277.4095658734538
 30
0.0
 11
78.84037592982309
 21
276.8068898734538
 31
0.0
  0
ARC
  5
9D1
330
2
100
AcDbEntity
  8
0
100
AcDbCircle
 10
77.84141292982304
 20
279.2915548734537
 30
0.0
 40
2.0
100
AcDbArc
 50
180.0
 51
250.2197109999988
  0
LINE
  5
9D2
330
2
100
AcDbEntity
  8
0
100
AcDbLine
 10
109.341112929823
 20
269.2120488734538
 30
0.0
 11
132.341414929823
 21
268.8105448734539
 31
0.0
  0
LINE
  5
9D3
330
2
100
AcDbEntity
  8
0
100
AcDbLine
 10
127.841414929823
 20
283.8105448734539
 30
0.0
 11
101.841312929823
 21
283.8105448734539
 31
0.0
  0
ARC
  5
9D4
330
2
100
AcDbEntity
  8
0
100
AcDbCircle
 10
107.641338929823
 20
277.7986428734539
 30
0.0
 40
7.0
100
AcDbArc
 50
163.0435029999974
 51
196.9579929999972
  0
ARC
  5
9D5
330
2
100
AcDbEntity
  8
0
100
AcDbCircle
 10
101.841312929823
 20
285.8105448734539
 30
0.0
 40
2.0
100
AcDbArc
 50
180.0
 51
270.0
  0
ARC
  5
9D6
330
2
100
AcDbEntity
  8
0
100
AcDbCircle
 10
100.841312929823
 20
291.3105448734539
 30
0.0
 40
1.0
100
AcDbArc
 50
180.0
 51
270.0
  0
CIRCLE
  5
9D7
330
2
100
AcDbEntity
  8
0
100
AcDbCircle
 10
102.841412929823
 20
286.8105448734539
 30
0.0
 40
2.75
  0
LINE
  5
9D8
330
2
100
AcDbEntity
  8
0
100
AcDbLine
 10
107.341412929823
 20
270.5146458734539
 30
0.0
 11
107.341412929823
 21
283.8105448734539
 31
0.0
  0
ARC
  5
9D9
330
2
100
AcDbEntity
  8
0
100
AcDbCircle
 10
107.341412929823
 20
284.8105448734539
 30
0.0
 40
1.0
100
AcDbArc
 50
180.0
 51
270.0
  0
LINE
  5
9DA
330
2
100
AcDbEntity
  8
0
100
AcDbLine
 10
106.341412929823
 20
284.8105448734539
 30
0.0
 11
106.341412929823
 21
286.8105448734539
 31
0.0
  0
LINE
  5
9DB
330
2
100
AcDbEntity
  8
0
100
AcDbLine
 10
104.591412929823
 20
287.2105388734539
 30
0.0
 11
104.591412929823
 21
286.4105198734538
 31
0.0
  0
LINE
  5
9DC
330
2
100
AcDbEntity
  8
0
100
AcDbLine
 10
103.828327929823
 20
273.8336008734539
 30
0.0
 11
107.341412929823
 21
273.7416358734538
 31
0.0
  0
LINE
  5
9DD
330
2
100
AcDbEntity
  8
0
100
AcDbLine
 10
108.083012929823
 20
269.5486428734539
 30
0.0
 11
109.341112929823
 21
269.2120488734538
 31
0.0
  0
ARC
  5
9DE
330
2
100
AcDbEntity
  8
0
100
AcDbCircle
 10
108.341412929823
 20
270.5146458734539
 30
0.0
 40
1.0
100
AcDbArc
 50
180.0
 51
255.0256040000013
  0
LINE
  5
9DF
330
2
100
AcDbEntity
  8
0
100
AcDbLine
 10
102.641338929823
 20
275.0486428734539
 30
0.0
 11
102.641338929823
 21
280.5486428734539
 31
0.0
  0
LINE
  5
9E0
330
2
100
AcDbEntity
  8
0
100
AcDbLine
 10
103.341412929823
 20
274.3334328734539
 30
0.0
 11
103.341412929823
 21
283.8105448734539
 31
0.0
  0
ARC
  5
9E1
330
2
100
AcDbEntity
  8
0
100
AcDbCircle
 10
101.902142929823
 20
276.0486428734539
 30
0.0
 40
1.0
100
AcDbArc
 50
196.9580990000021
 51
270.0
  0
LINE
  5
9E2
330
2
100
AcDbEntity
  8
0
100
AcDbLine
 10
103.341412929823
 20
275.0486428734539
 30
0.0
 11
101.902142929823
 21
275.0486428734539
 31
0.0
  0
ARC
  5
9E3
330
2
100
AcDbEntity
  8
0
100
AcDbCircle
 10
101.902142929823
 20
279.5486428734539
 30
0.0
 40
1.0
100
AcDbArc
 50
90.0
 51
163.0431059999969
  0
LINE
  5
9E4
330
2
100
AcDbEntity
  8
0
100
AcDbLine
 10
103.341412929823
 20
280.5486428734539
 30
0.0
 11
101.902142929823
 21
280.5486428734539
 31
0.0
  0
LINE
  5
9E5
330
2
100
AcDbEntity
  8
0
100
AcDbLine
 10
103.341412929823
 20
280.5486428734539
 30
0.0
 11
101.902142929823
 21
280.5486428734539
 31
0.0
  0
LINE
  5
9E6
330
2
100
AcDbEntity
  8
0
100
AcDbLine
 10
100.841312929823
 20
290.3105448734539
 30
0.0
 11
102.841412929823
 21
290.3105448734539
 31
0.0
  0
ARC
  5
9E7
330
2
100
AcDbEntity
  8
0
100
AcDbCircle
 10
101.091412929823
 20
285.0605448734539
 30
0.0
 40
1.35
100
AcDbArc
 50
0.0
 51
90.0
  0
ARC
  5
9E8
330
2
100
AcDbEntity
  8
0
100
AcDbCircle
 10
101.091412929823
 20
288.5605448734539
 30
0.0
 40
1.35
100
AcDbArc
 50
270.0
 51
0.0
  0
LINE
  5
9E9
330
2
100
AcDbEntity
  8
0
100
AcDbLine
 10
101.091412929823
 20
287.2105388734539
 30
0.0
 11
101.091412929823
 21
286.4105198734538
 31
0.0
  0
LINE
  5
9EA
330
2
100
AcDbEntity
  8
0
100
AcDbLine
 10
102.441387929823
 20
285.0605448734539
 30
0.0
 11
103.241406929823
 21
285.0605448734539
 31
0.0
  0
LINE
  5
9EB
330
2
100
AcDbEntity
  8
0
100
AcDbLine
 10
102.441387929823
 20
288.5605448734539
 30
0.0
 11
103.241406929823
 21
288.5605448734539
 31
0.0
  0
ARC
  5
9EC
330
2
100
AcDbEntity
  8
0
100
AcDbCircle
 10
103.841412929823
 20
274.3334328734539
 30
0.0
 40
0.5
100
AcDbArc
 50
180.0
 51
268.5005189999991
  0
ARC
  5
9ED
330
2
100
AcDbEntity
  8
0
100
AcDbCircle
 10
104.591412929823
 20
285.0605448734539
 30
0.0
 40
1.35
100
AcDbArc
 50
90.0
 51
180.0
  0
ARC
  5
9EE
330
2
100
AcDbEntity
  8
0
100
AcDbCircle
 10
104.591412929823
 20
288.5605448734539
 30
0.0
 40
1.35
100
AcDbArc
 50
180.0
 51
270.0
  0
ARC
  5
9EF
330
2
100
AcDbEntity
  8
0
100
AcDbCircle
 10
102.841412929823
 20
286.8105448734539
 30
0.0
 40
3.5
100
AcDbArc
 50
0.0
 51
90.0
  0
ARC
  5
9F0
330
2
100
AcDbEntity
  8
0
100
AcDbCircle
 10
126.841414929823
 20
286.8105448734539
 30
0.0
 40
3.5
100
AcDbArc
 50
90.0
 51
180.0
  0
CIRCLE
  5
9F1
330
2
100
AcDbEntity
  8
0
100
AcDbCircle
 10
126.841414929823
 20
286.8105448734539
 30
0.0
 40
2.75
  0
ARC
  5
9F2
330
2
100
AcDbEntity
  8
0
100
AcDbCircle
 10
125.091414929823
 20
285.0605448734539
 30
0.0
 40
1.35
100
AcDbArc
 50
0.0
 51
90.0
  0
ARC
  5
9F3
330
2
100
AcDbEntity
  8
0
100
AcDbCircle
 10
125.091414929823
 20
288.5605448734539
 30
0.0
 40
1.35
100
AcDbArc
 50
270.0
 51
0.0
  0
ARC
  5
9F4
330
2
100
AcDbEntity
  8
0
100
AcDbCircle
 10
122.341414929823
 20
284.8105448734539
 30
0.0
 40
1.0
100
AcDbArc
 50
270.0
 51
0.0
  0
LINE
  5
9F5
330
2
100
AcDbEntity
  8
0
100
AcDbLine
 10
123.341414929823
 20
284.8105448734539
 30
0.0
 11
123.341414929823
 21
286.8105448734539
 31
0.0
  0
LINE
  5
9F6
330
2
100
AcDbEntity
  8
0
100
AcDbLine
 10
125.091414929823
 20
287.2105388734539
 30
0.0
 11
125.091414929823
 21
286.4105198734538
 31
0.0
  0
ARC
  5
9F7
330
2
100
AcDbEntity
  8
0
100
AcDbCircle
 10
127.841414929823
 20
285.8105448734539
 30
0.0
 40
2.0
100
AcDbArc
 50
270.0
 51
0.0
  0
LINE
  5
9F8
330
2
100
AcDbEntity
  8
0
100
AcDbLine
 10
128.219095929823
 20
283.8465398734538
 30
0.0
 11
132.341414929823
 21
283.8105448734539
 31
0.0
  0
ARC
  5
9F9
330
2
100
AcDbEntity
  8
0
100
AcDbCircle
 10
128.841513929823
 20
291.3105448734539
 30
0.0
 40
1.0
100
AcDbArc
 50
270.0
 51
0.0
  0
ARC
  5
9FA
330
2
100
AcDbEntity
  8
0
100
AcDbCircle
 10
128.591414929823
 20
285.0605448734539
 30
0.0
 40
1.35
100
AcDbArc
 50
90.0
 51
180.0
  0
ARC
  5
9FB
330
2
100
AcDbEntity
  8
0
100
AcDbCircle
 10
128.591414929823
 20
288.5605448734539
 30
0.0
 40
1.35
100
AcDbArc
 50
180.0
 51
270.0
  0
LINE
  5
9FC
330
2
100
AcDbEntity
  8
0
100
AcDbLine
 10
126.441389929823
 20
285.0605448734539
 30
0.0
 11
127.241407929823
 21
285.0605448734539
 31
0.0
  0
LINE
  5
9FD
330
2
100
AcDbEntity
  8
0
100
AcDbLine
 10
126.441389929823
 20
288.5605448734539
 30
0.0
 11
127.241407929823
 21
288.5605448734539
 31
0.0
  0
LINE
  5
9FE
330
2
100
AcDbEntity
  8
0
100
AcDbLine
 10
128.591414929823
 20
287.2105388734539
 30
0.0
 11
128.591414929823
 21
286.4105198734538
 31
0.0
  0
LINE
  5
9FF
330
2
100
AcDbEntity
  8
0
100
AcDbLine
 10
128.841513929823
 20
290.3105448734539
 30
0.0
 11
126.841414929823
 21
290.3105448734539
 31
0.0
  0
LINE
  5
A00
330
2
100
AcDbEntity
  8
0
100
AcDbLine
 10
100.646965929823
 20
335.5418368734538
 30
0.0
 11
75.92283510573583
 21
334.8943880693559
 31
0.0
  0
LINE
  5
A01
330
2
100
AcDbEntity
  8
0
100
AcDbLine
 10
78.84037592982309
 20
336.8141998734537
 30
0.0
 11
100.819050000008
 21
337.3897291575767
 31
0.0
  0
LINE
  5
A02
330
2
100
AcDbEntity
  8
0
100
AcDbLine
 10
103.341412929823
 20
332.0067568734538
 30
0.0
 11
75.84141292982303
 21
332.7268808734539
 31
0.0
  0
ARC
  5
A03
330
2
100
AcDbEntity
  8
0
100
AcDbCircle
 10
99.34141292982303
 20
300.3105448734539
 30
0.0
 40
0.5
100
AcDbArc
 50
0.0
 51
90.0
  0
ARC
  5
A04
330
2
100
AcDbEntity
  8
0
100
AcDbCircle
 10
99.34141292982303
 20
313.3105448734539
 30
0.0
 40
0.5
100
AcDbArc
 50
270.0
 51
0.0
  0
LINE
  5
A05
330
2
100
AcDbEntity
  8
0
100
AcDbLine
 10
97.84141292982305
 20
311.8105448734539
 30
0.0
 11
97.84141292982305
 21
301.8105448734539
 31
0.0
  0
LINE
  5
A06
330
2
100
AcDbEntity
  8
0
100
AcDbLine
 10
99.34141292982303
 20
300.8105448734539
 30
0.0
 11
98.84141292982304
 21
300.8105448734539
 31
0.0
  0
ARC
  5
A07
330
2
100
AcDbEntity
  8
0
100
AcDbCircle
 10
98.84141292982304
 20
301.8105448734539
 30
0.0
 40
1.0
100
AcDbArc
 50
180.0
 51
270.0
  0
ARC
  5
A08
330
2
100
AcDbEntity
  8
0
100
AcDbCircle
 10
98.84141292982304
 20
311.8105448734539
 30
0.0
 40
1.0
100
AcDbArc
 50
90.0
 51
180.0
  0
LINE
  5
A09
330
2
100
AcDbEntity
  8
0
100
AcDbLine
 10
99.34141292982303
 20
312.8105448734539
 30
0.0
 11
98.84141292982304
 21
312.8105448734539
 31
0.0
  0
LINE
  5
A0A
330
2
100
AcDbEntity
  8
HOJO
100
AcDbLine
 10
83.62083292982305
 20
305.3504458734539
 30
0.0
 11
82.69273292982303
 21
302.9605538734538
 31
0.0
  0
LINE
  5
A0B
330
2
100
AcDbEntity
  8
HOJO
100
AcDbLine
 10
82.80873292982306
 20
307.8254528734539
 30
0.0
 11
83.62083292982305
 21
305.3504458734539
 31
0.0
  0
LINE
  5
A0C
330
2
100
AcDbEntity
  8
HOJO
100
AcDbLine
 10
83.54453292982304
 20
310.6605508734539
 30
0.0
 11
82.80873292982306
 21
307.8254528734539
 31
0.0
  0
LINE
  5
A0D
330
2
100
AcDbEntity
  8
0
100
AcDbLine
 10
83.54453292982304
 20
310.6605508734539
 30
0.0
 11
97.84153292982308
 21
310.6605508734539
 31
0.0
  0
LINE
  5
A0E
330
2
100
AcDbEntity
  8
0
100
AcDbLine
 10
82.69273292982303
 20
302.9605538734538
 30
0.0
 11
97.84153292982308
 21
302.9605538734538
 31
0.0
  0
LINE
  5
A0F
330
2
100
AcDbEntity
  8
0
100
AcDbLine
 10
77.16459392982307
 20
336.2115238734538
 30
0.0
 11
78.84037592982309
 21
336.8141998734537
 31
0.0
  0
ARC
  5
A10
330
2
100
AcDbEntity
  8
0
100
AcDbCircle
 10
77.84141292982304
 20
334.3295348734538
 30
0.0
 40
2.0
100
AcDbArc
 50
109.7802890000012
 51
180.0
  0
ARC
  5
A11
330
2
100
AcDbEntity
  8
0
100
AcDbCircle
 10
126.841414929823
 20
326.8105448734539
 30
0.0
 40
3.5
100
AcDbArc
 50
180.0
 51
270.0
  0
ARC
  5
A12
330
2
100
AcDbEntity
  8
0
100
AcDbCircle
 10
102.841412929823
 20
326.8105448734539
 30
0.0
 40
3.5
100
AcDbArc
 50
270.0
 51
0.0
  0
ARC
  5
A13
330
2
100
AcDbEntity
  8
0
100
AcDbCircle
 10
100.841312929823
 20
322.3105448734539
 30
0.0
 40
1.0
100
AcDbArc
 50
90.0
 51
180.0
  0
LINE
  5
A14
330
2
100
AcDbEntity
  8
0
100
AcDbLine
 10
100.841312929823
 20
323.3105448734539
 30
0.0
 11
102.841412929823
 21
323.3105448734539
 31
0.0
  0
LINE
  5
A15
330
2
100
AcDbEntity
  8
0
100
AcDbLine
 10
128.841513929823
 20
323.3105448734539
 30
0.0
 11
126.841414929823
 21
323.3105448734539
 31
0.0
  0
LINE
  5
A16
330
2
100
AcDbEntity
  8
0
100
AcDbLine
 10
131.841414929823
 20
311.8105448734539
 30
0.0
 11
131.841414929823
 21
301.8105448734539
 31
0.0
  0
ARC
  5
A17
330
2
100
AcDbEntity
  8
0
100
AcDbCircle
 10
130.341414929823
 20
300.3105448734539
 30
0.0
 40
0.5
100
AcDbArc
 50
90.0
 51
180.0
  0
LINE
  5
A18
330
2
100
AcDbEntity
  8
0
100
AcDbLine
 10
130.341414929823
 20
300.8105448734539
 30
0.0
 11
130.841414929823
 21
300.8105448734539
 31
0.0
  0
ARC
  5
A19
330
2
100
AcDbEntity
  8
0
100
AcDbCircle
 10
130.841414929823
 20
301.8105448734539
 30
0.0
 40
1.0
100
AcDbArc
 50
270.0
 51
0.0
  0
ARC
  5
A1A
330
2
100
AcDbEntity
  8
0
100
AcDbCircle
 10
130.841414929823
 20
311.8105448734539
 30
0.0
 40
1.0
100
AcDbArc
 50
0.0
 51
90.0
  0
ARC
  5
A1B
330
2
100
AcDbEntity
  8
0
100
AcDbCircle
 10
130.341414929823
 20
313.3105448734539
 30
0.0
 40
0.5
100
AcDbArc
 50
180.0
 51
270.0
  0
LINE
  5
A1C
330
2
100
AcDbEntity
  8
0
100
AcDbLine
 10
130.341414929823
 20
312.8105448734539
 30
0.0
 11
130.841414929823
 21
312.8105448734539
 31
0.0
  0
ARC
  5
A1D
330
2
100
AcDbEntity
  8
0
100
AcDbCircle
 10
128.841513929823
 20
322.3105448734539
 30
0.0
 40
1.0
100
AcDbArc
 50
0.0
 51
90.0
  0
LINE
  5
A1E
330
2
100
AcDbEntity
  8
0
100
AcDbLine
 10
109.341112929823
 20
344.4089488734539
 30
0.0
 11
132.341414929823
 21
344.8105448734539
 31
0.0
  0
LINE
  5
A1F
330
2
100
AcDbEntity
  8
0
100
AcDbLine
 10
127.841414929823
 20
329.8105448734539
 30
0.0
 11
101.841312929823
 21
329.8105448734539
 31
0.0
  0
ARC
  5
A20
330
2
100
AcDbEntity
  8
0
100
AcDbCircle
 10
107.641338929823
 20
335.8224468734539
 30
0.0
 40
7.0
100
AcDbArc
 50
163.0420070000027
 51
196.9564970000025
  0
LINE
  5
A21
330
2
100
AcDbEntity
  8
0
100
AcDbLine
 10
108.083012929823
 20
344.0724468734539
 30
0.0
 11
109.341112929823
 21
344.4089488734539
 31
0.0
  0
ARC
  5
A22
330
2
100
AcDbEntity
  8
0
100
AcDbCircle
 10
108.341412929823
 20
343.1064428734539
 30
0.0
 40
1.0
100
AcDbArc
 50
104.9743959999986
 51
180.0
  0
LINE
  5
A23
330
2
100
AcDbEntity
  8
0
100
AcDbLine
 10
103.828327929823
 20
339.7874888734539
 30
0.0
 11
107.341412929823
 21
339.8794528734538
 31
0.0
  0
LINE
  5
A24
330
2
100
AcDbEntity
  8
0
100
AcDbLine
 10
102.641338929823
 20
338.5724468734538
 30
0.0
 11
102.641338929823
 21
333.0724468734538
 31
0.0
  0
ARC
  5
A25
330
2
100
AcDbEntity
  8
0
100
AcDbCircle
 10
101.902142929823
 20
334.0724468734538
 30
0.0
 40
1.0
100
AcDbArc
 50
196.956894000003
 51
270.0
  0
LINE
  5
A26
330
2
100
AcDbEntity
  8
0
100
AcDbLine
 10
103.341412929823
 20
333.0724468734538
 30
0.0
 11
101.902142929823
 21
333.0724468734538
 31
0.0
  0
ARC
  5
A27
330
2
100
AcDbEntity
  8
0
100
AcDbCircle
 10
101.902142929823
 20
337.5724468734539
 30
0.0
 40
1.0
100
AcDbArc
 50
90.0
 51
163.0419009999978
  0
LINE
  5
A28
330
2
100
AcDbEntity
  8
0
100
AcDbLine
 10
103.341412929823
 20
338.5724468734538
 30
0.0
 11
101.902142929823
 21
338.5724468734538
 31
0.0
  0
ARC
  5
A29
330
2
100
AcDbEntity
  8
0
100
AcDbCircle
 10
103.841412929823
 20
339.2876718734539
 30
0.0
 40
0.5
100
AcDbArc
 50
91.49948100000081
 51
180.0
  0
ARC
  5
A2A
330
2
100
AcDbEntity
  8
0
100
AcDbCircle
 10
101.841312929823
 20
327.8105448734539
 30
0.0
 40
2.0
100
AcDbArc
 50
90.0
 51
180.0
  0
CIRCLE
  5
A2B
330
2
100
AcDbEntity
  8
0
100
AcDbCircle
 10
102.841412929823
 20
326.8105448734539
 30
0.0
 40
2.75
  0
ARC
  5
A2C
330
2
100
AcDbEntity
  8
0
100
AcDbCircle
 10
107.341412929823
 20
328.8105448734539
 30
0.0
 40
1.0
100
AcDbArc
 50
90.0
 51
180.0
  0
LINE
  5
A2D
330
2
100
AcDbEntity
  8
0
100
AcDbLine
 10
106.341412929823
 20
328.8105448734539
 30
0.0
 11
106.341412929823
 21
326.8105448734539
 31
0.0
  0
LINE
  5
A2E
330
2
100
AcDbEntity
  8
0
100
AcDbLine
 10
104.591412929823
 20
327.2105388734539
 30
0.0
 11
104.591412929823
 21
326.4105198734538
 31
0.0
  0
LINE
  5
A2F
330
2
100
AcDbEntity
  8
0
100
AcDbLine
 10
102.441387929823
 20
328.5605448734539
 30
0.0
 11
103.241406929823
 21
328.5605448734539
 31
0.0
  0
ARC
  5
A30
330
2
100
AcDbEntity
  8
0
100
AcDbCircle
 10
101.091412929823
 20
325.0605448734539
 30
0.0
 40
1.35
100
AcDbArc
 50
0.0
 51
90.0
  0
LINE
  5
A31
330
2
100
AcDbEntity
  8
0
100
AcDbLine
 10
101.091412929823
 20
327.2105388734539
 30
0.0
 11
101.091412929823
 21
326.4105198734538
 31
0.0
  0
LINE
  5
A32
330
2
100
AcDbEntity
  8
0
100
AcDbLine
 10
102.441387929823
 20
325.0605448734539
 30
0.0
 11
103.241406929823
 21
325.0605448734539
 31
0.0
  0
ARC
  5
A33
330
2
100
AcDbEntity
  8
0
100
AcDbCircle
 10
101.091412929823
 20
328.5605448734539
 30
0.0
 40
1.35
100
AcDbArc
 50
270.0
 51
0.0
  0
ARC
  5
A34
330
2
100
AcDbEntity
  8
0
100
AcDbCircle
 10
104.591412929823
 20
325.0605448734539
 30
0.0
 40
1.35
100
AcDbArc
 50
90.0
 51
180.0
  0
ARC
  5
A35
330
2
100
AcDbEntity
  8
0
100
AcDbCircle
 10
104.591412929823
 20
328.5605448734539
 30
0.0
 40
1.35
100
AcDbArc
 50
180.0
 51
270.0
  0
LINE
  5
A36
330
2
100
AcDbEntity
  8
0
100
AcDbLine
 10
107.341412929823
 20
343.1064428734539
 30
0.0
 11
107.341412929823
 21
329.8105448734539
 31
0.0
  0
LINE
  5
A37
330
2
100
AcDbEntity
  8
0
100
AcDbLine
 10
103.341412929823
 20
339.2876718734539
 30
0.0
 11
103.341412929823
 21
329.8105448734539
 31
0.0
  0
ARC
  5
A38
330
2
100
AcDbEntity
  8
0
100
AcDbCircle
 10
122.341414929823
 20
328.8105448734539
 30
0.0
 40
1.0
100
AcDbArc
 50
0.0
 51
90.0
  0
ARC
  5
A39
330
2
100
AcDbEntity
  8
0
100
AcDbCircle
 10
127.841414929823
 20
327.8105448734539
 30
0.0
 40
2.0
100
AcDbArc
 50
0.0
 51
90.0
  0
CIRCLE
  5
A3A
330
2
100
AcDbEntity
  8
0
100
AcDbCircle
 10
126.841414929823
 20
326.8105448734539
 30
0.0
 40
2.75
  0
LINE
  5
A3B
330
2
100
AcDbEntity
  8
0
100
AcDbLine
 10
126.441389929823
 20
328.5605448734539
 30
0.0
 11
127.241407929823
 21
328.5605448734539
 31
0.0
  0
ARC
  5
A3C
330
2
100
AcDbEntity
  8
0
100
AcDbCircle
 10
125.091414929823
 20
325.0605448734539
 30
0.0
 40
1.35
100
AcDbArc
 50
0.0
 51
90.0
  0
LINE
  5
A3D
330
2
100
AcDbEntity
  8
0
100
AcDbLine
 10
125.091414929823
 20
327.2105388734539
 30
0.0
 11
125.091414929823
 21
326.4105198734538
 31
0.0
  0
ARC
  5
A3E
330
2
100
AcDbEntity
  8
0
100
AcDbCircle
 10
128.591414929823
 20
325.0605448734539
 30
0.0
 40
1.35
100
AcDbArc
 50
90.0
 51
180.0
  0
LINE
  5
A3F
330
2
100
AcDbEntity
  8
0
100
AcDbLine
 10
126.441389929823
 20
325.0605448734539
 30
0.0
 11
127.241407929823
 21
325.0605448734539
 31
0.0
  0
LINE
  5
A40
330
2
100
AcDbEntity
  8
0
100
AcDbLine
 10
128.591414929823
 20
327.2105388734539
 30
0.0
 11
128.591414929823
 21
326.4105198734538
 31
0.0
  0
ARC
  5
A41
330
2
100
AcDbEntity
  8
0
100
AcDbCircle
 10
125.091414929823
 20
328.5605448734539
 30
0.0
 40
1.35
100
AcDbArc
 50
270.0
 51
0.0
  0
LINE
  5
A42
330
2
100
AcDbEntity
  8
0
100
AcDbLine
 10
123.341414929823
 20
328.8105448734539
 30
0.0
 11
123.341414929823
 21
326.8105448734539
 31
0.0
  0
ARC
  5
A43
330
2
100
AcDbEntity
  8
0
100
AcDbCircle
 10
128.591414929823
 20
328.5605448734539
 30
0.0
 40
1.35
100
AcDbArc
 50
180.0
 51
270.0
  0
LINE
  5
A44
330
2
100
AcDbEntity
  8
0
100
AcDbLine
 10
128.219095929823
 20
329.7745648734539
 30
0.0
 11
132.341414929823
 21
329.8105448734539
 31
0.0
  0
LINE
  5
A45
330
2
100
AcDbEntity
  8
0
100
AcDbLine
 10
208.2610999298231
 20
285.8105448734539
 30
0.0
 11
208.2610999298231
 21
327.8108188734539
 31
0.0
  0
ARC
  5
A46
330
2
100
AcDbEntity
  8
0
100
AcDbCircle
 10
208.609777929823
 20
262.8105448734539
 30
0.0
 40
3.0
100
AcDbArc
 50
180.9998470000027
 51
270.0
  0
LINE
  5
A47
330
2
100
AcDbEntity
  8
CENTER
100
AcDbLine
 10
213.3414069298231
 20
260.5203520434825
 30
0.0
 11
213.3414069298231
 21
273.1007377034253
 31
0.0
  0
ARC
  5
A48
330
2
100
AcDbEntity
  8
0
100
AcDbCircle
 10
202.841414929823
 20
270.8105448734539
 30
0.0
 40
2.0
100
AcDbArc
 50
270.0
 51
0.0
  0
LINE
  5
A49
330
2
100
AcDbEntity
  8
0
100
AcDbLine
 10
204.841414929823
 20
270.8105448734539
 30
0.0
 11
204.841414929823
 21
274.4583868734538
 31
0.0
  0
LINE
  5
A4A
330
2
100
AcDbEntity
  8
0
100
AcDbLine
 10
205.348143929823
 20
277.7756478734539
 30
0.0
 11
205.2428199298231
 21
283.8105448734539
 31
0.0
  0
ARC
  5
A4B
330
2
100
AcDbEntity
  8
0
100
AcDbCircle
 10
206.341414929823
 20
274.4583868734538
 30
0.0
 40
1.5
100
AcDbArc
 50
73.28735399999814
 51
180.0
  0
ARC
  5
A4C
330
2
100
AcDbEntity
  8
0
100
AcDbCircle
 10
207.347921929823
 20
277.8105448734539
 30
0.0
 40
2.0
100
AcDbArc
 50
181.0000000000017
 51
270.0
  0
LINE
  5
A4D
330
2
100
AcDbEntity
  8
CENTER
100
AcDbLine
 10
207.0512140998517
 20
266.8105448734539
 30
0.0
 11
219.6315997597945
 21
266.8105448734539
 31
0.0
  0
LINE
  5
A4E
330
2
100
AcDbEntity
  8
0
100
AcDbLine
 10
205.610235929823
 20
262.7582068734539
 30
0.0
 11
205.385855929823
 21
275.6146368734539
 31
0.0
  0
CIRCLE
  5
A4F
330
2
100
AcDbEntity
  8
0
100
AcDbCircle
 10
213.341406929823
 20
266.8105448734539
 30
0.0
 40
3.25
  0
ARC
  5
A50
330
2
100
AcDbEntity
  8
0
100
AcDbCircle
 10
202.841414929823
 20
342.8105448734539
 30
0.0
 40
2.0
100
AcDbArc
 50
0.0
 51
90.0
  0
LINE
  5
A51
330
2
100
AcDbEntity
  8
CENTER
100
AcDbLine
 10
213.3414069298231
 20
340.5203670434823
 30
0.0
 11
213.3414069298231
 21
353.1007527034251
 31
0.0
  0
ARC
  5
A52
330
2
100
AcDbEntity
  8
0
100
AcDbCircle
 10
208.609777929823
 20
350.8105598734537
 30
0.0
 40
3.0
100
AcDbArc
 50
90.0
 51
179.0001529999972
  0
LINE
  5
A53
330
2
100
AcDbEntity
  8
0
100
AcDbLine
 10
204.841414929823
 20
342.8105448734539
 30
0.0
 11
204.841414929823
 21
339.1627018734538
 31
0.0
  0
ARC
  5
A54
330
2
100
AcDbEntity
  8
0
100
AcDbCircle
 10
206.341414929823
 20
339.1627018734538
 30
0.0
 40
1.5
100
AcDbArc
 50
180.0
 51
286.7126460000018
  0
ARC
  5
A55
330
2
100
AcDbEntity
  8
0
100
AcDbCircle
 10
207.347921929823
 20
335.8105448734539
 30
0.0
 40
2.0
100
AcDbArc
 50
90.0
 51
178.9999999999982
  0
LINE
  5
A56
330
2
100
AcDbEntity
  8
0
100
AcDbLine
 10
205.610235929823
 20
350.8628978734539
 30
0.0
 11
205.385855929823
 21
338.0064518734538
 31
0.0
  0
LINE
  5
A57
330
2
100
AcDbEntity
  8
CENTER
100
AcDbLine
 10
207.0512140998517
 20
346.8105598734537
 30
0.0
 11
219.6315997597945
 21
346.8105598734537
 31
0.0
  0
CIRCLE
  5
A58
330
2
100
AcDbEntity
  8
0
100
AcDbCircle
 10
213.341406929823
 20
346.8105448734539
 30
0.0
 40
3.25
  0
LINE
  5
A59
330
2
100
AcDbEntity
  8
0
100
AcDbLine
 10
205.348143929823
 20
335.8454568734539
 30
0.0
 11
205.2428199298231
 21
329.8105448734539
 31
0.0
  0
LINE
  5
A5A
330
2
100
AcDbEntity
  8
CENTER
100
AcDbLine
 10
247.341406929823
 20
360.8105598734537
 30
0.0
 11
247.341406929823
 21
235.8105448734539
 31
0.0
  0
LINE
  5
A5B
330
2
100
AcDbEntity
  8
0
100
AcDbLine
 10
232.341406929823
 20
335.8454568734539
 30
0.0
 11
232.341406929823
 21
277.7756478734539
 31
0.0
  0
LINE
  5
A5C
330
2
100
AcDbEntity
  8
0
100
AcDbLine
 10
262.341406929823
 20
335.8454568734539
 30
0.0
 11
262.341406929823
 21
277.7756478734539
 31
0.0
  0
LINE
  5
A5D
330
2
100
AcDbEntity
  8
0
100
AcDbLine
 10
289.0724709298229
 20
262.7581918734538
 30
0.0
 11
289.841406929823
 21
306.8105448734539
 31
0.0
  0
LINE
  5
A5E
330
2
100
AcDbEntity
  8
0
100
AcDbLine
 10
266.341406929823
 20
271.8105448734539
 30
0.0
 11
228.341406929823
 21
271.8105448734539
 31
0.0
  0
LINE
  5
A5F
330
2
100
AcDbEntity
  8
0
100
AcDbLine
 10
256.841406929823
 20
259.8105448734539
 30
0.0
 11
286.072928929823
 21
259.8105448734539
 31
0.0
  0
LINE
  5
A60
330
2
100
AcDbEntity
  8
0
100
AcDbLine
 10
254.412405929823
 20
264.3105448734539
 30
0.0
 11
254.412405929823
 21
242.8105448734539
 31
0.0
  0
LINE
  5
A61
330
2
100
AcDbEntity
  8
0
100
AcDbLine
 10
256.841406929823
 20
264.3105448734539
 30
0.0
 11
256.841406929823
 21
242.8105448734539
 31
0.0
  0
LINE
  5
A62
330
2
100
AcDbEntity
  8
0
100
AcDbLine
 10
239.841406929823
 20
242.8105448734539
 30
0.0
 11
239.841406929823
 21
269.8105448734539
 31
0.0
  0
LINE
  5
A63
330
2
100
AcDbEntity
  8
0
100
AcDbLine
 10
239.841406929823
 20
242.8105448734539
 30
0.0
 11
256.841406929823
 21
242.8105448734539
 31
0.0
  0
LINE
  5
A64
330
2
100
AcDbEntity
  8
0
100
AcDbLine
 10
238.841406929823
 20
269.8105448734539
 30
0.0
 11
255.841406929823
 21
269.8105448734539
 31
0.0
  0
LINE
  5
A65
330
2
100
AcDbEntity
  8
0
100
AcDbLine
 10
238.841406929823
 20
269.8105448734539
 30
0.0
 11
238.841406929823
 21
271.8105448734539
 31
0.0
  0
LINE
  5
A66
330
2
100
AcDbEntity
  8
0
100
AcDbLine
 10
227.341406929823
 20
272.8105448734539
 30
0.0
 11
227.341406929823
 21
273.8105448734537
 31
0.0
  0
ARC
  5
A67
330
2
100
AcDbEntity
  8
0
100
AcDbCircle
 10
228.341406929823
 20
272.8105448734539
 30
0.0
 40
1.0
100
AcDbArc
 50
180.0
 51
270.0
  0
LINE
  5
A68
330
2
100
AcDbEntity
  8
0
100
AcDbLine
 10
255.841406929823
 20
269.8105448734539
 30
0.0
 11
255.841406929823
 21
271.8105448734539
 31
0.0
  0
LINE
  5
A69
330
2
100
AcDbEntity
  8
0
100
AcDbLine
 10
254.412405929823
 20
264.3105448734539
 30
0.0
 11
256.841406929823
 21
264.3105448734539
 31
0.0
  0
LINE
  5
A6A
330
2
100
AcDbEntity
  8
0
100
AcDbLine
 10
254.841406929823
 20
264.3105448734539
 30
0.0
 11
254.841406929823
 21
269.8105448734539
 31
0.0
  0
ARC
  5
A6B
330
2
100
AcDbEntity
  8
0
100
AcDbCircle
 10
286.072928929823
 20
262.8105448734539
 30
0.0
 40
3.0
100
AcDbArc
 50
270.0
 51
358.9999999999982
  0
LINE
  5
A6C
330
2
100
AcDbEntity
  8
CENTER
100
AcDbLine
 10
281.3414069298229
 20
260.5203520434825
 30
0.0
 11
281.3414069298229
 21
273.1007377034253
 31
0.0
  0
LINE
  5
A6D
330
2
100
AcDbEntity
  8
CENTER
100
AcDbLine
 10
275.0512140998515
 20
266.8105448734539
 30
0.0
 11
287.6315997597943
 21
266.8105448734539
 31
0.0
  0
ARC
  5
A6E
330
2
100
AcDbEntity
  8
0
100
AcDbCircle
 10
266.341421929823
 20
272.8105448734539
 30
0.0
 40
1.0
100
AcDbArc
 50
270.0
 51
0.0
  0
LINE
  5
A6F
330
2
100
AcDbEntity
  8
0
100
AcDbLine
 10
267.341406929823
 20
272.8105448734539
 30
0.0
 11
267.341406929823
 21
273.8105448734537
 31
0.0
  0
CIRCLE
  5
A70
330
2
100
AcDbEntity
  8
0
100
AcDbCircle
 10
281.341406929823
 20
266.8105448734539
 30
0.0
 40
3.25
  0
ARC
  5
A71
330
2
100
AcDbEntity
  8
0
100
AcDbCircle
 10
287.334906929823
 20
277.8105448734539
 30
0.0
 40
2.0
100
AcDbArc
 50
270.0
 51
358.9999999999982
  0
LINE
  5
A72
330
2
100
AcDbEntity
  8
0
100
AcDbLine
 10
247.341406929823
 20
353.8105598734537
 30
0.0
 11
286.072928929823
 21
353.8105598734537
 31
0.0
  0
LINE
  5
A73
330
2
100
AcDbEntity
  8
0
100
AcDbLine
 10
289.0724709298229
 20
350.8628978734539
 30
0.0
 11
289.841406929823
 21
306.8105448734539
 31
0.0
  0
LINE
  5
A74
330
2
100
AcDbEntity
  8
CENTER
100
AcDbLine
 10
275.0512140998515
 20
346.8105598734537
 30
0.0
 11
287.6315997597943
 21
346.8105598734537
 31
0.0
  0
LINE
  5
A75
330
2
100
AcDbEntity
  8
CENTER
100
AcDbLine
 10
281.3414069298229
 20
340.5203670434823
 30
0.0
 11
281.3414069298229
 21
353.1007527034251
 31
0.0
  0
CIRCLE
  5
A76
330
2
100
AcDbEntity
  8
0
100
AcDbCircle
 10
281.341406929823
 20
346.8105448734539
 30
0.0
 40
3.25
  0
ARC
  5
A77
330
2
100
AcDbEntity
  8
0
100
AcDbCircle
 10
286.072928929823
 20
350.8105598734537
 30
0.0
 40
3.0
100
AcDbArc
 50
1.000000000001775
 51
90.0
  0
ARC
  5
A78
330
2
100
AcDbEntity
  8
0
100
AcDbCircle
 10
287.334906929823
 20
335.8105448734539
 30
0.0
 40
2.0
100
AcDbArc
 50
1.000000000001775
 51
90.0
  0
ARC
  5
1176
330
2
100
AcDbEntity
  8
0
100
AcDbCircle
 10
463.3019450959475
 20
142.3567951048569
 30
0.0
 40
2.0
100
AcDbArc
 50
180.0
 51
270.0
  0
ARC
  5
1177
330
2
100
AcDbEntity
  8
0
100
AcDbCircle
 10
463.3019450959475
 20
98.35679510485675
 30
0.0
 40
2.0
100
AcDbArc
 50
90.00000000000003
 51
180.0
  0
ARC
  5
1178
330
2
100
AcDbEntity
  8
0
100
AcDbCircle
 10
397.3019450959472
 20
98.35679510485675
 30
0.0
 40
2.0
100
AcDbArc
 50
0.000000000000007
 51
89.99999999999998
  0
ARC
  5
1179
330
2
100
AcDbEntity
  8
0
100
AcDbCircle
 10
397.3019450959472
 20
142.3567951048569
 30
0.0
 40
2.0
100
AcDbArc
 50
270.0
 51
0.000000000000007
  0
ARC
  5
1181
330
2
100
AcDbEntity
  8
0
100
AcDbCircle
 10
269.3414069298231
 20
339.810544873454
 30
0.0
 40
2.0
100
AcDbArc
 50
180.0
 51
270.0
  0
ARC
  5
1182
330
2
100
AcDbEntity
  8
0
100
AcDbCircle
 10
225.3414069298229
 20
339.810544873454
 30
0.0
 40
2.0
100
AcDbArc
 50
270.0
 51
0.0
  0
LINE
  5
1183
330
2
100
AcDbEntity
  8
0
100
AcDbLine
 10
266.341406929823
 20
341.8105448734538
 30
0.0
 11
228.3414069298229
 21
341.8105448734538
 31
0.0
  0
LINE
  5
1184
330
2
100
AcDbEntity
  8
0
100
AcDbLine
 10
267.341406929823
 20
340.8105448734538
 30
0.0
 11
267.341406929823
 21
339.810544873454
 31
0.0
  0
ARC
  5
1185
330
2
100
AcDbEntity
  8
0
100
AcDbCircle
 10
266.341410929823
 20
340.8105448734539
 30
0.0
 40
1.0
100
AcDbArc
 50
0.0
 51
90.0
  0
LINE
  5
1186
330
2
100
AcDbEntity
  8
0
100
AcDbLine
 10
227.3414069298229
 20
340.8105448734538
 30
0.0
 11
227.3414069298229
 21
339.810544873454
 31
0.0
  0
ARC
  5
1187
330
2
100
AcDbEntity
  8
0
100
AcDbCircle
 10
228.3414069298229
 20
340.8105448734539
 30
0.0
 40
1.0
100
AcDbArc
 50
90.0
 51
180.0
  0
ARC
  5
1188
330
2
100
AcDbEntity
  8
0
100
AcDbCircle
 10
225.3414069298229
 20
273.8105448734537
 30
0.0
 40
2.0
100
AcDbArc
 50
0.0
 51
90.00000000000003
  0
ARC
  5
1189
330
2
100
AcDbEntity
  8
0
100
AcDbCircle
 10
269.3414069298231
 20
273.8105448734537
 30
0.0
 40
2.0
100
AcDbArc
 50
90.00000000000003
 51
179.9999999999999
  0
ENDSEC
  0
SECTION
  2
OBJECTS
  0
DICTIONARY
  5
7
330
0
100
AcDbDictionary
  3
ACAD_GROUP
350
75
  3
ACAD_LAYOUT
350
61
  3
ACAD_MLINESTYLE
350
76
  3
ACAD_PLOTSETTINGS
350
77
  3
ACAD_PLOTSTYLENAME
350
6
  3
ACADDIM
350
480
  3
ACDBHEADERROUNDTRIPXREC
350
11CC
  3
ACDBVARIABLEDICTIONARY
350
102
  3
DWGPROPS
350
116C
  0
DICTIONARY
  5
11ED
330
2
100
AcDbDictionary
280
     1
  3
ACAD_LAYOUTSELFREF
360
11EE
  0
DICTIONARY
  5
11EF
330
11C6
100
AcDbDictionary
280
     1
  3
ACAD_LAYOUTSELFREF
360
11F0
  0
DICTIONARY
  5
75
102
{ACAD_REACTORS
330
7
102
}
330
7
100
AcDbDictionary
  0
DICTIONARY
  5
61
102
{ACAD_REACTORS
330
7
102
}
330
7
100
AcDbDictionary
  0
DICTIONARY
  5
76
102
{ACAD_REACTORS
330
7
102
}
330
7
100
AcDbDictionary
  3
STANDARD
350
78
  0
DICTIONARY
  5
77
102
{ACAD_REACTORS
330
7
102
}
330
7
100
AcDbDictionary
  0
ACDBDICTIONARYWDFLT
  5
6
102
{ACAD_REACTORS
330
7
102
}
330
7
100
AcDbDictionary
281
     1
  3
Normal
350
5
100
AcDbDictionaryWithDefault
340
5
  0
XRECORD
  5
480
102
{ACAD_REACTORS
330
7
102
}
330
7
100
AcDbXrecord
 90
   990106
  3

 60
     0
 61
     0
 62
     1
 63
     3
 64
     1
 65
     0
 66
     0
 67
     3
 68
     1
 69
     0
 70
     0
 71
     0
 72
     0
 40
0.0
170
     2
340
0
  0
DICTIONARY
  5
11CC
102
{ACAD_REACTORS
330
7
102
}
330
7
100
AcDbDictionary
  3
CEPSNTYPE
350
11D6
  3
DIMSTYLEDATA
350
11DA
  3
FINGERPRINTGUID
350
11D7
  3
HYPERLINKBASE
350
11CF
  3
INSUNITS
350
11D5
  3
LAYOUTDICT
350
11D1
  3
LWETCUNION
350
11D4
  3
PLOTSETDICT
350
11D2
  3
PLOTSTYLNAMDICT
350
11D3
  3
PSVPSCALE
350
11D9
  3
PUCSBASE
350
11DD
  3
PUCSORGBACK
350
11E3
  3
PUCSORGBOTTOM
350
11DF
  3
PUCSORGFRONT
350
11E2
  3
PUCSORGLEFT
350
11E0
  3
PUCSORGRIGHT
350
11E1
  3
PUCSORGTOP
350
11DE
  3
PUCSORTHOREF
350
11DB
  3
PUCSORTHOVIEW
350
11DC
  3
STYLESHEET
350
11D0
  3
TSTACKALIGN
350
11CD
  3
TSTACKSIZE
350
11CE
  3
UCSBASE
350
11E6
  3
UCSORGBACK
350
11EC
  3
UCSORGBOTTOM
350
11E8
  3
UCSORGFRONT
350
11EB
  3
UCSORGLEFT
350
11E9
  3
UCSORGRIGHT
350
11EA
  3
UCSORGTOP
350
11E7
  3
UCSORTHOREF
350
11E4
  3
UCSORTHOVIEW
350
11E5
  3
VERSIONGUID
350
11D8
  0
DICTIONARY
  5
102
102
{ACAD_REACTORS
330
7
102
}
330
7
100
AcDbDictionary
  3
DIMASSOC
350
103
  0
XRECORD
  5
116C
102
{ACAD_REACTORS
330
7
102
}
330
7
100
AcDbXrecord
  1
DWGPROPS COOKIE
  2

  3

  4

  6

  7

  8

  9

300
=
301
=
302
=
303
=
304
=
305
=
306
=
307
=
308
=
309
=
 40
0.0820138657407408
 41
2453759.642471238
 42
2454397.698707858
  1

 90
        0
  0
XRECORD
  5
11EE
102
{ACAD_REACTORS
330
11ED
102
}
330
11ED
100
AcDbXrecord
340
2
  0
XRECORD
  5
11F0
102
{ACAD_REACTORS
330
11EF
102
}
330
11EF
100
AcDbXrecord
340
11C6
  0
MLINESTYLE
  5
78
102
{ACAD_REACTORS
330
76
102
}
330
76
100
AcDbMlineStyle
  2
STANDARD
 70
     0
  3

 62
     0
 51
90.0
 52
90.0
 71
     2
 49
0.5
 62
   256
  6
BYLAYER
 49
-0.5
 62
   256
  6
BYLAYER
  0
ACDBPLACEHOLDER
  5
5
102
{ACAD_REACTORS
330
6
102
}
330
6
100
AcDbPlaceHolder
280
     0
  0
XRECORD
  5
11D6
102
{ACAD_REACTORS
330
11CC
102
}
330
11CC
100
AcDbXrecord
 90
        0
  0
XRECORD
  5
11DA
102
{ACAD_REACTORS
330
11CC
102
}
330
11CC
100
AcDbXrecord
1000
DSTYLE
1002
{
1070
   179
 70
     2
1070
   277
 70
     6
1002
}
  0
XRECORD
  5
11D7
102
{ACAD_REACTORS
330
11CC
102
}
330
11CC
100
AcDbXrecord
  1
{6385560B-F4B1-4644-A7C2-A3E32AC3D232}
  0
XRECORD
  5
11CF
102
{ACAD_REACTORS
330
11CC
102
}
330
11CC
100
AcDbXrecord
  1

  0
XRECORD
  5
11D5
102
{ACAD_REACTORS
330
11CC
102
}
330
11CC
100
AcDbXrecord
 90
        0
  0
XRECORD
  5
11D1
102
{ACAD_REACTORS
330
11CC
102
}
330
11CC
100
AcDbXrecord
340
61
  0
XRECORD
  5
11D4
102
{ACAD_REACTORS
330
11CC
102
}
330
11CC
100
AcDbXrecord
 90
    10781
  0
XRECORD
  5
11D2
102
{ACAD_REACTORS
330
11CC
102
}
330
11CC
100
AcDbXrecord
340
77
  0
XRECORD
  5
11D3
102
{ACAD_REACTORS
330
11CC
102
}
330
11CC
100
AcDbXrecord
340
6
  0
XRECORD
  5
11D9
102
{ACAD_REACTORS
330
11CC
102
}
330
11CC
100
AcDbXrecord
 40
0.0
  0
XRECORD
  5
11DD
102
{ACAD_REACTORS
330
11CC
102
}
330
11CC
100
AcDbXrecord
340
0
  0
XRECORD
  5
11E3
102
{ACAD_REACTORS
330
11CC
102
}
330
11CC
100
AcDbXrecord
 10
0.0
 20
0.0
 30
0.0
  0
XRECORD
  5
11DF
102
{ACAD_REACTORS
330
11CC
102
}
330
11CC
100
AcDbXrecord
 10
0.0
 20
0.0
 30
0.0
  0
XRECORD
  5
11E2
102
{ACAD_REACTORS
330
11CC
102
}
330
11CC
100
AcDbXrecord
 10
0.0
 20
0.0
 30
0.0
  0
XRECORD
  5
11E0
102
{ACAD_REACTORS
330
11CC
102
}
330
11CC
100
AcDbXrecord
 10
0.0
 20
0.0
 30
0.0
  0
XRECORD
  5
11E1
102
{ACAD_REACTORS
330
11CC
102
}
330
11CC
100
AcDbXrecord
 10
0.0
 20
0.0
 30
0.0
  0
XRECORD
  5
11DE
102
{ACAD_REACTORS
330
11CC
102
}
330
11CC
100
AcDbXrecord
 10
0.0
 20
0.0
 30
0.0
  0
XRECORD
  5
11DB
102
{ACAD_REACTORS
330
11CC
102
}
330
11CC
100
AcDbXrecord
340
0
  0
XRECORD
  5
11DC
102
{ACAD_REACTORS
330
11CC
102
}
330
11CC
100
AcDbXrecord
 70
     0
  0
XRECORD
  5
11D0
102
{ACAD_REACTORS
330
11CC
102
}
330
11CC
100
AcDbXrecord
  1
Sekkei.ctb
  0
XRECORD
  5
11CD
102
{ACAD_REACTORS
330
11CC
102
}
330
11CC
100
AcDbXrecord
 90
        1
  0
XRECORD
  5
11CE
102
{ACAD_REACTORS
330
11CC
102
}
330
11CC
100
AcDbXrecord
 90
       70
  0
XRECORD
  5
11E6
102
{ACAD_REACTORS
330
11CC
102
}
330
11CC
100
AcDbXrecord
340
0
  0
XRECORD
  5
11EC
102
{ACAD_REACTORS
330
11CC
102
}
330
11CC
100
AcDbXrecord
 10
0.0
 20
0.0
 30
0.0
  0
XRECORD
  5
11E8
102
{ACAD_REACTORS
330
11CC
102
}
330
11CC
100
AcDbXrecord
 10
0.0
 20
0.0
 30
0.0
  0
XRECORD
  5
11EB
102
{ACAD_REACTORS
330
11CC
102
}
330
11CC
100
AcDbXrecord
 10
0.0
 20
0.0
 30
0.0
  0
XRECORD
  5
11E9
102
{ACAD_REACTORS
330
11CC
102
}
330
11CC
100
AcDbXrecord
 10
0.0
 20
0.0
 30
0.0
  0
XRECORD
  5
11EA
102
{ACAD_REACTORS
330
11CC
102
}
330
11CC
100
AcDbXrecord
 10
0.0
 20
0.0
 30
0.0
  0
XRECORD
  5
11E7
102
{ACAD_REACTORS
330
11CC
102
}
330
11CC
100
AcDbXrecord
 10
0.0
 20
0.0
 30
0.0
  0
XRECORD
  5
11E4
102
{ACAD_REACTORS
330
11CC
102
}
330
11CC
100
AcDbXrecord
340
0
  0
XRECORD
  5
11E5
102
{ACAD_REACTORS
330
11CC
102
}
330
11CC
100
AcDbXrecord
 70
     0
  0
XRECORD
  5
11D8
102
{ACAD_REACTORS
330
11CC
102
}
330
11CC
100
AcDbXrecord
  1
{46E5361D-B555-48BC-B60A-E5DBE2688825}
  0
DICTIONARYVAR
  5
103
102
{ACAD_REACTORS
330
102
102
}
330
102
100
DictionaryVariables
280
     0
  1
1
  0
ENDSEC
  0
EOF
