  0
SECTION
  2
HEADER
  9
$ACADVER
  1
AC1015
  9
$ACADMAINTVER
 70
    20
  9
$DWGCODEPAGE
  3
ANSI_932
  9
$INSBASE
 10
0.0
 20
0.0
 30
0.0
  9
$EXTMIN
 10
21.4668368633
 20
24.841539669
 30
0.0
  9
$EXTMAX
 10
477.3019490959
 20
360.8105598735
 30
0.0
  9
$LIMMIN
 10
0.0
 20
0.0
  9
$LIMMAX
 10
297.0
 20
210.0
  9
$ORTHOMODE
 70
     0
  9
$REGENMODE
 70
     1
  9
$FILLMODE
 70
     1
  9
$QTEXTMODE
 70
     0
  9
$MIRRTEXT
 70
     0
  9
$LTSCALE
 40
2.0
  9
$ATTMODE
 70
     1
  9
$TEXTSIZE
 40
2.0
  9
$TRACEWID
 40
1.0
  9
$TEXTSTYLE
  7
STANDARD
  9
$CLAYER
  8
0
  9
$CELTYPE
  6
BYLAYER
  9
$CECOLOR
 62
   256
  9
$CELTSCALE
 40
1.0
  9
$DISPSILH
 70
     0
  9
$DIMSCALE
 40
2.0
  9
$DIMASZ
 40
1.8
  9
$DIMEXO
 40
0.625
  9
$DIMDLI
 40
3.75
  9
$DIMRND
 40
0.0
  9
$DIMDLE
 40
0.0
  9
$DIMEXE
 40
0.8
  9
$DIMTP
 40
0.0
  9
$DIMTM
 40
0.0
  9
$DIMTXT
 40
1.8
  9
$DIMCEN
 40
2.5
  9
$DIMTSZ
 40
0.0
  9
$DIMTOL
 70
     0
  9
$DIMLIM
 70
     0
  9
$DIMTIH
 70
     0
  9
$DIMTOH
 70
     0
  9
$DIMSE1
 70
     0
  9
$DIMSE2
 70
     0
  9
$DIMTAD
 70
     1
  9
$DIMZIN
 70
     8
  9
$DIMBLK
  1

  9
$DIMASO
 70
     1
  9
$DIMSHO
 70
     1
  9
$DIMPOST
  1

  9
$DIMAPOST
  1

  9
$DIMALT
 70
     0
  9
$DIMALTD
 70
     4
  9
$DIMALTF
 40
0.0394
  9
$DIMLFAC
 40
1.0
  9
$DIMTOFL
 70
     1
  9
$DIMTVP
 40
0.0
  9
$DIMTIX
 70
     0
  9
$DIMSOXD
 70
     0
  9
$DIMSAH
 70
     0
  9
$DIMBLK1
  1

  9
$DIMBLK2
  1

  9
$DIMSTYLE
  2
STANDARD
  9
$DIMCLRD
 70
     0
  9
$DIMCLRE
 70
     0
  9
$DIMCLRT
 70
     0
  9
$DIMTFAC
 40
1.0
  9
$DIMGAP
 40
0.75
  9
$DIMJUST
 70
     0
  9
$DIMSD1
 70
     0
  9
$DIMSD2
 70
     0
  9
$DIMTOLJ
 70
     1
  9
$DIMTZIN
 70
     0
  9
$DIMALTZ
 70
     0
  9
$DIMALTTZ
 70
     0
  9
$DIMUPT
 70
     0
  9
$DIMDEC
 70
     2
  9
$DIMTDEC
 70
     2
  9
$DIMALTU
 70
     8
  9
$DIMALTTD
 70
     4
  9
$DIMTXSTY
  7
STANDARD
  9
$DIMAUNIT
 70
     0
  9
$DIMADEC
 70
     2
  9
$DIMALTRND
 40
0.0
  9
$DIMAZIN
 70
     0
  9
$DIMDSEP
 70
    46
  9
$DIMATFIT
 70
     3
  9
$DIMFRAC
 70
     0
  9
$DIMLDRBLK
  1

  9
$DIMLUNIT
 70
     6
  9
$DIMLWD
 70
    -2
  9
$DIMLWE
 70
    -2
  9
$DIMTMOVE
 70
     0
  9
$LUNITS
 70
     2
  9
$LUPREC
 70
     3
  9
$SKETCHINC
 40
1.0
  9
$FILLETRAD
 40
10.0
  9
$AUNITS
 70
     0
  9
$AUPREC
 70
     2
  9
$MENU
  1
.
  9
$ELEVATION
 40
0.0
  9
$PELEVATION
 40
0.0
  9
$THICKNESS
 40
0.0
  9
$LIMCHECK
 70
     0
  9
$CHAMFERA
 40
0.0
  9
$CHAMFERB
 40
0.0
  9
$CHAMFERC
 40
20.0
  9
$CHAMFERD
 40
0.0
  9
$SKPOLY
 70
     0
  9
$TDCREATE
 40
2453759.642465278
  9
$TDUCREATE
 40
2453759.267471239
  9
$TDUPDATE
 40
2460516.513599537
  9
$TDUUPDATE
 40
2460516.138599537
  9
$TDINDWG
 40
0.0984168519
  9
$TDUSRTIMER
 40
0.0984168519
  9
$USRTIMER
 70
     1
  9
$ANGBASE
 50
0.0
  9
$ANGDIR
 70
     0
  9
$PDMODE
 70
     0
  9
$PDSIZE
 40
-10.0
  9
$PLINEWID
 40
0.0
  9
$SPLFRAME
 70
     0
  9
$SPLINETYPE
 70
     6
  9
$SPLINESEGS
 70
     8
  9
$HANDSEED
  5
15B8
  9
$SURFTAB1
 70
     6
  9
$SURFTAB2
 70
     6
  9
$SURFTYPE
 70
     6
  9
$SURFU
 70
     6
  9
$SURFV
 70
     6
  9
$UCSBASE
  2

  9
$UCSNAME
  2

  9
$UCSORG
 10
0.0
 20
0.0
 30
0.0
  9
$UCSXDIR
 10
1.0
 20
0.0
 30
0.0
  9
$UCSYDIR
 10
0.0
 20
1.0
 30
0.0
  9
$UCSORTHOREF
  2

  9
$UCSORTHOVIEW
 70
     0
  9
$UCSORGTOP
 10
0.0
 20
0.0
 30
0.0
  9
$UCSORGBOTTOM
 10
0.0
 20
0.0
 30
0.0
  9
$UCSORGLEFT
 10
0.0
 20
0.0
 30
0.0
  9
$UCSORGRIGHT
 10
0.0
 20
0.0
 30
0.0
  9
$UCSORGFRONT
 10
0.0
 20
0.0
 30
0.0
  9
$UCSORGBACK
 10
0.0
 20
0.0
 30
0.0
  9
$PUCSBASE
  2

  9
$PUCSNAME
  2

  9
$PUCSORG
 10
0.0
 20
0.0
 30
0.0
  9
$PUCSXDIR
 10
1.0
 20
0.0
 30
0.0
  9
$PUCSYDIR
 10
0.0
 20
1.0
 30
0.0
  9
$PUCSORTHOREF
  2

  9
$PUCSORTHOVIEW
 70
     0
  9
$PUCSORGTOP
 10
0.0
 20
0.0
 30
0.0
  9
$PUCSORGBOTTOM
 10
0.0
 20
0.0
 30
0.0
  9
$PUCSORGLEFT
 10
0.0
 20
0.0
 30
0.0
  9
$PUCSORGRIGHT
 10
0.0
 20
0.0
 30
0.0
  9
$PUCSORGFRONT
 10
0.0
 20
0.0
 30
0.0
  9
$PUCSORGBACK
 10
0.0
 20
0.0
 30
0.0
  9
$USERI1
 70
     0
  9
$USERI2
 70
     0
  9
$USERI3
 70
     0
  9
$USERI4
 70
     0
  9
$USERI5
 70
     0
  9
$USERR1
 40
0.0
  9
$USERR2
 40
0.0
  9
$USERR3
 40
0.0
  9
$USERR4
 40
0.0
  9
$USERR5
 40
0.0
  9
$WORLDVIEW
 70
     1
  9
$SHADEDGE
 70
     3
  9
$SHADEDIF
 70
    70
  9
$TILEMODE
 70
     1
  9
$MAXACTVP
 70
    48
  9
$PINSBASE
 10
0.0
 20
0.0
 30
0.0
  9
$PLIMCHECK
 70
     0
  9
$PEXTMIN
 10
0.0
 20
0.0
 30
0.0
  9
$PEXTMAX
 10
0.0
 20
0.0
 30
0.0
  9
$PLIMMIN
 10
0.0
 20
0.0
  9
$PLIMMAX
 10
12.0
 20
9.0
  9
$UNITMODE
 70
     0
  9
$VISRETAIN
 70
     1
  9
$PLINEGEN
 70
     0
  9
$PSLTSCALE
 70
     1
  9
$TREEDEPTH
 70
  3020
  9
$CMLSTYLE
  2
STANDARD
  9
$CMLJUST
 70
     0
  9
$CMLSCALE
 40
1.0
  9
$PROXYGRAPHICS
 70
     1
  9
$MEASUREMENT
 70
     0
  9
$CELWEIGHT
370
    -1
  9
$ENDCAPS
280
     0
  9
$JOINSTYLE
280
     0
  9
$LWDISPLAY
290
     0
  9
$INSUNITS
 70
     0
  9
$HYPERLINKBASE
  1

  9
$STYLESHEET
  1
SEKKEI.CTB
  9
$XEDIT
290
     1
  9
$CEPSNTYPE
380
     0
  9
$PSTYLEMODE
290
     1
  9
$FINGERPRINTGUID
  2
{6385560B-F4B1-4644-A7C2-A3E32AC3D232}
  9
$VERSIONGUID
  2
{D26F34A1-130D-DE45-A89D-9AD43B448212}
  9
$EXTNAMES
290
     1
  9
$PSVPSCALE
 40
0.0
  9
$OLESTARTUP
290
     0
  0
ENDSEC
  0
SECTION
  2
CLASSES
  0
CLASS
  1
DICTIONARYVAR
  2
AcDbDictionaryVar
  3
ObjectDBX Classes
 90
        0
280
     0
281
     0
  0
CLASS
  1
ACDBDICTIONARYWDFLT
  2
AcDbDictionaryWithDefault
  3
ObjectDBX Classes
 90
        0
280
     0
281
     0
  0
CLASS
  1
MATERIAL
  2
AcDbMaterial
  3
ObjectDBX Classes
 90
     1153
280
     0
281
     0
  0
CLASS
  1
VISUALSTYLE
  2
AcDbVisualStyle
  3
ObjectDBX Classes
 90
     4095
280
     0
281
     0
  0
CLASS
  1
TABLESTYLE
  2
AcDbTableStyle
  3
ObjectDBX Classes
 90
     4095
280
     0
281
     0
  0
CLASS
  1
SCALE
  2
AcDbScale
  3
ObjectDBX Classes
 90
     1153
280
     0
281
     0
  0
CLASS
  1
MLEADERSTYLE
  2
AcDbMLeaderStyle
  3
ACDB_MLEADERSTYLE_CLASS
 90
     4095
280
     0
281
     0
  0
CLASS
  1
CELLSTYLEMAP
  2
AcDbCellStyleMap
  3
ObjectDBX Classes
 90
     1152
280
     0
281
     0
  0
CLASS
  1
ACDBPLACEHOLDER
  2
AcDbPlaceHolder
  3
ObjectDBX Classes
 90
        0
280
     0
281
     0
  0
CLASS
  1
LAYOUT
  2
AcDbLayout
  3
ObjectDBX Classes
 90
        0
280
     0
281
     0
  0
CLASS
  1
ACDBSECTIONVIEWSTYLE
  2
AcDbSectionViewStyle
  3
ObjectDBX Classes
 90
     1025
280
     0
281
     0
  0
CLASS
  1
ACDBDETAILVIEWSTYLE
  2
AcDbDetailViewStyle
  3
ObjectDBX Classes
 90
     1025
280
     0
281
     0
  0
CLASS
  1
SORTENTSTABLE
  2
AcDbSortentsTable
  3
ObjectDBX Classes
 90
        0
280
     0
281
     0
  0
ENDSEC
  0
SECTION
  2
TABLES
  0
TABLE
  2
VPORT
  5
6E
102
{ACAD_XDICTIONARY
360
120A
102
}
330
0
100
AcDbSymbolTable
 70
     1
  0
VPORT
  5
118A
330
6E
100
AcDbSymbolTableRecord
100
AcDbViewportTableRecord
  2
*Active
 70
     0
 10
0.0
 20
0.0
 11
1.0
 21
1.0
 12
277.8712574566
 22
199.0796985326
 13
0.0
 23
0.0
 14
10.0
 24
10.0
 15
10.0
 25
10.0
 16
0.0
 26
0.0
 36
1.0
 17
0.0
 27
0.0
 37
0.0
 40
338.564824724
 41
2.2984693878
 42
50.0
 43
0.0
 44
0.0
 50
0.0
 51
0.0
 71
     0
 72
   100
 73
     1
 74
     3
 75
     0
 76
     0
 77
     0
 78
     0
281
     0
 65
     1
110
0.0
120
0.0
130
0.0
111
1.0
121
0.0
131
0.0
112
0.0
122
1.0
132
0.0
 79
     0
146
0.0
1001
ACAD_NAV_VCDISPLAY
1070
     3
  0
ENDTAB
  0
TABLE
  2
LTYPE
  5
69
330
0
100
AcDbSymbolTable
 70
     4
  0
LTYPE
  5
6A
330
69
100
AcDbSymbolTableRecord
100
AcDbLinetypeTableRecord
  2
BYBLOCK
 70
     0
  3

 72
    65
 73
     0
 40
0.0
  0
LTYPE
  5
6B
330
69
100
AcDbSymbolTableRecord
100
AcDbLinetypeTableRecord
  2
BYLAYER
 70
     0
  3

 72
    65
 73
     0
 40
0.0
  0
LTYPE
  5
8
330
69
100
AcDbSymbolTableRecord
100
AcDbLinetypeTableRecord
  2
CONTINUOUS
 70
     0
  3
Solid line
 72
    65
 73
     0
 40
0.0
  0
LTYPE
  5
27C
330
69
100
AcDbSymbolTableRecord
100
AcDbLinetypeTableRecord
  2
sekkei(A2)
 70
     0
  3
center(A2)  ____ _ ____ _ ____ _ ____ _ ____ _ 
 72
    65
 73
     4
 40
14.2875
 49
9.525
 74
     0
 49
-1.5875
 74
     0
 49
1.5875
 74
     0
 49
-1.5875
 74
     0
  0
LTYPE
  5
2B4
330
69
100
AcDbSymbolTableRecord
100
AcDbLinetypeTableRecord
  2
HIDDEN2
 70
     0
  3
Hidden (.5x) _ _ _ _ _ _ _ _ _ _ _ _ _ _ _ _ _
 72
    65
 73
     2
 40
4.7625
 49
3.175
 74
     0
 49
-1.5875
 74
     0
  0
LTYPE
  5
48F
330
69
100
AcDbSymbolTableRecord
100
AcDbLinetypeTableRecord
  2
sekkei_H
 70
     0
  3
Hidden-S _ _ _ _ _ _ _ _ _ _ _ _ _ _ _ _ _
 72
    65
 73
     2
 40
2.38125
 49
1.5875
 74
     0
 49
-0.79375
 74
     0
  0
ENDTAB
  0
TABLE
  2
LAYER
  5
66
102
{ACAD_XDICTIONARY
360
136E
102
}
330
0
100
AcDbSymbolTable
 70
     9
  0
LAYER
  5
5E
102
{ACAD_XDICTIONARY
360
11E0
102
}
330
66
100
AcDbSymbolTableRecord
100
AcDbLayerTableRecord
  2
0
 70
     0
 62
     7
  6
CONTINUOUS
370
    -3
390
5
  0
LAYER
  5
3E
102
{ACAD_XDICTIONARY
360
11E2
102
}
330
66
100
AcDbSymbolTableRecord
100
AcDbLayerTableRecord
  2
CENTER
 70
     0
 62
     3
  6
sekkei(A2)
370
    -3
390
5
  0
LAYER
  5
135
330
66
100
AcDbSymbolTableRecord
100
AcDbLayerTableRecord
  2
DEFPOINTS
 70
     0
 62
     7
  6
CONTINUOUS
290
     0
370
    -3
390
5
  0
LAYER
  5
2B5
102
{ACAD_XDICTIONARY
360
11E8
102
}
330
66
100
AcDbSymbolTableRecord
100
AcDbLayerTableRecord
  2
HIDS
 70
     0
 62
     1
  6
HIDDEN2
370
    -3
390
5
  0
LAYER
  5
2BA
102
{ACAD_XDICTIONARY
360
11EA
102
}
330
66
100
AcDbSymbolTableRecord
100
AcDbLayerTableRecord
  2
HOJO
 70
     0
 62
     4
  6
CONTINUOUS
370
    -3
390
5
  0
LAYER
  5
3FA
102
{ACAD_XDICTIONARY
360
11EE
102
}
330
66
100
AcDbSymbolTableRecord
100
AcDbLayerTableRecord
  2
TITLE
 70
     0
 62
     4
  6
CONTINUOUS
290
     0
370
    -3
390
5
  0
ENDTAB
  0
TABLE
  2
STYLE
  5
67
330
0
100
AcDbSymbolTable
 70
     1
  0
STYLE
  5
16
330
67
100
AcDbSymbolTableRecord
100
AcDbTextStyleTableRecord
  2
STANDARD
 70
     0
 40
0.0
 41
1.0
 50
0.0
 71
     0
 42
2.0
  3
simplex.shx
  4
extfont.shx
  0
ENDTAB
  0
TABLE
  2
VIEW
  5
6C
330
0
100
AcDbSymbolTable
 70
     0
  0
ENDTAB
  0
TABLE
  2
UCS
  5
6D
330
0
100
AcDbSymbolTable
 70
     0
  0
ENDTAB
  0
TABLE
  2
APPID
  5
70
330
0
100
AcDbSymbolTable
 70
     4
  0
APPID
  5
71
330
70
100
AcDbSymbolTableRecord
100
AcDbRegAppTableRecord
  2
ACAD
 70
     0
  0
APPID
  5
11DD
330
70
100
AcDbSymbolTableRecord
100
AcDbRegAppTableRecord
  2
ACAD_MLEADERVER
 70
     0
  0
APPID
  5
1281
330
70
100
AcDbSymbolTableRecord
100
AcDbRegAppTableRecord
  2
ACAD_NAV_VCDISPLAY
 70
     0
  0
APPID
  5
14C2
330
70
100
AcDbSymbolTableRecord
100
AcDbRegAppTableRecord
  2
ACAD_EXEMPT_FROM_CAD_STANDARDS
 70
     0
  0
ENDTAB
  0
TABLE
  2
DIMSTYLE
  5
72
330
0
100
AcDbSymbolTable
 70
     1
100
AcDbDimStyleTable
 71
     1
340
73
  0
DIMSTYLE
105
73
102
{ACAD_REACTORS
330
856
330
8FF
102
}
330
72
100
AcDbSymbolTableRecord
100
AcDbDimStyleTableRecord
  2
STANDARD
 70
     0
 40
2.0
 41
1.8
 42
0.625
 43
3.75
 44
0.8
 73
     0
 74
     0
 77
     1
 78
     8
140
1.8
141
2.5
143
0.0394
147
0.75
171
     4
172
     1
179
     2
271
     2
272
     2
273
     8
274
     4
277
     6
340
16
  0
ENDTAB
  0
TABLE
  2
BLOCK_RECORD
  5
1
330
0
100
AcDbSymbolTable
 70
    56
  0
BLOCK_RECORD
  5
2
330
1
100
AcDbSymbolTableRecord
100
AcDbBlockTableRecord
  2
*MODEL_SPACE
340
60
  0
BLOCK_RECORD
  5
155B
330
1
100
AcDbSymbolTableRecord
100
AcDbBlockTableRecord
  2
*Paper_Space
340
155C
  0
BLOCK_RECORD
  5
4AC
330
1
100
AcDbSymbolTableRecord
100
AcDbBlockTableRecord
  2
黒丸矢印1
340
0
  0
BLOCK_RECORD
  5
A79
330
1
100
AcDbSymbolTableRecord
100
AcDbBlockTableRecord
  2
*D3
340
0
  0
BLOCK_RECORD
  5
A85
330
1
100
AcDbSymbolTableRecord
100
AcDbBlockTableRecord
  2
*D4
340
0
  0
BLOCK_RECORD
  5
A8F
330
1
100
AcDbSymbolTableRecord
100
AcDbBlockTableRecord
  2
*D5
340
0
  0
BLOCK_RECORD
  5
A9B
330
1
100
AcDbSymbolTableRecord
100
AcDbBlockTableRecord
  2
*D6
340
0
  0
BLOCK_RECORD
  5
AA7
330
1
100
AcDbSymbolTableRecord
100
AcDbBlockTableRecord
  2
*D7
340
0
  0
BLOCK_RECORD
  5
AB3
330
1
100
AcDbSymbolTableRecord
100
AcDbBlockTableRecord
  2
*D8
340
0
  0
BLOCK_RECORD
  5
ABF
330
1
100
AcDbSymbolTableRecord
100
AcDbBlockTableRecord
  2
*D9
340
0
  0
BLOCK_RECORD
  5
ACB
330
1
100
AcDbSymbolTableRecord
100
AcDbBlockTableRecord
  2
*D10
340
0
  0
BLOCK_RECORD
  5
AD7
330
1
100
AcDbSymbolTableRecord
100
AcDbBlockTableRecord
  2
*D11
340
0
  0
BLOCK_RECORD
  5
AE3
330
1
100
AcDbSymbolTableRecord
100
AcDbBlockTableRecord
  2
*D12
340
0
  0
BLOCK_RECORD
  5
AEF
330
1
100
AcDbSymbolTableRecord
100
AcDbBlockTableRecord
  2
*D13
340
0
  0
BLOCK_RECORD
  5
AFB
330
1
100
AcDbSymbolTableRecord
100
AcDbBlockTableRecord
  2
*D14
340
0
  0
BLOCK_RECORD
  5
B07
330
1
100
AcDbSymbolTableRecord
100
AcDbBlockTableRecord
  2
*D15
340
0
  0
BLOCK_RECORD
  5
B13
330
1
100
AcDbSymbolTableRecord
100
AcDbBlockTableRecord
  2
*D16
340
0
  0
BLOCK_RECORD
  5
B1F
330
1
100
AcDbSymbolTableRecord
100
AcDbBlockTableRecord
  2
*D17
340
0
  0
BLOCK_RECORD
  5
B2B
330
1
100
AcDbSymbolTableRecord
100
AcDbBlockTableRecord
  2
*D18
340
0
  0
BLOCK_RECORD
  5
B37
330
1
100
AcDbSymbolTableRecord
100
AcDbBlockTableRecord
  2
*D19
340
0
  0
BLOCK_RECORD
  5
B43
330
1
100
AcDbSymbolTableRecord
100
AcDbBlockTableRecord
  2
*D20
340
0
  0
BLOCK_RECORD
  5
B4F
330
1
100
AcDbSymbolTableRecord
100
AcDbBlockTableRecord
  2
*D21
340
0
  0
BLOCK_RECORD
  5
B5B
330
1
100
AcDbSymbolTableRecord
100
AcDbBlockTableRecord
  2
*D22
340
0
  0
BLOCK_RECORD
  5
B67
330
1
100
AcDbSymbolTableRecord
100
AcDbBlockTableRecord
  2
*D23
340
0
  0
BLOCK_RECORD
  5
B75
330
1
100
AcDbSymbolTableRecord
100
AcDbBlockTableRecord
  2
*D24
340
0
  0
BLOCK_RECORD
  5
B81
330
1
100
AcDbSymbolTableRecord
100
AcDbBlockTableRecord
  2
*D25
340
0
  0
BLOCK_RECORD
  5
B8D
330
1
100
AcDbSymbolTableRecord
100
AcDbBlockTableRecord
  2
*D26
340
0
  0
BLOCK_RECORD
  5
B99
330
1
100
AcDbSymbolTableRecord
100
AcDbBlockTableRecord
  2
*D27
340
0
  0
BLOCK_RECORD
  5
BA5
330
1
100
AcDbSymbolTableRecord
100
AcDbBlockTableRecord
  2
*D28
340
0
  0
BLOCK_RECORD
  5
12E8
330
1
100
AcDbSymbolTableRecord
100
AcDbBlockTableRecord
  2
A$C6643dda2
340
0
102
{BLKREFS
331
1375
102
}
  0
BLOCK_RECORD
  5
1376
102
{ACAD_XDICTIONARY
360
1377
102
}
330
1
100
AcDbSymbolTableRecord
100
AcDbBlockTableRecord
  2
A$C57c306b1
340
0
102
{BLKREFS
331
13EF
331
13F0
331
13F1
331
13F2
102
}
  0
BLOCK_RECORD
  5
138D
330
1
100
AcDbSymbolTableRecord
100
AcDbBlockTableRecord
  2
A$C46bf166a
340
0
102
{BLKREFS
331
13F9
102
}
  0
ENDTAB
  0
ENDSEC
  0
SECTION
  2
BLOCKS
  0
BLOCK
  5
5D
330
2
100
AcDbEntity
  8
0
100
AcDbBlockBegin
  2
*MODEL_SPACE
 70
     0
 10
0.0
 20
0.0
 30
0.0
  3
*MODEL_SPACE
  1

  0
ENDBLK
  5
5F
330
2
100
AcDbEntity
  8
0
100
AcDbBlockEnd
  0
BLOCK
  5
155D
330
155B
100
AcDbEntity
 67
     1
  8
0
100
AcDbBlockBegin
  2
*Paper_Space
 70
     0
 10
0.0
 20
0.0
 30
0.0
  3
*Paper_Space
  1

  0
ENDBLK
  5
155E
330
155B
100
AcDbEntity
 67
     1
  8
0
100
AcDbBlockEnd
  0
BLOCK
  5
4B0
330
4AC
100
AcDbEntity
  8
0
100
AcDbBlockBegin
  2
黒丸矢印1
 70
     0
 10
0.0
 20
0.0
 30
0.0
  3
黒丸矢印1
  1

  0
HATCH
  5
4AD
330
4AC
100
AcDbEntity
  8
0
100
AcDbHatch
 10
0.0
 20
0.0
 30
0.0
210
0.0
220
0.0
230
1.0
  2
SOLID
 70
     1
 71
     1
 91
        1
 92
        7
 72
     1
 73
     1
 93
        2
 10
-0.25
 20
0.0
 42
1.0
 10
0.25
 20
0.0
 42
1.0
 97
        1
330
4AE
 75
     0
 76
     1
 47
0.0031599728
 98
        1
 10
-0.0919668375711354
 20
0.0618998464179867
  0
CIRCLE
  5
4AE
102
{ACAD_REACTORS
330
4AD
102
}
330
4AC
100
AcDbEntity
  8
0
100
AcDbCircle
 10
0.0
 20
0.0
 30
0.0
 40
0.25
  0
LINE
  5
4AF
330
4AC
100
AcDbEntity
  8
0
100
AcDbLine
 10
0.0
 20
0.0
 30
0.0
 11
-1.0
 21
0.0
 31
0.0
  0
ENDBLK
  5
4B1
330
4AC
100
AcDbEntity
  8
0
100
AcDbBlockEnd
  0
BLOCK
  5
A83
330
A79
100
AcDbEntity
  8
0
100
AcDbBlockBegin
  2
*D3
 70
     1
 10
0.0
 20
0.0
 30
0.0
  3
*D3
  1

  0
POINT
  5
EA0
330
A79
100
AcDbEntity
  8
DEFPOINTS
 62
     0
100
AcDbPoint
 10
114.8414349878
 20
157.0568151048
 30
0.0
  0
POINT
  5
EA1
330
A79
100
AcDbEntity
  8
DEFPOINTS
 62
     0
100
AcDbPoint
 10
68.8414129298
 20
98.0567961049
 30
0.0
  0
POINT
  5
EA2
330
A79
100
AcDbEntity
  8
DEFPOINTS
 62
     0
100
AcDbPoint
 10
46.7642108527
 20
98.0567961049
 30
0.0
  0
ENDBLK
  5
A84
330
A79
100
AcDbEntity
  8
0
100
AcDbBlockEnd
  0
BLOCK
  5
A8D
330
A85
100
AcDbEntity
  8
0
100
AcDbBlockBegin
  2
*D4
 70
     1
 10
0.0
 20
0.0
 30
0.0
  3
*D4
  1

  0
POINT
  5
EB0
330
A85
100
AcDbEntity
  8
DEFPOINTS
 62
     0
100
AcDbPoint
 10
107.3422679298
 20
128.8067961049
 30
0.0
  0
POINT
  5
EB1
330
A85
100
AcDbEntity
  8
DEFPOINTS
 62
     0
100
AcDbPoint
 10
107.3414129298
 20
67.3068171049
 30
0.0
  0
POINT
  5
EB2
330
A85
100
AcDbEntity
  8
DEFPOINTS
 62
     0
100
AcDbPoint
 10
58.7538026881
 20
67.3068171049
 30
0.0
  0
ENDBLK
  5
A8E
330
A85
100
AcDbEntity
  8
0
100
AcDbBlockEnd
  0
BLOCK
  5
A99
330
A8F
100
AcDbEntity
  8
0
100
AcDbBlockBegin
  2
*D5
 70
     1
 10
0.0
 20
0.0
 30
0.0
  3
*D5
  1

  0
POINT
  5
F01
330
A8F
100
AcDbEntity
  8
DEFPOINTS
 62
     0
100
AcDbPoint
 10
390.3019410959
 20
51.8567981049
 30
0.0
  0
POINT
  5
F02
330
A8F
100
AcDbEntity
  8
DEFPOINTS
 62
     0
100
AcDbPoint
 10
366.3019410959
 20
112.8568001049
 30
0.0
  0
POINT
  5
F03
330
A8F
100
AcDbEntity
  8
DEFPOINTS
 62
     0
100
AcDbPoint
 10
366.3019410959
 20
38.451716192
 30
0.0
  0
ENDBLK
  5
A9A
330
A8F
100
AcDbEntity
  8
0
100
AcDbBlockEnd
  0
BLOCK
  5
AA5
330
A9B
100
AcDbEntity
  8
0
100
AcDbBlockBegin
  2
*D6
 70
     1
 10
0.0
 20
0.0
 30
0.0
  3
*D6
  1

  0
POINT
  5
EC2
330
A9B
100
AcDbEntity
  8
DEFPOINTS
 62
     0
100
AcDbPoint
 10
430.3019450959
 20
164.0568191049
 30
0.0
  0
POINT
  5
EC3
330
A9B
100
AcDbEntity
  8
DEFPOINTS
 62
     0
100
AcDbPoint
 10
366.3019410959
 20
127.8568001049
 30
0.0
  0
POINT
  5
EC4
330
A9B
100
AcDbEntity
  8
DEFPOINTS
 62
     0
100
AcDbPoint
 10
366.3019410959
 20
185.9391947858
 30
0.0
  0
ENDBLK
  5
AA6
330
A9B
100
AcDbEntity
  8
0
100
AcDbBlockEnd
  0
BLOCK
  5
AB1
330
AA7
100
AcDbEntity
  8
0
100
AcDbBlockBegin
  2
*D7
 70
     1
 10
0.0
 20
0.0
 30
0.0
  3
*D7
  1

  0
POINT
  5
ECB
330
AA7
100
AcDbEntity
  8
DEFPOINTS
 62
     0
100
AcDbPoint
 10
477.3019450959
 20
61.3567981049
 30
0.0
  0
POINT
  5
ECC
330
AA7
100
AcDbEntity
  8
DEFPOINTS
 62
     0
100
AcDbPoint
 10
366.3019410959
 20
127.8568001049
 30
0.0
  0
POINT
  5
ECD
330
AA7
100
AcDbEntity
  8
DEFPOINTS
 62
     0
100
AcDbPoint
 10
366.3019410959
 20
198.0113538048
 30
0.0
  0
ENDBLK
  5
AB2
330
AA7
100
AcDbEntity
  8
0
100
AcDbBlockEnd
  0
BLOCK
  5
ABD
330
AB3
100
AcDbEntity
  8
0
100
AcDbBlockBegin
  2
*D8
 70
     1
 10
0.0
 20
0.0
 30
0.0
  3
*D8
  1

  0
POINT
  5
F4E
330
AB3
100
AcDbEntity
  8
DEFPOINTS
 62
     0
100
AcDbPoint
 10
383.3019450959
 20
55.3567981049
 30
0.0
  0
POINT
  5
F4F
330
AB3
100
AcDbEntity
  8
DEFPOINTS
 62
     0
100
AcDbPoint
 10
477.3019490959
 20
55.3567981049
 30
0.0
  0
POINT
  5
F50
330
AB3
100
AcDbEntity
  8
DEFPOINTS
 62
     0
100
AcDbPoint
 10
477.3019490959
 20
26.441544669
 30
0.0
  0
ENDBLK
  5
ABE
330
AB3
100
AcDbEntity
  8
0
100
AcDbBlockEnd
  0
BLOCK
  5
AC9
330
ABF
100
AcDbEntity
  8
0
100
AcDbBlockBegin
  2
*D9
 70
     1
 10
0.0
 20
0.0
 30
0.0
  3
*D9
  1

  0
POINT
  5
ED4
330
ABF
100
AcDbEntity
  8
DEFPOINTS
 62
     0
100
AcDbPoint
 10
393.3019410959
 20
128.8568001049
 30
0.0
  0
POINT
  5
ED5
330
ABF
100
AcDbEntity
  8
DEFPOINTS
 62
     0
100
AcDbPoint
 10
366.3019410959
 20
127.8568001049
 30
0.0
  0
POINT
  5
ED6
330
ABF
100
AcDbEntity
  8
DEFPOINTS
 62
     0
100
AcDbPoint
 10
366.3019410959
 20
174.1152791057
 30
0.0
  0
ENDBLK
  5
ACA
330
ABF
100
AcDbEntity
  8
0
100
AcDbBlockEnd
  0
BLOCK
  5
AD5
330
ACB
100
AcDbEntity
  8
0
100
AcDbBlockBegin
  2
*D10
 70
     1
 10
0.0
 20
0.0
 30
0.0
  3
*D10
  1

  0
POINT
  5
F32
330
ACB
100
AcDbEntity
  8
DEFPOINTS
 62
     0
100
AcDbPoint
 10
213.3414069298
 20
51.8567951049
 30
0.0
  0
POINT
  5
F33
330
ACB
100
AcDbEntity
  8
DEFPOINTS
 62
     0
100
AcDbPoint
 10
281.3414069298
 20
51.8567951049
 30
0.0
  0
POINT
  5
F34
330
ACB
100
AcDbEntity
  8
DEFPOINTS
 62
     0
100
AcDbPoint
 10
281.3414069298
 20
38.451711192
 30
0.0
  0
ENDBLK
  5
AD6
330
ACB
100
AcDbEntity
  8
0
100
AcDbBlockEnd
  0
BLOCK
  5
AE1
330
AD7
100
AcDbEntity
  8
0
100
AcDbBlockBegin
  2
*D11
 70
     1
 10
0.0
 20
0.0
 30
0.0
  3
*D11
  1

  0
POINT
  5
E7C
330
AD7
100
AcDbEntity
  8
DEFPOINTS
 62
     0
100
AcDbPoint
 10
204.8414149298
 20
55.3567951049
 30
0.0
  0
POINT
  5
E7D
330
AD7
100
AcDbEntity
  8
DEFPOINTS
 62
     0
100
AcDbPoint
 10
289.8414069298
 20
55.3567951049
 30
0.0
  0
POINT
  5
E7E
330
AD7
100
AcDbEntity
  8
DEFPOINTS
 62
     0
100
AcDbPoint
 10
289.8414069298
 20
26.441539669
 30
0.0
  0
ENDBLK
  5
AE2
330
AD7
100
AcDbEntity
  8
0
100
AcDbBlockEnd
  0
BLOCK
  5
AED
330
AE3
100
AcDbEntity
  8
0
100
AcDbBlockBegin
  2
*D12
 70
     1
 10
0.0
 20
0.0
 30
0.0
  3
*D12
  1

  0
POINT
  5
F3B
330
AE3
100
AcDbEntity
  8
DEFPOINTS
 62
     0
100
AcDbPoint
 10
220.5914694374
 20
120.3567951049
 30
0.0
  0
POINT
  5
F3C
330
AE3
100
AcDbEntity
  8
DEFPOINTS
 62
     0
100
AcDbPoint
 10
224.0914069298
 20
98.0567961049
 30
0.0
  0
POINT
  5
F3D
330
AE3
100
AcDbEntity
  8
DEFPOINTS
 62
     0
100
AcDbPoint
 10
219.0665196668
 20
98.0567961049
 30
0.0
  0
ENDBLK
  5
AEE
330
AE3
100
AcDbEntity
  8
0
100
AcDbBlockEnd
  0
BLOCK
  5
AF9
330
AEF
100
AcDbEntity
  8
0
100
AcDbBlockBegin
  2
*D13
 70
     1
 10
0.0
 20
0.0
 30
0.0
  3
*D13
  1

  0
POINT
  5
E85
330
AEF
100
AcDbEntity
  8
DEFPOINTS
 62
     0
100
AcDbPoint
 10
247.3414069298
 20
159.9567941049
 30
0.0
  0
POINT
  5
E86
330
AEF
100
AcDbEntity
  8
DEFPOINTS
 62
     0
100
AcDbPoint
 10
75.8414129298
 20
125.5757861049
 30
0.0
  0
POINT
  5
E87
330
AEF
100
AcDbEntity
  8
DEFPOINTS
 62
     0
100
AcDbPoint
 10
75.8414129298
 20
186.140610336
 30
0.0
  0
ENDBLK
  5
AFA
330
AEF
100
AcDbEntity
  8
0
100
AcDbBlockEnd
  0
BLOCK
  5
B05
330
AFB
100
AcDbEntity
  8
0
100
AcDbBlockBegin
  2
*D14
 70
     1
 10
0.0
 20
0.0
 30
0.0
  3
*D14
  1

  0
POINT
  5
E8E
330
AFB
100
AcDbEntity
  8
DEFPOINTS
 62
     0
100
AcDbPoint
 10
289.8414069298
 20
131.0573721049
 30
0.0
  0
POINT
  5
E8F
330
AFB
100
AcDbEntity
  8
DEFPOINTS
 62
     0
100
AcDbPoint
 10
75.8414129298
 20
125.5757861049
 30
0.0
  0
POINT
  5
E90
330
AFB
100
AcDbEntity
  8
DEFPOINTS
 62
     0
100
AcDbPoint
 10
75.8414129298
 20
198.074793695
 30
0.0
  0
ENDBLK
  5
B06
330
AFB
100
AcDbEntity
  8
0
100
AcDbBlockEnd
  0
BLOCK
  5
B11
330
B07
100
AcDbEntity
  8
0
100
AcDbBlockBegin
  2
*D15
 70
     1
 10
0.0
 20
0.0
 30
0.0
  3
*D15
  1

  0
POINT
  5
EB9
330
B07
100
AcDbEntity
  8
DEFPOINTS
 62
     0
100
AcDbPoint
 10
154.8052363792
 20
136.0567921049
 30
0.0
  0
POINT
  5
EBA
330
B07
100
AcDbEntity
  8
DEFPOINTS
 62
     0
100
AcDbPoint
 10
154.8052363792
 20
60.0568151049
 30
0.0
  0
POINT
  5
EBB
330
B07
100
AcDbEntity
  8
DEFPOINTS
 62
     0
100
AcDbPoint
 10
154.5904357288
 20
60.0568151049
 30
0.0
  0
ENDBLK
  5
B12
330
B07
100
AcDbEntity
  8
0
100
AcDbBlockEnd
  0
BLOCK
  5
B1D
330
B13
100
AcDbEntity
  8
0
100
AcDbBlockBegin
  2
*D16
 70
     1
 10
0.0
 20
0.0
 30
0.0
  3
*D16
  1

  0
POINT
  5
EA9
330
B13
100
AcDbEntity
  8
DEFPOINTS
 62
     0
100
AcDbPoint
 10
97.8415329298
 20
154.0567921049
 30
0.0
  0
POINT
  5
EAA
330
B13
100
AcDbEntity
  8
DEFPOINTS
 62
     0
100
AcDbPoint
 10
75.8414129298
 20
125.5757861049
 30
0.0
  0
POINT
  5
EAB
330
B13
100
AcDbEntity
  8
DEFPOINTS
 62
     0
100
AcDbPoint
 10
75.8414129298
 20
174.1152741057
 30
0.0
  0
ENDBLK
  5
B1E
330
B13
100
AcDbEntity
  8
0
100
AcDbBlockEnd
  0
BLOCK
  5
B29
330
B1F
100
AcDbEntity
  8
0
100
AcDbBlockBegin
  2
*D17
 70
     1
 10
0.0
 20
0.0
 30
0.0
  3
*D17
  1

  0
POINT
  5
E97
330
B1F
100
AcDbEntity
  8
DEFPOINTS
 62
     0
100
AcDbPoint
 10
97.8415329298
 20
154.0567921049
 30
0.0
  0
POINT
  5
E98
330
B1F
100
AcDbEntity
  8
DEFPOINTS
 62
     0
100
AcDbPoint
 10
131.8415329298
 20
154.0567921049
 30
0.0
  0
POINT
  5
E99
330
B1F
100
AcDbEntity
  8
DEFPOINTS
 62
     0
100
AcDbPoint
 10
131.8415329298
 20
174.1152741057
 30
0.0
  0
ENDBLK
  5
B2A
330
B1F
100
AcDbEntity
  8
0
100
AcDbBlockEnd
  0
BLOCK
  5
B35
330
B2B
100
AcDbEntity
  8
0
100
AcDbBlockBegin
  2
*D18
 70
     1
 10
0.0
 20
0.0
 30
0.0
  3
*D18
  1

  0
POINT
  5
F0A
330
B2B
100
AcDbEntity
  8
DEFPOINTS
 62
     0
100
AcDbPoint
 10
359.3019410959
 20
120.3568001049
 30
0.0
  0
POINT
  5
F0B
330
B2B
100
AcDbEntity
  8
DEFPOINTS
 62
     0
100
AcDbPoint
 10
383.3019410959
 20
55.3567981049
 30
0.0
  0
POINT
  5
F0C
330
B2B
100
AcDbEntity
  8
DEFPOINTS
 62
     0
100
AcDbPoint
 10
342.091707982
 20
55.3567981049
 30
0.0
  0
ENDBLK
  5
B36
330
B2B
100
AcDbEntity
  8
0
100
AcDbBlockEnd
  0
BLOCK
  5
B41
330
B37
100
AcDbEntity
  8
0
100
AcDbBlockBegin
  2
*D19
 70
     1
 10
0.0
 20
0.0
 30
0.0
  3
*D19
  1

  0
POINT
  5
F85
330
B37
100
AcDbEntity
  8
DEFPOINTS
 62
     0
100
AcDbPoint
 10
260.7619089298
 20
152.9567941049
 30
0.0
  0
POINT
  5
F86
330
B37
100
AcDbEntity
  8
DEFPOINTS
 62
     0
100
AcDbPoint
 10
289.8414069298
 20
55.3567951049
 30
0.0
  0
POINT
  5
F87
330
B37
100
AcDbEntity
  8
DEFPOINTS
 62
     0
100
AcDbPoint
 10
314.0848251712
 20
55.3567951049
 30
0.0
  0
ENDBLK
  5
B42
330
B37
100
AcDbEntity
  8
0
100
AcDbBlockEnd
  0
BLOCK
  5
B4D
330
B43
100
AcDbEntity
  8
0
100
AcDbBlockBegin
  2
*D20
 70
     1
 10
0.0
 20
0.0
 30
0.0
  3
*D20
  1

  0
POINT
  5
F15
330
B43
100
AcDbEntity
  8
DEFPOINTS
 62
     0
100
AcDbPoint
 10
383.3019410959
 20
55.3567981049
 30
0.0
  0
POINT
  5
F16
330
B43
100
AcDbEntity
  8
DEFPOINTS
 62
     0
100
AcDbPoint
 10
385.3019410959
 20
63.3567981049
 30
0.0
  0
POINT
  5
F17
330
B43
100
AcDbEntity
  8
DEFPOINTS
 62
     0
100
AcDbPoint
 10
373.2562475069
 20
63.3567981049
 30
0.0
  0
ENDBLK
  5
B4E
330
B43
100
AcDbEntity
  8
0
100
AcDbBlockEnd
  0
BLOCK
  5
B59
330
B4F
100
AcDbEntity
  8
0
100
AcDbBlockBegin
  2
*D21
 70
     1
 10
0.0
 20
0.0
 30
0.0
  3
*D21
  1

  0
POINT
  5
EDD
330
B4F
100
AcDbEntity
  8
DEFPOINTS
 62
     0
100
AcDbPoint
 10
239.8414069298
 20
120.3567951049
 30
0.0
  0
POINT
  5
EDE
330
B4F
100
AcDbEntity
  8
DEFPOINTS
 62
     0
100
AcDbPoint
 10
256.8414069298
 20
122.8567951049
 30
0.0
  0
POINT
  5
EDF
330
B4F
100
AcDbEntity
  8
DEFPOINTS
 62
     0
100
AcDbPoint
 10
256.8414069298
 20
174.1152741057
 30
0.0
  0
ENDBLK
  5
B5A
330
B4F
100
AcDbEntity
  8
0
100
AcDbBlockEnd
  0
BLOCK
  5
B65
330
B5B
100
AcDbEntity
  8
0
100
AcDbBlockBegin
  2
*D22
 70
     1
 10
0.0
 20
0.0
 30
0.0
  3
*D22
  1

  0
POINT
  5
EE6
330
B5B
100
AcDbEntity
  8
DEFPOINTS
 62
     0
100
AcDbPoint
 10
247.3414069298
 20
159.9567941049
 30
0.0
  0
POINT
  5
EE7
330
B5B
100
AcDbEntity
  8
DEFPOINTS
 62
     0
100
AcDbPoint
 10
289.8414069298
 20
131.0573721049
 30
0.0
  0
POINT
  5
EE8
330
B5B
100
AcDbEntity
  8
DEFPOINTS
 62
     0
100
AcDbPoint
 10
289.8414069298
 20
186.140610336
 30
0.0
  0
ENDBLK
  5
B66
330
B5B
100
AcDbEntity
  8
0
100
AcDbBlockEnd
  0
BLOCK
  5
B73
330
B67
100
AcDbEntity
  8
0
100
AcDbBlockBegin
  2
*D23
 70
     1
 10
0.0
 20
0.0
 30
0.0
  3
*D23
  1

  0
POINT
  5
F20
330
B67
100
AcDbEntity
  8
DEFPOINTS
 62
     0
100
AcDbPoint
 10
256.8414069298
 20
117.8567951049
 30
0.0
  0
POINT
  5
F21
330
B67
100
AcDbEntity
  8
DEFPOINTS
 62
     0
100
AcDbPoint
 10
256.8414069298
 20
122.8567951049
 30
0.0
  0
POINT
  5
F22
330
B67
100
AcDbEntity
  8
DEFPOINTS
 62
     0
100
AcDbPoint
 10
302.1205808799
 20
122.8567951049
 30
0.0
  0
ENDBLK
  5
B74
330
B67
100
AcDbEntity
  8
0
100
AcDbBlockEnd
  0
BLOCK
  5
B7F
330
B75
100
AcDbEntity
  8
0
100
AcDbBlockBegin
  2
*D24
 70
     1
 10
0.0
 20
0.0
 30
0.0
  3
*D24
  1

  0
POINT
  5
EEF
330
B75
100
AcDbEntity
  8
DEFPOINTS
 62
     0
100
AcDbPoint
 10
387.8019410959
 20
122.8567841049
 30
0.0
  0
POINT
  5
EF0
330
B75
100
AcDbEntity
  8
DEFPOINTS
 62
     0
100
AcDbPoint
 10
366.3019410959
 20
127.8568001049
 30
0.0
  0
POINT
  5
EF1
330
B75
100
AcDbEntity
  8
DEFPOINTS
 62
     0
100
AcDbPoint
 10
366.3019410959
 20
162.1516491557
 30
0.0
  0
ENDBLK
  5
B80
330
B75
100
AcDbEntity
  8
0
100
AcDbBlockEnd
  0
BLOCK
  5
B8B
330
B81
100
AcDbEntity
  8
0
100
AcDbBlockBegin
  2
*D25
 70
     1
 10
0.0
 20
0.0
 30
0.0
  3
*D25
  1

  0
POINT
  5
F45
330
B81
100
AcDbEntity
  8
DEFPOINTS
 62
     0
100
AcDbPoint
 10
366.3019410959
 20
112.8568001049
 30
0.0
  0
POINT
  5
F46
330
B81
100
AcDbEntity
  8
DEFPOINTS
 62
     0
100
AcDbPoint
 10
366.3019410959
 20
127.8568001049
 30
0.0
  0
POINT
  5
F47
330
B81
100
AcDbEntity
  8
DEFPOINTS
 62
     0
100
AcDbPoint
 10
354.0389441572
 20
127.8568001049
 30
0.0
  0
ENDBLK
  5
B8C
330
B81
100
AcDbEntity
  8
0
100
AcDbBlockEnd
  0
BLOCK
  5
B97
330
B8D
100
AcDbEntity
  8
0
100
AcDbBlockBegin
  2
*D26
 70
     1
 10
0.0
 20
0.0
 30
0.0
  3
*D26
  1

  0
POINT
  5
EF8
330
B8D
100
AcDbEntity
  8
DEFPOINTS
 62
     0
100
AcDbPoint
 10
430.3019450959
 20
164.0568191049
 30
0.0
  0
POINT
  5
EF9
330
B8D
100
AcDbEntity
  8
DEFPOINTS
 62
     0
100
AcDbPoint
 10
477.3019450959
 20
61.3567981049
 30
0.0
  0
POINT
  5
EFA
330
B8D
100
AcDbEntity
  8
DEFPOINTS
 62
     0
100
AcDbPoint
 10
477.3019450959
 20
185.9391947858
 30
0.0
  0
ENDBLK
  5
B98
330
B8D
100
AcDbEntity
  8
0
100
AcDbBlockEnd
  0
BLOCK
  5
BA3
330
B99
100
AcDbEntity
  8
0
100
AcDbBlockBegin
  2
*D27
 70
     1
 10
0.0
 20
0.0
 30
0.0
  3
*D27
  1

  0
POINT
  5
F57
330
B99
100
AcDbEntity
  8
DEFPOINTS
 62
     0
100
AcDbPoint
 10
390.3019450959
 20
51.8567981049
 30
0.0
  0
POINT
  5
F58
330
B99
100
AcDbEntity
  8
DEFPOINTS
 62
     0
100
AcDbPoint
 10
470.3019490959
 20
51.8567981049
 30
0.0
  0
POINT
  5
F59
330
B99
100
AcDbEntity
  8
DEFPOINTS
 62
     0
100
AcDbPoint
 10
470.3019490959
 20
38.451716192
 30
0.0
  0
ENDBLK
  5
BA4
330
B99
100
AcDbEntity
  8
0
100
AcDbBlockEnd
  0
BLOCK
  5
BAF
330
BA5
100
AcDbEntity
  8
0
100
AcDbBlockBegin
  2
*D28
 70
     1
 10
0.0
 20
0.0
 30
0.0
  3
*D28
  1

  0
POINT
  5
F60
330
BA5
100
AcDbEntity
  8
DEFPOINTS
 62
     0
100
AcDbPoint
 10
407.3019450959
 20
155.5402181049
 30
0.0
  0
POINT
  5
F61
330
BA5
100
AcDbEntity
  8
DEFPOINTS
 62
     0
100
AcDbPoint
 10
453.3019490959
 20
155.5402181049
 30
0.0
  0
POINT
  5
F62
330
BA5
100
AcDbEntity
  8
DEFPOINTS
 62
     0
100
AcDbPoint
 10
453.3019490959
 20
174.1152791057
 30
0.0
  0
ENDBLK
  5
BB0
330
BA5
100
AcDbEntity
  8
0
100
AcDbBlockEnd
  0
BLOCK
  5
12E9
330
12E8
100
AcDbEntity
  8
0
100
AcDbBlockBegin
  2
A$C6643dda2
 70
     0
 10
0.0
 20
0.0
 30
0.0
  3
A$C6643dda2
  1

  0
LINE
  5
12EA
330
12E8
100
AcDbEntity
  8
0
100
AcDbLine
 10
0.0
 20
-37.999978
 30
0.0
 11
0.0
 21
38.000001
 31
0.0
  0
LINE
  5
12EB
330
12E8
100
AcDbEntity
  8
0
100
AcDbLine
 10
-25.0
 20
30.538935
 30
0.0
 11
-25.0
 21
-37.000009
 31
0.0
  0
LINE
  5
12EC
330
12E8
100
AcDbEntity
  8
0
100
AcDbLine
 10
-56.5
 20
28.268985
 30
0.0
 11
-56.5
 21
-27.568078
 31
0.0
  0
LINE
  5
12ED
330
12E8
100
AcDbEntity
  8
0
100
AcDbLine
 10
-23.000305
 20
-37.598527
 30
0.0
 11
0.0
 21
-38.000001
 31
0.0
  0
LINE
  5
12EE
330
12E8
100
AcDbEntity
  8
0
100
AcDbLine
 10
0.0
 20
-30.248971
 30
0.0
 11
-14.0
 21
-30.248971
 31
0.0
  0
LINE
  5
12EF
330
12E8
100
AcDbEntity
  8
0
100
AcDbLine
 10
-52.696838
 20
-30.024709
 30
0.0
 11
-25.0
 21
-30.749978
 31
0.0
  0
ARC
  5
12F0
330
12E8
100
AcDbEntity
  8
0
100
AcDbCircle
 10
-52.565956
 20
-25.026426
 30
0.0
 40
5.0
100
AcDbArc
 50
250.219711
 51
268.5
  0
ARC
  5
12F1
330
12E8
100
AcDbEntity
  8
0
100
AcDbCircle
 10
-54.5
 20
-27.518983
 30
0.0
 40
2.0
100
AcDbArc
 50
180.0
 51
250.219711
  0
LINE
  5
12F2
330
12E8
100
AcDbEntity
  8
0
100
AcDbLine
 10
-54.258026
 20
-29.731408
 30
0.0
 11
-55.176826
 21
-29.400979
 31
0.0
  0
LINE
  5
12F3
330
12E8
100
AcDbEntity
  8
0
100
AcDbLine
 10
-23.000305
 20
-29.500001
 30
0.0
 11
-15.0
 21
-29.500001
 31
0.0
  0
ARC
  5
12F4
330
12E8
100
AcDbEntity
  8
0
100
AcDbCircle
 10
-28.5
 20
-36.408185
 30
0.0
 40
0.5
100
AcDbArc
 50
180.0
 51
268.5
  0
ARC
  5
12F5
330
12E8
100
AcDbEntity
  8
0
100
AcDbCircle
 10
-24.700073
 20
-33.500001
 30
0.0
 40
7.0
100
AcDbArc
 50
163.043503
 51
196.957993
  0
LINE
  5
12F6
330
12E8
100
AcDbEntity
  8
0
100
AcDbLine
 10
-29.700073
 20
-36.250001
 30
0.0
 11
-29.700073
 21
-30.750001
 31
0.0
  0
LINE
  5
12F7
330
12E8
100
AcDbEntity
  8
0
100
AcDbLine
 10
-29.0
 20
-36.408185
 30
0.0
 11
-29.0
 21
-30.645257
 31
0.0
  0
ARC
  5
12F8
330
12E8
100
AcDbEntity
  8
0
100
AcDbCircle
 10
-30.43927
 20
-35.250001
 30
0.0
 40
1.0
100
AcDbArc
 50
196.958099
 51
270.0
  0
LINE
  5
12F9
330
12E8
100
AcDbEntity
  8
0
100
AcDbLine
 10
-29.0
 20
-36.250001
 30
0.0
 11
-30.43927
 21
-36.250001
 31
0.0
  0
ARC
  5
12FA
330
12E8
100
AcDbEntity
  8
0
100
AcDbCircle
 10
-30.43927
 20
-31.750001
 30
0.0
 40
1.0
100
AcDbArc
 50
90.0
 51
163.043106
  0
LINE
  5
12FB
330
12E8
100
AcDbEntity
  8
0
100
AcDbLine
 10
-29.0
 20
-30.750001
 30
0.0
 11
-30.43927
 21
-30.750001
 31
0.0
  0
ARC
  5
12FC
330
12E8
100
AcDbEntity
  8
0
100
AcDbCircle
 10
-24.0
 20
-36.295957
 30
0.0
 40
1.0
100
AcDbArc
 50
180.0
 51
255.024384
  0
LINE
  5
12FD
330
12E8
100
AcDbEntity
  8
0
100
AcDbLine
 10
-28.513089
 20
-36.908017
 30
0.0
 11
-25.0
 21
-37.000009
 31
0.0
  0
LINE
  5
12FE
330
12E8
100
AcDbEntity
  8
0
100
AcDbLine
 10
-24.258408
 20
-37.261995
 30
0.0
 11
-23.000305
 21
-37.598527
 31
0.0
  0
ARC
  5
12FF
330
12E8
100
AcDbEntity
  8
0
100
AcDbCircle
 10
-24.0
 20
-28.197431
 30
0.0
 40
1.0
100
AcDbArc
 50
180.0
 51
255.024384
  0
ARC
  5
1300
330
12E8
100
AcDbEntity
  8
0
100
AcDbCircle
 10
-24.0
 20
-28.197431
 30
0.0
 40
1.0
100
AcDbArc
 50
180.0
 51
255.024384
  0
LINE
  5
1301
330
12E8
100
AcDbEntity
  8
0
100
AcDbLine
 10
-24.258408
 20
-29.163465
 30
0.0
 11
-23.000305
 21
-29.500001
 31
0.0
  0
ARC
  5
1302
330
12E8
100
AcDbEntity
  8
0
100
AcDbCircle
 10
-8.60001
 20
-34.000001
 30
0.0
 40
8.999999
100
AcDbArc
 50
163.398499
 51
196.600998
  0
LINE
  5
1303
330
12E8
100
AcDbEntity
  8
0
100
AcDbLine
 10
-15.0
 20
-30.500001
 30
0.0
 11
-15.0
 21
-37.500001
 31
0.0
  0
LINE
  5
1304
330
12E8
100
AcDbEntity
  8
0
100
AcDbLine
 10
-14.0
 20
-30.381929
 30
0.0
 11
-14.0
 21
-37.500001
 31
0.0
  0
LINE
  5
1305
330
12E8
100
AcDbEntity
  8
0
100
AcDbLine
 10
-14.0
 20
-30.500001
 30
0.0
 11
-14.0
 21
-37.146409
 31
0.0
  0
ARC
  5
1306
330
12E8
100
AcDbEntity
  8
0
100
AcDbCircle
 10
-15.979004
 20
-36.20001
 30
0.0
 40
1.3
100
AcDbArc
 50
196.600906
 51
270.0
  0
ARC
  5
1307
330
12E8
100
AcDbEntity
  8
0
100
AcDbCircle
 10
-13.5
 20
-37.26428
 30
0.0
 40
0.5
100
AcDbArc
 50
180.0
 51
269.0
  0
LINE
  5
1308
330
12E8
100
AcDbEntity
  8
0
100
AcDbLine
 10
-14.0
 20
-37.500001
 30
0.0
 11
-15.979004
 21
-37.500001
 31
0.0
  0
ARC
  5
1309
330
12E8
100
AcDbEntity
  8
0
100
AcDbCircle
 10
-15.979004
 20
-31.800019
 30
0.0
 40
1.3
100
AcDbArc
 50
90.0
 51
163.398407
  0
LINE
  5
130A
330
12E8
100
AcDbEntity
  8
0
100
AcDbLine
 10
-14.0
 20
-30.500001
 30
0.0
 11
-15.979004
 21
-30.500001
 31
0.0
  0
ARC
  5
130B
330
12E8
100
AcDbEntity
  8
0
100
AcDbCircle
 10
-15.0
 20
-30.500001
 30
0.0
 40
1.0
100
AcDbArc
 50
0.0
 51
90.0
  0
LINE
  5
130C
330
12E8
100
AcDbEntity
  8
0
100
AcDbLine
 10
0.0
 20
30.248971
 30
0.0
 11
-14.0
 21
30.248971
 31
0.0
  0
LINE
  5
130D
330
12E8
100
AcDbEntity
  8
0
100
AcDbLine
 10
-29.0
 20
19.723792
 30
0.0
 11
-56.5
 21
19.003693
 31
0.0
  0
LINE
  5
130E
330
12E8
100
AcDbEntity
  8
0
100
AcDbLine
 10
-29.0
 20
21.34128
 30
0.0
 11
-29.0
 21
7.934979
 31
0.0
  0
ARC
  5
130F
330
12E8
100
AcDbEntity
  8
0
100
AcDbCircle
 10
-30.43927
 20
18.5
 30
0.0
 40
1.0
100
AcDbArc
 50
90.0
 51
163.043106
  0
LINE
  5
1310
330
12E8
100
AcDbEntity
  8
0
100
AcDbLine
 10
-29.0
 20
13.776208
 30
0.0
 11
-56.5
 21
14.496307
 31
0.0
  0
LINE
  5
1311
330
12E8
100
AcDbEntity
  8
0
100
AcDbLine
 10
-29.0
 20
7.934979
 30
0.0
 11
-25.0
 21
7.934979
 31
0.0
  0
ARC
  5
1312
330
12E8
100
AcDbEntity
  8
0
100
AcDbCircle
 10
-30.43927
 20
15.0
 30
0.0
 40
1.0
100
AcDbArc
 50
196.958099
 51
270.0
  0
ARC
  5
1313
330
12E8
100
AcDbEntity
  8
0
100
AcDbCircle
 10
-24.700073
 20
16.75
 30
0.0
 40
7.0
100
AcDbArc
 50
163.043503
 51
196.957993
  0
LINE
  5
1314
330
12E8
100
AcDbEntity
  8
0
100
AcDbLine
 10
-29.700073
 20
14.0
 30
0.0
 11
-29.700073
 21
19.5
 31
0.0
  0
LINE
  5
1315
330
12E8
100
AcDbEntity
  8
0
100
AcDbLine
 10
-29.0
 20
19.5
 30
0.0
 11
-30.43927
 21
19.5
 31
0.0
  0
LINE
  5
1316
330
12E8
100
AcDbEntity
  8
0
100
AcDbLine
 10
-29.0
 20
14.0
 30
0.0
 11
-30.43927
 21
14.0
 31
0.0
  0
LINE
  5
1317
330
12E8
100
AcDbEntity
  8
0
100
AcDbLine
 10
-52.696838
 20
30.77471
 30
0.0
 11
-25.668716
 21
31.482467
 31
0.0
  0
ARC
  5
1318
330
12E8
100
AcDbEntity
  8
0
100
AcDbCircle
 10
-52.565956
 20
25.776424
 30
0.0
 40
5.0
100
AcDbArc
 50
91.5
 51
109.780289
  0
ARC
  5
1319
330
12E8
100
AcDbEntity
  8
0
100
AcDbCircle
 10
-54.5
 20
28.268985
 30
0.0
 40
2.0
100
AcDbArc
 50
109.780289
 51
180.0
  0
LINE
  5
131A
330
12E8
100
AcDbEntity
  8
0
100
AcDbLine
 10
-54.258026
 20
30.48141
 30
0.0
 11
-55.176826
 21
30.150979
 31
0.0
  0
LINE
  5
131B
330
12E8
100
AcDbEntity
  8
0
100
AcDbLine
 10
-32.49988
 20
33.657798
 30
0.0
 11
-32.49988
 21
50.499999
 31
0.0
  0
LINE
  5
131C
330
12E8
100
AcDbEntity
  8
0
100
AcDbLine
 10
-14.5
 20
29.500001
 30
0.0
 11
-23.000305
 21
29.500001
 31
0.0
  0
LINE
  5
131D
330
12E8
100
AcDbEntity
  8
0
100
AcDbLine
 10
-32.49988
 20
38.500001
 30
0.0
 11
-15.0
 21
38.500001
 31
0.0
  0
ARC
  5
131E
330
12E8
100
AcDbEntity
  8
0
100
AcDbCircle
 10
-26.0
 20
30.538935
 30
0.0
 40
1.0
100
AcDbArc
 50
0.0
 51
88.5
  0
LINE
  5
131F
330
12E8
100
AcDbEntity
  8
0
100
AcDbLine
 10
-29.0
 20
21.34128
 30
0.0
 11
-25.0
 21
21.34128
 31
0.0
  0
ARC
  5
1320
330
12E8
100
AcDbEntity
  8
0
100
AcDbCircle
 10
-24.0
 20
28.19743
 30
0.0
 40
1.0
100
AcDbArc
 50
104.975616
 51
180.0
  0
LINE
  5
1321
330
12E8
100
AcDbEntity
  8
0
100
AcDbLine
 10
-24.258408
 20
29.163466
 30
0.0
 11
-23.000305
 21
29.500001
 31
0.0
  0
LINE
  5
1322
330
12E8
100
AcDbEntity
  8
0
100
AcDbLine
 10
-25.973823
 20
31.538592
 30
0.0
 11
-30.552234
 21
31.658482
 31
0.0
  0
ARC
  5
1323
330
12E8
100
AcDbEntity
  8
0
100
AcDbCircle
 10
-30.49988
 20
33.657798
 30
0.0
 40
2.0
100
AcDbArc
 50
180.0
 51
268.5
  0
ARC
  5
1324
330
12E8
100
AcDbEntity
  8
0
100
AcDbCircle
 10
-15.979004
 20
31.800019
 30
0.0
 40
1.3
100
AcDbArc
 50
196.601593
 51
270.0
  0
LINE
  5
1325
330
12E8
100
AcDbEntity
  8
0
100
AcDbLine
 10
-15.0
 20
30.500001
 30
0.0
 11
-15.0
 21
37.500001
 31
0.0
  0
LINE
  5
1326
330
12E8
100
AcDbEntity
  8
0
100
AcDbLine
 10
-14.0
 20
30.000001
 30
0.0
 11
-14.0
 21
37.500001
 31
0.0
  0
ARC
  5
1327
330
12E8
100
AcDbEntity
  8
0
100
AcDbCircle
 10
-14.5
 20
30.000001
 30
0.0
 40
0.5
100
AcDbArc
 50
270.0
 51
0.0
  0
LINE
  5
1328
330
12E8
100
AcDbEntity
  8
0
100
AcDbLine
 10
-14.0
 20
30.500001
 30
0.0
 11
-15.979004
 21
30.500001
 31
0.0
  0
ARC
  5
1329
330
12E8
100
AcDbEntity
  8
0
100
AcDbCircle
 10
-15.979004
 20
36.200009
 30
0.0
 40
1.3
100
AcDbArc
 50
90.0
 51
163.399094
  0
ARC
  5
132A
330
12E8
100
AcDbEntity
  8
0
100
AcDbCircle
 10
-8.60001
 20
34.000001
 30
0.0
 40
8.999999
100
AcDbArc
 50
163.399002
 51
196.601501
  0
LINE
  5
132B
330
12E8
100
AcDbEntity
  8
0
100
AcDbLine
 10
-14.0
 20
37.500001
 30
0.0
 11
-15.979004
 21
37.500001
 31
0.0
  0
ARC
  5
132C
330
12E8
100
AcDbEntity
  8
0
100
AcDbCircle
 10
-15.0
 20
37.500001
 30
0.0
 40
1.0
100
AcDbArc
 50
0.0
 51
90.0
  0
LINE
  5
132D
330
12E8
100
AcDbEntity
  8
0
100
AcDbLine
 10
-2.49988
 20
39.039611
 30
0.0
 11
-2.49988
 21
50.499999
 31
0.0
  0
ARC
  5
132E
330
12E8
100
AcDbEntity
  8
0
100
AcDbCircle
 10
-1.5
 20
39.039611
 30
0.0
 40
1.0
100
AcDbArc
 50
180.0
 51
268.499908
  0
LINE
  5
132F
330
12E8
100
AcDbEntity
  8
0
100
AcDbLine
 10
-1.52621
 20
38.039981
 30
0.0
 11
0.0
 21
38.000001
 31
0.0
  0
ARC
  5
1330
330
12E8
100
AcDbEntity
  8
0
100
AcDbCircle
 10
-32.000122
 20
55.000001
 30
0.0
 40
0.5
100
AcDbArc
 50
90.0
 51
180.0
  0
ARC
  5
1331
330
12E8
100
AcDbEntity
  8
0
100
AcDbCircle
 10
-31.999878
 20
58.07834
 30
0.0
 40
0.5
100
AcDbArc
 50
93.331696
 51
180.0
  0
LINE
  5
1332
330
12E8
100
AcDbEntity
  8
HOJO
100
AcDbLine
 10
-48.796883
 20
55.150025
 30
0.0
 11
-49.532677
 21
52.314912
 31
0.0
  0
LINE
  5
1333
330
12E8
100
AcDbEntity
  8
0
100
AcDbLine
 10
-49.648682
 20
47.450013
 30
0.0
 11
-34.499878
 21
47.450013
 31
0.0
  0
LINE
  5
1334
330
12E8
100
AcDbEntity
  8
HOJO
100
AcDbLine
 10
-48.720581
 20
49.839906
 30
0.0
 11
-49.648682
 21
47.450013
 31
0.0
  0
LINE
  5
1335
330
12E8
100
AcDbEntity
  8
HOJO
100
AcDbLine
 10
-49.532677
 20
52.314912
 30
0.0
 11
-48.720581
 21
49.839906
 31
0.0
  0
LINE
  5
1336
330
12E8
100
AcDbEntity
  8
0
100
AcDbLine
 10
-48.796883
 20
55.150025
 30
0.0
 11
-34.499878
 21
55.150025
 31
0.0
  0
LINE
  5
1337
330
12E8
100
AcDbEntity
  8
0
100
AcDbLine
 10
-32.499878
 20
51.500001
 30
0.0
 11
-32.499878
 21
58.07834
 31
0.0
  0
LINE
  5
1338
330
12E8
100
AcDbEntity
  8
0
100
AcDbLine
 10
-2.499878
 20
51.500001
 30
0.0
 11
-2.499878
 21
58.07834
 31
0.0
  0
LINE
  5
1339
330
12E8
100
AcDbEntity
  8
CENTER
100
AcDbLine
 10
-17.5
 20
62.025514
 30
0.0
 11
-17.499878
 21
44.226716
 31
0.0
  0
ARC
  5
133A
330
12E8
100
AcDbEntity
  8
0
100
AcDbCircle
 10
-9.499878
 20
58.371736
 30
0.0
 40
0.5
100
AcDbArc
 50
0.0
 51
88.162544
  0
ARC
  5
133B
330
12E8
100
AcDbEntity
  8
0
100
AcDbCircle
 10
-17.499878
 20
-190.999968
 30
0.0
 40
250.0
100
AcDbArc
 50
86.668304
 51
93.331696
  0
ARC
  5
133C
330
12E8
100
AcDbEntity
  8
0
100
AcDbCircle
 10
-31.249878
 20
56.93921
 30
0.0
 40
1.0
100
AcDbArc
 50
106.958199
 51
180.0
  0
ARC
  5
133D
330
12E8
100
AcDbEntity
  8
0
100
AcDbCircle
 10
-27.749878
 20
56.93921
 30
0.0
 40
1.0
100
AcDbArc
 50
0.0
 51
73.043098
  0
ARC
  5
133E
330
12E8
100
AcDbEntity
  8
0
100
AcDbCircle
 10
-29.499878
 20
51.200013
 30
0.0
 40
7.0
100
AcDbArc
 50
73.043488
 51
106.958
  0
LINE
  5
133F
330
12E8
100
AcDbEntity
  8
0
100
AcDbLine
 10
-32.249878
 20
56.200013
 30
0.0
 11
-26.749878
 21
56.200013
 31
0.0
  0
LINE
  5
1340
330
12E8
100
AcDbEntity
  8
0
100
AcDbLine
 10
-26.749878
 20
55.499818
 30
0.0
 11
-26.749878
 21
56.93921
 31
0.0
  0
LINE
  5
1341
330
12E8
100
AcDbEntity
  8
0
100
AcDbLine
 10
-32.249878
 20
55.500001
 30
0.0
 11
-32.249878
 21
56.93921
 31
0.0
  0
ARC
  5
1342
330
12E8
100
AcDbEntity
  8
0
100
AcDbCircle
 10
-25.500122
 20
58.371736
 30
0.0
 40
0.5
100
AcDbArc
 50
91.837456
 51
180.0
  0
LINE
  5
1343
330
12E8
100
AcDbEntity
  8
0
100
AcDbLine
 10
-26.000122
 20
56.000001
 30
0.0
 11
-26.000122
 21
58.371736
 31
0.0
  0
ARC
  5
1344
330
12E8
100
AcDbEntity
  8
0
100
AcDbCircle
 10
-26.500122
 20
56.000001
 30
0.0
 40
0.5
100
AcDbArc
 50
270.0
 51
0.0
  0
LINE
  5
1345
330
12E8
100
AcDbEntity
  8
0
100
AcDbLine
 10
-26.500122
 20
55.500001
 30
0.0
 11
-32.000122
 21
55.500001
 31
0.0
  0
ARC
  5
1346
330
12E8
100
AcDbEntity
  8
0
100
AcDbCircle
 10
-7.249878
 20
56.93921
 30
0.0
 40
1.0
100
AcDbArc
 50
106.958199
 51
180.0
  0
ARC
  5
1347
330
12E8
100
AcDbEntity
  8
0
100
AcDbCircle
 10
-3.749878
 20
56.93921
 30
0.0
 40
1.0
100
AcDbArc
 50
0.0
 51
73.043098
  0
ARC
  5
1348
330
12E8
100
AcDbEntity
  8
0
100
AcDbCircle
 10
-5.499878
 20
51.200013
 30
0.0
 40
7.0
100
AcDbArc
 50
73.043488
 51
106.958
  0
LINE
  5
1349
330
12E8
100
AcDbEntity
  8
0
100
AcDbLine
 10
-8.249878
 20
56.200013
 30
0.0
 11
-2.749878
 21
56.200013
 31
0.0
  0
LINE
  5
134A
330
12E8
100
AcDbEntity
  8
0
100
AcDbLine
 10
-2.749878
 20
55.499818
 30
0.0
 11
-2.749878
 21
56.93921
 31
0.0
  0
LINE
  5
134B
330
12E8
100
AcDbEntity
  8
0
100
AcDbLine
 10
-8.249878
 20
55.500001
 30
0.0
 11
-8.249878
 21
56.93921
 31
0.0
  0
ARC
  5
134C
330
12E8
100
AcDbEntity
  8
0
100
AcDbCircle
 10
-2.999878
 20
55.000001
 30
0.0
 40
0.5
100
AcDbArc
 50
0.0
 51
90.0
  0
ARC
  5
134D
330
12E8
100
AcDbEntity
  8
0
100
AcDbCircle
 10
-8.499878
 20
56.000001
 30
0.0
 40
0.5
100
AcDbArc
 50
180.0
 51
270.0
  0
LINE
  5
134E
330
12E8
100
AcDbEntity
  8
0
100
AcDbLine
 10
-8.999878
 20
56.000001
 30
0.0
 11
-8.999878
 21
58.371736
 31
0.0
  0
LINE
  5
134F
330
12E8
100
AcDbEntity
  8
0
100
AcDbLine
 10
-8.499878
 20
55.500001
 30
0.0
 11
-2.999878
 21
55.500001
 31
0.0
  0
ARC
  5
1350
330
12E8
100
AcDbEntity
  8
0
100
AcDbCircle
 10
-2.999878
 20
58.07834
 30
0.0
 40
0.5
100
AcDbArc
 50
0.0
 51
86.668304
  0
ARC
  5
1351
330
12E8
100
AcDbEntity
  8
0
100
AcDbCircle
 10
-1.999878
 20
43.500025
 30
0.0
 40
0.5
100
AcDbArc
 50
90.0
 51
180.0
  0
ARC
  5
1352
330
12E8
100
AcDbEntity
  8
0
100
AcDbCircle
 10
-32.9997082848
 20
43.500025
 30
0.0
 40
0.5
100
AcDbArc
 50
359.9985816336
 51
90.0
  0
LINE
  5
1353
330
12E8
100
AcDbEntity
  8
0
100
AcDbLine
 10
-34.499878
 20
50.500025
 30
0.0
 11
-0.499882
 21
50.500025
 31
0.0
  0
LINE
  5
1354
330
12E8
100
AcDbEntity
  8
0
100
AcDbLine
 10
-34.499878
 20
51.500025
 30
0.0
 11
-32.500084
 21
51.500025
 31
0.0
  0
LINE
  5
1355
330
12E8
100
AcDbEntity
  8
0
100
AcDbLine
 10
-24.500084
 20
51.500025
 30
0.0
 11
-10.499878
 21
51.500025
 31
0.0
  0
LINE
  5
1356
330
12E8
100
AcDbEntity
  8
0
100
AcDbLine
 10
-2.499878
 20
51.500025
 30
0.0
 11
-0.499882
 21
51.500025
 31
0.0
  0
ARC
  5
1357
330
12E8
100
AcDbEntity
  8
0
100
AcDbCircle
 10
-32.906617134
 20
58.500025
 30
0.0
 40
0.5
100
AcDbArc
 50
270.0
 51
335.0585433099
  0
LINE
  5
1358
330
12E8
100
AcDbEntity
  8
0
100
AcDbLine
 10
-34.499878
 20
50.500025
 30
0.0
 11
-34.499878
 21
44.500025
 31
0.0
  0
ARC
  5
1359
330
12E8
100
AcDbEntity
  8
0
100
AcDbCircle
 10
-33.999878
 20
44.500025
 30
0.0
 40
0.5
100
AcDbArc
 50
180.0
 51
270.0
  0
LINE
  5
135A
330
12E8
100
AcDbEntity
  8
0
100
AcDbLine
 10
-32.999878
 20
44.000025
 30
0.0
 11
-33.999878
 21
44.000025
 31
0.0
  0
LINE
  5
135B
330
12E8
100
AcDbEntity
  8
0
100
AcDbLine
 10
-32.906617134
 20
58.000025
 30
0.0
 11
-33.999878
 21
58.000025
 31
0.0
  0
LINE
  5
135C
330
12E8
100
AcDbEntity
  8
0
100
AcDbLine
 10
-34.499878
 20
55.250025
 30
0.0
 11
-34.499878
 21
51.500025
 31
0.0
  0
LINE
  5
135D
330
12E8
100
AcDbEntity
  8
0
100
AcDbLine
 10
-34.499878
 20
57.500025
 30
0.0
 11
-34.499878
 21
55.250025
 31
0.0
  0
ARC
  5
135E
330
12E8
100
AcDbEntity
  8
0
100
AcDbCircle
 10
-33.999878
 20
57.500025
 30
0.0
 40
0.5
100
AcDbArc
 50
90.0
 51
180.0
  0
ARC
  5
135F
330
12E8
100
AcDbEntity
  8
0
100
AcDbCircle
 10
-2.093138866
 20
58.500025
 30
0.0
 40
0.5
100
AcDbArc
 50
204.9414566901
 51
270.0
  0
LINE
  5
1360
330
12E8
100
AcDbEntity
  8
0
100
AcDbLine
 10
-0.499882
 20
50.500025
 30
0.0
 11
-0.499882
 21
44.500025
 31
0.0
  0
LINE
  5
1361
330
12E8
100
AcDbEntity
  8
0
100
AcDbLine
 10
-1.999882
 20
44.000025
 30
0.0
 11
-0.999882
 21
44.000025
 31
0.0
  0
ARC
  5
1362
330
12E8
100
AcDbEntity
  8
0
100
AcDbCircle
 10
-0.999882
 20
44.500025
 30
0.0
 40
0.5
100
AcDbArc
 50
270.0
 51
0.0
  0
LINE
  5
1363
330
12E8
100
AcDbEntity
  8
0
100
AcDbLine
 10
-2.093138866
 20
58.000025
 30
0.0
 11
-0.999882
 21
58.000025
 31
0.0
  0
ARC
  5
1364
330
12E8
100
AcDbEntity
  8
0
100
AcDbCircle
 10
-0.999882
 20
57.500025
 30
0.0
 40
0.5
100
AcDbArc
 50
0.0
 51
90.0
  0
LINE
  5
1365
330
12E8
100
AcDbEntity
  8
0
100
AcDbLine
 10
-0.499882
 20
57.500025
 30
0.0
 11
-0.499882
 21
51.500025
 31
0.0
  0
LINE
  5
1366
330
12E8
100
AcDbEntity
  8
0
100
AcDbLine
 10
-32.500084
 20
51.500025
 30
0.0
 11
-32.500084
 21
50.500025
 31
0.0
  0
LINE
  5
1367
330
12E8
100
AcDbEntity
  8
0
100
AcDbLine
 10
-24.500084
 20
51.500025
 30
0.0
 11
-24.500084
 21
50.500025
 31
0.0
  0
LINE
  5
1368
330
12E8
100
AcDbEntity
  8
0
100
AcDbLine
 10
-34.199878
 20
51.500025
 30
0.0
 11
-34.199878
 21
50.500025
 31
0.0
  0
LINE
  5
1369
330
12E8
100
AcDbEntity
  8
0
100
AcDbLine
 10
-10.499878
 20
51.500025
 30
0.0
 11
-10.499878
 21
50.500025
 31
0.0
  0
LINE
  5
136A
330
12E8
100
AcDbEntity
  8
0
100
AcDbLine
 10
-2.499878
 20
51.500025
 30
0.0
 11
-2.499878
 21
50.500025
 31
0.0
  0
LINE
  5
136B
330
12E8
100
AcDbEntity
  8
0
100
AcDbLine
 10
-0.799882
 20
51.500025
 30
0.0
 11
-0.799882
 21
50.500025
 31
0.0
  0
LINE
  5
136C
330
12E8
100
AcDbEntity
  8
0
100
AcDbLine
 10
-0.499882
 20
51.500025
 30
0.0
 11
-0.499882
 21
50.500025
 31
0.0
  0
ENDBLK
  5
136D
330
12E8
100
AcDbEntity
  8
0
100
AcDbBlockEnd
  0
BLOCK
  5
1379
330
1376
100
AcDbEntity
  8
0
100
AcDbBlockBegin
  2
A$C57c306b1
 70
     0
 10
0.0
 20
0.0
 30
0.0
  3
A$C57c306b1
  1

  0
ARC
  5
137A
330
1376
100
AcDbEntity
  8
0
100
AcDbCircle
 10
0.0
 20
1.56
 30
0.0
 40
0.3900000000000001
100
AcDbArc
 50
17.2352852571
 51
162.7647147429
  0
ARC
  5
137B
330
1376
100
AcDbEntity
  8
0
100
AcDbCircle
 10
-1.117462403
 20
1.9066666667
 30
0.0
 40
0.7800000000000002
100
AcDbArc
 50
300.3737861998
 51
342.7647147429
  0
ARC
  5
137C
330
1376
100
AcDbEntity
  8
0
100
AcDbCircle
 10
1.117462403
 20
1.9066666667
 30
0.0
 40
0.7800000000000002
100
AcDbArc
 50
197.2352852571
 51
239.6262138002
  0
ARC
  5
137D
330
1376
100
AcDbEntity
  8
0
100
AcDbCircle
 10
-1.3509996299
 20
0.78
 30
0.0
 40
0.3900000000000001
100
AcDbArc
 50
77.2352852571
 51
222.7647147429
  0
ARC
  5
137E
330
1376
100
AcDbEntity
  8
0
100
AcDbCircle
 10
-2.2099529714
 20
-0.0144174955
 30
0.0
 40
0.7800000000000002
100
AcDbArc
 50
0.3737861998
 51
42.7647147429
  0
ARC
  5
137F
330
1376
100
AcDbEntity
  8
0
100
AcDbCircle
 10
-1.0924905684
 20
1.9210841621
 30
0.0
 40
0.7800000000000002
100
AcDbArc
 50
257.2352852571
 51
299.6262138002
  0
ARC
  5
1380
330
1376
100
AcDbEntity
  8
0
100
AcDbCircle
 10
1.3509996299
 20
0.78
 30
0.0
 40
0.3900000000000001
100
AcDbArc
 50
317.2352852571
 51
102.7647147429
  0
ARC
  5
1381
330
1376
100
AcDbEntity
  8
0
100
AcDbCircle
 10
2.2099529714
 20
-0.0144174955
 30
0.0
 40
0.7800000000000002
100
AcDbArc
 50
137.2352852571
 51
179.6262138002
  0
ARC
  5
1382
330
1376
100
AcDbEntity
  8
0
100
AcDbCircle
 10
1.0924905684
 20
1.9210841621
 30
0.0
 40
0.7800000000000002
100
AcDbArc
 50
240.3737861998
 51
282.7647147429
  0
ARC
  5
1383
330
1376
100
AcDbEntity
  8
0
100
AcDbCircle
 10
0.0
 20
-1.56
 30
0.0
 40
0.3900000000000001
100
AcDbArc
 50
197.2352852571
 51
342.7647147429
  0
ARC
  5
1384
330
1376
100
AcDbEntity
  8
0
100
AcDbCircle
 10
-1.117462403
 20
-1.9066666667
 30
0.0
 40
0.7800000000000002
100
AcDbArc
 50
17.2352852571
 51
59.6262138002
  0
ARC
  5
1385
330
1376
100
AcDbEntity
  8
0
100
AcDbCircle
 10
1.117462403
 20
-1.9066666667
 30
0.0
 40
0.7800000000000002
100
AcDbArc
 50
120.3737861998
 51
162.7647147429
  0
ARC
  5
1386
330
1376
100
AcDbEntity
  8
0
100
AcDbCircle
 10
-1.3509996299
 20
-0.78
 30
0.0
 40
0.3900000000000001
100
AcDbArc
 50
137.2352852571
 51
282.7647147429
  0
ARC
  5
1387
330
1376
100
AcDbEntity
  8
0
100
AcDbCircle
 10
-2.2099529714
 20
0.0144174955
 30
0.0
 40
0.7800000000000002
100
AcDbArc
 50
317.2352852571
 51
359.6262138002
  0
ARC
  5
1388
330
1376
100
AcDbEntity
  8
0
100
AcDbCircle
 10
-1.0924905684
 20
-1.9210841621
 30
0.0
 40
0.7800000000000002
100
AcDbArc
 50
60.3737861998
 51
102.7647147429
  0
ARC
  5
1389
330
1376
100
AcDbEntity
  8
0
100
AcDbCircle
 10
1.3509996299
 20
-0.78
 30
0.0
 40
0.3900000000000001
100
AcDbArc
 50
257.2352852571
 51
42.7647147429
  0
ARC
  5
138A
330
1376
100
AcDbEntity
  8
0
100
AcDbCircle
 10
1.0924905684
 20
-1.9210841621
 30
0.0
 40
0.7800000000000002
100
AcDbArc
 50
77.2352852571
 51
119.6262138002
  0
ARC
  5
138B
330
1376
100
AcDbEntity
  8
0
100
AcDbCircle
 10
2.2099529714
 20
0.0144174955
 30
0.0
 40
0.7800000000000002
100
AcDbArc
 50
180.3737861998
 51
222.7647147429
  0
ENDBLK
  5
138C
330
1376
100
AcDbEntity
  8
0
100
AcDbBlockEnd
  0
BLOCK
  5
138E
330
138D
100
AcDbEntity
  8
0
100
AcDbBlockBegin
  2
A$C46bf166a
 70
     0
 10
0.0
 20
0.0
 30
0.0
  3
A$C46bf166a
  1

  0
LINE
  5
138F
330
138D
100
AcDbEntity
  8
0
100
AcDbLine
 10
-56.5
 20
28.312195
 30
0.0
 11
-56.5
 21
-28.31218
 31
0.0
  0
LINE
  5
1390
330
138D
100
AcDbEntity
  8
HOJO
100
AcDbLine
 10
-48.796881
 20
3.850006
 30
0.0
 11
-49.532681
 21
1.014908
 31
0.0
  0
LINE
  5
1391
330
138D
100
AcDbEntity
  8
0
100
AcDbLine
 10
-2.5
 20
21.0
 30
0.0
 11
-2.5
 21
-20.999992
 31
0.0
  0
LINE
  5
1392
330
138D
100
AcDbEntity
  8
0
100
AcDbLine
 10
-32.5001
 20
-20.999992
 30
0.0
 11
-32.5001
 21
21.0
 31
0.0
  0
LINE
  5
1393
330
138D
100
AcDbEntity
  8
0
100
AcDbLine
 10
0.0
 20
-37.999992
 30
0.0
 11
0.0
 21
38.0
 31
0.0
  0
LINE
  5
1394
330
138D
100
AcDbEntity
  8
CENTER
100
AcDbLine
 10
-17.5
 20
28.508564
 30
0.0
 11
-17.5
 21
-28.508564
 31
0.0
  0
LINE
  5
1395
330
138D
100
AcDbEntity
  8
0
100
AcDbLine
 10
-4.122315
 20
-22.964005
 30
0.0
 11
0.0
 21
-22.999992
 31
0.0
  0
ARC
  5
1396
330
138D
100
AcDbEntity
  8
0
100
AcDbCircle
 10
-4.5
 20
-20.999992
 30
0.0
 40
2.0
100
AcDbArc
 50
270.0
 51
0.0
  0
LINE
  5
1397
330
138D
100
AcDbEntity
  8
0
100
AcDbLine
 10
-23.0003
 20
-37.598496
 30
0.0
 11
0.0
 21
-37.999992
 31
0.0
  0
LINE
  5
1398
330
138D
100
AcDbEntity
  8
0
100
AcDbLine
 10
-29.0
 20
-25.196198
 30
0.0
 11
-56.5
 21
-25.916321
 31
0.0
  0
LINE
  5
1399
330
138D
100
AcDbEntity
  8
0
100
AcDbLine
 10
-31.694446
 20
-28.731293
 30
0.0
 11
-56.5
 21
-28.081703
 31
0.0
  0
LINE
  5
139A
330
138D
100
AcDbEntity
  8
0
100
AcDbLine
 10
-52.755901
 20
-30.773178
 30
0.0
 11
-31.257964
 21
-31.336121
 31
0.0
  0
LINE
  5
139B
330
138D
100
AcDbEntity
  8
0
100
AcDbLine
 10
-49.648682
 20
-3.849991
 30
0.0
 11
-34.49988
 21
-3.849991
 31
0.0
  0
ARC
  5
139C
330
138D
100
AcDbEntity
  8
0
100
AcDbCircle
 10
-52.625015
 20
-25.774895
 30
0.0
 40
5.0
100
AcDbArc
 50
251.565048
 51
268.5
  0
ARC
  5
139D
330
138D
100
AcDbEntity
  8
0
100
AcDbCircle
 10
-54.5
 20
-28.31218
 30
0.0
 40
2.0
100
AcDbArc
 50
180.0
 51
251.565048
  0
LINE
  5
139E
330
138D
100
AcDbEntity
  8
0
100
AcDbLine
 10
-55.132458
 20
-30.209541
 30
0.0
 11
-54.206158
 21
-30.518311
 31
0.0
  0
LINE
  5
139F
330
138D
100
AcDbEntity
  8
HOJO
100
AcDbLine
 10
-48.720579
 20
-1.460098
 30
0.0
 11
-49.648682
 21
-3.849991
 31
0.0
  0
LINE
  5
13A0
330
138D
100
AcDbEntity
  8
HOJO
100
AcDbLine
 10
-49.532681
 20
1.014908
 30
0.0
 11
-48.720579
 21
-1.460098
 31
0.0
  0
ARC
  5
13A1
330
138D
100
AcDbEntity
  8
0
100
AcDbCircle
 10
-30.5001
 20
-20.999992
 30
0.0
 40
2.0
100
AcDbArc
 50
180.0
 51
270.0
  0
LINE
  5
13A2
330
138D
100
AcDbEntity
  8
0
100
AcDbLine
 10
-4.5
 20
-22.999992
 30
0.0
 11
-30.5001
 21
-22.999992
 31
0.0
  0
LINE
  5
13A3
330
138D
100
AcDbEntity
  8
0
100
AcDbLine
 10
-25.0
 20
-36.295891
 30
0.0
 11
-25.0
 21
-22.999992
 31
0.0
  0
ARC
  5
13A4
330
138D
100
AcDbEntity
  8
0
100
AcDbCircle
 10
-24.0
 20
-36.295891
 30
0.0
 40
1.0
100
AcDbArc
 50
180.0
 51
255.025604
  0
LINE
  5
13A5
330
138D
100
AcDbEntity
  8
0
100
AcDbLine
 10
-24.2584
 20
-37.261894
 30
0.0
 11
-23.0003
 21
-37.598496
 31
0.0
  0
ARC
  5
13A6
330
138D
100
AcDbEntity
  8
0
100
AcDbCircle
 10
-28.5
 20
-32.477112
 30
0.0
 40
0.5
100
AcDbArc
 50
180.0
 51
268.500519
  0
ARC
  5
13A7
330
138D
100
AcDbEntity
  8
0
100
AcDbCircle
 10
-24.700073
 20
-29.011894
 30
0.0
 40
7.0
100
AcDbArc
 50
163.043503
 51
196.957993
  0
LINE
  5
13A8
330
138D
100
AcDbEntity
  8
0
100
AcDbLine
 10
-29.700073
 20
-31.761894
 30
0.0
 11
-29.700073
 21
-26.261894
 31
0.0
  0
LINE
  5
13A9
330
138D
100
AcDbEntity
  8
0
100
AcDbLine
 10
-29.0
 20
-32.477112
 30
0.0
 11
-29.0
 21
-22.999992
 31
0.0
  0
ARC
  5
13AA
330
138D
100
AcDbEntity
  8
0
100
AcDbCircle
 10
-30.43927
 20
-30.761894
 30
0.0
 40
1.0
100
AcDbArc
 50
196.958099
 51
270.0
  0
LINE
  5
13AB
330
138D
100
AcDbEntity
  8
0
100
AcDbLine
 10
-29.0
 20
-31.761894
 30
0.0
 11
-30.43927
 21
-31.761894
 31
0.0
  0
LINE
  5
13AC
330
138D
100
AcDbEntity
  8
0
100
AcDbLine
 10
-29.0
 20
-26.261894
 30
0.0
 11
-30.43927
 21
-26.261894
 31
0.0
  0
ARC
  5
13AD
330
138D
100
AcDbEntity
  8
0
100
AcDbCircle
 10
-30.43927
 20
-27.261894
 30
0.0
 40
1.0
100
AcDbArc
 50
90.0
 51
163.043106
  0
LINE
  5
13AE
330
138D
100
AcDbEntity
  8
0
100
AcDbLine
 10
-29.0
 20
-26.261894
 30
0.0
 11
-30.43927
 21
-26.261894
 31
0.0
  0
LINE
  5
13AF
330
138D
100
AcDbEntity
  8
0
100
AcDbLine
 10
-28.513084
 20
-32.976936
 30
0.0
 11
-25.0
 21
-33.068901
 31
0.0
  0
LINE
  5
13B0
330
138D
100
AcDbEntity
  8
0
100
AcDbLine
 10
-4.122315
 20
22.96402
 30
0.0
 11
0.0
 21
23.0
 31
0.0
  0
ARC
  5
13B1
330
138D
100
AcDbEntity
  8
0
100
AcDbCircle
 10
-4.5
 20
21.0
 30
0.0
 40
2.0
100
AcDbArc
 50
0.0
 51
90.0
  0
LINE
  5
13B2
330
138D
100
AcDbEntity
  8
0
100
AcDbLine
 10
-23.0003
 20
37.598404
 30
0.0
 11
0.0
 21
38.0
 31
0.0
  0
LINE
  5
13B3
330
138D
100
AcDbEntity
  8
0
100
AcDbLine
 10
-29.0
 20
25.196213
 30
0.0
 11
-56.5
 21
25.916336
 31
0.0
  0
LINE
  5
13B4
330
138D
100
AcDbEntity
  8
0
100
AcDbLine
 10
-31.694446
 20
28.731308
 30
0.0
 11
-56.5
 21
28.081726
 31
0.0
  0
LINE
  5
13B5
330
138D
100
AcDbEntity
  8
0
100
AcDbLine
 10
-52.755901
 20
30.773193
 30
0.0
 11
-31.257964
 21
31.336136
 31
0.0
  0
LINE
  5
13B6
330
138D
100
AcDbEntity
  8
0
100
AcDbLine
 10
-48.796881
 20
3.850006
 30
0.0
 11
-34.49988
 21
3.850006
 31
0.0
  0
ARC
  5
13B7
330
138D
100
AcDbEntity
  8
0
100
AcDbCircle
 10
-52.625015
 20
25.774902
 30
0.0
 40
5.0
100
AcDbArc
 50
91.5
 51
108.434952
  0
ARC
  5
13B8
330
138D
100
AcDbEntity
  8
0
100
AcDbCircle
 10
-54.5
 20
28.312195
 30
0.0
 40
2.0
100
AcDbArc
 50
108.434952
 51
180.0
  0
LINE
  5
13B9
330
138D
100
AcDbEntity
  8
0
100
AcDbLine
 10
-55.132458
 20
30.209549
 30
0.0
 11
-54.206158
 21
30.518326
 31
0.0
  0
LINE
  5
13BA
330
138D
100
AcDbEntity
  8
0
100
AcDbLine
 10
-29.0
 20
32.477127
 30
0.0
 11
-29.0
 21
23.0
 31
0.0
  0
LINE
  5
13BB
330
138D
100
AcDbEntity
  8
0
100
AcDbLine
 10
-25.0
 20
36.295914
 30
0.0
 11
-25.0
 21
23.0
 31
0.0
  0
LINE
  5
13BC
330
138D
100
AcDbEntity
  8
0
100
AcDbLine
 10
-4.5
 20
23.0
 30
0.0
 11
-30.5001
 21
23.0
 31
0.0
  0
ARC
  5
13BD
330
138D
100
AcDbEntity
  8
0
100
AcDbCircle
 10
-30.5001
 20
21.0
 30
0.0
 40
2.0
100
AcDbArc
 50
90.0
 51
180.0
  0
ARC
  5
13BE
330
138D
100
AcDbEntity
  8
0
100
AcDbCircle
 10
-28.5
 20
32.477127
 30
0.0
 40
0.5
100
AcDbArc
 50
91.499481
 51
180.0
  0
ARC
  5
13BF
330
138D
100
AcDbEntity
  8
0
100
AcDbCircle
 10
-24.700073
 20
29.011902
 30
0.0
 40
7.0
100
AcDbArc
 50
163.042007
 51
196.956497
  0
LINE
  5
13C0
330
138D
100
AcDbEntity
  8
0
100
AcDbLine
 10
-29.700073
 20
31.761902
 30
0.0
 11
-29.700073
 21
26.261902
 31
0.0
  0
ARC
  5
13C1
330
138D
100
AcDbEntity
  8
0
100
AcDbCircle
 10
-30.43927
 20
27.261902
 30
0.0
 40
1.0
100
AcDbArc
 50
196.956894
 51
270.0
  0
LINE
  5
13C2
330
138D
100
AcDbEntity
  8
0
100
AcDbLine
 10
-29.0
 20
26.261902
 30
0.0
 11
-30.43927
 21
26.261902
 31
0.0
  0
ARC
  5
13C3
330
138D
100
AcDbEntity
  8
0
100
AcDbCircle
 10
-30.43927
 20
30.761902
 30
0.0
 40
1.0
100
AcDbArc
 50
90.0
 51
163.041901
  0
LINE
  5
13C4
330
138D
100
AcDbEntity
  8
0
100
AcDbLine
 10
-29.0
 20
31.761902
 30
0.0
 11
-30.43927
 21
31.761902
 31
0.0
  0
LINE
  5
13C5
330
138D
100
AcDbEntity
  8
0
100
AcDbLine
 10
-28.513084
 20
32.976959
 30
0.0
 11
-25.0
 21
33.068909
 31
0.0
  0
ARC
  5
13C6
330
138D
100
AcDbEntity
  8
0
100
AcDbCircle
 10
-24.0
 20
36.295914
 30
0.0
 40
1.0
100
AcDbArc
 50
104.974396
 51
180.0
  0
LINE
  5
13C7
330
138D
100
AcDbEntity
  8
0
100
AcDbLine
 10
-24.2584
 20
37.261902
 30
0.0
 11
-23.0003
 21
37.598404
 31
0.0
  0
ARC
  5
13C8
330
138D
100
AcDbEntity
  8
0
100
AcDbCircle
 10
-31.500099
 20
-15.5
 30
0.0
 40
1.0
100
AcDbArc
 50
180.0
 51
270.0
  0
ARC
  5
13C9
330
138D
100
AcDbEntity
  8
0
100
AcDbCircle
 10
-25.0
 20
-22.0
 30
0.0
 40
1.0
100
AcDbArc
 50
180.0
 51
270.0
  0
ARC
  5
13CA
330
138D
100
AcDbEntity
  8
0
100
AcDbCircle
 10
-10.0
 20
-22.0
 30
0.0
 40
1.0
100
AcDbArc
 50
270.0
 51
0.0
  0
ARC
  5
13CB
330
138D
100
AcDbEntity
  8
0
100
AcDbCircle
 10
-5.5
 20
-20.0
 30
0.0
 40
3.5
100
AcDbArc
 50
90.0
 51
180.0
  0
LINE
  5
13CC
330
138D
100
AcDbEntity
  8
0
100
AcDbLine
 10
-26.0
 20
-22.0
 30
0.0
 11
-26.0
 21
-20.0
 31
0.0
  0
LINE
  5
13CD
330
138D
100
AcDbEntity
  8
0
100
AcDbLine
 10
-31.500099
 20
-16.5
 30
0.0
 11
-29.5
 21
-16.5
 31
0.0
  0
ARC
  5
13CE
330
138D
100
AcDbEntity
  8
0
100
AcDbCircle
 10
-29.5
 20
-20.0
 30
0.0
 40
3.5
100
AcDbArc
 50
0.0
 51
90.0
  0
ARC
  5
13CF
330
138D
100
AcDbEntity
  8
0
100
AcDbCircle
 10
-3.499901
 20
-15.5
 30
0.0
 40
1.0
100
AcDbArc
 50
270.0
 51
0.0
  0
LINE
  5
13D0
330
138D
100
AcDbEntity
  8
0
100
AcDbLine
 10
-3.499901
 20
-16.5
 30
0.0
 11
-5.5
 21
-16.5
 31
0.0
  0
LINE
  5
13D1
330
138D
100
AcDbEntity
  8
0
100
AcDbLine
 10
-9.0
 20
-22.0
 30
0.0
 11
-9.0
 21
-20.0
 31
0.0
  0
ARC
  5
13D2
330
138D
100
AcDbEntity
  8
0
100
AcDbCircle
 10
-31.500099
 20
15.5
 30
0.0
 40
1.0
100
AcDbArc
 50
90.0
 51
180.0
  0
ARC
  5
13D3
330
138D
100
AcDbEntity
  8
0
100
AcDbCircle
 10
-10.0
 20
22.0
 30
0.0
 40
1.0
100
AcDbArc
 50
0.0
 51
90.0
  0
ARC
  5
13D4
330
138D
100
AcDbEntity
  8
0
100
AcDbCircle
 10
-5.5
 20
20.0
 30
0.0
 40
3.5
100
AcDbArc
 50
180.0
 51
270.0
  0
ARC
  5
13D5
330
138D
100
AcDbEntity
  8
0
100
AcDbCircle
 10
-25.0
 20
22.0
 30
0.0
 40
1.0
100
AcDbArc
 50
90.0
 51
180.0
  0
LINE
  5
13D6
330
138D
100
AcDbEntity
  8
0
100
AcDbLine
 10
-26.0
 20
22.0
 30
0.0
 11
-26.0
 21
20.0
 31
0.0
  0
LINE
  5
13D7
330
138D
100
AcDbEntity
  8
0
100
AcDbLine
 10
-31.500099
 20
16.5
 30
0.0
 11
-29.5
 21
16.5
 31
0.0
  0
ARC
  5
13D8
330
138D
100
AcDbEntity
  8
0
100
AcDbCircle
 10
-29.5
 20
20.0
 30
0.0
 40
3.5
100
AcDbArc
 50
270.0
 51
0.0
  0
ARC
  5
13D9
330
138D
100
AcDbEntity
  8
0
100
AcDbCircle
 10
-3.499901
 20
15.5
 30
0.0
 40
1.0
100
AcDbArc
 50
0.0
 51
90.0
  0
LINE
  5
13DA
330
138D
100
AcDbEntity
  8
0
100
AcDbLine
 10
-3.499901
 20
16.5
 30
0.0
 11
-5.5
 21
16.5
 31
0.0
  0
LINE
  5
13DB
330
138D
100
AcDbEntity
  8
0
100
AcDbLine
 10
-9.0
 20
22.0
 30
0.0
 11
-9.0
 21
20.0
 31
0.0
  0
CIRCLE
  5
13DC
330
138D
100
AcDbEntity
  8
0
100
AcDbCircle
 10
-5.5
 20
-20.0
 30
0.0
 40
2.75
  0
CIRCLE
  5
13DD
330
138D
100
AcDbEntity
  8
0
100
AcDbCircle
 10
-29.5
 20
-20.0
 30
0.0
 40
2.75
  0
LINE
  5
13DE
330
138D
100
AcDbEntity
  8
0
100
AcDbLine
 10
-34.5
 20
6.0
 30
0.0
 11
-34.5
 21
-6.0
 31
0.0
  0
ARC
  5
13DF
330
138D
100
AcDbEntity
  8
0
100
AcDbCircle
 10
-33.0
 20
-7.5
 30
0.0
 40
0.5
100
AcDbArc
 50
0.0
 51
90.0
  0
ARC
  5
13E0
330
138D
100
AcDbEntity
  8
0
100
AcDbCircle
 10
-33.5
 20
-6.0
 30
0.0
 40
1.0
100
AcDbArc
 50
180.0
 51
270.0
  0
LINE
  5
13E1
330
138D
100
AcDbEntity
  8
0
100
AcDbLine
 10
-33.0
 20
-7.0
 30
0.0
 11
-33.5
 21
-7.0
 31
0.0
  0
ARC
  5
13E2
330
138D
100
AcDbEntity
  8
0
100
AcDbCircle
 10
-33.0
 20
7.5
 30
0.0
 40
0.5
100
AcDbArc
 50
270.0
 51
0.0
  0
ARC
  5
13E3
330
138D
100
AcDbEntity
  8
0
100
AcDbCircle
 10
-33.5
 20
6.0
 30
0.0
 40
1.0
100
AcDbArc
 50
90.0
 51
180.0
  0
LINE
  5
13E4
330
138D
100
AcDbEntity
  8
0
100
AcDbLine
 10
-33.0
 20
7.0
 30
0.0
 11
-33.5
 21
7.0
 31
0.0
  0
LINE
  5
13E5
330
138D
100
AcDbEntity
  8
0
100
AcDbLine
 10
-0.500004
 20
6.0
 30
0.0
 11
-0.500004
 21
-6.0
 31
0.0
  0
LINE
  5
13E6
330
138D
100
AcDbEntity
  8
0
100
AcDbLine
 10
-0.500004
 20
4.883698
 30
0.0
 11
-0.500004
 21
-4.883697
 31
0.0
  0
ARC
  5
13E7
330
138D
100
AcDbEntity
  8
0
100
AcDbCircle
 10
-2.000004
 20
-7.5
 30
0.0
 40
0.5
100
AcDbArc
 50
90.0
 51
180.0
  0
ARC
  5
13E8
330
138D
100
AcDbEntity
  8
0
100
AcDbCircle
 10
-1.500004
 20
-6.0
 30
0.0
 40
1.0
100
AcDbArc
 50
270.0
 51
0.0
  0
LINE
  5
13E9
330
138D
100
AcDbEntity
  8
0
100
AcDbLine
 10
-2.000004
 20
-7.0
 30
0.0
 11
-1.500004
 21
-7.0
 31
0.0
  0
ARC
  5
13EA
330
138D
100
AcDbEntity
  8
0
100
AcDbCircle
 10
-2.000004
 20
7.5
 30
0.0
 40
0.5
100
AcDbArc
 50
180.0
 51
270.0
  0
ARC
  5
13EB
330
138D
100
AcDbEntity
  8
0
100
AcDbCircle
 10
-1.500004
 20
6.0
 30
0.0
 40
1.0
100
AcDbArc
 50
0.0
 51
90.0
  0
LINE
  5
13EC
330
138D
100
AcDbEntity
  8
0
100
AcDbLine
 10
-2.000004
 20
7.0
 30
0.0
 11
-1.500004
 21
7.0
 31
0.0
  0
CIRCLE
  5
13ED
330
138D
100
AcDbEntity
  8
0
100
AcDbCircle
 10
-29.5
 20
20.0
 30
0.0
 40
2.75
  0
CIRCLE
  5
13EE
330
138D
100
AcDbEntity
  8
0
100
AcDbCircle
 10
-5.5
 20
20.0
 30
0.0
 40
2.75
  0
INSERT
  5
13EF
330
138D
100
AcDbEntity
  8
0
100
AcDbBlockReference
  2
A$C57c306b1
 10
-5.5
 20
20.0
 30
0.0
  0
INSERT
  5
13F0
330
138D
100
AcDbEntity
  8
0
100
AcDbBlockReference
  2
A$C57c306b1
 10
-29.5
 20
20.0093289677
 30
0.0
  0
INSERT
  5
13F1
330
138D
100
AcDbEntity
  8
0
100
AcDbBlockReference
  2
A$C57c306b1
 10
-5.5
 20
-19.9906710323
 30
0.0
  0
INSERT
  5
13F2
330
138D
100
AcDbEntity
  8
0
100
AcDbBlockReference
  2
A$C57c306b1
 10
-29.5
 20
-19.9906710323
 30
0.0
  0
ENDBLK
  5
13F3
330
138D
100
AcDbEntity
  8
0
100
AcDbBlockEnd
  0
ENDSEC
  0
SECTION
  2
ENTITIES
  0
ARC
  5
859
330
2
100
AcDbEntity
  8
0
100
AcDbCircle
 10
387.8019450959
 20
120.3567951049
 30
0.0
 40
2.5
100
AcDbArc
 50
270.0
 51
0.0
  0
ARC
  5
85A
330
2
100
AcDbEntity
  8
0
100
AcDbCircle
 10
387.8019450959
 20
120.3567881049
 30
0.0
 40
2.5
100
AcDbArc
 50
0.0
 51
90.0
  0
LINE
  5
85F
330
2
100
AcDbEntity
  8
CENTER
100
AcDbLine
 10
385.3019450959
 20
98.0567961049
 30
0.0
 11
475.3019450959
 21
98.0567961049
 31
0.0
  0
LINE
  5
860
330
2
100
AcDbEntity
  8
CENTER
100
AcDbLine
 10
359.3019450959
 20
120.3567951049
 30
0.0
 11
472.3019450959
 21
120.3567951049
 31
0.0
  0
LINE
  5
861
330
2
100
AcDbEntity
  8
0
100
AcDbLine
 10
383.3019450959
 20
55.3567951049
 30
0.0
 11
477.3019450959
 21
55.3567951049
 31
0.0
  0
LINE
  5
862
330
2
100
AcDbEntity
  8
0
100
AcDbLine
 10
396.3019450959
 20
63.3567951049
 30
0.0
 11
385.3019450959
 21
63.3567951049
 31
0.0
  0
LINE
  5
864
330
2
100
AcDbEntity
  8
0
100
AcDbLine
 10
366.3019450959
 20
112.8567951049
 30
0.0
 11
393.3019450959
 21
112.8567951049
 31
0.0
  0
LINE
  5
865
330
2
100
AcDbEntity
  8
0
100
AcDbLine
 10
366.3019450959
 20
127.8567951049
 30
0.0
 11
393.3019450959
 21
127.8567951049
 31
0.0
  0
LINE
  5
86B
330
2
100
AcDbEntity
  8
0
100
AcDbLine
 10
206.9691079298
 20
135.1500541049
 30
0.0
 11
231.0485139298
 21
152.0494451049
 31
0.0
  0
LINE
  5
86C
330
2
100
AcDbEntity
  8
CENTER
100
AcDbLine
 10
220.5914694374
 20
120.3567951049
 30
0.0
 11
274.5913444222
 21
120.3567951049
 31
0.0
  0
ARC
  5
86D
330
2
100
AcDbEntity
  8
0
100
AcDbCircle
 10
247.3414069298
 20
107.3567951049
 30
0.0
 40
42.5
100
AcDbArc
 50
19.749901
 51
160.250107
  0
ARC
  5
86E
330
2
100
AcDbEntity
  8
0
100
AcDbCircle
 10
247.3414069298
 20
107.3567951049
 30
0.0
 40
42.5
100
AcDbArc
 50
199.749893
 51
340.250092
  0
LINE
  5
86F
330
2
100
AcDbEntity
  8
0
100
AcDbLine
 10
206.8414219298
 20
63.3567951049
 30
0.0
 11
287.8414069298
 21
63.3567951049
 31
0.0
  0
LINE
  5
870
330
2
100
AcDbEntity
  8
0
100
AcDbLine
 10
204.8414149298
 20
55.3567951049
 30
0.0
 11
289.8414069298
 21
55.3567951049
 31
0.0
  0
LINE
  5
871
330
2
100
AcDbEntity
  8
CENTER
100
AcDbLine
 10
68.8414129298
 20
98.0567961049
 30
0.0
 11
224.0914069298
 21
98.0567961049
 31
0.0
  0
LINE
  5
873
330
2
100
AcDbEntity
  8
0
100
AcDbLine
 10
207.3414069298
 20
121.7180621049
 30
0.0
 11
207.3414069298
 21
92.9952571049
 31
0.0
  0
LINE
  5
874
330
2
100
AcDbEntity
  8
0
100
AcDbLine
 10
204.8414149298
 20
131.0573951049
 30
0.0
 11
204.8414149298
 21
55.3567951049
 31
0.0
  0
LINE
  5
877
330
2
100
AcDbEntity
  8
0
100
AcDbLine
 10
132.3414149298
 20
60.0568151049
 30
0.0
 11
132.3414149298
 21
136.0567921049
 31
0.0
  0
LINE
  5
878
330
2
100
AcDbEntity
  8
0
100
AcDbLine
 10
132.3413609298
 20
67.8078251049
 30
0.0
 11
204.8413989298
 21
67.8078251049
 31
0.0
  0
LINE
  5
879
330
2
100
AcDbEntity
  8
0
100
AcDbLine
 10
132.3414149298
 20
60.0567951049
 30
0.0
 11
204.8414149298
 21
60.0567951049
 31
0.0
  0
LINE
  5
898
330
2
100
AcDbEntity
  8
CENTER
100
AcDbLine
 10
213.3414069298
 20
66.8567951049
 30
0.0
 11
213.3414069298
 21
51.8567951049
 31
0.0
  0
ARC
  5
899
330
2
100
AcDbEntity
  8
0
100
AcDbCircle
 10
206.8414219298
 20
61.3568051049
 30
0.0
 40
2.0
100
AcDbArc
 50
90.0
 51
180.0
  0
LINE
  5
89A
330
2
100
AcDbEntity
  8
HIDS
  6
sekkei_H
100
AcDbLine
 10
210.0914069298
 20
63.3567951049
 30
0.0
 11
210.0914069298
 21
55.3567951049
 31
0.0
  0
LINE
  5
89B
330
2
100
AcDbEntity
  8
HIDS
  6
sekkei_H
100
AcDbLine
 10
216.5914069298
 20
63.3567951049
 30
0.0
 11
216.5914069298
 21
55.3567951049
 31
0.0
  0
LINE
  5
89C
330
2
100
AcDbEntity
  8
0
100
AcDbLine
 10
132.3413609298
 20
128.3057621049
 30
0.0
 11
204.8413989298
 21
128.3057621049
 31
0.0
  0
LINE
  5
89D
330
2
100
AcDbEntity
  8
0
100
AcDbLine
 10
132.3414149298
 20
136.0567921049
 30
0.0
 11
208.2610999298
 21
136.0567921049
 31
0.0
  0
ARC
  5
8F8
330
2
100
AcDbEntity
  8
0
100
AcDbCircle
 10
209.8414369298
 20
131.0574181049
 30
0.0
 40
5.0
100
AcDbArc
 50
125.062302
 51
180.0
  0
LINE
  5
8FB
330
2
100
AcDbEntity
  8
CENTER
100
AcDbLine
 10
247.3414069298
 20
159.9567941049
 30
0.0
 11
247.3414069298
 21
48.3567951049
 31
0.0
  0
LINE
  5
8FC
330
2
100
AcDbEntity
  8
0
100
AcDbLine
 10
287.3414069298
 20
121.7181921049
 30
0.0
 11
287.3414069298
 21
92.9956581049
 31
0.0
  0
LINE
  5
8FD
330
2
100
AcDbEntity
  8
0
100
AcDbLine
 10
289.8414069298
 20
131.0573721049
 30
0.0
 11
289.8414069298
 21
55.3567951049
 31
0.0
  0
LINE
  5
940
330
2
100
AcDbEntity
  8
CENTER
100
AcDbLine
 10
281.3414069298
 20
66.8567951049
 30
0.0
 11
281.3414069298
 21
51.8567951049
 31
0.0
  0
LINE
  5
941
330
2
100
AcDbEntity
  8
HIDS
  6
sekkei_H
100
AcDbLine
 10
278.0914069298
 20
63.3567951049
 30
0.0
 11
278.0914069298
 21
55.3567951049
 31
0.0
  0
LINE
  5
942
330
2
100
AcDbEntity
  8
HIDS
  6
sekkei_H
100
AcDbLine
 10
284.5914069298
 20
63.3567951049
 30
0.0
 11
284.5914069298
 21
55.3567951049
 31
0.0
  0
ARC
  5
943
330
2
100
AcDbEntity
  8
0
100
AcDbCircle
 10
287.8414069298
 20
61.3567851049
 30
0.0
 40
2.0
100
AcDbArc
 50
0.0
 51
90.0
  0
LINE
  5
945
330
2
100
AcDbEntity
  8
HIDS
  6
sekkei_H
100
AcDbLine
 10
387.0519450959
 20
63.3567951049
 30
0.0
 11
387.0519450959
 21
55.3567951049
 31
0.0
  0
LINE
  5
946
330
2
100
AcDbEntity
  8
0
100
AcDbLine
 10
383.3019450959
 20
61.3567951049
 30
0.0
 11
383.3019450959
 21
55.3567951049
 31
0.0
  0
ARC
  5
947
330
2
100
AcDbEntity
  8
0
100
AcDbCircle
 10
385.3019450959
 20
61.3568051049
 30
0.0
 40
2.0
100
AcDbArc
 50
90.0
 51
180.0
  0
CIRCLE
  5
94B
330
2
100
AcDbEntity
  8
0
100
AcDbCircle
 10
247.3414069298
 20
120.3567951049
 30
0.0
 40
20.0
  0
LINE
  5
94C
330
2
100
AcDbEntity
  8
0
100
AcDbLine
 10
287.7137059298
 20
135.1500541049
 30
0.0
 11
263.6342079298
 21
152.0494531049
 31
0.0
  0
ARC
  5
94D
330
2
100
AcDbEntity
  8
0
100
AcDbCircle
 10
247.3414069298
 20
120.3567951049
 30
0.0
 40
7.5
100
AcDbArc
 50
19.47121
 51
340.528809
  0
LINE
  5
94E
330
2
100
AcDbEntity
  8
0
100
AcDbLine
 10
251.8414069298
 20
117.8567951049
 30
0.0
 11
251.8414069298
 21
122.8567951049
 31
0.0
  0
LINE
  5
94F
330
2
100
AcDbEntity
  8
0
100
AcDbLine
 10
256.8414069298
 20
122.8567951049
 30
0.0
 11
256.8414069298
 21
117.8567951049
 31
0.0
  0
LINE
  5
950
330
2
100
AcDbEntity
  8
0
100
AcDbLine
 10
251.8414069298
 20
117.8567951049
 30
0.0
 11
256.8414069298
 21
117.8567951049
 31
0.0
  0
LINE
  5
951
330
2
100
AcDbEntity
  8
0
100
AcDbLine
 10
251.8414069298
 20
122.8567951049
 30
0.0
 11
256.8414069298
 21
122.8567951049
 31
0.0
  0
LINE
  5
952
330
2
100
AcDbEntity
  8
0
100
AcDbLine
 10
233.9209199298
 20
152.9567941049
 30
0.0
 11
260.7619089298
 21
152.9567941049
 31
0.0
  0
ARC
  5
953
330
2
100
AcDbEntity
  8
0
100
AcDbCircle
 10
233.9209199298
 20
147.9568011049
 30
0.0
 40
5.0
100
AcDbArc
 50
90.0
 51
125.062202
  0
ARC
  5
954
330
2
100
AcDbEntity
  8
0
100
AcDbCircle
 10
260.7620149298
 20
147.9567861049
 30
0.0
 40
5.0
100
AcDbArc
 50
54.938431
 51
90.0
  0
ARC
  5
955
330
2
100
AcDbEntity
  8
0
100
AcDbCircle
 10
284.8414069298
 20
131.0573721049
 30
0.0
 40
5.0
100
AcDbArc
 50
0.0
 51
54.93837
  0
LINE
  5
957
330
2
100
AcDbEntity
  8
0
100
AcDbLine
 10
366.3019450959
 20
127.8567951049
 30
0.0
 11
366.3019450959
 21
112.8567951049
 31
0.0
  0
LINE
  5
959
330
2
100
AcDbEntity
  8
0
100
AcDbLine
 10
366.3019450959
 20
122.8567951049
 30
0.0
 11
387.8019450959
 21
122.8567951049
 31
0.0
  0
LINE
  5
95A
330
2
100
AcDbEntity
  8
0
100
AcDbLine
 10
366.3019450959
 20
117.8567951049
 30
0.0
 11
387.8019450959
 21
117.8567951049
 31
0.0
  0
LINE
  5
95B
330
2
100
AcDbEntity
  8
0
100
AcDbLine
 10
387.8019450959
 20
122.8567951049
 30
0.0
 11
387.8019450959
 21
117.8567951049
 31
0.0
  0
LINE
  5
95D
330
2
100
AcDbEntity
  8
0
100
AcDbLine
 10
461.3019450959
 20
66.3567951049
 30
0.0
 11
461.3019450959
 21
150.4503091049
 31
0.0
  0
ARC
  5
95E
330
2
100
AcDbEntity
  8
0
100
AcDbCircle
 10
430.3019450959
 20
98.0567961049
 30
0.0
 40
38.0
100
AcDbArc
 50
324.665501
 51
21.294262
  0
LINE
  5
95F
330
2
100
AcDbEntity
  8
CENTER
100
AcDbLine
 10
430.3019450959
 20
48.3567951049
 30
0.0
 11
430.3019450959
 21
164.0568151049
 31
0.0
  0
LINE
  5
960
330
2
100
AcDbEntity
  8
0
100
AcDbLine
 10
399.3019450959
 20
66.3567951049
 30
0.0
 11
399.3019450959
 21
150.4501941049
 31
0.0
  0
ARC
  5
961
330
2
100
AcDbEntity
  8
0
100
AcDbCircle
 10
430.3019450959
 20
98.0567961049
 30
0.0
 40
38.0
100
AcDbArc
 50
158.705734
 51
215.334503
  0
LINE
  5
962
330
2
100
AcDbEntity
  8
0
100
AcDbLine
 10
464.3019450959
 20
63.3567951049
 30
0.0
 11
475.3019450959
 21
63.3567951049
 31
0.0
  0
LINE
  5
963
330
2
100
AcDbEntity
  8
HIDS
100
AcDbLine
 10
409.3019450959
 20
60.0567961049
 30
0.0
 11
451.3019450959
 21
60.0567961049
 31
0.0
  0
ARC
  5
965
330
2
100
AcDbEntity
  8
0
100
AcDbCircle
 10
396.3019450959
 20
66.3567851049
 30
0.0
 40
3.0
100
AcDbArc
 50
270.0
 51
0.0
  0
LINE
  5
966
330
2
100
AcDbEntity
  8
HIDS
100
AcDbLine
 10
407.3019450959
 20
62.0567961049
 30
0.0
 11
407.3019450959
 21
66.3550601049
 31
0.0
  0
LINE
  5
967
330
2
100
AcDbEntity
  8
CENTER
100
AcDbLine
 10
390.3019450959
 20
66.8567951049
 30
0.0
 11
390.3019450959
 21
51.8567951049
 31
0.0
  0
ARC
  5
968
330
2
100
AcDbEntity
  8
HIDS
100
AcDbCircle
 10
409.3019450959
 20
62.0567961049
 30
0.0
 40
2.0
100
AcDbArc
 50
199.21669
 51
270.0
  0
LINE
  5
969
330
2
100
AcDbEntity
  8
HIDS
  6
sekkei_H
100
AcDbLine
 10
393.5519450959
 20
63.3567951049
 30
0.0
 11
393.5519450959
 21
55.3567951049
 31
0.0
  0
ARC
  5
96A
330
2
100
AcDbEntity
  8
HIDS
100
AcDbCircle
 10
409.3019450959
 20
62.0567961049
 30
0.0
 40
2.0
100
AcDbArc
 50
180.0
 51
199.21669
  0
ARC
  5
96B
330
2
100
AcDbEntity
  8
HIDS
100
AcDbCircle
 10
430.3019450959
 20
98.0567961049
 30
0.0
 40
38.0
100
AcDbArc
 50
215.334503
 51
230.643295
  0
ARC
  5
96C
330
2
100
AcDbEntity
  8
HIDS
100
AcDbCircle
 10
404.3019450959
 20
66.3550601049
 30
0.0
 40
3.0
100
AcDbArc
 50
0.0
 51
50.643299
  0
LINE
  5
96D
330
2
100
AcDbEntity
  8
CENTER
100
AcDbLine
 10
470.3019450959
 20
66.8567951049
 30
0.0
 11
470.3019450959
 21
51.8567951049
 31
0.0
  0
LINE
  5
96E
330
2
100
AcDbEntity
  8
HIDS
100
AcDbLine
 10
453.3019450959
 20
62.1996651049
 30
0.0
 11
453.3019450959
 21
66.3550601049
 31
0.0
  0
ARC
  5
96F
330
2
100
AcDbEntity
  8
0
100
AcDbCircle
 10
464.3019450959
 20
66.3567951049
 30
0.0
 40
3.0
100
AcDbArc
 50
180.0
 51
270.0
  0
LINE
  5
970
330
2
100
AcDbEntity
  8
HIDS
  6
sekkei_H
100
AcDbLine
 10
467.0519450959
 20
63.3567951049
 30
0.0
 11
467.0519450959
 21
55.3567951049
 31
0.0
  0
ARC
  5
971
330
2
100
AcDbEntity
  8
HIDS
100
AcDbCircle
 10
451.3019450959
 20
62.0567961049
 30
0.0
 40
2.0
100
AcDbArc
 50
270.0
 51
0.0
  0
ARC
  5
972
330
2
100
AcDbEntity
  8
HIDS
100
AcDbCircle
 10
430.3019450959
 20
98.0567961049
 30
0.0
 40
38.0
100
AcDbArc
 50
309.356701
 51
324.665497
  0
ARC
  5
973
330
2
100
AcDbEntity
  8
HIDS
100
AcDbCircle
 10
456.3019450959
 20
66.3550601049
 30
0.0
 40
3.0
100
AcDbArc
 50
129.356705
 51
180.0
  0
ARC
  5
974
330
2
100
AcDbEntity
  8
0
100
AcDbCircle
 10
475.3019450959
 20
61.3567851049
 30
0.0
 40
2.0
100
AcDbArc
 50
0.0
 51
90.0
  0
LINE
  5
975
330
2
100
AcDbEntity
  8
0
100
AcDbLine
 10
477.3019450959
 20
61.3567951049
 30
0.0
 11
477.3019450959
 21
55.3567951049
 31
0.0
  0
LINE
  5
976
330
2
100
AcDbEntity
  8
HIDS
  6
sekkei_H
100
AcDbLine
 10
473.5519450959
 20
63.3567951049
 30
0.0
 11
473.5519450959
 21
55.3567951049
 31
0.0
  0
LINE
  5
978
330
2
100
AcDbEntity
  8
HIDS
100
AcDbLine
 10
409.2670330959
 20
135.6896351049
 30
0.0
 11
430.3019450959
 21
136.0567851049
 31
0.0
  0
LINE
  5
979
330
2
100
AcDbEntity
  8
0
100
AcDbLine
 10
401.2670330959
 20
152.4500041049
 30
0.0
 11
430.3019450959
 21
152.9568011049
 31
0.0
  0
ARC
  5
97A
330
2
100
AcDbEntity
  8
0
100
AcDbCircle
 10
430.3019450959
 20
-92.9431848951
 30
0.0
 40
250.0
100
AcDbArc
 50
84.826019
 51
95.173981
  0
LINE
  5
97B
330
2
100
AcDbEntity
  8
0
100
AcDbLine
 10
400.9756510959
 20
133.6568061049
 30
0.0
 11
459.6943400959
 21
133.6568061049
 31
0.0
  0
ARC
  5
97C
330
2
100
AcDbEntity
  8
0
100
AcDbCircle
 10
430.3019450959
 20
149.0567921049
 30
0.0
 40
6.0
100
AcDbArc
 50
39.534275
 51
140.465729
  0
ARC
  5
97D
330
2
100
AcDbEntity
  8
HIDS
100
AcDbCircle
 10
430.3019450959
 20
98.0567961049
 30
0.0
 40
38.0
100
AcDbArc
 50
129.356705
 51
158.705734
  0
LINE
  5
97E
330
2
100
AcDbEntity
  8
0
100
AcDbLine
 10
393.3019450959
 20
128.8567951049
 30
0.0
 11
393.3019450959
 21
111.8567951049
 31
0.0
  0
LINE
  5
97F
330
2
100
AcDbEntity
  8
0
100
AcDbLine
 10
395.3019450959
 20
101.3567951049
 30
0.0
 11
395.3019450959
 21
139.3567951049
 31
0.0
  0
LINE
  5
980
330
2
100
AcDbEntity
  8
0
100
AcDbLine
 10
396.3019450959
 20
100.3567951049
 30
0.0
 11
397.3019450959
 21
100.3567951049
 31
0.0
  0
LINE
  5
981
330
2
100
AcDbEntity
  8
0
100
AcDbLine
 10
393.3019450959
 20
111.8567951049
 30
0.0
 11
395.3019450959
 21
111.8567951049
 31
0.0
  0
ARC
  5
982
330
2
100
AcDbEntity
  8
0
100
AcDbCircle
 10
396.3019450959
 20
101.3567911049
 30
0.0
 40
1.0
100
AcDbArc
 50
180.0
 51
270.0
  0
ARC
  5
983
330
2
100
AcDbEntity
  8
0
100
AcDbCircle
 10
410.3019450959
 20
149.2567971049
 30
0.0
 40
7.0
100
AcDbArc
 50
73.043503
 51
106.958023
  0
LINE
  5
984
330
2
100
AcDbEntity
  8
0
100
AcDbLine
 10
407.5519450959
 20
154.2567971049
 30
0.0
 11
413.0519450959
 21
154.2567971049
 31
0.0
  0
ARC
  5
985
330
2
100
AcDbEntity
  8
HIDS
100
AcDbCircle
 10
409.3019450959
 20
133.6899251049
 30
0.0
 40
2.0
100
AcDbArc
 50
90.999863
 51
180.0
  0
LINE
  5
986
330
2
100
AcDbEntity
  8
0
100
AcDbLine
 10
407.5519450959
 20
153.5567921049
 30
0.0
 11
413.3019450959
 21
153.5567921049
 31
0.0
  0
ARC
  5
987
330
2
100
AcDbEntity
  8
0
100
AcDbCircle
 10
401.3019450959
 20
150.4502021049
 30
0.0
 40
2.0
100
AcDbArc
 50
91.000641
 51
180.0
  0
LINE
  5
988
330
2
100
AcDbEntity
  8
0
100
AcDbLine
 10
396.3019450959
 20
140.3567951049
 30
0.0
 11
397.3019450959
 21
140.3567951049
 31
0.0
  0
LINE
  5
989
330
2
100
AcDbEntity
  8
0
100
AcDbLine
 10
393.3019450959
 20
128.8567951049
 30
0.0
 11
395.3019450959
 21
128.8567951049
 31
0.0
  0
ARC
  5
98A
330
2
100
AcDbEntity
  8
0
100
AcDbCircle
 10
396.3019450959
 20
139.3567951049
 30
0.0
 40
1.0
100
AcDbArc
 50
90.0
 51
180.0
  0
LINE
  5
98B
330
2
100
AcDbEntity
  8
0
100
AcDbLine
 10
407.5519450959
 20
153.5567921049
 30
0.0
 11
407.5519450959
 21
154.9959941049
 31
0.0
  0
LINE
  5
98C
330
2
100
AcDbEntity
  8
0
100
AcDbLine
 10
407.3019450959
 20
152.5553431049
 30
0.0
 11
407.3019450959
 21
155.5402141049
 31
0.0
  0
ARC
  5
991
330
2
100
AcDbEntity
  8
0
100
AcDbCircle
 10
407.8019450959
 20
153.0567921049
 30
0.0
 40
0.5
100
AcDbArc
 50
90.0
 51
180.0
  0
ARC
  5
992
330
2
100
AcDbEntity
  8
0
100
AcDbCircle
 10
408.5519450959
 20
154.9959941049
 30
0.0
 40
1.0
100
AcDbArc
 50
106.958153
 51
180.0
  0
ARC
  5
993
330
2
100
AcDbEntity
  8
0
100
AcDbCircle
 10
407.8019450959
 20
155.5402141049
 30
0.0
 40
0.5
100
AcDbArc
 50
95.173981
 51
180.0
  0
ARC
  5
994
330
2
100
AcDbEntity
  8
HIDS
100
AcDbCircle
 10
404.3019450959
 20
129.7585291049
 30
0.0
 40
3.0
100
AcDbArc
 50
309.356701
 51
0.0
  0
LINE
  5
995
330
2
100
AcDbEntity
  8
HIDS
100
AcDbLine
 10
407.3019450959
 20
133.6899251049
 30
0.0
 11
407.3019450959
 21
129.7585291049
 31
0.0
  0
LINE
  5
996
330
2
100
AcDbEntity
  8
HIDS
100
AcDbLine
 10
407.3019450959
 20
152.555341958
 30
0.0
 11
407.3019450959
 21
133.6899251049
 31
0.0
  0
LINE
  5
997
330
2
100
AcDbEntity
  8
0
100
AcDbLine
 10
413.8019450959
 20
156.0432581049
 30
0.0
 11
413.8019450959
 21
154.0567921049
 31
0.0
  0
ARC
  5
998
330
2
100
AcDbEntity
  8
0
100
AcDbCircle
 10
414.3019450959
 20
156.0432581049
 30
0.0
 40
0.5
100
AcDbArc
 50
93.676804
 51
180.0
  0
ARC
  5
999
330
2
100
AcDbEntity
  8
0
100
AcDbCircle
 10
413.3019450959
 20
154.0567921049
 30
0.0
 40
0.5
100
AcDbArc
 50
270.0
 51
0.0
  0
LINE
  5
99A
330
2
100
AcDbEntity
  8
0
100
AcDbLine
 10
413.0519450959
 20
153.5565941049
 30
0.0
 11
413.0519450959
 21
154.9959941049
 31
0.0
  0
ARC
  5
99B
330
2
100
AcDbEntity
  8
0
100
AcDbCircle
 10
412.0519450959
 20
154.9959941049
 30
0.0
 40
1.0
100
AcDbArc
 50
0.0
 51
73.043098
  0
LINE
  5
99C
330
2
100
AcDbEntity
  8
0
100
AcDbLine
 10
465.3019450959
 20
101.3567951049
 30
0.0
 11
465.3019450959
 21
139.3567951049
 31
0.0
  0
ARC
  5
99D
330
2
100
AcDbEntity
  8
HIDS
100
AcDbCircle
 10
430.3019450959
 20
98.0567961049
 30
0.0
 40
38.0
100
AcDbArc
 50
21.29426
 51
50.643299
  0
LINE
  5
99E
330
2
100
AcDbEntity
  8
0
100
AcDbLine
 10
464.3019450959
 20
100.3567951049
 30
0.0
 11
463.3019450959
 21
100.3567951049
 31
0.0
  0
ARC
  5
99F
330
2
100
AcDbEntity
  8
0
100
AcDbCircle
 10
464.3019450959
 20
101.3567911049
 30
0.0
 40
1.0
100
AcDbArc
 50
270.0
 51
0.0
  0
LINE
  5
9A0
330
2
100
AcDbEntity
  8
0
100
AcDbLine
 10
453.0519450959
 20
153.5567921049
 30
0.0
 11
447.3019450959
 21
153.5567921049
 31
0.0
  0
ARC
  5
9A1
330
2
100
AcDbEntity
  8
0
100
AcDbCircle
 10
450.3019450959
 20
149.2567971049
 30
0.0
 40
7.0
100
AcDbArc
 50
73.041977
 51
106.956497
  0
LINE
  5
9A2
330
2
100
AcDbEntity
  8
0
100
AcDbLine
 10
453.0519450959
 20
154.2567971049
 30
0.0
 11
447.5519450959
 21
154.2567971049
 31
0.0
  0
LINE
  5
9A3
330
2
100
AcDbEntity
  8
0
100
AcDbLine
 10
459.3368260959
 20
152.4500041049
 30
0.0
 11
430.3019450959
 21
152.9568011049
 31
0.0
  0
LINE
  5
9A4
330
2
100
AcDbEntity
  8
HIDS
100
AcDbLine
 10
451.3368260959
 20
135.6896351049
 30
0.0
 11
430.3019450959
 21
136.0567851049
 31
0.0
  0
LINE
  5
9A5
330
2
100
AcDbEntity
  8
0
100
AcDbLine
 10
447.5519450959
 20
153.5565941049
 30
0.0
 11
447.5519450959
 21
154.9959941049
 31
0.0
  0
LINE
  5
9A6
330
2
100
AcDbEntity
  8
0
100
AcDbLine
 10
446.8019450959
 20
156.0432581049
 30
0.0
 11
446.8019450959
 21
154.0567921049
 31
0.0
  0
ARC
  5
9A7
330
2
100
AcDbEntity
  8
0
100
AcDbCircle
 10
447.3019450959
 20
154.0567921049
 30
0.0
 40
0.5
100
AcDbArc
 50
180.0
 51
270.0
  0
ARC
  5
9A8
330
2
100
AcDbEntity
  8
0
100
AcDbCircle
 10
446.3019450959
 20
156.0432581049
 30
0.0
 40
0.5
100
AcDbArc
 50
0.0
 51
86.323196
  0
ARC
  5
9A9
330
2
100
AcDbEntity
  8
0
100
AcDbCircle
 10
448.5519450959
 20
154.9959941049
 30
0.0
 40
1.0
100
AcDbArc
 50
106.956902
 51
180.0
  0
ARC
  5
9AA
330
2
100
AcDbEntity
  8
0
100
AcDbCircle
 10
459.3019450959
 20
150.4503091049
 30
0.0
 40
2.0
100
AcDbArc
 50
0.0
 51
89.000137
  0
LINE
  5
9AB
330
2
100
AcDbEntity
  8
0
100
AcDbLine
 10
464.3019450959
 20
140.3567951049
 30
0.0
 11
463.3019450959
 21
140.3567951049
 31
0.0
  0
ARC
  5
9AC
330
2
100
AcDbEntity
  8
0
100
AcDbCircle
 10
464.3019450959
 20
139.3567951049
 30
0.0
 40
1.0
100
AcDbArc
 50
0.0
 51
90.0
  0
LINE
  5
9AD
330
2
100
AcDbEntity
  8
0
100
AcDbLine
 10
453.0519450959
 20
153.5567921049
 30
0.0
 11
453.0519450959
 21
154.9959941049
 31
0.0
  0
LINE
  5
9AE
330
2
100
AcDbEntity
  8
0
100
AcDbLine
 10
453.3019450959
 20
152.5553431049
 30
0.0
 11
453.3019450959
 21
155.5402141049
 31
0.0
  0
ARC
  5
9B3
330
2
100
AcDbEntity
  8
0
100
AcDbCircle
 10
452.8019450959
 20
153.0567921049
 30
0.0
 40
0.5
100
AcDbArc
 50
0.0
 51
90.0
  0
ARC
  5
9B4
330
2
100
AcDbEntity
  8
0
100
AcDbCircle
 10
452.0519450959
 20
154.9959941049
 30
0.0
 40
1.0
100
AcDbArc
 50
0.0
 51
73.041847
  0
ARC
  5
9B5
330
2
100
AcDbEntity
  8
0
100
AcDbCircle
 10
452.8019450959
 20
155.5402141049
 30
0.0
 40
0.5
100
AcDbArc
 50
0.0
 51
84.826019
  0
LINE
  5
9B6
330
2
100
AcDbEntity
  8
HIDS
100
AcDbLine
 10
453.3019450959
 20
133.6568061049
 30
0.0
 11
453.3019450959
 21
129.7585291049
 31
0.0
  0
ARC
  5
9B7
330
2
100
AcDbEntity
  8
HIDS
100
AcDbCircle
 10
451.3019450959
 20
133.6899251049
 30
0.0
 40
2.0
100
AcDbArc
 50
0.0
 51
89.000137
  0
LINE
  5
9B8
330
2
100
AcDbEntity
  8
HIDS
100
AcDbLine
 10
453.3019450959
 20
152.5553415294
 30
0.0
 11
453.3019450959
 21
133.6899251049
 31
0.0
  0
ARC
  5
9B9
330
2
100
AcDbEntity
  8
HIDS
100
AcDbCircle
 10
456.3019450959
 20
129.7585291049
 30
0.0
 40
3.0
100
AcDbArc
 50
180.0
 51
230.643295
  0
TEXT
  5
9BA
330
2
100
AcDbEntity
  8
TITLE
100
AcDbText
 10
378.432703345
 20
316.4317993506
 30
0.0
 40
5.0
  1
HLV-15R-10~240-T15
100
AcDbText
  0
TEXT
  5
9BB
330
2
100
AcDbEntity
  8
TITLE
100
AcDbText
 10
378.432703345
 20
308.4317993506
 30
0.0
 40
5.0
  1
HLV-15R-10~240-T25
100
AcDbText
  0
TEXT
  5
9BC
330
2
100
AcDbEntity
  8
TITLE
100
AcDbText
 10
378.432703345
 20
300.4317993506
 30
0.0
 40
5.0
  1
HLV-15R-10~120-T40
100
AcDbText
  0
TEXT
  5
9BD
330
2
100
AcDbEntity
  8
TITLE
100
AcDbText
 10
378.432703345
 20
292.4317993506
 30
0.0
 40
5.0
  1
HLV-15R-10~240-S15
100
AcDbText
  0
TEXT
  5
9BE
330
2
100
AcDbEntity
  8
TITLE
100
AcDbText
 10
378.432703345
 20
284.4317993506
 30
0.0
 40
5.0
  1
HLV-15R-10~240-S25
100
AcDbText
  0
LINE
  5
9BF
330
2
100
AcDbEntity
  8
CENTER
100
AcDbLine
 10
68.8414129298
 20
306.8105448735
 30
0.0
 11
296.8414069298
 21
306.8105448735
 31
0.0
  0
LINE
  5
9C0
330
2
100
AcDbEntity
  8
0
100
AcDbLine
 10
207.3479219298
 20
275.8105448735
 30
0.0
 11
287.3349069298
 21
275.8105448735
 31
0.0
  0
LINE
  5
9C1
330
2
100
AcDbEntity
  8
0
100
AcDbLine
 10
207.3479219298
 20
337.8105448735
 30
0.0
 11
287.3349069298
 21
337.8105448735
 31
0.0
  0
LINE
  5
9C2
330
2
100
AcDbEntity
  8
0
100
AcDbLine
 10
208.6097779298
 20
259.8105448735
 30
0.0
 11
239.8414069298
 21
259.8105448735
 31
0.0
  0
LINE
  5
9C3
330
2
100
AcDbEntity
  8
0
100
AcDbLine
 10
208.6097779298
 20
353.8105598735
 30
0.0
 11
247.3414069298
 21
353.8105598735
 31
0.0
  0
LINE
  5
9C4
330
2
100
AcDbEntity
  8
0
100
AcDbLine
 10
132.3414149298
 20
329.8105448735
 30
0.0
 11
208.2610999298
 21
329.8105448735
 31
0.0
  0
LINE
  5
9C5
330
2
100
AcDbEntity
  8
0
100
AcDbLine
 10
132.3414149298
 20
283.8105448735
 30
0.0
 11
208.2610999298
 21
283.8105448735
 31
0.0
  0
LINE
  5
9C6
330
2
100
AcDbEntity
  8
0
100
AcDbLine
 10
132.3414149298
 20
268.8105448735
 30
0.0
 11
202.8414149298
 21
268.8105448735
 31
0.0
  0
LINE
  5
9C7
330
2
100
AcDbEntity
  8
0
100
AcDbLine
 10
202.8414149298
 20
344.8105448735
 30
0.0
 11
132.3414149298
 21
344.8105448735
 31
0.0
  0
LINE
  5
9CC
330
2
100
AcDbEntity
  8
0
100
AcDbLine
 10
132.3414149298
 20
268.8105448735
 30
0.0
 11
132.3414149298
 21
344.8105448735
 31
0.0
  0
LINE
  5
A45
330
2
100
AcDbEntity
  8
0
100
AcDbLine
 10
208.2610999298
 20
285.8105448735
 30
0.0
 11
208.2610999298
 21
327.8108188735
 31
0.0
  0
ARC
  5
A46
330
2
100
AcDbEntity
  8
0
100
AcDbCircle
 10
208.6097779298
 20
262.8105448735
 30
0.0
 40
3.0
100
AcDbArc
 50
180.999847
 51
270.0
  0
LINE
  5
A47
330
2
100
AcDbEntity
  8
CENTER
100
AcDbLine
 10
213.3414069298
 20
260.5203520435
 30
0.0
 11
213.3414069298
 21
273.1007377034
 31
0.0
  0
ARC
  5
A48
330
2
100
AcDbEntity
  8
0
100
AcDbCircle
 10
202.8414149298
 20
270.8105448735
 30
0.0
 40
2.0
100
AcDbArc
 50
270.0
 51
0.0
  0
LINE
  5
A49
330
2
100
AcDbEntity
  8
0
100
AcDbLine
 10
204.8414149298
 20
270.8105448735
 30
0.0
 11
204.8414149298
 21
274.4583868735
 31
0.0
  0
LINE
  5
A4A
330
2
100
AcDbEntity
  8
0
100
AcDbLine
 10
205.3481439298
 20
277.7756478735
 30
0.0
 11
205.2428199298
 21
283.8105448735
 31
0.0
  0
ARC
  5
A4B
330
2
100
AcDbEntity
  8
0
100
AcDbCircle
 10
206.3414149298
 20
274.4583868735
 30
0.0
 40
1.5
100
AcDbArc
 50
73.287354
 51
180.0
  0
ARC
  5
A4C
330
2
100
AcDbEntity
  8
0
100
AcDbCircle
 10
207.3479219298
 20
277.8105448735
 30
0.0
 40
2.0
100
AcDbArc
 50
181.0
 51
270.0
  0
LINE
  5
A4D
330
2
100
AcDbEntity
  8
CENTER
100
AcDbLine
 10
207.0512140999
 20
266.8105448735
 30
0.0
 11
219.6315997598
 21
266.8105448735
 31
0.0
  0
LINE
  5
A4E
330
2
100
AcDbEntity
  8
0
100
AcDbLine
 10
205.6102359298
 20
262.7582068735
 30
0.0
 11
205.3858559298
 21
275.6146368735
 31
0.0
  0
CIRCLE
  5
A4F
330
2
100
AcDbEntity
  8
0
100
AcDbCircle
 10
213.3414069298
 20
266.8105448735
 30
0.0
 40
3.25
  0
ARC
  5
A50
330
2
100
AcDbEntity
  8
0
100
AcDbCircle
 10
202.8414149298
 20
342.8105448735
 30
0.0
 40
2.0
100
AcDbArc
 50
0.0
 51
90.0
  0
LINE
  5
A51
330
2
100
AcDbEntity
  8
CENTER
100
AcDbLine
 10
213.3414069298
 20
340.5203670435
 30
0.0
 11
213.3414069298
 21
353.1007527034
 31
0.0
  0
ARC
  5
A52
330
2
100
AcDbEntity
  8
0
100
AcDbCircle
 10
208.6097779298
 20
350.8105598735
 30
0.0
 40
3.0
100
AcDbArc
 50
90.0
 51
179.000153
  0
LINE
  5
A53
330
2
100
AcDbEntity
  8
0
100
AcDbLine
 10
204.8414149298
 20
342.8105448735
 30
0.0
 11
204.8414149298
 21
339.1627018735
 31
0.0
  0
ARC
  5
A54
330
2
100
AcDbEntity
  8
0
100
AcDbCircle
 10
206.3414149298
 20
339.1627018735
 30
0.0
 40
1.5
100
AcDbArc
 50
180.0
 51
286.712646
  0
ARC
  5
A55
330
2
100
AcDbEntity
  8
0
100
AcDbCircle
 10
207.3479219298
 20
335.8105448735
 30
0.0
 40
2.0
100
AcDbArc
 50
90.0
 51
179.0
  0
LINE
  5
A56
330
2
100
AcDbEntity
  8
0
100
AcDbLine
 10
205.6102359298
 20
350.8628978735
 30
0.0
 11
205.3858559298
 21
338.0064518735
 31
0.0
  0
LINE
  5
A57
330
2
100
AcDbEntity
  8
CENTER
100
AcDbLine
 10
207.0512140999
 20
346.8105598735
 30
0.0
 11
219.6315997598
 21
346.8105598735
 31
0.0
  0
CIRCLE
  5
A58
330
2
100
AcDbEntity
  8
0
100
AcDbCircle
 10
213.3414069298
 20
346.8105448735
 30
0.0
 40
3.25
  0
LINE
  5
A59
330
2
100
AcDbEntity
  8
0
100
AcDbLine
 10
205.3481439298
 20
335.8454568735
 30
0.0
 11
205.2428199298
 21
329.8105448735
 31
0.0
  0
LINE
  5
A5A
330
2
100
AcDbEntity
  8
CENTER
100
AcDbLine
 10
247.3414069298
 20
360.8105598735
 30
0.0
 11
247.3414069298
 21
235.8105448735
 31
0.0
  0
LINE
  5
A5B
330
2
100
AcDbEntity
  8
0
100
AcDbLine
 10
232.3414069298
 20
335.8454568735
 30
0.0
 11
232.3414069298
 21
277.7756478735
 31
0.0
  0
LINE
  5
A5C
330
2
100
AcDbEntity
  8
0
100
AcDbLine
 10
262.3414069298
 20
335.8454568735
 30
0.0
 11
262.3414069298
 21
277.7756478735
 31
0.0
  0
LINE
  5
A5D
330
2
100
AcDbEntity
  8
0
100
AcDbLine
 10
289.0724709298
 20
262.7581918735
 30
0.0
 11
289.8414069298
 21
306.8105448735
 31
0.0
  0
LINE
  5
A5E
330
2
100
AcDbEntity
  8
0
100
AcDbLine
 10
266.3414069298
 20
271.8105448735
 30
0.0
 11
228.3414069298
 21
271.8105448735
 31
0.0
  0
LINE
  5
A5F
330
2
100
AcDbEntity
  8
0
100
AcDbLine
 10
256.8414069298
 20
259.8105448735
 30
0.0
 11
286.0729289298
 21
259.8105448735
 31
0.0
  0
LINE
  5
A60
330
2
100
AcDbEntity
  8
0
100
AcDbLine
 10
254.4124059298
 20
264.3105448735
 30
0.0
 11
254.4124059298
 21
242.8105448735
 31
0.0
  0
LINE
  5
A61
330
2
100
AcDbEntity
  8
0
100
AcDbLine
 10
256.8414069298
 20
264.3105448735
 30
0.0
 11
256.8414069298
 21
242.8105448735
 31
0.0
  0
LINE
  5
A62
330
2
100
AcDbEntity
  8
0
100
AcDbLine
 10
239.8414069298
 20
242.8105448735
 30
0.0
 11
239.8414069298
 21
269.8105448735
 31
0.0
  0
LINE
  5
A63
330
2
100
AcDbEntity
  8
0
100
AcDbLine
 10
239.8414069298
 20
242.8105448735
 30
0.0
 11
256.8414069298
 21
242.8105448735
 31
0.0
  0
LINE
  5
A64
330
2
100
AcDbEntity
  8
0
100
AcDbLine
 10
238.8414069298
 20
269.8105448735
 30
0.0
 11
255.8414069298
 21
269.8105448735
 31
0.0
  0
LINE
  5
A65
330
2
100
AcDbEntity
  8
0
100
AcDbLine
 10
238.8414069298
 20
269.8105448735
 30
0.0
 11
238.8414069298
 21
271.8105448735
 31
0.0
  0
LINE
  5
A66
330
2
100
AcDbEntity
  8
0
100
AcDbLine
 10
227.3414069298
 20
272.8105448735
 30
0.0
 11
227.3414069298
 21
273.8105448735
 31
0.0
  0
ARC
  5
A67
330
2
100
AcDbEntity
  8
0
100
AcDbCircle
 10
228.3414069298
 20
272.8105448735
 30
0.0
 40
1.0
100
AcDbArc
 50
180.0
 51
270.0
  0
LINE
  5
A68
330
2
100
AcDbEntity
  8
0
100
AcDbLine
 10
255.8414069298
 20
269.8105448735
 30
0.0
 11
255.8414069298
 21
271.8105448735
 31
0.0
  0
LINE
  5
A69
330
2
100
AcDbEntity
  8
0
100
AcDbLine
 10
254.4124059298
 20
264.3105448735
 30
0.0
 11
256.8414069298
 21
264.3105448735
 31
0.0
  0
LINE
  5
A6A
330
2
100
AcDbEntity
  8
0
100
AcDbLine
 10
254.8414069298
 20
264.3105448735
 30
0.0
 11
254.8414069298
 21
269.8105448735
 31
0.0
  0
ARC
  5
A6B
330
2
100
AcDbEntity
  8
0
100
AcDbCircle
 10
286.0729289298
 20
262.8105448735
 30
0.0
 40
3.0
100
AcDbArc
 50
270.0
 51
359.0
  0
LINE
  5
A6C
330
2
100
AcDbEntity
  8
CENTER
100
AcDbLine
 10
281.3414069298
 20
260.5203520435
 30
0.0
 11
281.3414069298
 21
273.1007377034
 31
0.0
  0
LINE
  5
A6D
330
2
100
AcDbEntity
  8
CENTER
100
AcDbLine
 10
275.0512140999
 20
266.8105448735
 30
0.0
 11
287.6315997598
 21
266.8105448735
 31
0.0
  0
ARC
  5
A6E
330
2
100
AcDbEntity
  8
0
100
AcDbCircle
 10
266.3414219298
 20
272.8105448735
 30
0.0
 40
1.0
100
AcDbArc
 50
270.0
 51
0.0
  0
LINE
  5
A6F
330
2
100
AcDbEntity
  8
0
100
AcDbLine
 10
267.3414069298
 20
272.8105448735
 30
0.0
 11
267.3414069298
 21
273.8105448735
 31
0.0
  0
CIRCLE
  5
A70
330
2
100
AcDbEntity
  8
0
100
AcDbCircle
 10
281.3414069298
 20
266.8105448735
 30
0.0
 40
3.25
  0
ARC
  5
A71
330
2
100
AcDbEntity
  8
0
100
AcDbCircle
 10
287.3349069298
 20
277.8105448735
 30
0.0
 40
2.0
100
AcDbArc
 50
270.0
 51
359.0
  0
LINE
  5
A72
330
2
100
AcDbEntity
  8
0
100
AcDbLine
 10
247.3414069298
 20
353.8105598735
 30
0.0
 11
286.0729289298
 21
353.8105598735
 31
0.0
  0
LINE
  5
A73
330
2
100
AcDbEntity
  8
0
100
AcDbLine
 10
289.0724709298
 20
350.8628978735
 30
0.0
 11
289.8414069298
 21
306.8105448735
 31
0.0
  0
LINE
  5
A74
330
2
100
AcDbEntity
  8
CENTER
100
AcDbLine
 10
275.0512140999
 20
346.8105598735
 30
0.0
 11
287.6315997598
 21
346.8105598735
 31
0.0
  0
LINE
  5
A75
330
2
100
AcDbEntity
  8
CENTER
100
AcDbLine
 10
281.3414069298
 20
340.5203670435
 30
0.0
 11
281.3414069298
 21
353.1007527034
 31
0.0
  0
CIRCLE
  5
A76
330
2
100
AcDbEntity
  8
0
100
AcDbCircle
 10
281.3414069298
 20
346.8105448735
 30
0.0
 40
3.25
  0
ARC
  5
A77
330
2
100
AcDbEntity
  8
0
100
AcDbCircle
 10
286.0729289298
 20
350.8105598735
 30
0.0
 40
3.0
100
AcDbArc
 50
1.0
 51
90.0
  0
ARC
  5
A78
330
2
100
AcDbEntity
  8
0
100
AcDbCircle
 10
287.3349069298
 20
335.8105448735
 30
0.0
 40
2.0
100
AcDbArc
 50
1.0
 51
90.0
  0
ARC
  5
1176
330
2
100
AcDbEntity
  8
0
100
AcDbCircle
 10
463.3019450959
 20
142.3567951049
 30
0.0
 40
2.0
100
AcDbArc
 50
180.0
 51
270.0
  0
ARC
  5
1177
330
2
100
AcDbEntity
  8
0
100
AcDbCircle
 10
463.3019450959
 20
98.3567951049
 30
0.0
 40
2.0
100
AcDbArc
 50
90.0
 51
180.0
  0
ARC
  5
1178
330
2
100
AcDbEntity
  8
0
100
AcDbCircle
 10
397.3019450959
 20
98.3567951049
 30
0.0
 40
2.0
100
AcDbArc
 50
0.0
 51
90.0
  0
ARC
  5
1179
330
2
100
AcDbEntity
  8
0
100
AcDbCircle
 10
397.3019450959
 20
142.3567951049
 30
0.0
 40
2.0
100
AcDbArc
 50
270.0
 51
0.0
  0
ARC
  5
1181
330
2
100
AcDbEntity
  8
0
100
AcDbCircle
 10
269.3414069298
 20
339.8105448735
 30
0.0
 40
2.0
100
AcDbArc
 50
180.0
 51
270.0
  0
ARC
  5
1182
330
2
100
AcDbEntity
  8
0
100
AcDbCircle
 10
225.3414069298
 20
339.8105448735
 30
0.0
 40
2.0
100
AcDbArc
 50
270.0
 51
0.0
  0
LINE
  5
1183
330
2
100
AcDbEntity
  8
0
100
AcDbLine
 10
266.3414069298
 20
341.8105448735
 30
0.0
 11
228.3414069298
 21
341.8105448735
 31
0.0
  0
LINE
  5
1184
330
2
100
AcDbEntity
  8
0
100
AcDbLine
 10
267.3414069298
 20
340.8105448735
 30
0.0
 11
267.3414069298
 21
339.8105448735
 31
0.0
  0
ARC
  5
1185
330
2
100
AcDbEntity
  8
0
100
AcDbCircle
 10
266.3414109298
 20
340.8105448735
 30
0.0
 40
1.0
100
AcDbArc
 50
0.0
 51
90.0
  0
LINE
  5
1186
330
2
100
AcDbEntity
  8
0
100
AcDbLine
 10
227.3414069298
 20
340.8105448735
 30
0.0
 11
227.3414069298
 21
339.8105448735
 31
0.0
  0
ARC
  5
1187
330
2
100
AcDbEntity
  8
0
100
AcDbCircle
 10
228.3414069298
 20
340.8105448735
 30
0.0
 40
1.0
100
AcDbArc
 50
90.0
 51
180.0
  0
ARC
  5
1188
330
2
100
AcDbEntity
  8
0
100
AcDbCircle
 10
225.3414069298
 20
273.8105448735
 30
0.0
 40
2.0
100
AcDbArc
 50
0.0
 51
90.0
  0
ARC
  5
1189
330
2
100
AcDbEntity
  8
0
100
AcDbCircle
 10
269.3414069298
 20
273.8105448735
 30
0.0
 40
2.0
100
AcDbArc
 50
90.0
 51
180.0
  0
INSERT
  5
1375
330
2
100
AcDbEntity
  8
0
100
AcDbBlockReference
  2
A$C6643dda2
 10
132.3414149298
 20
98.0567961049
 30
0.0
  0
INSERT
  5
13F9
330
2
100
AcDbEntity
  8
0
100
AcDbBlockReference
  2
A$C46bf166a
 10
132.3414149298
 20
306.8105448735
 30
0.0
  0
ENDSEC
  0
SECTION
  2
OBJECTS
  0
DICTIONARY
  5
7
330
0
100
AcDbDictionary
281
     1
  3
ACAD_CIP_PREVIOUS_PRODUCT_INFO
350
1280
  3
ACAD_COLOR
350
11B6
  3
ACAD_DETAILVIEWSTYLE
350
127C
  3
ACAD_GROUP
350
75
  3
ACAD_LAYOUT
350
61
  3
ACAD_MATERIAL
350
118C
  3
ACAD_MLEADERSTYLE
350
11DB
  3
ACAD_MLINESTYLE
350
76
  3
ACAD_PLOTSETTINGS
350
77
  3
ACAD_PLOTSTYLENAME
350
6
  3
ACAD_SCALELIST
350
11B9
  3
ACAD_SECTIONVIEWSTYLE
350
127A
  3
ACAD_TABLESTYLE
350
11B7
  3
ACAD_VISUALSTYLE
350
11A5
  3
AcadDim
350
480
  3
ACDB_RECOMPOSE_DATA
350
1562
  3
AcDbVariableDictionary
350
102
  3
DWGPROPS
350
1563
  0
DICTIONARY
  5
120A
330
6E
100
AcDbDictionary
280
     1
281
     1
  0
DICTIONARY
  5
136E
330
66
100
AcDbDictionary
280
     1
281
     1
  3
ACAD_LAYERSTATES
360
136F
  0
DICTIONARY
  5
11E0
330
5E
100
AcDbDictionary
280
     1
281
     1
  3
ADSK_XREC_LAYER_RECONCILED
360
11E1
  0
DICTIONARY
  5
11E2
330
3E
100
AcDbDictionary
280
     1
281
     1
  3
ADSK_XREC_LAYER_RECONCILED
360
11E3
  0
DICTIONARY
  5
11E8
330
2B5
100
AcDbDictionary
280
     1
281
     1
  3
ADSK_XREC_LAYER_RECONCILED
360
11E9
  0
DICTIONARY
  5
11EA
330
2BA
100
AcDbDictionary
280
     1
281
     1
  3
ADSK_XREC_LAYER_RECONCILED
360
11EB
  0
DICTIONARY
  5
11EE
330
3FA
100
AcDbDictionary
280
     1
281
     1
  3
ADSK_XREC_LAYER_RECONCILED
360
11EF
  0
DICTIONARY
  5
1377
330
1376
100
AcDbDictionary
280
     1
281
     1
  3
ACAD_SORTENTS
360
1378
  0
XRECORD
  5
1280
102
{ACAD_REACTORS
330
7
102
}
330
7
100
AcDbXrecord
280
     1
300
ACD
300
2020
300
87224ACD_2020_0F
  0
DICTIONARY
  5
11B6
102
{ACAD_REACTORS
330
7
102
}
330
7
100
AcDbDictionary
281
     1
  0
DICTIONARY
  5
127C
102
{ACAD_REACTORS
330
7
102
}
330
7
100
AcDbDictionary
281
     1
  3
Imperial24
350
127D
  0
DICTIONARY
  5
75
102
{ACAD_REACTORS
330
7
102
}
330
7
100
AcDbDictionary
281
     1
  0
DICTIONARY
  5
61
102
{ACAD_REACTORS
330
7
102
}
330
7
100
AcDbDictionary
281
     1
  3
Model
350
60
  3
レイアウト1
350
155C
  0
DICTIONARY
  5
118C
102
{ACAD_REACTORS
330
7
102
}
330
7
100
AcDbDictionary
281
     1
  3
ByBlock
350
1195
  3
ByLayer
350
118D
  3
Global
350
119D
  0
DICTIONARY
  5
11DB
102
{ACAD_REACTORS
330
7
102
}
330
7
100
AcDbDictionary
281
     1
  3
Standard
350
11DC
  0
DICTIONARY
  5
76
102
{ACAD_REACTORS
330
7
102
}
330
7
100
AcDbDictionary
281
     1
  3
STANDARD
350
78
  0
DICTIONARY
  5
77
102
{ACAD_REACTORS
330
7
102
}
330
7
100
AcDbDictionary
281
     1
  0
ACDBDICTIONARYWDFLT
  5
6
102
{ACAD_REACTORS
330
7
102
}
330
7
100
AcDbDictionary
281
     1
  3
Normal
350
5
100
AcDbDictionaryWithDefault
340
5
  0
DICTIONARY
  5
11B9
102
{ACAD_REACTORS
330
7
102
}
330
7
100
AcDbDictionary
281
     1
  3
A0
350
11BA
  3
A1
350
11BB
  3
A2
350
11BC
  3
A3
350
11BD
  3
A4
350
11BE
  3
A5
350
11BF
  3
A6
350
11C0
  3
A7
350
11C1
  3
A8
350
11C2
  3
A9
350
11C3
  3
B0
350
11C4
  3
B1
350
11C5
  3
B2
350
11C6
  3
B3
350
11C7
  3
B4
350
11C8
  3
B5
350
11C9
  3
B6
350
11CA
  3
B7
350
11CB
  3
B8
350
11CC
  3
B9
350
11CD
  3
C0
350
11CE
  3
C1
350
11CF
  3
C2
350
11D0
  3
C3
350
11D1
  3
C4
350
11D2
  3
C5
350
11D3
  3
C6
350
11D4
  3
C7
350
11D5
  3
C8
350
11D6
  3
C9
350
11D7
  3
D0
350
11D8
  3
D1
350
11D9
  3
D2
350
11DA
  0
DICTIONARY
  5
127A
102
{ACAD_REACTORS
330
7
102
}
330
7
100
AcDbDictionary
281
     1
  3
Imperial24
350
127B
  0
DICTIONARY
  5
11B7
102
{ACAD_REACTORS
330
7
102
}
330
7
100
AcDbDictionary
281
     1
  3
Standard
350
11B8
  0
DICTIONARY
  5
11A5
102
{ACAD_REACTORS
330
7
102
}
330
7
100
AcDbDictionary
281
     1
  3
2dWireframe
350
11AB
  3
3D Hidden
350
11AD
  3
3dWireframe
350
11AC
  3
Basic
350
11AA
  3
Brighten
350
11B1
  3
ColorChange
350
11B5
  3
Conceptual
350
11AE
  3
Dim
350
11B0
  3
EdgeColorOff
350
1279
  3
Facepattern
350
11B4
  3
Flat
350
11A6
  3
FlatWithEdges
350
11A7
  3
Gouraud
350
11A8
  3
GouraudWithEdges
350
11A9
  3
Hidden
350
1271
  3
JitterOff
350
1277
  3
Linepattern
350
11B3
  3
OverhangOff
350
1278
  3
Realistic
350
11AF
  3
Shaded
350
1276
  3
Shaded with edges
350
1275
  3
Shades of Gray
350
1272
  3
Sketchy
350
1273
  3
Thicken
350
11B2
  3
Wireframe
350
1270
  3
X-Ray
350
1274
  0
XRECORD
  5
480
102
{ACAD_REACTORS
330
7
102
}
330
7
100
AcDbXrecord
280
     1
 90
   990106
  3

 60
     0
 61
     0
 62
     1
 63
     3
 64
     1
 65
     0
 66
     0
 67
     3
 68
     1
 69
     0
 70
     0
 71
     0
 72
     0
 40
0.0
170
     2
340
0
  0
XRECORD
  5
1562
102
{ACAD_REACTORS
330
7
102
}
330
7
100
AcDbXrecord
280
     1
 90
        1
330
11B8
  0
DICTIONARY
  5
102
102
{ACAD_REACTORS
330
7
102
}
330
7
100
AcDbDictionary
281
     1
  3
CANNOSCALE
350
11F2
  3
CMLEADERSTYLE
350
11F1
  3
CTABLESTYLE
350
11F0
  3
CVIEWDETAILSTYLE
350
12E2
  3
CVIEWSECTIONSTYLE
350
12E3
  3
DIMASSOC
350
103
  3
INDEXCTL
350
1231
  3
SORTENTS
350
1230
  3
XCLIPFRAME
350
1560
  0
XRECORD
  5
1563
102
{ACAD_REACTORS
330
7
102
}
330
7
100
AcDbXrecord
280
     1
  1
DWGPROPS COOKIE
  2

  3

  4

  6

  7

  8
ykitaga
  9

300
=
301
=
302
=
303
=
304
=
305
=
306
=
307
=
308
=
309
=
 40
0.0984168519
 41
2453759.642465278
 42
2460516.513599537
  1

 90
        0
  0
DICTIONARY
  5
136F
102
{ACAD_REACTORS
330
136E
102
}
330
136E
100
AcDbDictionary
281
     1
  0
XRECORD
  5
11E1
102
{ACAD_REACTORS
330
11E0
102
}
330
11E0
100
AcDbXrecord
280
     1
290
     1
  0
XRECORD
  5
11E3
102
{ACAD_REACTORS
330
11E2
102
}
330
11E2
100
AcDbXrecord
280
     1
290
     1
  0
XRECORD
  5
11E9
102
{ACAD_REACTORS
330
11E8
102
}
330
11E8
100
AcDbXrecord
280
     1
290
     1
  0
XRECORD
  5
11EB
102
{ACAD_REACTORS
330
11EA
102
}
330
11EA
100
AcDbXrecord
280
     1
290
     1
  0
XRECORD
  5
11EF
102
{ACAD_REACTORS
330
11EE
102
}
330
11EE
100
AcDbXrecord
280
     1
290
     1
  0
SORTENTSTABLE
  5
1378
102
{ACAD_REACTORS
330
1377
102
}
330
1377
100
AcDbSortentsTable
330
1376
  0
ACDBDETAILVIEWSTYLE
  5
127D
102
{ACAD_XDICTIONARY
360
15B4
102
}
102
{ACAD_REACTORS
330
127C
102
}
330
127C
100
AcDbModelDocViewStyle
 70
     0
  3
Imperial24
290
     0
100
AcDbDetailViewStyle
 70
     0
 71
     0
 90
        3
 71
     1
340
16
 40
0.24
340
0
 40
0.24
300

 40
0.36
280
     3
 71
     2
340
8
 90
       25
 71
     3
340
16
 40
0.24
 90
        1
 40
0.75
 90
        1
300
%<\AcVar ViewType \f "%tc1">% %<\AcVar ViewDetailId>%\PSCALE %<\AcVar ViewScale \f "%sn">%
 71
     4
340
8
 90
       25
340
8
 90
       25
280
     0
  0
LAYOUT
  5
60
102
{ACAD_XDICTIONARY
360
1564
102
}
102
{ACAD_REACTORS
330
61
102
}
330
61
100
AcDbPlotSettings
  1

  2
Canon LBP-1420
  4
A4
  6

 40
5.873749733
 41
5.8737478256
 42
5.8737487793
 43
5.8737487793
 44
209.9733276367
 45
296.925994873
 46
0.0
 47
5.37
 48
0.0
 49
0.0
140
0.0
141
0.0
142
1.0
143
0.088099941
 70
 11956
 72
     1
 73
     1
 74
     1
  7
Sekkei.ctb
 75
     0
147
11.3507453947
148
-88.9740150773
149
-101.3630682339
100
AcDbLayout
  1
Model
 70
     1
 71
     0
 10
0.0
 20
0.0
 11
12.0
 21
9.0
 12
0.0
 22
0.0
 32
0.0
 14
0.0
 24
0.0
 34
0.0
 15
0.0
 25
0.0
 35
0.0
146
0.0
 13
0.0
 23
0.0
 33
0.0
 16
1.0
 26
0.0
 36
0.0
 17
0.0
 27
1.0
 37
0.0
 76
     0
330
2
331
118A
  0
LAYOUT
  5
155C
102
{ACAD_XDICTIONARY
360
15B6
102
}
102
{ACAD_REACTORS
330
61
102
}
330
61
100
AcDbPlotSettings
  1

  2
LBP8610
  4

  6

 40
0.0
 41
0.0
 42
0.0
 43
0.0
 44
0.0
 45
0.0
 46
0.0
 47
0.0
 48
0.0
 49
0.0
140
0.0
141
0.0
142
1.0
143
1.0
 70
   688
 72
     0
 73
     0
 74
     5
  7

 75
    16
147
1.0
148
0.0
149
0.0
100
AcDbLayout
  1
レイアウト1
 70
     1
 71
     1
 10
0.0
 20
0.0
 11
12.0
 21
9.0
 12
0.0
 22
0.0
 32
0.0
 14
0.0
 24
0.0
 34
0.0
 15
0.0
 25
0.0
 35
0.0
146
0.0
 13
0.0
 23
0.0
 33
0.0
 16
1.0
 26
0.0
 36
0.0
 17
0.0
 27
1.0
 37
0.0
 76
     0
330
155B
  0
MATERIAL
  5
1195
102
{ACAD_XDICTIONARY
360
1196
102
}
102
{ACAD_REACTORS
330
118C
102
}
330
118C
100
AcDbMaterial
  1
ByBlock
 72
     0
 43
0.0208333333
 43
0.0
 43
0.0
 43
0.0
 43
0.0
 43
0.0208333333
 43
0.0
 43
0.0
 43
0.0
 43
0.0
 43
1.0
 43
0.0
 43
0.0
 43
0.0
 43
0.0
 43
1.0
 77
     0
 47
0.0208333333
 47
0.0
 47
0.0
 47
0.0
 47
0.0
 47
0.0208333333
 47
0.0
 47
0.0
 47
0.0
 47
0.0
 47
1.0
 47
0.0
 47
0.0
 47
0.0
 47
0.0
 47
1.0
171
     0
 49
0.0208333333
 49
0.0
 49
0.0
 49
0.0
 49
0.0
 49
0.0208333333
 49
0.0
 49
0.0
 49
0.0
 49
0.0
 49
1.0
 49
0.0
 49
0.0
 49
0.0
 49
0.0
 49
1.0
175
     0
142
0.0208333333
142
0.0
142
0.0
142
0.0
142
0.0
142
0.0208333333
142
0.0
142
0.0
142
0.0
142
0.0
142
1.0
142
0.0
142
0.0
142
0.0
142
0.0
142
1.0
179
     0
144
0.0208333333
144
0.0
144
0.0
144
0.0
144
0.0
144
0.0208333333
144
0.0
144
0.0
144
0.0
144
0.0
144
1.0
144
0.0
144
0.0
144
0.0
144
0.0
144
1.0
147
0.0208333333
147
0.0
147
0.0
147
0.0
147
0.0
147
0.0208333333
147
0.0
147
0.0
147
0.0
147
0.0
147
1.0
147
0.0
147
0.0
147
0.0
147
0.0
147
1.0
  0
MATERIAL
  5
118D
102
{ACAD_XDICTIONARY
360
118E
102
}
102
{ACAD_REACTORS
330
118C
102
}
330
118C
100
AcDbMaterial
  1
ByLayer
 72
     0
 43
0.0208333333
 43
0.0
 43
0.0
 43
0.0
 43
0.0
 43
0.0208333333
 43
0.0
 43
0.0
 43
0.0
 43
0.0
 43
1.0
 43
0.0
 43
0.0
 43
0.0
 43
0.0
 43
1.0
 77
     0
 47
0.0208333333
 47
0.0
 47
0.0
 47
0.0
 47
0.0
 47
0.0208333333
 47
0.0
 47
0.0
 47
0.0
 47
0.0
 47
1.0
 47
0.0
 47
0.0
 47
0.0
 47
0.0
 47
1.0
171
     0
 49
0.0208333333
 49
0.0
 49
0.0
 49
0.0
 49
0.0
 49
0.0208333333
 49
0.0
 49
0.0
 49
0.0
 49
0.0
 49
1.0
 49
0.0
 49
0.0
 49
0.0
 49
0.0
 49
1.0
175
     0
142
0.0208333333
142
0.0
142
0.0
142
0.0
142
0.0
142
0.0208333333
142
0.0
142
0.0
142
0.0
142
0.0
142
1.0
142
0.0
142
0.0
142
0.0
142
0.0
142
1.0
179
     0
144
0.0208333333
144
0.0
144
0.0
144
0.0
144
0.0
144
0.0208333333
144
0.0
144
0.0
144
0.0
144
0.0
144
1.0
144
0.0
144
0.0
144
0.0
144
0.0
144
1.0
147
0.0208333333
147
0.0
147
0.0
147
0.0
147
0.0
147
0.0208333333
147
0.0
147
0.0
147
0.0
147
0.0
147
1.0
147
0.0
147
0.0
147
0.0
147
0.0
147
1.0
  0
MATERIAL
  5
119D
102
{ACAD_XDICTIONARY
360
119E
102
}
102
{ACAD_REACTORS
330
118C
102
}
330
118C
100
AcDbMaterial
  1
Global
 72
     0
 43
0.0208333333
 43
0.0
 43
0.0
 43
0.0
 43
0.0
 43
0.0208333333
 43
0.0
 43
0.0
 43
0.0
 43
0.0
 43
1.0
 43
0.0
 43
0.0
 43
0.0
 43
0.0
 43
1.0
 77
     0
 47
0.0208333333
 47
0.0
 47
0.0
 47
0.0
 47
0.0
 47
0.0208333333
 47
0.0
 47
0.0
 47
0.0
 47
0.0
 47
1.0
 47
0.0
 47
0.0
 47
0.0
 47
0.0
 47
1.0
171
     0
 49
0.0208333333
 49
0.0
 49
0.0
 49
0.0
 49
0.0
 49
0.0208333333
 49
0.0
 49
0.0
 49
0.0
 49
0.0
 49
1.0
 49
0.0
 49
0.0
 49
0.0
 49
0.0
 49
1.0
175
     0
142
0.0208333333
142
0.0
142
0.0
142
0.0
142
0.0
142
0.0208333333
142
0.0
142
0.0
142
0.0
142
0.0
142
1.0
142
0.0
142
0.0
142
0.0
142
0.0
142
1.0
179
     0
144
0.0208333333
144
0.0
144
0.0
144
0.0
144
0.0
144
0.0208333333
144
0.0
144
0.0
144
0.0
144
0.0
144
1.0
144
0.0
144
0.0
144
0.0
144
0.0
144
1.0
147
0.0208333333
147
0.0
147
0.0
147
0.0
147
0.0
147
0.0208333333
147
0.0
147
0.0
147
0.0
147
0.0
147
1.0
147
0.0
147
0.0
147
0.0
147
0.0
147
1.0
  0
MLEADERSTYLE
  5
11DC
102
{ACAD_REACTORS
330
11DB
102
}
330
11DB
100
AcDbMLeaderStyle
170
     2
171
     1
172
     0
 90
        2
 40
0.0
 41
0.0
173
     1
 91
-1056964608
340
6A
 92
       -2
290
     1
 42
0.09
291
     1
 43
0.36
  3
Standard
 44
0.18
300

342
16
174
     1
178
     6
175
     1
176
     0
 93
-1056964608
 45
0.18
292
     0
297
     0
 46
0.18
 94
-1056964608
 47
1.0
 49
1.0
140
1.0
293
     1
141
0.0
294
     1
177
     0
142
1.0
295
     0
296
     0
143
0.125
1001
ACAD_MLEADERVER
1070
     2
  0
MLINESTYLE
  5
78
102
{ACAD_REACTORS
330
76
102
}
330
76
100
AcDbMlineStyle
  2
STANDARD
 70
     0
  3

 62
     0
 51
90.0
 52
90.0
 71
     2
 49
0.5
 62
   256
  6
BYLAYER
 49
-0.5
 62
   256
  6
BYLAYER
  0
ACDBPLACEHOLDER
  5
5
102
{ACAD_REACTORS
330
6
102
}
330
6
  0
SCALE
  5
11BA
102
{ACAD_REACTORS
330
11B9
102
}
330
11B9
100
AcDbScale
 70
     0
300
1:1
140
1.0
141
1.0
290
     1
  0
SCALE
  5
11BB
102
{ACAD_REACTORS
330
11B9
102
}
330
11B9
100
AcDbScale
 70
     0
300
1:2
140
1.0
141
2.0
290
     0
  0
SCALE
  5
11BC
102
{ACAD_REACTORS
330
11B9
102
}
330
11B9
100
AcDbScale
 70
     0
300
1:4
140
1.0
141
4.0
290
     0
  0
SCALE
  5
11BD
102
{ACAD_REACTORS
330
11B9
102
}
330
11B9
100
AcDbScale
 70
     0
300
1:5
140
1.0
141
5.0
290
     0
  0
SCALE
  5
11BE
102
{ACAD_REACTORS
330
11B9
102
}
330
11B9
100
AcDbScale
 70
     0
300
1:8
140
1.0
141
8.0
290
     0
  0
SCALE
  5
11BF
102
{ACAD_REACTORS
330
11B9
102
}
330
11B9
100
AcDbScale
 70
     0
300
1:10
140
1.0
141
10.0
290
     0
  0
SCALE
  5
11C0
102
{ACAD_REACTORS
330
11B9
102
}
330
11B9
100
AcDbScale
 70
     0
300
1:16
140
1.0
141
16.0
290
     0
  0
SCALE
  5
11C1
102
{ACAD_REACTORS
330
11B9
102
}
330
11B9
100
AcDbScale
 70
     0
300
1:20
140
1.0
141
20.0
290
     0
  0
SCALE
  5
11C2
102
{ACAD_REACTORS
330
11B9
102
}
330
11B9
100
AcDbScale
 70
     0
300
1:30
140
1.0
141
30.0
290
     0
  0
SCALE
  5
11C3
102
{ACAD_REACTORS
330
11B9
102
}
330
11B9
100
AcDbScale
 70
     0
300
1:40
140
1.0
141
40.0
290
     0
  0
SCALE
  5
11C4
102
{ACAD_REACTORS
330
11B9
102
}
330
11B9
100
AcDbScale
 70
     0
300
1:50
140
1.0
141
50.0
290
     0
  0
SCALE
  5
11C5
102
{ACAD_REACTORS
330
11B9
102
}
330
11B9
100
AcDbScale
 70
     0
300
1:100
140
1.0
141
100.0
290
     0
  0
SCALE
  5
11C6
102
{ACAD_REACTORS
330
11B9
102
}
330
11B9
100
AcDbScale
 70
     0
300
2:1
140
2.0
141
1.0
290
     0
  0
SCALE
  5
11C7
102
{ACAD_REACTORS
330
11B9
102
}
330
11B9
100
AcDbScale
 70
     0
300
4:1
140
4.0
141
1.0
290
     0
  0
SCALE
  5
11C8
102
{ACAD_REACTORS
330
11B9
102
}
330
11B9
100
AcDbScale
 70
     0
300
8:1
140
8.0
141
1.0
290
     0
  0
SCALE
  5
11C9
102
{ACAD_REACTORS
330
11B9
102
}
330
11B9
100
AcDbScale
 70
     0
300
10:1
140
10.0
141
1.0
290
     0
  0
SCALE
  5
11CA
102
{ACAD_REACTORS
330
11B9
102
}
330
11B9
100
AcDbScale
 70
     0
300
100:1
140
100.0
141
1.0
290
     0
  0
SCALE
  5
11CB
102
{ACAD_REACTORS
330
11B9
102
}
330
11B9
100
AcDbScale
 70
     0
300
1/128" = 1'-0"
140
0.0078125
141
12.0
290
     0
  0
SCALE
  5
11CC
102
{ACAD_REACTORS
330
11B9
102
}
330
11B9
100
AcDbScale
 70
     0
300
1/64" = 1'-0"
140
0.015625
141
12.0
290
     0
  0
SCALE
  5
11CD
102
{ACAD_REACTORS
330
11B9
102
}
330
11B9
100
AcDbScale
 70
     0
300
1/32" = 1'-0"
140
0.03125
141
12.0
290
     0
  0
SCALE
  5
11CE
102
{ACAD_REACTORS
330
11B9
102
}
330
11B9
100
AcDbScale
 70
     0
300
1/16" = 1'-0"
140
0.0625
141
12.0
290
     0
  0
SCALE
  5
11CF
102
{ACAD_REACTORS
330
11B9
102
}
330
11B9
100
AcDbScale
 70
     0
300
3/32" = 1'-0"
140
0.09375
141
12.0
290
     0
  0
SCALE
  5
11D0
102
{ACAD_REACTORS
330
11B9
102
}
330
11B9
100
AcDbScale
 70
     0
300
1/8" = 1'-0"
140
0.125
141
12.0
290
     0
  0
SCALE
  5
11D1
102
{ACAD_REACTORS
330
11B9
102
}
330
11B9
100
AcDbScale
 70
     0
300
3/16" = 1'-0"
140
0.1875
141
12.0
290
     0
  0
SCALE
  5
11D2
102
{ACAD_REACTORS
330
11B9
102
}
330
11B9
100
AcDbScale
 70
     0
300
1/4" = 1'-0"
140
0.25
141
12.0
290
     0
  0
SCALE
  5
11D3
102
{ACAD_REACTORS
330
11B9
102
}
330
11B9
100
AcDbScale
 70
     0
300
3/8" = 1'-0"
140
0.375
141
12.0
290
     0
  0
SCALE
  5
11D4
102
{ACAD_REACTORS
330
11B9
102
}
330
11B9
100
AcDbScale
 70
     0
300
1/2" = 1'-0"
140
0.5
141
12.0
290
     0
  0
SCALE
  5
11D5
102
{ACAD_REACTORS
330
11B9
102
}
330
11B9
100
AcDbScale
 70
     0
300
3/4" = 1'-0"
140
0.75
141
12.0
290
     0
  0
SCALE
  5
11D6
102
{ACAD_REACTORS
330
11B9
102
}
330
11B9
100
AcDbScale
 70
     0
300
1" = 1'-0"
140
1.0
141
12.0
290
     0
  0
SCALE
  5
11D7
102
{ACAD_REACTORS
330
11B9
102
}
330
11B9
100
AcDbScale
 70
     0
300
1-1/2" = 1'-0"
140
1.5
141
12.0
290
     0
  0
SCALE
  5
11D8
102
{ACAD_REACTORS
330
11B9
102
}
330
11B9
100
AcDbScale
 70
     0
300
3" = 1'-0"
140
3.0
141
12.0
290
     0
  0
SCALE
  5
11D9
102
{ACAD_REACTORS
330
11B9
102
}
330
11B9
100
AcDbScale
 70
     0
300
6" = 1'-0"
140
6.0
141
12.0
290
     0
  0
SCALE
  5
11DA
102
{ACAD_REACTORS
330
11B9
102
}
330
11B9
100
AcDbScale
 70
     0
300
1'-0" = 1'-0"
140
12.0
141
12.0
290
     0
  0
ACDBSECTIONVIEWSTYLE
  5
127B
102
{ACAD_XDICTIONARY
360
15B2
102
}
102
{ACAD_REACTORS
330
127A
102
}
330
127A
100
AcDbModelDocViewStyle
 70
     0
  3
Imperial24
290
     0
100
AcDbSectionViewStyle
 70
     0
 71
     0
 90
       78
 71
     1
340
16
 40
0.24
340
0
340
0
 40
0.24
300
I, O, Q, S, X, Z
 40
0.48
 90
        3
 40
0.18
 90
        1
 71
     2
340
8
 90
       25
340
8
 90
       50
 40
0.24
 40
0.0
 40
0.24
 71
     3
340
16
 40
0.24
 90
        1
 40
0.75
 90
        1
300
%<\AcVar ViewType \f "%tc1">% %<\AcVar ViewSectionStartId>%-%<\AcVar ViewSectionEndId>%\PSCALE %<\AcVar ViewScale \f "%sn">%
 71
     4
300
ANSI31
 40
1.0
 90
        0
290
     0
290
     0
 90
        6
 40
0.0
 40
1.5707963268
 40
0.2617993878
 40
1.308996939
 40
-0.2617993878
 40
1.8325957146
  0
TABLESTYLE
  5
11B8
102
{ACAD_XDICTIONARY
360
11F3
102
}
102
{ACAD_REACTORS
330
11B7
102
}
330
11B7
100
AcDbTableStyle
  3
Standard
 70
     0
 71
     0
 40
0.06
 41
0.06
280
     0
281
     0
  7
STANDARD
140
0.18
170
     2
 62
     0
 63
     7
283
     0
274
    -2
284
     1
 64
     0
275
    -2
285
     1
 65
     0
276
    -2
286
     1
 66
     0
277
    -2
287
     1
 67
     0
278
    -2
288
     1
 68
     0
279
    -2
289
     1
 69
     0
  7
STANDARD
140
0.25
170
     5
 62
     0
 63
     7
283
     0
274
    -2
284
     1
 64
     0
275
    -2
285
     1
 65
     0
276
    -2
286
     1
 66
     0
277
    -2
287
     1
 67
     0
278
    -2
288
     1
 68
     0
279
    -2
289
     1
 69
     0
  7
STANDARD
140
0.18
170
     5
 62
     0
 63
     7
283
     0
274
    -2
284
     1
 64
     0
275
    -2
285
     1
 65
     0
276
    -2
286
     1
 66
     0
277
    -2
287
     1
 67
     0
278
    -2
288
     1
 68
     0
279
    -2
289
     1
 69
     0
  0
VISUALSTYLE
  5
11AB
102
{ACAD_XDICTIONARY
360
1587
102
}
102
{ACAD_REACTORS
330
11A5
102
}
330
11A5
100
AcDbVisualStyle
  2
2dWireframe
 70
     4
 71
     0
 72
     2
 73
     0
 90
        0
 40
-0.6
 41
-30.0
 62
     5
 63
     7
 74
     1
 91
        4
 64
     7
 65
   257
 75
     1
175
     1
 42
1.0
 92
        0
 66
   257
 43
1.0
 76
     1
 77
     6
 78
     2
 67
     7
 79
     5
170
     0
171
     0
290
     0
174
     0
 93
        1
 44
0.0
173
     0
291
     0
 45
0.0
1001
ACAD
1000
AcDbSavedByObjectVersion
1070
     0
  0
VISUALSTYLE
  5
11AD
102
{ACAD_XDICTIONARY
360
158B
102
}
102
{ACAD_REACTORS
330
11A5
102
}
330
11A5
100
AcDbVisualStyle
  2
3D Hidden
 70
     6
 71
     1
 72
     2
 73
     2
 90
        0
 40
-0.6
 41
-30.0
 62
     5
 63
     7
 74
     2
 91
        2
 64
     7
 65
   257
 75
     2
175
     1
 42
40.0
 92
        0
 66
   257
 43
1.0
 76
     1
 77
     6
 78
     2
 67
     7
 79
     3
170
     0
171
     0
290
     0
174
     0
 93
        1
 44
0.0
173
     0
291
     0
 45
0.0
1001
ACAD
1000
AcDbSavedByObjectVersion
1070
     0
  0
VISUALSTYLE
  5
11AC
102
{ACAD_XDICTIONARY
360
1589
102
}
102
{ACAD_REACTORS
330
11A5
102
}
330
11A5
100
AcDbVisualStyle
  2
3dWireframe
 70
     5
 71
     0
 72
     2
 73
     0
 90
        0
 40
-0.6
 41
-30.0
 62
     5
 63
     7
 74
     1
 91
        4
 64
     7
 65
   257
 75
     1
175
     1
 42
1.0
 92
        0
 66
   257
 43
1.0
 76
     1
 77
     6
 78
     2
 67
     7
 79
     5
170
     0
171
     0
290
     0
174
     0
 93
        1
 44
0.0
173
     0
291
     0
 45
0.0
1001
ACAD
1000
AcDbSavedByObjectVersion
1070
     0
  0
VISUALSTYLE
  5
11AA
102
{ACAD_XDICTIONARY
360
1585
102
}
102
{ACAD_REACTORS
330
11A5
102
}
330
11A5
100
AcDbVisualStyle
  2
Basic
 70
     7
 71
     1
 72
     0
 73
     1
 90
        0
 40
-0.6
 41
-30.0
 62
     5
 63
     7
 74
     0
 91
        4
 64
     7
 65
   257
 75
     1
175
     1
 42
1.0
 92
        8
 66
     7
 43
1.0
 76
     1
 77
     6
 78
     2
 67
     7
 79
     5
170
     0
171
     0
290
     0
174
     0
 93
        1
 44
0.0
173
     0
291
     1
 45
0.0
1001
ACAD
1000
AcDbSavedByObjectVersion
1070
     0
  0
VISUALSTYLE
  5
11B1
102
{ACAD_XDICTIONARY
360
1593
102
}
102
{ACAD_REACTORS
330
11A5
102
}
330
11A5
100
AcDbVisualStyle
  2
Brighten
 70
    12
 71
     2
 72
     2
 73
     0
 90
        0
 40
-0.6
 41
-30.0
 62
     5
 63
     7
 74
     1
 91
        4
 64
     7
 65
   257
 75
     1
175
     1
 42
1.0
 92
        8
 66
     7
 43
1.0
 76
     1
 77
     6
 78
     2
 67
     7
 79
     5
170
     0
171
     0
290
     0
174
     0
 93
        1
 44
50.0
173
     0
291
     1
 45
0.0
1001
ACAD
1000
AcDbSavedByObjectVersion
1070
     0
  0
VISUALSTYLE
  5
11B5
102
{ACAD_XDICTIONARY
360
159B
102
}
102
{ACAD_REACTORS
330
11A5
102
}
330
11A5
100
AcDbVisualStyle
  2
ColorChange
 70
    16
 71
     2
 72
     2
 73
     3
 90
        0
 40
-0.6
 41
-30.0
 62
     5
 63
     8
 74
     1
 91
        4
 64
     7
 65
   257
 75
     1
175
     1
 42
1.0
 92
        8
 66
     8
 43
1.0
 76
     1
 77
     6
 78
     2
 67
     7
 79
     5
170
     0
171
     0
290
     0
174
     0
 93
        1
 44
0.0
173
     0
291
     1
 45
0.0
1001
ACAD
1000
AcDbSavedByObjectVersion
1070
     0
  0
VISUALSTYLE
  5
11AE
102
{ACAD_XDICTIONARY
360
158D
102
}
102
{ACAD_REACTORS
330
11A5
102
}
330
11A5
100
AcDbVisualStyle
  2
Conceptual
 70
     9
 71
     3
 72
     2
 73
     0
 90
        0
 40
-0.6
 41
-30.0
 62
     5
 63
     7
 74
     2
 91
        2
 64
     7
 65
   257
 75
     1
175
     1
 42
40.0
 92
        8
 66
     7
 43
1.0
 76
     1
 77
     6
 78
     2
 67
     7
 79
     3
170
     0
171
     0
290
     0
174
     0
 93
        1
 44
0.0
173
     0
291
     0
 45
0.0
1001
ACAD
1000
AcDbSavedByObjectVersion
1070
     0
  0
VISUALSTYLE
  5
11B0
102
{ACAD_XDICTIONARY
360
1591
102
}
102
{ACAD_REACTORS
330
11A5
102
}
330
11A5
100
AcDbVisualStyle
  2
Dim
 70
    11
 71
     2
 72
     2
 73
     0
 90
        0
 40
-0.6
 41
-30.0
 62
     5
 63
     7
 74
     1
 91
        4
 64
     7
 65
   257
 75
     1
175
     1
 42
1.0
 92
        8
 66
     7
 43
1.0
 76
     1
 77
     6
 78
     2
 67
     7
 79
     5
170
     0
171
     0
290
     0
174
     0
 93
        1
 44
-50.0
173
     0
291
     1
 45
0.0
1001
ACAD
1000
AcDbSavedByObjectVersion
1070
     0
  0
VISUALSTYLE
  5
1279
102
{ACAD_XDICTIONARY
360
15B0
102
}
102
{ACAD_REACTORS
330
11A5
102
}
330
11A5
100
AcDbVisualStyle
  2
EdgeColorOff
 70
    22
 71
     2
 72
     2
 73
     0
 90
        0
 40
-0.6
 41
-30.0
 62
     5
 63
     7
 74
     1
 91
        4
 64
     7
 65
   257
 75
     1
175
     1
 42
1.0
 92
        8
 66
     7
 43
1.0
 76
     1
 77
     6
 78
     2
 67
     7
 79
     5
170
     0
171
     0
290
     0
174
     0
 93
        1
 44
0.0
173
     0
291
     1
 45
0.0
1001
ACAD
1000
AcDbSavedByObjectVersion
1070
     0
  0
VISUALSTYLE
  5
11B4
102
{ACAD_XDICTIONARY
360
1599
102
}
102
{ACAD_REACTORS
330
11A5
102
}
330
11A5
100
AcDbVisualStyle
  2
Facepattern
 70
    15
 71
     2
 72
     2
 73
     0
 90
        0
 40
-0.6
 41
-30.0
 62
     5
 63
     7
 74
     1
 91
        4
 64
     7
 65
   257
 75
     1
175
     1
 42
1.0
 92
        8
 66
     7
 43
1.0
 76
     1
 77
     6
 78
     2
 67
     7
 79
     5
170
     0
171
     0
290
     0
174
     0
 93
        1
 44
0.0
173
     0
291
     1
 45
0.0
1001
ACAD
1000
AcDbSavedByObjectVersion
1070
     0
  0
VISUALSTYLE
  5
11A6
102
{ACAD_XDICTIONARY
360
157D
102
}
102
{ACAD_REACTORS
330
11A5
102
}
330
11A5
100
AcDbVisualStyle
  2
Flat
 70
     0
 71
     2
 72
     1
 73
     1
 90
        2
 40
-0.6
 41
30.0
 62
     5
 63
     7
 74
     0
 91
        4
 64
     7
 65
   257
 75
     1
175
     1
 42
1.0
 92
        8
 66
     7
 43
1.0
 76
     1
 77
     6
 78
     2
 67
     7
 79
     5
170
     0
171
     0
290
     0
174
     0
 93
       13
 44
0.0
173
     0
291
     1
 45
0.0
1001
ACAD
1000
AcDbSavedByObjectVersion
1070
     0
  0
VISUALSTYLE
  5
11A7
102
{ACAD_XDICTIONARY
360
157F
102
}
102
{ACAD_REACTORS
330
11A5
102
}
330
11A5
100
AcDbVisualStyle
  2
FlatWithEdges
 70
     1
 71
     2
 72
     1
 73
     1
 90
        2
 40
-0.6
 41
30.0
 62
     5
 63
     7
 74
     1
 91
        4
 64
     7
 65
   257
 75
     1
175
     1
 42
1.0
 92
        0
 66
   257
 43
1.0
 76
     1
 77
     6
 78
     2
 67
     7
 79
     5
170
     0
171
     0
290
     0
174
     0
 93
       13
 44
0.0
173
     0
291
     1
 45
0.0
1001
ACAD
1000
AcDbSavedByObjectVersion
1070
     0
  0
VISUALSTYLE
  5
11A8
102
{ACAD_XDICTIONARY
360
1581
102
}
102
{ACAD_REACTORS
330
11A5
102
}
330
11A5
100
AcDbVisualStyle
  2
Gouraud
 70
     2
 71
     2
 72
     2
 73
     1
 90
        2
 40
-0.6
 41
30.0
 62
     5
 63
     7
 74
     0
 91
        4
 64
     7
 65
   257
 75
     1
175
     1
 42
1.0
 92
        0
 66
     7
 43
1.0
 76
     1
 77
     6
 78
     2
 67
     7
 79
     5
170
     0
171
     0
290
     0
174
     0
 93
       13
 44
0.0
173
     0
291
     1
 45
0.0
1001
ACAD
1000
AcDbSavedByObjectVersion
1070
     0
  0
VISUALSTYLE
  5
11A9
102
{ACAD_XDICTIONARY
360
1583
102
}
102
{ACAD_REACTORS
330
11A5
102
}
330
11A5
100
AcDbVisualStyle
  2
GouraudWithEdges
 70
     3
 71
     2
 72
     2
 73
     1
 90
        2
 40
-0.6
 41
30.0
 62
     5
 63
     7
 74
     1
 91
        4
 64
     7
 65
   257
 75
     1
175
     1
 42
1.0
 92
        0
 66
   257
 43
1.0
 76
     1
 77
     6
 78
     2
 67
     7
 79
     5
170
     0
171
     0
290
     0
174
     0
 93
       13
 44
0.0
173
     0
291
     1
 45
0.0
1001
ACAD
1000
AcDbSavedByObjectVersion
1070
     0
  0
VISUALSTYLE
  5
1271
102
{ACAD_XDICTIONARY
360
15A0
102
}
102
{ACAD_REACTORS
330
11A5
102
}
330
11A5
100
AcDbVisualStyle
  2
Hidden
 70
     6
 71
     1
 72
     2
 73
     2
 90
        0
 40
-0.6
 41
-30.0
 62
     5
 63
     7
 74
     2
 91
        2
 64
     7
 65
   257
 75
     2
175
     1
 42
40.0
 92
        0
 66
   257
 43
1.0
 76
     1
 77
     6
 78
     2
 67
     7
 79
     3
170
     0
171
     0
290
     0
174
     0
 93
        1
 44
0.0
173
     0
291
     0
 45
0.0
1001
ACAD
1000
AcDbSavedByObjectVersion
1070
     0
  0
VISUALSTYLE
  5
1277
102
{ACAD_XDICTIONARY
360
15AC
102
}
102
{ACAD_REACTORS
330
11A5
102
}
330
11A5
100
AcDbVisualStyle
  2
JitterOff
 70
    20
 71
     2
 72
     2
 73
     0
 90
        0
 40
-0.6
 41
-30.0
 62
     5
 63
     7
 74
     1
 91
        4
 64
     7
 65
   257
 75
     1
175
     1
 42
1.0
 92
       10
 66
     7
 43
1.0
 76
     1
 77
     6
 78
     2
 67
     7
 79
     5
170
     0
171
     0
290
     0
174
     0
 93
        1
 44
0.0
173
     0
291
     1
 45
0.0
1001
ACAD
1000
AcDbSavedByObjectVersion
1070
     0
  0
VISUALSTYLE
  5
11B3
102
{ACAD_XDICTIONARY
360
1597
102
}
102
{ACAD_REACTORS
330
11A5
102
}
330
11A5
100
AcDbVisualStyle
  2
Linepattern
 70
    14
 71
     2
 72
     2
 73
     0
 90
        0
 40
-0.6
 41
-30.0
 62
     5
 63
     7
 74
     1
 91
        4
 64
     7
 65
   257
 75
     7
175
     7
 42
1.0
 92
        8
 66
     7
 43
1.0
 76
     1
 77
     6
 78
     2
 67
     7
 79
     5
170
     0
171
     0
290
     0
174
     0
 93
        1
 44
0.0
173
     0
291
     1
 45
0.0
1001
ACAD
1000
AcDbSavedByObjectVersion
1070
     0
  0
VISUALSTYLE
  5
1278
102
{ACAD_XDICTIONARY
360
15AE
102
}
102
{ACAD_REACTORS
330
11A5
102
}
330
11A5
100
AcDbVisualStyle
  2
OverhangOff
 70
    21
 71
     2
 72
     2
 73
     0
 90
        0
 40
-0.6
 41
-30.0
 62
     5
 63
     7
 74
     1
 91
        4
 64
     7
 65
   257
 75
     1
175
     1
 42
1.0
 92
        9
 66
     7
 43
1.0
 76
     1
 77
     6
 78
     2
 67
     7
 79
     5
170
     0
171
     0
290
     0
174
     0
 93
        1
 44
0.0
173
     0
291
     1
 45
0.0
1001
ACAD
1000
AcDbSavedByObjectVersion
1070
     0
  0
VISUALSTYLE
  5
11AF
102
{ACAD_XDICTIONARY
360
158F
102
}
102
{ACAD_REACTORS
330
11A5
102
}
330
11A5
100
AcDbVisualStyle
  2
Realistic
 70
     8
 71
     2
 72
     2
 73
     0
 90
        0
 40
-0.6
 41
-30.0
 62
     5
 63
     7
 74
     1
 91
        0
 64
     7
 65
   257
 75
     1
175
     1
 42
1.0
 92
        8
 66
     8
 43
1.0
 76
     1
 77
     6
 78
     2
 67
     7
 79
     5
170
     0
171
     0
290
     0
174
     0
 93
       13
 44
0.0
173
     0
291
     0
 45
0.0
1001
ACAD
1000
AcDbSavedByObjectVersion
1070
     0
  0
VISUALSTYLE
  5
1276
102
{ACAD_XDICTIONARY
360
15AA
102
}
102
{ACAD_REACTORS
330
11A5
102
}
330
11A5
100
AcDbVisualStyle
  2
Shaded
 70
    27
 71
     2
 72
     2
 73
     1
 90
        2
 40
-0.6
 41
30.0
 62
     5
 63
     7
 74
     0
 91
        4
 64
     7
 65
   257
 75
     1
175
     1
 42
1.0
 92
        8
 66
   257
 43
1.0
 76
     1
 77
     6
 78
     2
 67
     8
 79
     3
170
     0
171
     0
290
     0
174
     0
 93
        5
 44
0.0
173
     0
291
     0
 45
0.0
1001
ACAD
1000
AcDbSavedByObjectVersion
1070
     0
  0
VISUALSTYLE
  5
1275
102
{ACAD_XDICTIONARY
360
15A8
102
}
102
{ACAD_REACTORS
330
11A5
102
}
330
11A5
100
AcDbVisualStyle
  2
Shaded with edges
 70
    26
 71
     2
 72
     2
 73
     1
 90
        2
 40
-0.6
 41
30.0
 62
     5
 63
     7
 74
     1
 91
        2
 64
     7
 65
   257
 75
     2
175
     1
 42
1.0
 92
        8
 66
   257
 43
1.0
 76
     1
 77
     6
 78
     2
 67
     7
 79
     3
170
     0
171
     0
290
     0
174
     0
 93
        5
 44
0.0
173
     0
291
     0
 45
0.0
1001
ACAD
1000
AcDbSavedByObjectVersion
1070
     0
  0
VISUALSTYLE
  5
1272
102
{ACAD_XDICTIONARY
360
15A2
102
}
102
{ACAD_REACTORS
330
11A5
102
}
330
11A5
100
AcDbVisualStyle
  2
Shades of Gray
 70
    23
 71
     2
 72
     2
 73
     3
 90
        0
 40
-0.6
 41
-30.0
 62
     5
 63
     7
 74
     2
 91
        2
 64
     7
 65
     7
 75
     1
175
     1
 42
40.0
 92
        8
 66
     7
 43
1.0
 76
     1
 77
     6
 78
     2
 67
     7
 79
     3
170
     0
171
     0
290
     0
174
     0
 93
        1
 44
0.0
173
     0
291
     0
 45
0.0
1001
ACAD
1000
AcDbSavedByObjectVersion
1070
     0
  0
VISUALSTYLE
  5
1273
102
{ACAD_XDICTIONARY
360
15A4
102
}
102
{ACAD_REACTORS
330
11A5
102
}
330
11A5
100
AcDbVisualStyle
  2
Sketchy
 70
    24
 71
     1
 72
     2
 73
     2
 90
        0
 40
-0.6
 41
-30.0
 62
     5
 63
     7
 74
     2
 91
        2
 64
     7
 65
     7
 75
     1
175
     1
 42
40.0
 92
       11
 66
     7
 43
1.0
 76
     1
 77
     6
 78
     2
 67
     7
 79
     6
170
     0
171
     0
290
     0
174
     0
 93
        1
 44
0.0
173
     0
291
     0
 45
0.0
1001
ACAD
1000
AcDbSavedByObjectVersion
1070
     0
  0
VISUALSTYLE
  5
11B2
102
{ACAD_XDICTIONARY
360
1595
102
}
102
{ACAD_REACTORS
330
11A5
102
}
330
11A5
100
AcDbVisualStyle
  2
Thicken
 70
    13
 71
     2
 72
     2
 73
     0
 90
        0
 40
-0.6
 41
-30.0
 62
     5
 63
     7
 74
     1
 91
        4
 64
     7
 65
   257
 75
     1
175
     1
 42
1.0
 92
       12
 66
     7
 43
1.0
 76
     1
 77
     6
 78
     2
 67
     7
 79
     5
170
     0
171
     0
290
     0
174
     0
 93
        1
 44
0.0
173
     0
291
     1
 45
0.0
1001
ACAD
1000
AcDbSavedByObjectVersion
1070
     0
  0
VISUALSTYLE
  5
1270
102
{ACAD_XDICTIONARY
360
159E
102
}
102
{ACAD_REACTORS
330
11A5
102
}
330
11A5
100
AcDbVisualStyle
  2
Wireframe
 70
     5
 71
     0
 72
     2
 73
     0
 90
        0
 40
-0.6
 41
-30.0
 62
     5
 63
     7
 74
     1
 91
        4
 64
     7
 65
   257
 75
     1
175
     1
 42
1.0
 92
        0
 66
   257
 43
1.0
 76
     1
 77
     6
 78
     2
 67
     7
 79
     3
170
     0
171
     0
290
     0
174
     0
 93
        1
 44
0.0
173
     0
291
     0
 45
0.0
1001
ACAD
1000
AcDbSavedByObjectVersion
1070
     0
  0
VISUALSTYLE
  5
1274
102
{ACAD_XDICTIONARY
360
15A6
102
}
102
{ACAD_REACTORS
330
11A5
102
}
330
11A5
100
AcDbVisualStyle
  2
X-Ray
 70
    25
 71
     2
 72
     2
 73
     1
 90
        1
 40
0.5
 41
-30.0
 62
     5
 63
     7
 74
     1
 91
        0
 64
     7
 65
   257
 75
     1
175
     1
 42
1.0
 92
        8
 66
     7
 43
1.0
 76
     1
 77
     6
 78
     2
 67
     7
 79
     3
170
     0
171
     0
290
     0
174
     0
 93
       13
 44
0.0
173
     0
291
     0
 45
0.0
1001
ACAD
1000
AcDbSavedByObjectVersion
1070
     0
  0
DICTIONARYVAR
  5
11F2
102
{ACAD_REACTORS
330
102
102
}
330
102
100
DictionaryVariables
280
     0
  1
1:1
  0
DICTIONARYVAR
  5
11F1
102
{ACAD_REACTORS
330
102
102
}
330
102
100
DictionaryVariables
280
     0
  1
STANDARD
  0
DICTIONARYVAR
  5
11F0
102
{ACAD_REACTORS
330
102
102
}
330
102
100
DictionaryVariables
280
     0
  1
STANDARD
  0
DICTIONARYVAR
  5
12E2
102
{ACAD_REACTORS
330
102
102
}
330
102
100
DictionaryVariables
280
     0
  1
Imperial24
  0
DICTIONARYVAR
  5
12E3
102
{ACAD_REACTORS
330
102
102
}
330
102
100
DictionaryVariables
280
     0
  1
Imperial24
  0
DICTIONARYVAR
  5
103
102
{ACAD_REACTORS
330
102
102
}
330
102
100
DictionaryVariables
280
     0
  1
1
  0
DICTIONARYVAR
  5
1231
102
{ACAD_REACTORS
330
102
102
}
330
102
100
DictionaryVariables
280
     0
  1
0
  0
DICTIONARYVAR
  5
1230
102
{ACAD_REACTORS
330
102
102
}
330
102
100
DictionaryVariables
280
     0
  1
127
  0
DICTIONARYVAR
  5
1560
102
{ACAD_REACTORS
330
102
102
}
330
102
100
DictionaryVariables
280
     0
  1
2
  0
DICTIONARY
  5
15B4
330
127D
100
AcDbDictionary
280
     1
281
     1
  3
ACAD_XREC_ROUNDTRIP
360
15B5
  0
DICTIONARY
  5
1564
330
60
100
AcDbDictionary
280
     1
281
     1
  3
ACAD_XREC_ROUNDTRIP
360
1565
  0
DICTIONARY
  5
15B6
330
155C
100
AcDbDictionary
280
     1
281
     1
  3
ACAD_XREC_ROUNDTRIP
360
15B7
  0
DICTIONARY
  5
1196
330
1195
100
AcDbDictionary
280
     1
281
     1
  3
ACAD_XREC_ROUNDTRIP
360
157B
  3
BUMPTILE
360
1198
  3
DIFFUSETILE
360
1197
  3
OPACITYTILE
360
119B
  3
REFLECTIONTILE
360
119A
  3
REFRACTIONTILE
360
119C
  3
SPECULARTILE
360
1199
  0
DICTIONARY
  5
118E
330
118D
100
AcDbDictionary
280
     1
281
     1
  3
ACAD_XREC_ROUNDTRIP
360
157A
  3
BUMPTILE
360
1190
  3
DIFFUSETILE
360
118F
  3
OPACITYTILE
360
1193
  3
REFLECTIONTILE
360
1192
  3
REFRACTIONTILE
360
1194
  3
SPECULARTILE
360
1191
  0
DICTIONARY
  5
119E
330
119D
100
AcDbDictionary
280
     1
281
     1
  3
ACAD_XREC_ROUNDTRIP
360
157C
  3
BUMPTILE
360
11A0
  3
DIFFUSETILE
360
119F
  3
OPACITYTILE
360
11A3
  3
REFLECTIONTILE
360
11A2
  3
REFRACTIONTILE
360
11A4
  3
SPECULARTILE
360
11A1
  0
DICTIONARY
  5
15B2
330
127B
100
AcDbDictionary
280
     1
281
     1
  3
ACAD_XREC_ROUNDTRIP
360
15B3
  0
DICTIONARY
  5
11F3
330
11B8
100
AcDbDictionary
280
     1
281
     1
  3
ACAD_ROUNDTRIP_2008_TABLESTYLE_CELLSTYLEMAP
360
1561
  3
ACAD_XREC_ROUNDTRIP
360
159D
  0
DICTIONARY
  5
1587
330
11AB
100
AcDbDictionary
280
     1
281
     1
  3
ACAD_XREC_ROUNDTRIP
360
1588
  0
DICTIONARY
  5
158B
330
11AD
100
AcDbDictionary
280
     1
281
     1
  3
ACAD_XREC_ROUNDTRIP
360
158C
  0
DICTIONARY
  5
1589
330
11AC
100
AcDbDictionary
280
     1
281
     1
  3
ACAD_XREC_ROUNDTRIP
360
158A
  0
DICTIONARY
  5
1585
330
11AA
100
AcDbDictionary
280
     1
281
     1
  3
ACAD_XREC_ROUNDTRIP
360
1586
  0
DICTIONARY
  5
1593
330
11B1
100
AcDbDictionary
280
     1
281
     1
  3
ACAD_XREC_ROUNDTRIP
360
1594
  0
DICTIONARY
  5
159B
330
11B5
100
AcDbDictionary
280
     1
281
     1
  3
ACAD_XREC_ROUNDTRIP
360
159C
  0
DICTIONARY
  5
158D
330
11AE
100
AcDbDictionary
280
     1
281
     1
  3
ACAD_XREC_ROUNDTRIP
360
158E
  0
DICTIONARY
  5
1591
330
11B0
100
AcDbDictionary
280
     1
281
     1
  3
ACAD_XREC_ROUNDTRIP
360
1592
  0
DICTIONARY
  5
15B0
330
1279
100
AcDbDictionary
280
     1
281
     1
  3
ACAD_XREC_ROUNDTRIP
360
15B1
  0
DICTIONARY
  5
1599
330
11B4
100
AcDbDictionary
280
     1
281
     1
  3
ACAD_XREC_ROUNDTRIP
360
159A
  0
DICTIONARY
  5
157D
330
11A6
100
AcDbDictionary
280
     1
281
     1
  3
ACAD_XREC_ROUNDTRIP
360
157E
  0
DICTIONARY
  5
157F
330
11A7
100
AcDbDictionary
280
     1
281
     1
  3
ACAD_XREC_ROUNDTRIP
360
1580
  0
DICTIONARY
  5
1581
330
11A8
100
AcDbDictionary
280
     1
281
     1
  3
ACAD_XREC_ROUNDTRIP
360
1582
  0
DICTIONARY
  5
1583
330
11A9
100
AcDbDictionary
280
     1
281
     1
  3
ACAD_XREC_ROUNDTRIP
360
1584
  0
DICTIONARY
  5
15A0
330
1271
100
AcDbDictionary
280
     1
281
     1
  3
ACAD_XREC_ROUNDTRIP
360
15A1
  0
DICTIONARY
  5
15AC
330
1277
100
AcDbDictionary
280
     1
281
     1
  3
ACAD_XREC_ROUNDTRIP
360
15AD
  0
DICTIONARY
  5
1597
330
11B3
100
AcDbDictionary
280
     1
281
     1
  3
ACAD_XREC_ROUNDTRIP
360
1598
  0
DICTIONARY
  5
15AE
330
1278
100
AcDbDictionary
280
     1
281
     1
  3
ACAD_XREC_ROUNDTRIP
360
15AF
  0
DICTIONARY
  5
158F
330
11AF
100
AcDbDictionary
280
     1
281
     1
  3
ACAD_XREC_ROUNDTRIP
360
1590
  0
DICTIONARY
  5
15AA
330
1276
100
AcDbDictionary
280
     1
281
     1
  3
ACAD_XREC_ROUNDTRIP
360
15AB
  0
DICTIONARY
  5
15A8
330
1275
100
AcDbDictionary
280
     1
281
     1
  3
ACAD_XREC_ROUNDTRIP
360
15A9
  0
DICTIONARY
  5
15A2
330
1272
100
AcDbDictionary
280
     1
281
     1
  3
ACAD_XREC_ROUNDTRIP
360
15A3
  0
DICTIONARY
  5
15A4
330
1273
100
AcDbDictionary
280
     1
281
     1
  3
ACAD_XREC_ROUNDTRIP
360
15A5
  0
DICTIONARY
  5
1595
330
11B2
100
AcDbDictionary
280
     1
281
     1
  3
ACAD_XREC_ROUNDTRIP
360
1596
  0
DICTIONARY
  5
159E
330
1270
100
AcDbDictionary
280
     1
281
     1
  3
ACAD_XREC_ROUNDTRIP
360
159F
  0
DICTIONARY
  5
15A6
330
1274
100
AcDbDictionary
280
     1
281
     1
  3
ACAD_XREC_ROUNDTRIP
360
15A7
  0
XRECORD
  5
15B5
102
{ACAD_REACTORS
330
15B4
102
}
330
15B4
100
AcDbXrecord
280
     1
102
DISPLAYNAME
  1
Imperial24
102
FLAGS
 90
        0
  0
XRECORD
  5
1565
102
{ACAD_REACTORS
330
1564
102
}
330
1564
100
AcDbXrecord
280
     1
102
SHADEPLOT
 70
     0
102
SHADEPLOTRESLEVEL
 70
     2
102
SHADEPLOTCUSTOMDPI
 70
   300
  0
XRECORD
  5
15B7
102
{ACAD_REACTORS
330
15B6
102
}
330
15B6
100
AcDbXrecord
280
     1
102
SHADEPLOT
 70
     0
102
SHADEPLOTRESLEVEL
 70
     2
102
SHADEPLOTCUSTOMDPI
 70
   300
  0
XRECORD
  5
157B
102
{ACAD_REACTORS
330
1196
102
}
330
1196
100
AcDbXrecord
280
     1
102
MATERIAL
148
0.0
149
0.0
149
0.0
 93
        0
 94
      127
282
     0
 72
     0
 77
     0
171
     0
175
     0
179
     0
273
     0
  0
XRECORD
  5
1198
102
{ACAD_REACTORS
330
1196
102
}
330
1196
100
AcDbXrecord
280
     1
270
     1
271
     1
  0
XRECORD
  5
1197
102
{ACAD_REACTORS
330
1196
102
}
330
1196
100
AcDbXrecord
280
     1
270
     1
271
     1
  0
XRECORD
  5
119B
102
{ACAD_REACTORS
330
1196
102
}
330
1196
100
AcDbXrecord
280
     1
270
     1
271
     1
  0
XRECORD
  5
119A
102
{ACAD_REACTORS
330
1196
102
}
330
1196
100
AcDbXrecord
280
     1
270
     1
271
     1
  0
XRECORD
  5
119C
102
{ACAD_REACTORS
330
1196
102
}
330
1196
100
AcDbXrecord
280
     1
270
     1
271
     1
  0
XRECORD
  5
1199
102
{ACAD_REACTORS
330
1196
102
}
330
1196
100
AcDbXrecord
280
     1
270
     1
271
     1
  0
XRECORD
  5
157A
102
{ACAD_REACTORS
330
118E
102
}
330
118E
100
AcDbXrecord
280
     1
102
MATERIAL
148
0.0
149
0.0
149
0.0
 93
        0
 94
      127
282
     0
 72
     0
 77
     0
171
     0
175
     0
179
     0
273
     0
  0
XRECORD
  5
1190
102
{ACAD_REACTORS
330
118E
102
}
330
118E
100
AcDbXrecord
280
     1
270
     1
271
     1
  0
XRECORD
  5
118F
102
{ACAD_REACTORS
330
118E
102
}
330
118E
100
AcDbXrecord
280
     1
270
     1
271
     1
  0
XRECORD
  5
1193
102
{ACAD_REACTORS
330
118E
102
}
330
118E
100
AcDbXrecord
280
     1
270
     1
271
     1
  0
XRECORD
  5
1192
102
{ACAD_REACTORS
330
118E
102
}
330
118E
100
AcDbXrecord
280
     1
270
     1
271
     1
  0
XRECORD
  5
1194
102
{ACAD_REACTORS
330
118E
102
}
330
118E
100
AcDbXrecord
280
     1
270
     1
271
     1
  0
XRECORD
  5
1191
102
{ACAD_REACTORS
330
118E
102
}
330
118E
100
AcDbXrecord
280
     1
270
     1
271
     1
  0
XRECORD
  5
157C
102
{ACAD_REACTORS
330
119E
102
}
330
119E
100
AcDbXrecord
280
     1
102
MATERIAL
148
0.0
149
0.0
149
0.0
 93
        0
 94
      127
282
     0
 72
     0
 77
     0
171
     0
175
     0
179
     0
273
     0
  0
XRECORD
  5
11A0
102
{ACAD_REACTORS
330
119E
102
}
330
119E
100
AcDbXrecord
280
     1
270
     1
271
     1
  0
XRECORD
  5
119F
102
{ACAD_REACTORS
330
119E
102
}
330
119E
100
AcDbXrecord
280
     1
270
     1
271
     1
  0
XRECORD
  5
11A3
102
{ACAD_REACTORS
330
119E
102
}
330
119E
100
AcDbXrecord
280
     1
270
     1
271
     1
  0
XRECORD
  5
11A2
102
{ACAD_REACTORS
330
119E
102
}
330
119E
100
AcDbXrecord
280
     1
270
     1
271
     1
  0
XRECORD
  5
11A4
102
{ACAD_REACTORS
330
119E
102
}
330
119E
100
AcDbXrecord
280
     1
270
     1
271
     1
  0
XRECORD
  5
11A1
102
{ACAD_REACTORS
330
119E
102
}
330
119E
100
AcDbXrecord
280
     1
270
     1
271
     1
  0
XRECORD
  5
15B3
102
{ACAD_REACTORS
330
15B2
102
}
330
15B2
100
AcDbXrecord
280
     1
102
DISPLAYNAME
  1
Imperial24
102
FLAGS
 90
        0
  0
CELLSTYLEMAP
  5
1561
102
{ACAD_REACTORS
330
11F3
102
}
330
11F3
100
AcDbCellStyleMap
 90
        3
300
CELLSTYLE
  1
TABLEFORMAT_BEGIN
 90
        5
170
     1
 91
        0
 92
    32768
 62
   257
 93
        1
300
CONTENTFORMAT
  1
CONTENTFORMAT_BEGIN
 90
        0
 91
        0
 92
      512
 93
        0
300

 40
0.0
140
1.0
 94
        5
 62
     0
340
16
144
0.25
309
CONTENTFORMAT_END
171
     1
301
MARGIN
  1
CELLMARGIN_BEGIN
 40
0.06
 40
0.06
 40
0.06
 40
0.06
 40
0.18
 40
0.18
309
CELLMARGIN_END
 94
        6
 95
        1
302
GRIDFORMAT
  1
GRIDFORMAT_BEGIN
 90
        0
 91
        1
 62
     0
 92
       -2
340
0
 93
        0
 40
0.045
309
GRIDFORMAT_END
 95
        2
302
GRIDFORMAT
  1
GRIDFORMAT_BEGIN
 90
        0
 91
        1
 62
     0
 92
       -2
340
0
 93
        0
 40
0.045
309
GRIDFORMAT_END
 95
        4
302
GRIDFORMAT
  1
GRIDFORMAT_BEGIN
 90
        0
 91
        1
 62
     0
 92
       -2
340
0
 93
        0
 40
0.045
309
GRIDFORMAT_END
 95
        8
302
GRIDFORMAT
  1
GRIDFORMAT_BEGIN
 90
        0
 91
        1
 62
     0
 92
       -2
340
0
 93
        0
 40
0.045
309
GRIDFORMAT_END
 95
       16
302
GRIDFORMAT
  1
GRIDFORMAT_BEGIN
 90
        0
 91
        1
 62
     0
 92
       -2
340
0
 93
        0
 40
0.045
309
GRIDFORMAT_END
 95
       32
302
GRIDFORMAT
  1
GRIDFORMAT_BEGIN
 90
        0
 91
        1
 62
     0
 92
       -2
340
0
 93
        0
 40
0.045
309
GRIDFORMAT_END
309
TABLEFORMAT_END
  1
CELLSTYLE_BEGIN
 90
        1
 91
        1
300
_TITLE
309
CELLSTYLE_END
300
CELLSTYLE
  1
TABLEFORMAT_BEGIN
 90
        5
170
     1
 91
        0
 92
        0
 62
   257
 93
        1
300
CONTENTFORMAT
  1
CONTENTFORMAT_BEGIN
 90
        0
 91
        0
 92
      512
 93
        0
300

 40
0.0
140
1.0
 94
        5
 62
     0
340
16
144
0.18
309
CONTENTFORMAT_END
171
     1
301
MARGIN
  1
CELLMARGIN_BEGIN
 40
0.06
 40
0.06
 40
0.06
 40
0.06
 40
0.18
 40
0.18
309
CELLMARGIN_END
 94
        6
 95
        1
302
GRIDFORMAT
  1
GRIDFORMAT_BEGIN
 90
        0
 91
        1
 62
     0
 92
       -2
340
0
 93
        0
 40
0.045
309
GRIDFORMAT_END
 95
        2
302
GRIDFORMAT
  1
GRIDFORMAT_BEGIN
 90
        0
 91
        1
 62
     0
 92
       -2
340
0
 93
        0
 40
0.045
309
GRIDFORMAT_END
 95
        4
302
GRIDFORMAT
  1
GRIDFORMAT_BEGIN
 90
        0
 91
        1
 62
     0
 92
       -2
340
0
 93
        0
 40
0.045
309
GRIDFORMAT_END
 95
        8
302
GRIDFORMAT
  1
GRIDFORMAT_BEGIN
 90
        0
 91
        1
 62
     0
 92
       -2
340
0
 93
        0
 40
0.045
309
GRIDFORMAT_END
 95
       16
302
GRIDFORMAT
  1
GRIDFORMAT_BEGIN
 90
        0
 91
        1
 62
     0
 92
       -2
340
0
 93
        0
 40
0.045
309
GRIDFORMAT_END
 95
       32
302
GRIDFORMAT
  1
GRIDFORMAT_BEGIN
 90
        0
 91
        1
 62
     0
 92
       -2
340
0
 93
        0
 40
0.045
309
GRIDFORMAT_END
309
TABLEFORMAT_END
  1
CELLSTYLE_BEGIN
 90
        2
 91
        1
300
_HEADER
309
CELLSTYLE_END
300
CELLSTYLE
  1
TABLEFORMAT_BEGIN
 90
        5
170
     1
 91
        0
 92
        0
 62
   257
 93
        1
300
CONTENTFORMAT
  1
CONTENTFORMAT_BEGIN
 90
        0
 91
        0
 92
      512
 93
        0
300

 40
0.0
140
1.0
 94
        2
 62
     0
340
16
144
0.18
309
CONTENTFORMAT_END
171
     1
301
MARGIN
  1
CELLMARGIN_BEGIN
 40
0.06
 40
0.06
 40
0.06
 40
0.06
 40
0.18
 40
0.18
309
CELLMARGIN_END
 94
        6
 95
        1
302
GRIDFORMAT
  1
GRIDFORMAT_BEGIN
 90
        0
 91
        1
 62
     0
 92
       -2
340
0
 93
        0
 40
0.045
309
GRIDFORMAT_END
 95
        2
302
GRIDFORMAT
  1
GRIDFORMAT_BEGIN
 90
        0
 91
        1
 62
     0
 92
       -2
340
0
 93
        0
 40
0.045
309
GRIDFORMAT_END
 95
        4
302
GRIDFORMAT
  1
GRIDFORMAT_BEGIN
 90
        0
 91
        1
 62
     0
 92
       -2
340
0
 93
        0
 40
0.045
309
GRIDFORMAT_END
 95
        8
302
GRIDFORMAT
  1
GRIDFORMAT_BEGIN
 90
        0
 91
        1
 62
     0
 92
       -2
340
0
 93
        0
 40
0.045
309
GRIDFORMAT_END
 95
       16
302
GRIDFORMAT
  1
GRIDFORMAT_BEGIN
 90
        0
 91
        1
 62
     0
 92
       -2
340
0
 93
        0
 40
0.045
309
GRIDFORMAT_END
 95
       32
302
GRIDFORMAT
  1
GRIDFORMAT_BEGIN
 90
        0
 91
        1
 62
     0
 92
       -2
340
0
 93
        0
 40
0.045
309
GRIDFORMAT_END
309
TABLEFORMAT_END
  1
CELLSTYLE_BEGIN
 90
        3
 91
        2
300
_DATA
309
CELLSTYLE_END
  0
XRECORD
  5
159D
102
{ACAD_REACTORS
330
11F3
102
}
330
11F3
100
AcDbXrecord
280
     1
102
ACAD_ROUNDTRIP_PRE2007_TABLESTYLE
 90
      512
 91
        0
  1

 92
      512
 93
        0
  2

 94
      512
 95
        0
  3

  0
XRECORD
  5
1588
102
{ACAD_REACTORS
330
1587
102
}
330
1587
100
AcDbXrecord
280
     1
102
RTVSPost2010Prop28
280
     1
102
RTVSPost2010PropOp28
 70
     1
102
RTVSPost2010Prop29
280
     1
102
RTVSPost2010PropOp29
 70
     1
102
RTVSPost2010Prop30
280
     0
102
RTVSPost2010PropOp30
 70
     1
102
RTVSPost2010Prop31
280
     0
102
RTVSPost2010PropOp31
 70
     1
102
RTVSPost2010Prop32
280
     0
102
RTVSPost2010PropOp32
 70
     1
102
RTVSPost2010Prop33
280
     0
102
RTVSPost2010PropOp33
 70
     1
102
RTVSPost2010Prop34
280
     0
102
RTVSPost2010PropOp34
 70
     1
102
RTVSPost2010Prop35
280
     0
102
RTVSPost2010PropOp35
 70
     1
102
RTVSPost2010Prop36
280
     0
102
RTVSPost2010PropOp36
 70
     1
102
RTVSPost2010Prop37
 90
       50
102
RTVSPost2010PropOp37
 70
     1
102
RTVSPost2010Prop38
140
0.0
102
RTVSPost2010PropOp38
 70
     1
102
RTVSPost2010Prop39
140
1.0
102
RTVSPost2010PropOp39
 70
     1
102
RTVSPost2010Prop40
 90
        0
102
RTVSPost2010PropOp40
 70
     1
102
RTVSPost2010Prop41ColorIndex
 90
       18
102
RTVSPost2010Prop41ColorRGB
 90
        0
102
RTVSPost2010PropOp41
 70
     1
102
RTVSPost2010Prop42
 90
       50
102
RTVSPost2010PropOp42
 70
     1
102
RTVSPost2010Prop43
 90
        3
102
RTVSPost2010PropOp43
 70
     1
102
RTVSPost2010Prop44ColorIndex
 90
        5
102
RTVSPost2010Prop44ColorRGB
 90
      255
102
RTVSPost2010PropOp44
 70
     1
102
RTVSPost2010Prop45
280
     0
102
RTVSPost2010PropOp45
 70
     1
102
RTVSPost2010Prop46
 90
       50
102
RTVSPost2010PropOp46
 70
     1
102
RTVSPost2010Prop47
 90
       50
102
RTVSPost2010PropOp47
 70
     1
102
RTVSPost2010Prop48
 90
       50
102
RTVSPost2010PropOp48
 70
     1
102
RTVSPost2010Prop49
280
     0
102
RTVSPost2010PropOp49
 70
     1
102
RTVSPost2010Prop50
 90
       50
102
RTVSPost2010PropOp50
 70
     1
102
RTVSPost2010Prop51ColorIndex
 90
      256
102
RTVSPost2010Prop51ColorRGB
 90
-16777216
102
RTVSPost2010PropOp51
 70
     0
102
RTVSPost2010Prop52
140
1.0
102
RTVSPost2010PropOp52
 70
     0
102
RTVSPost2010Prop53
 90
        2
102
RTVSPost2010PropOp53
 70
     1
102
RTVSPost2010Prop54
  1
strokes_ogs.tif
102
RTVSPost2010PropOp54
 70
     1
102
RTVSPost2010Prop55
280
     0
102
RTVSPost2010PropOp55
 70
     1
102
RTVSPost2010Prop56
140
1.0
102
RTVSPost2010PropOp56
 70
     1
102
RTVSPost2010Prop57
140
1.0
102
RTVSPost2010PropOp57
 70
     1
102
RTVSPropertyOp0
 70
     1
102
RTVSPropertyOp1
 70
     1
102
RTVSPropertyOp2
 70
     1
102
RTVSPropertyOp3
 70
     1
102
RTVSPropertyOp4
 70
     1
102
RTVSPropertyOp5
 70
     1
102
RTVSPropertyOp6
 70
     1
102
RTVSPropertyOp7
 70
     1
102
RTVSPropertyOp8
 70
     1
102
RTVSPropertyOp9
 70
     1
102
RTVSPropertyOp10
 70
     1
102
RTVSPropertyOp11
 70
     1
102
RTVSPropertyOp12
 70
     1
102
RTVSPropertyOp13
 70
     1
102
RTVSPropertyOp14
 70
     1
102
RTVSPropertyOp15
 70
     1
102
RTVSPropertyOp16
 70
     1
102
RTVSPropertyOp17
 70
     1
102
RTVSPropertyOp18
 70
     1
102
RTVSPropertyOp19
 70
     1
102
RTVSPropertyOp20
 70
     1
102
RTVSPropertyOp21
 70
     1
102
RTVSPropertyOp22
 70
     1
102
RTVSPropertyOp23
 70
     1
102
RTVSPropertyOp24
 70
     1
102
RTVSPropertyOp25
 70
     1
102
RTVSPropertyOp26
 70
     1
102
RTVSPropertyOp27
 70
     1
102
RTVSPropertyOp28
 70
     1
102
RTVSPropertyOp29
 70
     1
102
RTVSPropertyOp30
 70
     1
102
RTVSPropertyOp31
 70
     1
102
RTVSPropertyOp32
 70
     1
102
RTVSPropertyOp33
 70
     1
102
RTVSPropertyOp34
 70
     1
102
RTVSPropertyOp35
 70
     1
102
RTVSPropertyOp36
 70
     1
102
RTVSPropertyOp37
 70
     1
102
RTVSPropertyOp38
 70
     1
102
RTVSPropertyOp39
 70
     1
102
RTVSPropertyOp40
 70
     1
102
RTVSPropertyOp41
 70
     1
102
RTVSPropertyOp42
 70
     1
102
RTVSPropertyOp43
 70
     1
102
RTVSPropertyOp44
 70
     1
102
RTVSPropertyOp45
 70
     1
102
RTVSPropertyOp46
 70
     1
102
RTVSPropertyOp47
 70
     1
102
RTVSPropertyOp48
 70
     1
102
RTVSPropertyOp49
 70
     1
102
RTVSPropertyOp50
 70
     1
102
RTVSPropertyOp51
 70
     0
102
RTVSPropertyOp52
 70
     0
102
RTVSPropertyOp53
 70
     1
102
RTVSPropertyOp54
 70
     1
102
RTVSPropertyOp55
 70
     1
102
RTVSPropertyOp56
 70
     1
102
RTVSPropertyOp57
 70
     1
102
RTVSPropertyOp58
 70
     1
102
RTVSPropertyOp59
 70
     1
102
RTVSPropertyOp60
 70
     1
102
RTVSPropertyOp61
 70
     1
102
RTVSPropertyOp62
 70
     1
  0
XRECORD
  5
158C
102
{ACAD_REACTORS
330
158B
102
}
330
158B
100
AcDbXrecord
280
     1
102
RTVSPost2010Prop28
280
     0
102
RTVSPost2010PropOp28
 70
     1
102
RTVSPost2010Prop29
280
     1
102
RTVSPost2010PropOp29
 70
     1
102
RTVSPost2010Prop30
280
     1
102
RTVSPost2010PropOp30
 70
     1
102
RTVSPost2010Prop31
280
     0
102
RTVSPost2010PropOp31
 70
     1
102
RTVSPost2010Prop32
280
     0
102
RTVSPost2010PropOp32
 70
     1
102
RTVSPost2010Prop33
280
     0
102
RTVSPost2010PropOp33
 70
     1
102
RTVSPost2010Prop34
280
     0
102
RTVSPost2010PropOp34
 70
     1
102
RTVSPost2010Prop35
280
     0
102
RTVSPost2010PropOp35
 70
     1
102
RTVSPost2010Prop36
280
     0
102
RTVSPost2010PropOp36
 70
     1
102
RTVSPost2010Prop37
 90
       50
102
RTVSPost2010PropOp37
 70
     1
102
RTVSPost2010Prop38
140
0.0
102
RTVSPost2010PropOp38
 70
     1
102
RTVSPost2010Prop39
140
1.0
102
RTVSPost2010PropOp39
 70
     1
102
RTVSPost2010Prop40
 90
        0
102
RTVSPost2010PropOp40
 70
     1
102
RTVSPost2010Prop41ColorIndex
 90
       18
102
RTVSPost2010Prop41ColorRGB
 90
        0
102
RTVSPost2010PropOp41
 70
     1
102
RTVSPost2010Prop42
 90
       50
102
RTVSPost2010PropOp42
 70
     1
102
RTVSPost2010Prop43
 90
        3
102
RTVSPost2010PropOp43
 70
     1
102
RTVSPost2010Prop44ColorIndex
 90
        5
102
RTVSPost2010Prop44ColorRGB
 90
      255
102
RTVSPost2010PropOp44
 70
     1
102
RTVSPost2010Prop45
280
     0
102
RTVSPost2010PropOp45
 70
     1
102
RTVSPost2010Prop46
 90
       50
102
RTVSPost2010PropOp46
 70
     1
102
RTVSPost2010Prop47
 90
       50
102
RTVSPost2010PropOp47
 70
     1
102
RTVSPost2010Prop48
 90
       50
102
RTVSPost2010PropOp48
 70
     1
102
RTVSPost2010Prop49
280
     0
102
RTVSPost2010PropOp49
 70
     1
102
RTVSPost2010Prop50
 90
       50
102
RTVSPost2010PropOp50
 70
     1
102
RTVSPost2010Prop51ColorIndex
 90
      256
102
RTVSPost2010Prop51ColorRGB
 90
-16777216
102
RTVSPost2010PropOp51
 70
     0
102
RTVSPost2010Prop52
140
1.0
102
RTVSPost2010PropOp52
 70
     0
102
RTVSPost2010Prop53
 90
        2
102
RTVSPost2010PropOp53
 70
     1
102
RTVSPost2010Prop54
  1
strokes_ogs.tif
102
RTVSPost2010PropOp54
 70
     1
102
RTVSPost2010Prop55
280
     0
102
RTVSPost2010PropOp55
 70
     1
102
RTVSPost2010Prop56
140
1.0
102
RTVSPost2010PropOp56
 70
     1
102
RTVSPost2010Prop57
140
1.0
102
RTVSPost2010PropOp57
 70
     1
102
RTVSPropertyOp0
 70
     1
102
RTVSPropertyOp1
 70
     1
102
RTVSPropertyOp2
 70
     1
102
RTVSPropertyOp3
 70
     1
102
RTVSPropertyOp4
 70
     1
102
RTVSPropertyOp5
 70
     1
102
RTVSPropertyOp6
 70
     1
102
RTVSPropertyOp7
 70
     1
102
RTVSPropertyOp8
 70
     1
102
RTVSPropertyOp9
 70
     1
102
RTVSPropertyOp10
 70
     1
102
RTVSPropertyOp11
 70
     1
102
RTVSPropertyOp12
 70
     1
102
RTVSPropertyOp13
 70
     1
102
RTVSPropertyOp14
 70
     1
102
RTVSPropertyOp15
 70
     1
102
RTVSPropertyOp16
 70
     1
102
RTVSPropertyOp17
 70
     1
102
RTVSPropertyOp18
 70
     1
102
RTVSPropertyOp19
 70
     1
102
RTVSPropertyOp20
 70
     1
102
RTVSPropertyOp21
 70
     1
102
RTVSPropertyOp22
 70
     1
102
RTVSPropertyOp23
 70
     1
102
RTVSPropertyOp24
 70
     1
102
RTVSPropertyOp25
 70
     1
102
RTVSPropertyOp26
 70
     1
102
RTVSPropertyOp27
 70
     1
102
RTVSPropertyOp28
 70
     1
102
RTVSPropertyOp29
 70
     1
102
RTVSPropertyOp30
 70
     1
102
RTVSPropertyOp31
 70
     1
102
RTVSPropertyOp32
 70
     1
102
RTVSPropertyOp33
 70
     1
102
RTVSPropertyOp34
 70
     1
102
RTVSPropertyOp35
 70
     1
102
RTVSPropertyOp36
 70
     1
102
RTVSPropertyOp37
 70
     1
102
RTVSPropertyOp38
 70
     1
102
RTVSPropertyOp39
 70
     1
102
RTVSPropertyOp40
 70
     1
102
RTVSPropertyOp41
 70
     1
102
RTVSPropertyOp42
 70
     1
102
RTVSPropertyOp43
 70
     1
102
RTVSPropertyOp44
 70
     1
102
RTVSPropertyOp45
 70
     1
102
RTVSPropertyOp46
 70
     1
102
RTVSPropertyOp47
 70
     1
102
RTVSPropertyOp48
 70
     1
102
RTVSPropertyOp49
 70
     1
102
RTVSPropertyOp50
 70
     1
102
RTVSPropertyOp51
 70
     0
102
RTVSPropertyOp52
 70
     0
102
RTVSPropertyOp53
 70
     1
102
RTVSPropertyOp54
 70
     1
102
RTVSPropertyOp55
 70
     1
102
RTVSPropertyOp56
 70
     1
102
RTVSPropertyOp57
 70
     1
102
RTVSPropertyOp58
 70
     1
102
RTVSPropertyOp59
 70
     1
102
RTVSPropertyOp60
 70
     1
102
RTVSPropertyOp61
 70
     1
102
RTVSPropertyOp62
 70
     1
  0
XRECORD
  5
158A
102
{ACAD_REACTORS
330
1589
102
}
330
1589
100
AcDbXrecord
280
     1
102
RTVSPost2010Prop28
280
     0
102
RTVSPost2010PropOp28
 70
     1
102
RTVSPost2010Prop29
280
     1
102
RTVSPost2010PropOp29
 70
     1
102
RTVSPost2010Prop30
280
     1
102
RTVSPost2010PropOp30
 70
     1
102
RTVSPost2010Prop31
280
     0
102
RTVSPost2010PropOp31
 70
     1
102
RTVSPost2010Prop32
280
     0
102
RTVSPost2010PropOp32
 70
     1
102
RTVSPost2010Prop33
280
     0
102
RTVSPost2010PropOp33
 70
     1
102
RTVSPost2010Prop34
280
     0
102
RTVSPost2010PropOp34
 70
     1
102
RTVSPost2010Prop35
280
     0
102
RTVSPost2010PropOp35
 70
     1
102
RTVSPost2010Prop36
280
     0
102
RTVSPost2010PropOp36
 70
     1
102
RTVSPost2010Prop37
 90
       50
102
RTVSPost2010PropOp37
 70
     1
102
RTVSPost2010Prop38
140
0.0
102
RTVSPost2010PropOp38
 70
     1
102
RTVSPost2010Prop39
140
1.0
102
RTVSPost2010PropOp39
 70
     1
102
RTVSPost2010Prop40
 90
        0
102
RTVSPost2010PropOp40
 70
     1
102
RTVSPost2010Prop41ColorIndex
 90
       18
102
RTVSPost2010Prop41ColorRGB
 90
        0
102
RTVSPost2010PropOp41
 70
     1
102
RTVSPost2010Prop42
 90
       50
102
RTVSPost2010PropOp42
 70
     1
102
RTVSPost2010Prop43
 90
        3
102
RTVSPost2010PropOp43
 70
     1
102
RTVSPost2010Prop44ColorIndex
 90
        5
102
RTVSPost2010Prop44ColorRGB
 90
      255
102
RTVSPost2010PropOp44
 70
     1
102
RTVSPost2010Prop45
280
     0
102
RTVSPost2010PropOp45
 70
     1
102
RTVSPost2010Prop46
 90
       50
102
RTVSPost2010PropOp46
 70
     1
102
RTVSPost2010Prop47
 90
       50
102
RTVSPost2010PropOp47
 70
     1
102
RTVSPost2010Prop48
 90
       50
102
RTVSPost2010PropOp48
 70
     1
102
RTVSPost2010Prop49
280
     0
102
RTVSPost2010PropOp49
 70
     1
102
RTVSPost2010Prop50
 90
       50
102
RTVSPost2010PropOp50
 70
     1
102
RTVSPost2010Prop51ColorIndex
 90
      256
102
RTVSPost2010Prop51ColorRGB
 90
-16777216
102
RTVSPost2010PropOp51
 70
     0
102
RTVSPost2010Prop52
140
1.0
102
RTVSPost2010PropOp52
 70
     0
102
RTVSPost2010Prop53
 90
        2
102
RTVSPost2010PropOp53
 70
     1
102
RTVSPost2010Prop54
  1
strokes_ogs.tif
102
RTVSPost2010PropOp54
 70
     1
102
RTVSPost2010Prop55
280
     0
102
RTVSPost2010PropOp55
 70
     1
102
RTVSPost2010Prop56
140
1.0
102
RTVSPost2010PropOp56
 70
     1
102
RTVSPost2010Prop57
140
1.0
102
RTVSPost2010PropOp57
 70
     1
102
RTVSPropertyOp0
 70
     1
102
RTVSPropertyOp1
 70
     1
102
RTVSPropertyOp2
 70
     1
102
RTVSPropertyOp3
 70
     1
102
RTVSPropertyOp4
 70
     1
102
RTVSPropertyOp5
 70
     1
102
RTVSPropertyOp6
 70
     1
102
RTVSPropertyOp7
 70
     1
102
RTVSPropertyOp8
 70
     1
102
RTVSPropertyOp9
 70
     1
102
RTVSPropertyOp10
 70
     1
102
RTVSPropertyOp11
 70
     1
102
RTVSPropertyOp12
 70
     1
102
RTVSPropertyOp13
 70
     1
102
RTVSPropertyOp14
 70
     1
102
RTVSPropertyOp15
 70
     1
102
RTVSPropertyOp16
 70
     1
102
RTVSPropertyOp17
 70
     1
102
RTVSPropertyOp18
 70
     1
102
RTVSPropertyOp19
 70
     1
102
RTVSPropertyOp20
 70
     1
102
RTVSPropertyOp21
 70
     1
102
RTVSPropertyOp22
 70
     1
102
RTVSPropertyOp23
 70
     1
102
RTVSPropertyOp24
 70
     1
102
RTVSPropertyOp25
 70
     1
102
RTVSPropertyOp26
 70
     1
102
RTVSPropertyOp27
 70
     1
102
RTVSPropertyOp28
 70
     1
102
RTVSPropertyOp29
 70
     1
102
RTVSPropertyOp30
 70
     1
102
RTVSPropertyOp31
 70
     1
102
RTVSPropertyOp32
 70
     1
102
RTVSPropertyOp33
 70
     1
102
RTVSPropertyOp34
 70
     1
102
RTVSPropertyOp35
 70
     1
102
RTVSPropertyOp36
 70
     1
102
RTVSPropertyOp37
 70
     1
102
RTVSPropertyOp38
 70
     1
102
RTVSPropertyOp39
 70
     1
102
RTVSPropertyOp40
 70
     1
102
RTVSPropertyOp41
 70
     1
102
RTVSPropertyOp42
 70
     1
102
RTVSPropertyOp43
 70
     1
102
RTVSPropertyOp44
 70
     1
102
RTVSPropertyOp45
 70
     1
102
RTVSPropertyOp46
 70
     1
102
RTVSPropertyOp47
 70
     1
102
RTVSPropertyOp48
 70
     1
102
RTVSPropertyOp49
 70
     1
102
RTVSPropertyOp50
 70
     1
102
RTVSPropertyOp51
 70
     0
102
RTVSPropertyOp52
 70
     0
102
RTVSPropertyOp53
 70
     1
102
RTVSPropertyOp54
 70
     1
102
RTVSPropertyOp55
 70
     1
102
RTVSPropertyOp56
 70
     1
102
RTVSPropertyOp57
 70
     1
102
RTVSPropertyOp58
 70
     1
102
RTVSPropertyOp59
 70
     1
102
RTVSPropertyOp60
 70
     1
102
RTVSPropertyOp61
 70
     1
102
RTVSPropertyOp62
 70
     1
  0
XRECORD
  5
1586
102
{ACAD_REACTORS
330
1585
102
}
330
1585
100
AcDbXrecord
280
     1
102
RTVSPost2010Prop28
280
     0
102
RTVSPost2010PropOp28
 70
     1
102
RTVSPost2010Prop29
280
     1
102
RTVSPost2010PropOp29
 70
     1
102
RTVSPost2010Prop30
280
     1
102
RTVSPost2010PropOp30
 70
     1
102
RTVSPost2010Prop31
280
     0
102
RTVSPost2010PropOp31
 70
     1
102
RTVSPost2010Prop32
280
     0
102
RTVSPost2010PropOp32
 70
     1
102
RTVSPost2010Prop33
280
     0
102
RTVSPost2010PropOp33
 70
     1
102
RTVSPost2010Prop34
280
     0
102
RTVSPost2010PropOp34
 70
     1
102
RTVSPost2010Prop35
280
     0
102
RTVSPost2010PropOp35
 70
     1
102
RTVSPost2010Prop36
280
     0
102
RTVSPost2010PropOp36
 70
     1
102
RTVSPost2010Prop37
 90
       50
102
RTVSPost2010PropOp37
 70
     1
102
RTVSPost2010Prop38
140
0.0
102
RTVSPost2010PropOp38
 70
     1
102
RTVSPost2010Prop39
140
1.0
102
RTVSPost2010PropOp39
 70
     1
102
RTVSPost2010Prop40
 90
        0
102
RTVSPost2010PropOp40
 70
     1
102
RTVSPost2010Prop41ColorIndex
 90
       18
102
RTVSPost2010Prop41ColorRGB
 90
        0
102
RTVSPost2010PropOp41
 70
     1
102
RTVSPost2010Prop42
 90
       50
102
RTVSPost2010PropOp42
 70
     1
102
RTVSPost2010Prop43
 90
        3
102
RTVSPost2010PropOp43
 70
     1
102
RTVSPost2010Prop44ColorIndex
 90
        5
102
RTVSPost2010Prop44ColorRGB
 90
      255
102
RTVSPost2010PropOp44
 70
     1
102
RTVSPost2010Prop45
280
     0
102
RTVSPost2010PropOp45
 70
     1
102
RTVSPost2010Prop46
 90
       50
102
RTVSPost2010PropOp46
 70
     1
102
RTVSPost2010Prop47
 90
       50
102
RTVSPost2010PropOp47
 70
     1
102
RTVSPost2010Prop48
 90
       50
102
RTVSPost2010PropOp48
 70
     1
102
RTVSPost2010Prop49
280
     0
102
RTVSPost2010PropOp49
 70
     1
102
RTVSPost2010Prop50
 90
       50
102
RTVSPost2010PropOp50
 70
     1
102
RTVSPost2010Prop51ColorIndex
 90
      256
102
RTVSPost2010Prop51ColorRGB
 90
-16777216
102
RTVSPost2010PropOp51
 70
     0
102
RTVSPost2010Prop52
140
1.0
102
RTVSPost2010PropOp52
 70
     0
102
RTVSPost2010Prop53
 90
        2
102
RTVSPost2010PropOp53
 70
     1
102
RTVSPost2010Prop54
  1
strokes_ogs.tif
102
RTVSPost2010PropOp54
 70
     1
102
RTVSPost2010Prop55
280
     0
102
RTVSPost2010PropOp55
 70
     1
102
RTVSPost2010Prop56
140
1.0
102
RTVSPost2010PropOp56
 70
     1
102
RTVSPost2010Prop57
140
1.0
102
RTVSPost2010PropOp57
 70
     1
102
RTVSPropertyOp0
 70
     1
102
RTVSPropertyOp1
 70
     1
102
RTVSPropertyOp2
 70
     1
102
RTVSPropertyOp3
 70
     1
102
RTVSPropertyOp4
 70
     1
102
RTVSPropertyOp5
 70
     1
102
RTVSPropertyOp6
 70
     1
102
RTVSPropertyOp7
 70
     1
102
RTVSPropertyOp8
 70
     1
102
RTVSPropertyOp9
 70
     1
102
RTVSPropertyOp10
 70
     1
102
RTVSPropertyOp11
 70
     1
102
RTVSPropertyOp12
 70
     1
102
RTVSPropertyOp13
 70
     1
102
RTVSPropertyOp14
 70
     1
102
RTVSPropertyOp15
 70
     1
102
RTVSPropertyOp16
 70
     1
102
RTVSPropertyOp17
 70
     1
102
RTVSPropertyOp18
 70
     1
102
RTVSPropertyOp19
 70
     1
102
RTVSPropertyOp20
 70
     1
102
RTVSPropertyOp21
 70
     1
102
RTVSPropertyOp22
 70
     1
102
RTVSPropertyOp23
 70
     1
102
RTVSPropertyOp24
 70
     1
102
RTVSPropertyOp25
 70
     1
102
RTVSPropertyOp26
 70
     1
102
RTVSPropertyOp27
 70
     1
102
RTVSPropertyOp28
 70
     1
102
RTVSPropertyOp29
 70
     1
102
RTVSPropertyOp30
 70
     1
102
RTVSPropertyOp31
 70
     1
102
RTVSPropertyOp32
 70
     1
102
RTVSPropertyOp33
 70
     1
102
RTVSPropertyOp34
 70
     1
102
RTVSPropertyOp35
 70
     1
102
RTVSPropertyOp36
 70
     1
102
RTVSPropertyOp37
 70
     1
102
RTVSPropertyOp38
 70
     1
102
RTVSPropertyOp39
 70
     1
102
RTVSPropertyOp40
 70
     1
102
RTVSPropertyOp41
 70
     1
102
RTVSPropertyOp42
 70
     1
102
RTVSPropertyOp43
 70
     1
102
RTVSPropertyOp44
 70
     1
102
RTVSPropertyOp45
 70
     1
102
RTVSPropertyOp46
 70
     1
102
RTVSPropertyOp47
 70
     1
102
RTVSPropertyOp48
 70
     1
102
RTVSPropertyOp49
 70
     1
102
RTVSPropertyOp50
 70
     1
102
RTVSPropertyOp51
 70
     0
102
RTVSPropertyOp52
 70
     0
102
RTVSPropertyOp53
 70
     1
102
RTVSPropertyOp54
 70
     1
102
RTVSPropertyOp55
 70
     1
102
RTVSPropertyOp56
 70
     1
102
RTVSPropertyOp57
 70
     1
102
RTVSPropertyOp58
 70
     1
102
RTVSPropertyOp59
 70
     1
102
RTVSPropertyOp60
 70
     1
102
RTVSPropertyOp61
 70
     1
102
RTVSPropertyOp62
 70
     1
  0
XRECORD
  5
1594
102
{ACAD_REACTORS
330
1593
102
}
330
1593
100
AcDbXrecord
280
     1
102
RTVSPost2010Prop28
280
     0
102
RTVSPost2010PropOp28
 70
     1
102
RTVSPost2010Prop29
280
     1
102
RTVSPost2010PropOp29
 70
     1
102
RTVSPost2010Prop30
280
     1
102
RTVSPost2010PropOp30
 70
     1
102
RTVSPost2010Prop31
280
     0
102
RTVSPost2010PropOp31
 70
     1
102
RTVSPost2010Prop32
280
     0
102
RTVSPost2010PropOp32
 70
     1
102
RTVSPost2010Prop33
280
     0
102
RTVSPost2010PropOp33
 70
     1
102
RTVSPost2010Prop34
280
     0
102
RTVSPost2010PropOp34
 70
     1
102
RTVSPost2010Prop35
280
     0
102
RTVSPost2010PropOp35
 70
     1
102
RTVSPost2010Prop36
280
     0
102
RTVSPost2010PropOp36
 70
     1
102
RTVSPost2010Prop37
 90
       50
102
RTVSPost2010PropOp37
 70
     1
102
RTVSPost2010Prop38
140
0.0
102
RTVSPost2010PropOp38
 70
     1
102
RTVSPost2010Prop39
140
1.0
102
RTVSPost2010PropOp39
 70
     1
102
RTVSPost2010Prop40
 90
        0
102
RTVSPost2010PropOp40
 70
     1
102
RTVSPost2010Prop41ColorIndex
 90
       18
102
RTVSPost2010Prop41ColorRGB
 90
        0
102
RTVSPost2010PropOp41
 70
     1
102
RTVSPost2010Prop42
 90
       50
102
RTVSPost2010PropOp42
 70
     1
102
RTVSPost2010Prop43
 90
        3
102
RTVSPost2010PropOp43
 70
     1
102
RTVSPost2010Prop44ColorIndex
 90
        5
102
RTVSPost2010Prop44ColorRGB
 90
      255
102
RTVSPost2010PropOp44
 70
     1
102
RTVSPost2010Prop45
280
     0
102
RTVSPost2010PropOp45
 70
     1
102
RTVSPost2010Prop46
 90
       50
102
RTVSPost2010PropOp46
 70
     1
102
RTVSPost2010Prop47
 90
       50
102
RTVSPost2010PropOp47
 70
     1
102
RTVSPost2010Prop48
 90
       50
102
RTVSPost2010PropOp48
 70
     1
102
RTVSPost2010Prop49
280
     0
102
RTVSPost2010PropOp49
 70
     1
102
RTVSPost2010Prop50
 90
       50
102
RTVSPost2010PropOp50
 70
     1
102
RTVSPost2010Prop51ColorIndex
 90
      256
102
RTVSPost2010Prop51ColorRGB
 90
-16777216
102
RTVSPost2010PropOp51
 70
     0
102
RTVSPost2010Prop52
140
1.0
102
RTVSPost2010PropOp52
 70
     0
102
RTVSPost2010Prop53
 90
        2
102
RTVSPost2010PropOp53
 70
     1
102
RTVSPost2010Prop54
  1
strokes_ogs.tif
102
RTVSPost2010PropOp54
 70
     1
102
RTVSPost2010Prop55
280
     0
102
RTVSPost2010PropOp55
 70
     1
102
RTVSPost2010Prop56
140
1.0
102
RTVSPost2010PropOp56
 70
     1
102
RTVSPost2010Prop57
140
1.0
102
RTVSPost2010PropOp57
 70
     1
102
RTVSPropertyOp0
 70
     1
102
RTVSPropertyOp1
 70
     1
102
RTVSPropertyOp2
 70
     1
102
RTVSPropertyOp3
 70
     1
102
RTVSPropertyOp4
 70
     1
102
RTVSPropertyOp5
 70
     1
102
RTVSPropertyOp6
 70
     1
102
RTVSPropertyOp7
 70
     1
102
RTVSPropertyOp8
 70
     1
102
RTVSPropertyOp9
 70
     1
102
RTVSPropertyOp10
 70
     1
102
RTVSPropertyOp11
 70
     1
102
RTVSPropertyOp12
 70
     1
102
RTVSPropertyOp13
 70
     1
102
RTVSPropertyOp14
 70
     1
102
RTVSPropertyOp15
 70
     1
102
RTVSPropertyOp16
 70
     1
102
RTVSPropertyOp17
 70
     1
102
RTVSPropertyOp18
 70
     1
102
RTVSPropertyOp19
 70
     1
102
RTVSPropertyOp20
 70
     1
102
RTVSPropertyOp21
 70
     1
102
RTVSPropertyOp22
 70
     1
102
RTVSPropertyOp23
 70
     1
102
RTVSPropertyOp24
 70
     1
102
RTVSPropertyOp25
 70
     1
102
RTVSPropertyOp26
 70
     1
102
RTVSPropertyOp27
 70
     1
102
RTVSPropertyOp28
 70
     1
102
RTVSPropertyOp29
 70
     1
102
RTVSPropertyOp30
 70
     1
102
RTVSPropertyOp31
 70
     1
102
RTVSPropertyOp32
 70
     1
102
RTVSPropertyOp33
 70
     1
102
RTVSPropertyOp34
 70
     1
102
RTVSPropertyOp35
 70
     1
102
RTVSPropertyOp36
 70
     1
102
RTVSPropertyOp37
 70
     1
102
RTVSPropertyOp38
 70
     1
102
RTVSPropertyOp39
 70
     1
102
RTVSPropertyOp40
 70
     1
102
RTVSPropertyOp41
 70
     1
102
RTVSPropertyOp42
 70
     1
102
RTVSPropertyOp43
 70
     1
102
RTVSPropertyOp44
 70
     1
102
RTVSPropertyOp45
 70
     1
102
RTVSPropertyOp46
 70
     1
102
RTVSPropertyOp47
 70
     1
102
RTVSPropertyOp48
 70
     1
102
RTVSPropertyOp49
 70
     1
102
RTVSPropertyOp50
 70
     1
102
RTVSPropertyOp51
 70
     0
102
RTVSPropertyOp52
 70
     0
102
RTVSPropertyOp53
 70
     1
102
RTVSPropertyOp54
 70
     1
102
RTVSPropertyOp55
 70
     1
102
RTVSPropertyOp56
 70
     1
102
RTVSPropertyOp57
 70
     1
102
RTVSPropertyOp58
 70
     1
102
RTVSPropertyOp59
 70
     1
102
RTVSPropertyOp60
 70
     1
102
RTVSPropertyOp61
 70
     1
102
RTVSPropertyOp62
 70
     1
  0
XRECORD
  5
159C
102
{ACAD_REACTORS
330
159B
102
}
330
159B
100
AcDbXrecord
280
     1
102
RTVSPost2010Prop28
280
     0
102
RTVSPost2010PropOp28
 70
     1
102
RTVSPost2010Prop29
280
     1
102
RTVSPost2010PropOp29
 70
     1
102
RTVSPost2010Prop30
280
     1
102
RTVSPost2010PropOp30
 70
     1
102
RTVSPost2010Prop31
280
     0
102
RTVSPost2010PropOp31
 70
     1
102
RTVSPost2010Prop32
280
     0
102
RTVSPost2010PropOp32
 70
     1
102
RTVSPost2010Prop33
280
     0
102
RTVSPost2010PropOp33
 70
     1
102
RTVSPost2010Prop34
280
     0
102
RTVSPost2010PropOp34
 70
     1
102
RTVSPost2010Prop35
280
     0
102
RTVSPost2010PropOp35
 70
     1
102
RTVSPost2010Prop36
280
     0
102
RTVSPost2010PropOp36
 70
     1
102
RTVSPost2010Prop37
 90
       50
102
RTVSPost2010PropOp37
 70
     1
102
RTVSPost2010Prop38
140
0.0
102
RTVSPost2010PropOp38
 70
     1
102
RTVSPost2010Prop39
140
1.0
102
RTVSPost2010PropOp39
 70
     1
102
RTVSPost2010Prop40
 90
        0
102
RTVSPost2010PropOp40
 70
     1
102
RTVSPost2010Prop41ColorIndex
 90
       18
102
RTVSPost2010Prop41ColorRGB
 90
        0
102
RTVSPost2010PropOp41
 70
     1
102
RTVSPost2010Prop42
 90
       50
102
RTVSPost2010PropOp42
 70
     1
102
RTVSPost2010Prop43
 90
        3
102
RTVSPost2010PropOp43
 70
     1
102
RTVSPost2010Prop44ColorIndex
 90
        5
102
RTVSPost2010Prop44ColorRGB
 90
      255
102
RTVSPost2010PropOp44
 70
     1
102
RTVSPost2010Prop45
280
     0
102
RTVSPost2010PropOp45
 70
     1
102
RTVSPost2010Prop46
 90
       50
102
RTVSPost2010PropOp46
 70
     1
102
RTVSPost2010Prop47
 90
       50
102
RTVSPost2010PropOp47
 70
     1
102
RTVSPost2010Prop48
 90
       50
102
RTVSPost2010PropOp48
 70
     1
102
RTVSPost2010Prop49
280
     0
102
RTVSPost2010PropOp49
 70
     1
102
RTVSPost2010Prop50
 90
       50
102
RTVSPost2010PropOp50
 70
     1
102
RTVSPost2010Prop51ColorIndex
 90
      256
102
RTVSPost2010Prop51ColorRGB
 90
-16777216
102
RTVSPost2010PropOp51
 70
     0
102
RTVSPost2010Prop52
140
1.0
102
RTVSPost2010PropOp52
 70
     0
102
RTVSPost2010Prop53
 90
        2
102
RTVSPost2010PropOp53
 70
     1
102
RTVSPost2010Prop54
  1
strokes_ogs.tif
102
RTVSPost2010PropOp54
 70
     1
102
RTVSPost2010Prop55
280
     0
102
RTVSPost2010PropOp55
 70
     1
102
RTVSPost2010Prop56
140
1.0
102
RTVSPost2010PropOp56
 70
     1
102
RTVSPost2010Prop57
140
1.0
102
RTVSPost2010PropOp57
 70
     1
102
RTVSPropertyOp0
 70
     1
102
RTVSPropertyOp1
 70
     1
102
RTVSPropertyOp2
 70
     1
102
RTVSPropertyOp3
 70
     1
102
RTVSPropertyOp4
 70
     1
102
RTVSPropertyOp5
 70
     1
102
RTVSPropertyOp6
 70
     1
102
RTVSPropertyOp7
 70
     1
102
RTVSPropertyOp8
 70
     1
102
RTVSPropertyOp9
 70
     1
102
RTVSPropertyOp10
 70
     1
102
RTVSPropertyOp11
 70
     1
102
RTVSPropertyOp12
 70
     1
102
RTVSPropertyOp13
 70
     1
102
RTVSPropertyOp14
 70
     1
102
RTVSPropertyOp15
 70
     1
102
RTVSPropertyOp16
 70
     1
102
RTVSPropertyOp17
 70
     1
102
RTVSPropertyOp18
 70
     1
102
RTVSPropertyOp19
 70
     1
102
RTVSPropertyOp20
 70
     1
102
RTVSPropertyOp21
 70
     1
102
RTVSPropertyOp22
 70
     1
102
RTVSPropertyOp23
 70
     1
102
RTVSPropertyOp24
 70
     1
102
RTVSPropertyOp25
 70
     1
102
RTVSPropertyOp26
 70
     1
102
RTVSPropertyOp27
 70
     1
102
RTVSPropertyOp28
 70
     1
102
RTVSPropertyOp29
 70
     1
102
RTVSPropertyOp30
 70
     1
102
RTVSPropertyOp31
 70
     1
102
RTVSPropertyOp32
 70
     1
102
RTVSPropertyOp33
 70
     1
102
RTVSPropertyOp34
 70
     1
102
RTVSPropertyOp35
 70
     1
102
RTVSPropertyOp36
 70
     1
102
RTVSPropertyOp37
 70
     1
102
RTVSPropertyOp38
 70
     1
102
RTVSPropertyOp39
 70
     1
102
RTVSPropertyOp40
 70
     1
102
RTVSPropertyOp41
 70
     1
102
RTVSPropertyOp42
 70
     1
102
RTVSPropertyOp43
 70
     1
102
RTVSPropertyOp44
 70
     1
102
RTVSPropertyOp45
 70
     1
102
RTVSPropertyOp46
 70
     1
102
RTVSPropertyOp47
 70
     1
102
RTVSPropertyOp48
 70
     1
102
RTVSPropertyOp49
 70
     1
102
RTVSPropertyOp50
 70
     1
102
RTVSPropertyOp51
 70
     0
102
RTVSPropertyOp52
 70
     0
102
RTVSPropertyOp53
 70
     1
102
RTVSPropertyOp54
 70
     1
102
RTVSPropertyOp55
 70
     1
102
RTVSPropertyOp56
 70
     1
102
RTVSPropertyOp57
 70
     1
102
RTVSPropertyOp58
 70
     1
102
RTVSPropertyOp59
 70
     1
102
RTVSPropertyOp60
 70
     1
102
RTVSPropertyOp61
 70
     1
102
RTVSPropertyOp62
 70
     1
  0
XRECORD
  5
158E
102
{ACAD_REACTORS
330
158D
102
}
330
158D
100
AcDbXrecord
280
     1
102
RTVSPost2010Prop28
280
     0
102
RTVSPost2010PropOp28
 70
     1
102
RTVSPost2010Prop29
280
     1
102
RTVSPost2010PropOp29
 70
     1
102
RTVSPost2010Prop30
280
     1
102
RTVSPost2010PropOp30
 70
     1
102
RTVSPost2010Prop31
280
     0
102
RTVSPost2010PropOp31
 70
     1
102
RTVSPost2010Prop32
280
     0
102
RTVSPost2010PropOp32
 70
     1
102
RTVSPost2010Prop33
280
     0
102
RTVSPost2010PropOp33
 70
     1
102
RTVSPost2010Prop34
280
     0
102
RTVSPost2010PropOp34
 70
     1
102
RTVSPost2010Prop35
280
     0
102
RTVSPost2010PropOp35
 70
     1
102
RTVSPost2010Prop36
280
     0
102
RTVSPost2010PropOp36
 70
     1
102
RTVSPost2010Prop37
 90
       50
102
RTVSPost2010PropOp37
 70
     1
102
RTVSPost2010Prop38
140
0.0
102
RTVSPost2010PropOp38
 70
     1
102
RTVSPost2010Prop39
140
1.0
102
RTVSPost2010PropOp39
 70
     1
102
RTVSPost2010Prop40
 90
        0
102
RTVSPost2010PropOp40
 70
     1
102
RTVSPost2010Prop41ColorIndex
 90
       18
102
RTVSPost2010Prop41ColorRGB
 90
        0
102
RTVSPost2010PropOp41
 70
     1
102
RTVSPost2010Prop42
 90
       50
102
RTVSPost2010PropOp42
 70
     1
102
RTVSPost2010Prop43
 90
        3
102
RTVSPost2010PropOp43
 70
     1
102
RTVSPost2010Prop44ColorIndex
 90
        5
102
RTVSPost2010Prop44ColorRGB
 90
      255
102
RTVSPost2010PropOp44
 70
     1
102
RTVSPost2010Prop45
280
     0
102
RTVSPost2010PropOp45
 70
     1
102
RTVSPost2010Prop46
 90
       50
102
RTVSPost2010PropOp46
 70
     1
102
RTVSPost2010Prop47
 90
       50
102
RTVSPost2010PropOp47
 70
     1
102
RTVSPost2010Prop48
 90
       50
102
RTVSPost2010PropOp48
 70
     1
102
RTVSPost2010Prop49
280
     0
102
RTVSPost2010PropOp49
 70
     1
102
RTVSPost2010Prop50
 90
       50
102
RTVSPost2010PropOp50
 70
     1
102
RTVSPost2010Prop51ColorIndex
 90
      256
102
RTVSPost2010Prop51ColorRGB
 90
-16777216
102
RTVSPost2010PropOp51
 70
     0
102
RTVSPost2010Prop52
140
1.0
102
RTVSPost2010PropOp52
 70
     0
102
RTVSPost2010Prop53
 90
        2
102
RTVSPost2010PropOp53
 70
     1
102
RTVSPost2010Prop54
  1
strokes_ogs.tif
102
RTVSPost2010PropOp54
 70
     1
102
RTVSPost2010Prop55
280
     0
102
RTVSPost2010PropOp55
 70
     1
102
RTVSPost2010Prop56
140
1.0
102
RTVSPost2010PropOp56
 70
     1
102
RTVSPost2010Prop57
140
1.0
102
RTVSPost2010PropOp57
 70
     1
102
RTVSPropertyOp0
 70
     1
102
RTVSPropertyOp1
 70
     1
102
RTVSPropertyOp2
 70
     1
102
RTVSPropertyOp3
 70
     1
102
RTVSPropertyOp4
 70
     1
102
RTVSPropertyOp5
 70
     1
102
RTVSPropertyOp6
 70
     1
102
RTVSPropertyOp7
 70
     1
102
RTVSPropertyOp8
 70
     1
102
RTVSPropertyOp9
 70
     1
102
RTVSPropertyOp10
 70
     1
102
RTVSPropertyOp11
 70
     1
102
RTVSPropertyOp12
 70
     1
102
RTVSPropertyOp13
 70
     1
102
RTVSPropertyOp14
 70
     1
102
RTVSPropertyOp15
 70
     1
102
RTVSPropertyOp16
 70
     1
102
RTVSPropertyOp17
 70
     1
102
RTVSPropertyOp18
 70
     1
102
RTVSPropertyOp19
 70
     1
102
RTVSPropertyOp20
 70
     1
102
RTVSPropertyOp21
 70
     1
102
RTVSPropertyOp22
 70
     1
102
RTVSPropertyOp23
 70
     1
102
RTVSPropertyOp24
 70
     1
102
RTVSPropertyOp25
 70
     1
102
RTVSPropertyOp26
 70
     1
102
RTVSPropertyOp27
 70
     1
102
RTVSPropertyOp28
 70
     1
102
RTVSPropertyOp29
 70
     1
102
RTVSPropertyOp30
 70
     1
102
RTVSPropertyOp31
 70
     1
102
RTVSPropertyOp32
 70
     1
102
RTVSPropertyOp33
 70
     1
102
RTVSPropertyOp34
 70
     1
102
RTVSPropertyOp35
 70
     1
102
RTVSPropertyOp36
 70
     1
102
RTVSPropertyOp37
 70
     1
102
RTVSPropertyOp38
 70
     1
102
RTVSPropertyOp39
 70
     1
102
RTVSPropertyOp40
 70
     1
102
RTVSPropertyOp41
 70
     1
102
RTVSPropertyOp42
 70
     1
102
RTVSPropertyOp43
 70
     1
102
RTVSPropertyOp44
 70
     1
102
RTVSPropertyOp45
 70
     1
102
RTVSPropertyOp46
 70
     1
102
RTVSPropertyOp47
 70
     1
102
RTVSPropertyOp48
 70
     1
102
RTVSPropertyOp49
 70
     1
102
RTVSPropertyOp50
 70
     1
102
RTVSPropertyOp51
 70
     0
102
RTVSPropertyOp52
 70
     0
102
RTVSPropertyOp53
 70
     1
102
RTVSPropertyOp54
 70
     1
102
RTVSPropertyOp55
 70
     1
102
RTVSPropertyOp56
 70
     1
102
RTVSPropertyOp57
 70
     1
102
RTVSPropertyOp58
 70
     1
102
RTVSPropertyOp59
 70
     1
102
RTVSPropertyOp60
 70
     1
102
RTVSPropertyOp61
 70
     1
102
RTVSPropertyOp62
 70
     1
  0
XRECORD
  5
1592
102
{ACAD_REACTORS
330
1591
102
}
330
1591
100
AcDbXrecord
280
     1
102
RTVSPost2010Prop28
280
     0
102
RTVSPost2010PropOp28
 70
     1
102
RTVSPost2010Prop29
280
     1
102
RTVSPost2010PropOp29
 70
     1
102
RTVSPost2010Prop30
280
     1
102
RTVSPost2010PropOp30
 70
     1
102
RTVSPost2010Prop31
280
     0
102
RTVSPost2010PropOp31
 70
     1
102
RTVSPost2010Prop32
280
     0
102
RTVSPost2010PropOp32
 70
     1
102
RTVSPost2010Prop33
280
     0
102
RTVSPost2010PropOp33
 70
     1
102
RTVSPost2010Prop34
280
     0
102
RTVSPost2010PropOp34
 70
     1
102
RTVSPost2010Prop35
280
     0
102
RTVSPost2010PropOp35
 70
     1
102
RTVSPost2010Prop36
280
     0
102
RTVSPost2010PropOp36
 70
     1
102
RTVSPost2010Prop37
 90
       50
102
RTVSPost2010PropOp37
 70
     1
102
RTVSPost2010Prop38
140
0.0
102
RTVSPost2010PropOp38
 70
     1
102
RTVSPost2010Prop39
140
1.0
102
RTVSPost2010PropOp39
 70
     1
102
RTVSPost2010Prop40
 90
        0
102
RTVSPost2010PropOp40
 70
     1
102
RTVSPost2010Prop41ColorIndex
 90
       18
102
RTVSPost2010Prop41ColorRGB
 90
        0
102
RTVSPost2010PropOp41
 70
     1
102
RTVSPost2010Prop42
 90
       50
102
RTVSPost2010PropOp42
 70
     1
102
RTVSPost2010Prop43
 90
        3
102
RTVSPost2010PropOp43
 70
     1
102
RTVSPost2010Prop44ColorIndex
 90
        5
102
RTVSPost2010Prop44ColorRGB
 90
      255
102
RTVSPost2010PropOp44
 70
     1
102
RTVSPost2010Prop45
280
     0
102
RTVSPost2010PropOp45
 70
     1
102
RTVSPost2010Prop46
 90
       50
102
RTVSPost2010PropOp46
 70
     1
102
RTVSPost2010Prop47
 90
       50
102
RTVSPost2010PropOp47
 70
     1
102
RTVSPost2010Prop48
 90
       50
102
RTVSPost2010PropOp48
 70
     1
102
RTVSPost2010Prop49
280
     0
102
RTVSPost2010PropOp49
 70
     1
102
RTVSPost2010Prop50
 90
       50
102
RTVSPost2010PropOp50
 70
     1
102
RTVSPost2010Prop51ColorIndex
 90
      256
102
RTVSPost2010Prop51ColorRGB
 90
-16777216
102
RTVSPost2010PropOp51
 70
     0
102
RTVSPost2010Prop52
140
1.0
102
RTVSPost2010PropOp52
 70
     0
102
RTVSPost2010Prop53
 90
        2
102
RTVSPost2010PropOp53
 70
     1
102
RTVSPost2010Prop54
  1
strokes_ogs.tif
102
RTVSPost2010PropOp54
 70
     1
102
RTVSPost2010Prop55
280
     0
102
RTVSPost2010PropOp55
 70
     1
102
RTVSPost2010Prop56
140
1.0
102
RTVSPost2010PropOp56
 70
     1
102
RTVSPost2010Prop57
140
1.0
102
RTVSPost2010PropOp57
 70
     1
102
RTVSPropertyOp0
 70
     1
102
RTVSPropertyOp1
 70
     1
102
RTVSPropertyOp2
 70
     1
102
RTVSPropertyOp3
 70
     1
102
RTVSPropertyOp4
 70
     1
102
RTVSPropertyOp5
 70
     1
102
RTVSPropertyOp6
 70
     1
102
RTVSPropertyOp7
 70
     1
102
RTVSPropertyOp8
 70
     1
102
RTVSPropertyOp9
 70
     1
102
RTVSPropertyOp10
 70
     1
102
RTVSPropertyOp11
 70
     1
102
RTVSPropertyOp12
 70
     1
102
RTVSPropertyOp13
 70
     1
102
RTVSPropertyOp14
 70
     1
102
RTVSPropertyOp15
 70
     1
102
RTVSPropertyOp16
 70
     1
102
RTVSPropertyOp17
 70
     1
102
RTVSPropertyOp18
 70
     1
102
RTVSPropertyOp19
 70
     1
102
RTVSPropertyOp20
 70
     1
102
RTVSPropertyOp21
 70
     1
102
RTVSPropertyOp22
 70
     1
102
RTVSPropertyOp23
 70
     1
102
RTVSPropertyOp24
 70
     1
102
RTVSPropertyOp25
 70
     1
102
RTVSPropertyOp26
 70
     1
102
RTVSPropertyOp27
 70
     1
102
RTVSPropertyOp28
 70
     1
102
RTVSPropertyOp29
 70
     1
102
RTVSPropertyOp30
 70
     1
102
RTVSPropertyOp31
 70
     1
102
RTVSPropertyOp32
 70
     1
102
RTVSPropertyOp33
 70
     1
102
RTVSPropertyOp34
 70
     1
102
RTVSPropertyOp35
 70
     1
102
RTVSPropertyOp36
 70
     1
102
RTVSPropertyOp37
 70
     1
102
RTVSPropertyOp38
 70
     1
102
RTVSPropertyOp39
 70
     1
102
RTVSPropertyOp40
 70
     1
102
RTVSPropertyOp41
 70
     1
102
RTVSPropertyOp42
 70
     1
102
RTVSPropertyOp43
 70
     1
102
RTVSPropertyOp44
 70
     1
102
RTVSPropertyOp45
 70
     1
102
RTVSPropertyOp46
 70
     1
102
RTVSPropertyOp47
 70
     1
102
RTVSPropertyOp48
 70
     1
102
RTVSPropertyOp49
 70
     1
102
RTVSPropertyOp50
 70
     1
102
RTVSPropertyOp51
 70
     0
102
RTVSPropertyOp52
 70
     0
102
RTVSPropertyOp53
 70
     1
102
RTVSPropertyOp54
 70
     1
102
RTVSPropertyOp55
 70
     1
102
RTVSPropertyOp56
 70
     1
102
RTVSPropertyOp57
 70
     1
102
RTVSPropertyOp58
 70
     1
102
RTVSPropertyOp59
 70
     1
102
RTVSPropertyOp60
 70
     1
102
RTVSPropertyOp61
 70
     1
102
RTVSPropertyOp62
 70
     1
  0
XRECORD
  5
15B1
102
{ACAD_REACTORS
330
15B0
102
}
330
15B0
100
AcDbXrecord
280
     1
102
RTVSPost2010Prop28
280
     0
102
RTVSPost2010PropOp28
 70
     0
102
RTVSPost2010Prop29
280
     1
102
RTVSPost2010PropOp29
 70
     0
102
RTVSPost2010Prop30
280
     1
102
RTVSPost2010PropOp30
 70
     0
102
RTVSPost2010Prop31
280
     0
102
RTVSPost2010PropOp31
 70
     0
102
RTVSPost2010Prop32
280
     0
102
RTVSPost2010PropOp32
 70
     0
102
RTVSPost2010Prop33
280
     0
102
RTVSPost2010PropOp33
 70
     0
102
RTVSPost2010Prop34
280
     0
102
RTVSPost2010PropOp34
 70
     0
102
RTVSPost2010Prop35
280
     0
102
RTVSPost2010PropOp35
 70
     0
102
RTVSPost2010Prop36
280
     0
102
RTVSPost2010PropOp36
 70
     0
102
RTVSPost2010Prop37
 90
       50
102
RTVSPost2010PropOp37
 70
     0
102
RTVSPost2010Prop38
140
0.0
102
RTVSPost2010PropOp38
 70
     0
102
RTVSPost2010Prop39
140
1.0
102
RTVSPost2010PropOp39
 70
     0
102
RTVSPost2010Prop40
 90
        0
102
RTVSPost2010PropOp40
 70
     0
102
RTVSPost2010Prop41ColorIndex
 90
       18
102
RTVSPost2010Prop41ColorRGB
 90
        0
102
RTVSPost2010PropOp41
 70
     0
102
RTVSPost2010Prop42
 90
       50
102
RTVSPost2010PropOp42
 70
     0
102
RTVSPost2010Prop43
 90
        3
102
RTVSPost2010PropOp43
 70
     0
102
RTVSPost2010Prop44ColorIndex
 90
        5
102
RTVSPost2010Prop44ColorRGB
 90
      255
102
RTVSPost2010PropOp44
 70
     0
102
RTVSPost2010Prop45
280
     0
102
RTVSPost2010PropOp45
 70
     0
102
RTVSPost2010Prop46
 90
       50
102
RTVSPost2010PropOp46
 70
     0
102
RTVSPost2010Prop47
 90
       50
102
RTVSPost2010PropOp47
 70
     0
102
RTVSPost2010Prop48
 90
       50
102
RTVSPost2010PropOp48
 70
     0
102
RTVSPost2010Prop49
280
     0
102
RTVSPost2010PropOp49
 70
     0
102
RTVSPost2010Prop50
 90
       50
102
RTVSPost2010PropOp50
 70
     0
102
RTVSPost2010Prop51ColorIndex
 90
      256
102
RTVSPost2010Prop51ColorRGB
 90
-16777216
102
RTVSPost2010PropOp51
 70
     0
102
RTVSPost2010Prop52
140
1.0
102
RTVSPost2010PropOp52
 70
     0
102
RTVSPost2010Prop53
 90
        2
102
RTVSPost2010PropOp53
 70
     0
102
RTVSPost2010Prop54
  1
strokes_ogs.tif
102
RTVSPost2010PropOp54
 70
     0
102
RTVSPost2010Prop55
280
     0
102
RTVSPost2010PropOp55
 70
     0
102
RTVSPost2010Prop56
140
1.0
102
RTVSPost2010PropOp56
 70
     0
102
RTVSPost2010Prop57
140
1.0
102
RTVSPost2010PropOp57
 70
     0
102
RTVSPropertyOp0
 70
     0
102
RTVSPropertyOp1
 70
     0
102
RTVSPropertyOp2
 70
     0
102
RTVSPropertyOp3
 70
     0
102
RTVSPropertyOp4
 70
     0
102
RTVSPropertyOp5
 70
     0
102
RTVSPropertyOp6
 70
     0
102
RTVSPropertyOp7
 70
     0
102
RTVSPropertyOp8
 70
     0
102
RTVSPropertyOp9
 70
     0
102
RTVSPropertyOp10
 70
     0
102
RTVSPropertyOp11
 70
     0
102
RTVSPropertyOp12
 70
     0
102
RTVSPropertyOp13
 70
     0
102
RTVSPropertyOp14
 70
     2
102
RTVSPropertyOp15
 70
     0
102
RTVSPropertyOp16
 70
     0
102
RTVSPropertyOp17
 70
     0
102
RTVSPropertyOp18
 70
     0
102
RTVSPropertyOp19
 70
     0
102
RTVSPropertyOp20
 70
     0
102
RTVSPropertyOp21
 70
     0
102
RTVSPropertyOp22
 70
     0
102
RTVSPropertyOp23
 70
     0
102
RTVSPropertyOp24
 70
     0
102
RTVSPropertyOp25
 70
     0
102
RTVSPropertyOp26
 70
     0
102
RTVSPropertyOp27
 70
     0
102
RTVSPropertyOp28
 70
     0
102
RTVSPropertyOp29
 70
     0
102
RTVSPropertyOp30
 70
     0
102
RTVSPropertyOp31
 70
     0
102
RTVSPropertyOp32
 70
     0
102
RTVSPropertyOp33
 70
     0
102
RTVSPropertyOp34
 70
     0
102
RTVSPropertyOp35
 70
     0
102
RTVSPropertyOp36
 70
     0
102
RTVSPropertyOp37
 70
     0
102
RTVSPropertyOp38
 70
     0
102
RTVSPropertyOp39
 70
     0
102
RTVSPropertyOp40
 70
     0
102
RTVSPropertyOp41
 70
     0
102
RTVSPropertyOp42
 70
     0
102
RTVSPropertyOp43
 70
     0
102
RTVSPropertyOp44
 70
     0
102
RTVSPropertyOp45
 70
     0
102
RTVSPropertyOp46
 70
     0
102
RTVSPropertyOp47
 70
     0
102
RTVSPropertyOp48
 70
     0
102
RTVSPropertyOp49
 70
     0
102
RTVSPropertyOp50
 70
     0
102
RTVSPropertyOp51
 70
     0
102
RTVSPropertyOp52
 70
     0
102
RTVSPropertyOp53
 70
     0
102
RTVSPropertyOp54
 70
     0
102
RTVSPropertyOp55
 70
     0
102
RTVSPropertyOp56
 70
     0
102
RTVSPropertyOp57
 70
     0
102
RTVSPropertyOp58
 70
     0
102
RTVSPropertyOp59
 70
     0
102
RTVSPropertyOp60
 70
     0
102
RTVSPropertyOp61
 70
     0
102
RTVSPropertyOp62
 70
     0
  0
XRECORD
  5
159A
102
{ACAD_REACTORS
330
1599
102
}
330
1599
100
AcDbXrecord
280
     1
102
RTVSPost2010Prop28
280
     0
102
RTVSPost2010PropOp28
 70
     1
102
RTVSPost2010Prop29
280
     1
102
RTVSPost2010PropOp29
 70
     1
102
RTVSPost2010Prop30
280
     1
102
RTVSPost2010PropOp30
 70
     1
102
RTVSPost2010Prop31
280
     0
102
RTVSPost2010PropOp31
 70
     1
102
RTVSPost2010Prop32
280
     0
102
RTVSPost2010PropOp32
 70
     1
102
RTVSPost2010Prop33
280
     0
102
RTVSPost2010PropOp33
 70
     1
102
RTVSPost2010Prop34
280
     0
102
RTVSPost2010PropOp34
 70
     1
102
RTVSPost2010Prop35
280
     0
102
RTVSPost2010PropOp35
 70
     1
102
RTVSPost2010Prop36
280
     0
102
RTVSPost2010PropOp36
 70
     1
102
RTVSPost2010Prop37
 90
       50
102
RTVSPost2010PropOp37
 70
     1
102
RTVSPost2010Prop38
140
0.0
102
RTVSPost2010PropOp38
 70
     1
102
RTVSPost2010Prop39
140
1.0
102
RTVSPost2010PropOp39
 70
     1
102
RTVSPost2010Prop40
 90
        0
102
RTVSPost2010PropOp40
 70
     1
102
RTVSPost2010Prop41ColorIndex
 90
       18
102
RTVSPost2010Prop41ColorRGB
 90
        0
102
RTVSPost2010PropOp41
 70
     1
102
RTVSPost2010Prop42
 90
       50
102
RTVSPost2010PropOp42
 70
     1
102
RTVSPost2010Prop43
 90
        3
102
RTVSPost2010PropOp43
 70
     1
102
RTVSPost2010Prop44ColorIndex
 90
        5
102
RTVSPost2010Prop44ColorRGB
 90
      255
102
RTVSPost2010PropOp44
 70
     1
102
RTVSPost2010Prop45
280
     0
102
RTVSPost2010PropOp45
 70
     1
102
RTVSPost2010Prop46
 90
       50
102
RTVSPost2010PropOp46
 70
     1
102
RTVSPost2010Prop47
 90
       50
102
RTVSPost2010PropOp47
 70
     1
102
RTVSPost2010Prop48
 90
       50
102
RTVSPost2010PropOp48
 70
     1
102
RTVSPost2010Prop49
280
     0
102
RTVSPost2010PropOp49
 70
     1
102
RTVSPost2010Prop50
 90
       50
102
RTVSPost2010PropOp50
 70
     1
102
RTVSPost2010Prop51ColorIndex
 90
      256
102
RTVSPost2010Prop51ColorRGB
 90
-16777216
102
RTVSPost2010PropOp51
 70
     0
102
RTVSPost2010Prop52
140
1.0
102
RTVSPost2010PropOp52
 70
     0
102
RTVSPost2010Prop53
 90
        2
102
RTVSPost2010PropOp53
 70
     1
102
RTVSPost2010Prop54
  1
strokes_ogs.tif
102
RTVSPost2010PropOp54
 70
     1
102
RTVSPost2010Prop55
280
     0
102
RTVSPost2010PropOp55
 70
     1
102
RTVSPost2010Prop56
140
1.0
102
RTVSPost2010PropOp56
 70
     1
102
RTVSPost2010Prop57
140
1.0
102
RTVSPost2010PropOp57
 70
     1
102
RTVSPropertyOp0
 70
     1
102
RTVSPropertyOp1
 70
     1
102
RTVSPropertyOp2
 70
     1
102
RTVSPropertyOp3
 70
     1
102
RTVSPropertyOp4
 70
     1
102
RTVSPropertyOp5
 70
     1
102
RTVSPropertyOp6
 70
     1
102
RTVSPropertyOp7
 70
     1
102
RTVSPropertyOp8
 70
     1
102
RTVSPropertyOp9
 70
     1
102
RTVSPropertyOp10
 70
     1
102
RTVSPropertyOp11
 70
     1
102
RTVSPropertyOp12
 70
     1
102
RTVSPropertyOp13
 70
     1
102
RTVSPropertyOp14
 70
     1
102
RTVSPropertyOp15
 70
     1
102
RTVSPropertyOp16
 70
     1
102
RTVSPropertyOp17
 70
     1
102
RTVSPropertyOp18
 70
     1
102
RTVSPropertyOp19
 70
     1
102
RTVSPropertyOp20
 70
     1
102
RTVSPropertyOp21
 70
     1
102
RTVSPropertyOp22
 70
     1
102
RTVSPropertyOp23
 70
     1
102
RTVSPropertyOp24
 70
     1
102
RTVSPropertyOp25
 70
     1
102
RTVSPropertyOp26
 70
     1
102
RTVSPropertyOp27
 70
     1
102
RTVSPropertyOp28
 70
     1
102
RTVSPropertyOp29
 70
     1
102
RTVSPropertyOp30
 70
     1
102
RTVSPropertyOp31
 70
     1
102
RTVSPropertyOp32
 70
     1
102
RTVSPropertyOp33
 70
     1
102
RTVSPropertyOp34
 70
     1
102
RTVSPropertyOp35
 70
     1
102
RTVSPropertyOp36
 70
     1
102
RTVSPropertyOp37
 70
     1
102
RTVSPropertyOp38
 70
     1
102
RTVSPropertyOp39
 70
     1
102
RTVSPropertyOp40
 70
     1
102
RTVSPropertyOp41
 70
     1
102
RTVSPropertyOp42
 70
     1
102
RTVSPropertyOp43
 70
     1
102
RTVSPropertyOp44
 70
     1
102
RTVSPropertyOp45
 70
     1
102
RTVSPropertyOp46
 70
     1
102
RTVSPropertyOp47
 70
     1
102
RTVSPropertyOp48
 70
     1
102
RTVSPropertyOp49
 70
     1
102
RTVSPropertyOp50
 70
     1
102
RTVSPropertyOp51
 70
     0
102
RTVSPropertyOp52
 70
     0
102
RTVSPropertyOp53
 70
     1
102
RTVSPropertyOp54
 70
     1
102
RTVSPropertyOp55
 70
     1
102
RTVSPropertyOp56
 70
     1
102
RTVSPropertyOp57
 70
     1
102
RTVSPropertyOp58
 70
     1
102
RTVSPropertyOp59
 70
     1
102
RTVSPropertyOp60
 70
     1
102
RTVSPropertyOp61
 70
     1
102
RTVSPropertyOp62
 70
     1
  0
XRECORD
  5
157E
102
{ACAD_REACTORS
330
157D
102
}
330
157D
100
AcDbXrecord
280
     1
102
RTVSPost2010Prop28
280
     0
102
RTVSPost2010PropOp28
 70
     1
102
RTVSPost2010Prop29
280
     1
102
RTVSPost2010PropOp29
 70
     1
102
RTVSPost2010Prop30
280
     1
102
RTVSPost2010PropOp30
 70
     1
102
RTVSPost2010Prop31
280
     0
102
RTVSPost2010PropOp31
 70
     1
102
RTVSPost2010Prop32
280
     0
102
RTVSPost2010PropOp32
 70
     1
102
RTVSPost2010Prop33
280
     0
102
RTVSPost2010PropOp33
 70
     1
102
RTVSPost2010Prop34
280
     0
102
RTVSPost2010PropOp34
 70
     1
102
RTVSPost2010Prop35
280
     0
102
RTVSPost2010PropOp35
 70
     1
102
RTVSPost2010Prop36
280
     0
102
RTVSPost2010PropOp36
 70
     1
102
RTVSPost2010Prop37
 90
       50
102
RTVSPost2010PropOp37
 70
     1
102
RTVSPost2010Prop38
140
0.0
102
RTVSPost2010PropOp38
 70
     1
102
RTVSPost2010Prop39
140
1.0
102
RTVSPost2010PropOp39
 70
     1
102
RTVSPost2010Prop40
 90
        0
102
RTVSPost2010PropOp40
 70
     1
102
RTVSPost2010Prop41ColorIndex
 90
       18
102
RTVSPost2010Prop41ColorRGB
 90
        0
102
RTVSPost2010PropOp41
 70
     1
102
RTVSPost2010Prop42
 90
       50
102
RTVSPost2010PropOp42
 70
     1
102
RTVSPost2010Prop43
 90
        3
102
RTVSPost2010PropOp43
 70
     1
102
RTVSPost2010Prop44ColorIndex
 90
        5
102
RTVSPost2010Prop44ColorRGB
 90
      255
102
RTVSPost2010PropOp44
 70
     1
102
RTVSPost2010Prop45
280
     0
102
RTVSPost2010PropOp45
 70
     1
102
RTVSPost2010Prop46
 90
       50
102
RTVSPost2010PropOp46
 70
     1
102
RTVSPost2010Prop47
 90
       50
102
RTVSPost2010PropOp47
 70
     1
102
RTVSPost2010Prop48
 90
       50
102
RTVSPost2010PropOp48
 70
     1
102
RTVSPost2010Prop49
280
     0
102
RTVSPost2010PropOp49
 70
     1
102
RTVSPost2010Prop50
 90
       50
102
RTVSPost2010PropOp50
 70
     1
102
RTVSPost2010Prop51ColorIndex
 90
      256
102
RTVSPost2010Prop51ColorRGB
 90
-16777216
102
RTVSPost2010PropOp51
 70
     0
102
RTVSPost2010Prop52
140
1.0
102
RTVSPost2010PropOp52
 70
     0
102
RTVSPost2010Prop53
 90
        2
102
RTVSPost2010PropOp53
 70
     1
102
RTVSPost2010Prop54
  1
strokes_ogs.tif
102
RTVSPost2010PropOp54
 70
     1
102
RTVSPost2010Prop55
280
     0
102
RTVSPost2010PropOp55
 70
     1
102
RTVSPost2010Prop56
140
1.0
102
RTVSPost2010PropOp56
 70
     1
102
RTVSPost2010Prop57
140
1.0
102
RTVSPost2010PropOp57
 70
     1
102
RTVSPropertyOp0
 70
     1
102
RTVSPropertyOp1
 70
     1
102
RTVSPropertyOp2
 70
     1
102
RTVSPropertyOp3
 70
     1
102
RTVSPropertyOp4
 70
     1
102
RTVSPropertyOp5
 70
     1
102
RTVSPropertyOp6
 70
     1
102
RTVSPropertyOp7
 70
     1
102
RTVSPropertyOp8
 70
     1
102
RTVSPropertyOp9
 70
     1
102
RTVSPropertyOp10
 70
     1
102
RTVSPropertyOp11
 70
     1
102
RTVSPropertyOp12
 70
     1
102
RTVSPropertyOp13
 70
     1
102
RTVSPropertyOp14
 70
     1
102
RTVSPropertyOp15
 70
     1
102
RTVSPropertyOp16
 70
     1
102
RTVSPropertyOp17
 70
     1
102
RTVSPropertyOp18
 70
     1
102
RTVSPropertyOp19
 70
     1
102
RTVSPropertyOp20
 70
     1
102
RTVSPropertyOp21
 70
     1
102
RTVSPropertyOp22
 70
     1
102
RTVSPropertyOp23
 70
     1
102
RTVSPropertyOp24
 70
     1
102
RTVSPropertyOp25
 70
     1
102
RTVSPropertyOp26
 70
     1
102
RTVSPropertyOp27
 70
     1
102
RTVSPropertyOp28
 70
     1
102
RTVSPropertyOp29
 70
     1
102
RTVSPropertyOp30
 70
     1
102
RTVSPropertyOp31
 70
     1
102
RTVSPropertyOp32
 70
     1
102
RTVSPropertyOp33
 70
     1
102
RTVSPropertyOp34
 70
     1
102
RTVSPropertyOp35
 70
     1
102
RTVSPropertyOp36
 70
     1
102
RTVSPropertyOp37
 70
     1
102
RTVSPropertyOp38
 70
     1
102
RTVSPropertyOp39
 70
     1
102
RTVSPropertyOp40
 70
     1
102
RTVSPropertyOp41
 70
     1
102
RTVSPropertyOp42
 70
     1
102
RTVSPropertyOp43
 70
     1
102
RTVSPropertyOp44
 70
     1
102
RTVSPropertyOp45
 70
     1
102
RTVSPropertyOp46
 70
     1
102
RTVSPropertyOp47
 70
     1
102
RTVSPropertyOp48
 70
     1
102
RTVSPropertyOp49
 70
     1
102
RTVSPropertyOp50
 70
     1
102
RTVSPropertyOp51
 70
     0
102
RTVSPropertyOp52
 70
     0
102
RTVSPropertyOp53
 70
     1
102
RTVSPropertyOp54
 70
     1
102
RTVSPropertyOp55
 70
     1
102
RTVSPropertyOp56
 70
     1
102
RTVSPropertyOp57
 70
     1
102
RTVSPropertyOp58
 70
     1
102
RTVSPropertyOp59
 70
     1
102
RTVSPropertyOp60
 70
     1
102
RTVSPropertyOp61
 70
     1
102
RTVSPropertyOp62
 70
     1
  0
XRECORD
  5
1580
102
{ACAD_REACTORS
330
157F
102
}
330
157F
100
AcDbXrecord
280
     1
102
RTVSPost2010Prop28
280
     0
102
RTVSPost2010PropOp28
 70
     1
102
RTVSPost2010Prop29
280
     1
102
RTVSPost2010PropOp29
 70
     1
102
RTVSPost2010Prop30
280
     1
102
RTVSPost2010PropOp30
 70
     1
102
RTVSPost2010Prop31
280
     0
102
RTVSPost2010PropOp31
 70
     1
102
RTVSPost2010Prop32
280
     0
102
RTVSPost2010PropOp32
 70
     1
102
RTVSPost2010Prop33
280
     0
102
RTVSPost2010PropOp33
 70
     1
102
RTVSPost2010Prop34
280
     0
102
RTVSPost2010PropOp34
 70
     1
102
RTVSPost2010Prop35
280
     0
102
RTVSPost2010PropOp35
 70
     1
102
RTVSPost2010Prop36
280
     0
102
RTVSPost2010PropOp36
 70
     1
102
RTVSPost2010Prop37
 90
       50
102
RTVSPost2010PropOp37
 70
     1
102
RTVSPost2010Prop38
140
0.0
102
RTVSPost2010PropOp38
 70
     1
102
RTVSPost2010Prop39
140
1.0
102
RTVSPost2010PropOp39
 70
     1
102
RTVSPost2010Prop40
 90
        0
102
RTVSPost2010PropOp40
 70
     1
102
RTVSPost2010Prop41ColorIndex
 90
       18
102
RTVSPost2010Prop41ColorRGB
 90
        0
102
RTVSPost2010PropOp41
 70
     1
102
RTVSPost2010Prop42
 90
       50
102
RTVSPost2010PropOp42
 70
     1
102
RTVSPost2010Prop43
 90
        3
102
RTVSPost2010PropOp43
 70
     1
102
RTVSPost2010Prop44ColorIndex
 90
        5
102
RTVSPost2010Prop44ColorRGB
 90
      255
102
RTVSPost2010PropOp44
 70
     1
102
RTVSPost2010Prop45
280
     0
102
RTVSPost2010PropOp45
 70
     1
102
RTVSPost2010Prop46
 90
       50
102
RTVSPost2010PropOp46
 70
     1
102
RTVSPost2010Prop47
 90
       50
102
RTVSPost2010PropOp47
 70
     1
102
RTVSPost2010Prop48
 90
       50
102
RTVSPost2010PropOp48
 70
     1
102
RTVSPost2010Prop49
280
     0
102
RTVSPost2010PropOp49
 70
     1
102
RTVSPost2010Prop50
 90
       50
102
RTVSPost2010PropOp50
 70
     1
102
RTVSPost2010Prop51ColorIndex
 90
      256
102
RTVSPost2010Prop51ColorRGB
 90
-16777216
102
RTVSPost2010PropOp51
 70
     0
102
RTVSPost2010Prop52
140
1.0
102
RTVSPost2010PropOp52
 70
     0
102
RTVSPost2010Prop53
 90
        2
102
RTVSPost2010PropOp53
 70
     1
102
RTVSPost2010Prop54
  1
strokes_ogs.tif
102
RTVSPost2010PropOp54
 70
     1
102
RTVSPost2010Prop55
280
     0
102
RTVSPost2010PropOp55
 70
     1
102
RTVSPost2010Prop56
140
1.0
102
RTVSPost2010PropOp56
 70
     1
102
RTVSPost2010Prop57
140
1.0
102
RTVSPost2010PropOp57
 70
     1
102
RTVSPropertyOp0
 70
     1
102
RTVSPropertyOp1
 70
     1
102
RTVSPropertyOp2
 70
     1
102
RTVSPropertyOp3
 70
     1
102
RTVSPropertyOp4
 70
     1
102
RTVSPropertyOp5
 70
     1
102
RTVSPropertyOp6
 70
     1
102
RTVSPropertyOp7
 70
     1
102
RTVSPropertyOp8
 70
     1
102
RTVSPropertyOp9
 70
     1
102
RTVSPropertyOp10
 70
     1
102
RTVSPropertyOp11
 70
     1
102
RTVSPropertyOp12
 70
     1
102
RTVSPropertyOp13
 70
     1
102
RTVSPropertyOp14
 70
     1
102
RTVSPropertyOp15
 70
     1
102
RTVSPropertyOp16
 70
     1
102
RTVSPropertyOp17
 70
     1
102
RTVSPropertyOp18
 70
     1
102
RTVSPropertyOp19
 70
     1
102
RTVSPropertyOp20
 70
     1
102
RTVSPropertyOp21
 70
     1
102
RTVSPropertyOp22
 70
     1
102
RTVSPropertyOp23
 70
     1
102
RTVSPropertyOp24
 70
     1
102
RTVSPropertyOp25
 70
     1
102
RTVSPropertyOp26
 70
     1
102
RTVSPropertyOp27
 70
     1
102
RTVSPropertyOp28
 70
     1
102
RTVSPropertyOp29
 70
     1
102
RTVSPropertyOp30
 70
     1
102
RTVSPropertyOp31
 70
     1
102
RTVSPropertyOp32
 70
     1
102
RTVSPropertyOp33
 70
     1
102
RTVSPropertyOp34
 70
     1
102
RTVSPropertyOp35
 70
     1
102
RTVSPropertyOp36
 70
     1
102
RTVSPropertyOp37
 70
     1
102
RTVSPropertyOp38
 70
     1
102
RTVSPropertyOp39
 70
     1
102
RTVSPropertyOp40
 70
     1
102
RTVSPropertyOp41
 70
     1
102
RTVSPropertyOp42
 70
     1
102
RTVSPropertyOp43
 70
     1
102
RTVSPropertyOp44
 70
     1
102
RTVSPropertyOp45
 70
     1
102
RTVSPropertyOp46
 70
     1
102
RTVSPropertyOp47
 70
     1
102
RTVSPropertyOp48
 70
     1
102
RTVSPropertyOp49
 70
     1
102
RTVSPropertyOp50
 70
     1
102
RTVSPropertyOp51
 70
     0
102
RTVSPropertyOp52
 70
     0
102
RTVSPropertyOp53
 70
     1
102
RTVSPropertyOp54
 70
     1
102
RTVSPropertyOp55
 70
     1
102
RTVSPropertyOp56
 70
     1
102
RTVSPropertyOp57
 70
     1
102
RTVSPropertyOp58
 70
     1
102
RTVSPropertyOp59
 70
     1
102
RTVSPropertyOp60
 70
     1
102
RTVSPropertyOp61
 70
     1
102
RTVSPropertyOp62
 70
     1
  0
XRECORD
  5
1582
102
{ACAD_REACTORS
330
1581
102
}
330
1581
100
AcDbXrecord
280
     1
102
RTVSPost2010Prop28
280
     0
102
RTVSPost2010PropOp28
 70
     1
102
RTVSPost2010Prop29
280
     1
102
RTVSPost2010PropOp29
 70
     1
102
RTVSPost2010Prop30
280
     1
102
RTVSPost2010PropOp30
 70
     1
102
RTVSPost2010Prop31
280
     0
102
RTVSPost2010PropOp31
 70
     1
102
RTVSPost2010Prop32
280
     0
102
RTVSPost2010PropOp32
 70
     1
102
RTVSPost2010Prop33
280
     0
102
RTVSPost2010PropOp33
 70
     1
102
RTVSPost2010Prop34
280
     0
102
RTVSPost2010PropOp34
 70
     1
102
RTVSPost2010Prop35
280
     0
102
RTVSPost2010PropOp35
 70
     1
102
RTVSPost2010Prop36
280
     0
102
RTVSPost2010PropOp36
 70
     1
102
RTVSPost2010Prop37
 90
       50
102
RTVSPost2010PropOp37
 70
     1
102
RTVSPost2010Prop38
140
0.0
102
RTVSPost2010PropOp38
 70
     1
102
RTVSPost2010Prop39
140
1.0
102
RTVSPost2010PropOp39
 70
     1
102
RTVSPost2010Prop40
 90
        0
102
RTVSPost2010PropOp40
 70
     1
102
RTVSPost2010Prop41ColorIndex
 90
       18
102
RTVSPost2010Prop41ColorRGB
 90
        0
102
RTVSPost2010PropOp41
 70
     1
102
RTVSPost2010Prop42
 90
       50
102
RTVSPost2010PropOp42
 70
     1
102
RTVSPost2010Prop43
 90
        3
102
RTVSPost2010PropOp43
 70
     1
102
RTVSPost2010Prop44ColorIndex
 90
        5
102
RTVSPost2010Prop44ColorRGB
 90
      255
102
RTVSPost2010PropOp44
 70
     1
102
RTVSPost2010Prop45
280
     0
102
RTVSPost2010PropOp45
 70
     1
102
RTVSPost2010Prop46
 90
       50
102
RTVSPost2010PropOp46
 70
     1
102
RTVSPost2010Prop47
 90
       50
102
RTVSPost2010PropOp47
 70
     1
102
RTVSPost2010Prop48
 90
       50
102
RTVSPost2010PropOp48
 70
     1
102
RTVSPost2010Prop49
280
     0
102
RTVSPost2010PropOp49
 70
     1
102
RTVSPost2010Prop50
 90
       50
102
RTVSPost2010PropOp50
 70
     1
102
RTVSPost2010Prop51ColorIndex
 90
      256
102
RTVSPost2010Prop51ColorRGB
 90
-16777216
102
RTVSPost2010PropOp51
 70
     0
102
RTVSPost2010Prop52
140
1.0
102
RTVSPost2010PropOp52
 70
     0
102
RTVSPost2010Prop53
 90
        2
102
RTVSPost2010PropOp53
 70
     1
102
RTVSPost2010Prop54
  1
strokes_ogs.tif
102
RTVSPost2010PropOp54
 70
     1
102
RTVSPost2010Prop55
280
     0
102
RTVSPost2010PropOp55
 70
     1
102
RTVSPost2010Prop56
140
1.0
102
RTVSPost2010PropOp56
 70
     1
102
RTVSPost2010Prop57
140
1.0
102
RTVSPost2010PropOp57
 70
     1
102
RTVSPropertyOp0
 70
     1
102
RTVSPropertyOp1
 70
     1
102
RTVSPropertyOp2
 70
     1
102
RTVSPropertyOp3
 70
     1
102
RTVSPropertyOp4
 70
     1
102
RTVSPropertyOp5
 70
     1
102
RTVSPropertyOp6
 70
     1
102
RTVSPropertyOp7
 70
     1
102
RTVSPropertyOp8
 70
     1
102
RTVSPropertyOp9
 70
     1
102
RTVSPropertyOp10
 70
     1
102
RTVSPropertyOp11
 70
     1
102
RTVSPropertyOp12
 70
     1
102
RTVSPropertyOp13
 70
     1
102
RTVSPropertyOp14
 70
     1
102
RTVSPropertyOp15
 70
     1
102
RTVSPropertyOp16
 70
     1
102
RTVSPropertyOp17
 70
     1
102
RTVSPropertyOp18
 70
     1
102
RTVSPropertyOp19
 70
     1
102
RTVSPropertyOp20
 70
     1
102
RTVSPropertyOp21
 70
     1
102
RTVSPropertyOp22
 70
     1
102
RTVSPropertyOp23
 70
     1
102
RTVSPropertyOp24
 70
     1
102
RTVSPropertyOp25
 70
     1
102
RTVSPropertyOp26
 70
     1
102
RTVSPropertyOp27
 70
     1
102
RTVSPropertyOp28
 70
     1
102
RTVSPropertyOp29
 70
     1
102
RTVSPropertyOp30
 70
     1
102
RTVSPropertyOp31
 70
     1
102
RTVSPropertyOp32
 70
     1
102
RTVSPropertyOp33
 70
     1
102
RTVSPropertyOp34
 70
     1
102
RTVSPropertyOp35
 70
     1
102
RTVSPropertyOp36
 70
     1
102
RTVSPropertyOp37
 70
     1
102
RTVSPropertyOp38
 70
     1
102
RTVSPropertyOp39
 70
     1
102
RTVSPropertyOp40
 70
     1
102
RTVSPropertyOp41
 70
     1
102
RTVSPropertyOp42
 70
     1
102
RTVSPropertyOp43
 70
     1
102
RTVSPropertyOp44
 70
     1
102
RTVSPropertyOp45
 70
     1
102
RTVSPropertyOp46
 70
     1
102
RTVSPropertyOp47
 70
     1
102
RTVSPropertyOp48
 70
     1
102
RTVSPropertyOp49
 70
     1
102
RTVSPropertyOp50
 70
     1
102
RTVSPropertyOp51
 70
     0
102
RTVSPropertyOp52
 70
     0
102
RTVSPropertyOp53
 70
     1
102
RTVSPropertyOp54
 70
     1
102
RTVSPropertyOp55
 70
     1
102
RTVSPropertyOp56
 70
     1
102
RTVSPropertyOp57
 70
     1
102
RTVSPropertyOp58
 70
     1
102
RTVSPropertyOp59
 70
     1
102
RTVSPropertyOp60
 70
     1
102
RTVSPropertyOp61
 70
     1
102
RTVSPropertyOp62
 70
     1
  0
XRECORD
  5
1584
102
{ACAD_REACTORS
330
1583
102
}
330
1583
100
AcDbXrecord
280
     1
102
RTVSPost2010Prop28
280
     0
102
RTVSPost2010PropOp28
 70
     1
102
RTVSPost2010Prop29
280
     1
102
RTVSPost2010PropOp29
 70
     1
102
RTVSPost2010Prop30
280
     1
102
RTVSPost2010PropOp30
 70
     1
102
RTVSPost2010Prop31
280
     0
102
RTVSPost2010PropOp31
 70
     1
102
RTVSPost2010Prop32
280
     0
102
RTVSPost2010PropOp32
 70
     1
102
RTVSPost2010Prop33
280
     0
102
RTVSPost2010PropOp33
 70
     1
102
RTVSPost2010Prop34
280
     0
102
RTVSPost2010PropOp34
 70
     1
102
RTVSPost2010Prop35
280
     0
102
RTVSPost2010PropOp35
 70
     1
102
RTVSPost2010Prop36
280
     0
102
RTVSPost2010PropOp36
 70
     1
102
RTVSPost2010Prop37
 90
       50
102
RTVSPost2010PropOp37
 70
     1
102
RTVSPost2010Prop38
140
0.0
102
RTVSPost2010PropOp38
 70
     1
102
RTVSPost2010Prop39
140
1.0
102
RTVSPost2010PropOp39
 70
     1
102
RTVSPost2010Prop40
 90
        0
102
RTVSPost2010PropOp40
 70
     1
102
RTVSPost2010Prop41ColorIndex
 90
       18
102
RTVSPost2010Prop41ColorRGB
 90
        0
102
RTVSPost2010PropOp41
 70
     1
102
RTVSPost2010Prop42
 90
       50
102
RTVSPost2010PropOp42
 70
     1
102
RTVSPost2010Prop43
 90
        3
102
RTVSPost2010PropOp43
 70
     1
102
RTVSPost2010Prop44ColorIndex
 90
        5
102
RTVSPost2010Prop44ColorRGB
 90
      255
102
RTVSPost2010PropOp44
 70
     1
102
RTVSPost2010Prop45
280
     0
102
RTVSPost2010PropOp45
 70
     1
102
RTVSPost2010Prop46
 90
       50
102
RTVSPost2010PropOp46
 70
     1
102
RTVSPost2010Prop47
 90
       50
102
RTVSPost2010PropOp47
 70
     1
102
RTVSPost2010Prop48
 90
       50
102
RTVSPost2010PropOp48
 70
     1
102
RTVSPost2010Prop49
280
     0
102
RTVSPost2010PropOp49
 70
     1
102
RTVSPost2010Prop50
 90
       50
102
RTVSPost2010PropOp50
 70
     1
102
RTVSPost2010Prop51ColorIndex
 90
      256
102
RTVSPost2010Prop51ColorRGB
 90
-16777216
102
RTVSPost2010PropOp51
 70
     0
102
RTVSPost2010Prop52
140
1.0
102
RTVSPost2010PropOp52
 70
     0
102
RTVSPost2010Prop53
 90
        2
102
RTVSPost2010PropOp53
 70
     1
102
RTVSPost2010Prop54
  1
strokes_ogs.tif
102
RTVSPost2010PropOp54
 70
     1
102
RTVSPost2010Prop55
280
     0
102
RTVSPost2010PropOp55
 70
     1
102
RTVSPost2010Prop56
140
1.0
102
RTVSPost2010PropOp56
 70
     1
102
RTVSPost2010Prop57
140
1.0
102
RTVSPost2010PropOp57
 70
     1
102
RTVSPropertyOp0
 70
     1
102
RTVSPropertyOp1
 70
     1
102
RTVSPropertyOp2
 70
     1
102
RTVSPropertyOp3
 70
     1
102
RTVSPropertyOp4
 70
     1
102
RTVSPropertyOp5
 70
     1
102
RTVSPropertyOp6
 70
     1
102
RTVSPropertyOp7
 70
     1
102
RTVSPropertyOp8
 70
     1
102
RTVSPropertyOp9
 70
     1
102
RTVSPropertyOp10
 70
     1
102
RTVSPropertyOp11
 70
     1
102
RTVSPropertyOp12
 70
     1
102
RTVSPropertyOp13
 70
     1
102
RTVSPropertyOp14
 70
     1
102
RTVSPropertyOp15
 70
     1
102
RTVSPropertyOp16
 70
     1
102
RTVSPropertyOp17
 70
     1
102
RTVSPropertyOp18
 70
     1
102
RTVSPropertyOp19
 70
     1
102
RTVSPropertyOp20
 70
     1
102
RTVSPropertyOp21
 70
     1
102
RTVSPropertyOp22
 70
     1
102
RTVSPropertyOp23
 70
     1
102
RTVSPropertyOp24
 70
     1
102
RTVSPropertyOp25
 70
     1
102
RTVSPropertyOp26
 70
     1
102
RTVSPropertyOp27
 70
     1
102
RTVSPropertyOp28
 70
     1
102
RTVSPropertyOp29
 70
     1
102
RTVSPropertyOp30
 70
     1
102
RTVSPropertyOp31
 70
     1
102
RTVSPropertyOp32
 70
     1
102
RTVSPropertyOp33
 70
     1
102
RTVSPropertyOp34
 70
     1
102
RTVSPropertyOp35
 70
     1
102
RTVSPropertyOp36
 70
     1
102
RTVSPropertyOp37
 70
     1
102
RTVSPropertyOp38
 70
     1
102
RTVSPropertyOp39
 70
     1
102
RTVSPropertyOp40
 70
     1
102
RTVSPropertyOp41
 70
     1
102
RTVSPropertyOp42
 70
     1
102
RTVSPropertyOp43
 70
     1
102
RTVSPropertyOp44
 70
     1
102
RTVSPropertyOp45
 70
     1
102
RTVSPropertyOp46
 70
     1
102
RTVSPropertyOp47
 70
     1
102
RTVSPropertyOp48
 70
     1
102
RTVSPropertyOp49
 70
     1
102
RTVSPropertyOp50
 70
     1
102
RTVSPropertyOp51
 70
     0
102
RTVSPropertyOp52
 70
     0
102
RTVSPropertyOp53
 70
     1
102
RTVSPropertyOp54
 70
     1
102
RTVSPropertyOp55
 70
     1
102
RTVSPropertyOp56
 70
     1
102
RTVSPropertyOp57
 70
     1
102
RTVSPropertyOp58
 70
     1
102
RTVSPropertyOp59
 70
     1
102
RTVSPropertyOp60
 70
     1
102
RTVSPropertyOp61
 70
     1
102
RTVSPropertyOp62
 70
     1
  0
XRECORD
  5
15A1
102
{ACAD_REACTORS
330
15A0
102
}
330
15A0
100
AcDbXrecord
280
     1
102
RTVSPost2010Prop28
280
     0
102
RTVSPost2010PropOp28
 70
     1
102
RTVSPost2010Prop29
280
     1
102
RTVSPost2010PropOp29
 70
     1
102
RTVSPost2010Prop30
280
     1
102
RTVSPost2010PropOp30
 70
     1
102
RTVSPost2010Prop31
280
     0
102
RTVSPost2010PropOp31
 70
     1
102
RTVSPost2010Prop32
280
     0
102
RTVSPost2010PropOp32
 70
     1
102
RTVSPost2010Prop33
280
     0
102
RTVSPost2010PropOp33
 70
     1
102
RTVSPost2010Prop34
280
     0
102
RTVSPost2010PropOp34
 70
     1
102
RTVSPost2010Prop35
280
     0
102
RTVSPost2010PropOp35
 70
     1
102
RTVSPost2010Prop36
280
     0
102
RTVSPost2010PropOp36
 70
     1
102
RTVSPost2010Prop37
 90
       50
102
RTVSPost2010PropOp37
 70
     1
102
RTVSPost2010Prop38
140
0.0
102
RTVSPost2010PropOp38
 70
     1
102
RTVSPost2010Prop39
140
1.0
102
RTVSPost2010PropOp39
 70
     1
102
RTVSPost2010Prop40
 90
        0
102
RTVSPost2010PropOp40
 70
     1
102
RTVSPost2010Prop41ColorIndex
 90
       18
102
RTVSPost2010Prop41ColorRGB
 90
        0
102
RTVSPost2010PropOp41
 70
     1
102
RTVSPost2010Prop42
 90
       50
102
RTVSPost2010PropOp42
 70
     1
102
RTVSPost2010Prop43
 90
        3
102
RTVSPost2010PropOp43
 70
     1
102
RTVSPost2010Prop44ColorIndex
 90
        5
102
RTVSPost2010Prop44ColorRGB
 90
      255
102
RTVSPost2010PropOp44
 70
     1
102
RTVSPost2010Prop45
280
     0
102
RTVSPost2010PropOp45
 70
     1
102
RTVSPost2010Prop46
 90
       50
102
RTVSPost2010PropOp46
 70
     1
102
RTVSPost2010Prop47
 90
       50
102
RTVSPost2010PropOp47
 70
     1
102
RTVSPost2010Prop48
 90
       50
102
RTVSPost2010PropOp48
 70
     1
102
RTVSPost2010Prop49
280
     0
102
RTVSPost2010PropOp49
 70
     1
102
RTVSPost2010Prop50
 90
       50
102
RTVSPost2010PropOp50
 70
     1
102
RTVSPost2010Prop51ColorIndex
 90
      256
102
RTVSPost2010Prop51ColorRGB
 90
-16777216
102
RTVSPost2010PropOp51
 70
     0
102
RTVSPost2010Prop52
140
1.0
102
RTVSPost2010PropOp52
 70
     0
102
RTVSPost2010Prop53
 90
        2
102
RTVSPost2010PropOp53
 70
     1
102
RTVSPost2010Prop54
  1
strokes_ogs.tif
102
RTVSPost2010PropOp54
 70
     1
102
RTVSPost2010Prop55
280
     0
102
RTVSPost2010PropOp55
 70
     1
102
RTVSPost2010Prop56
140
1.0
102
RTVSPost2010PropOp56
 70
     1
102
RTVSPost2010Prop57
140
1.0
102
RTVSPost2010PropOp57
 70
     1
102
RTVSPropertyOp0
 70
     1
102
RTVSPropertyOp1
 70
     1
102
RTVSPropertyOp2
 70
     1
102
RTVSPropertyOp3
 70
     1
102
RTVSPropertyOp4
 70
     1
102
RTVSPropertyOp5
 70
     1
102
RTVSPropertyOp6
 70
     1
102
RTVSPropertyOp7
 70
     1
102
RTVSPropertyOp8
 70
     1
102
RTVSPropertyOp9
 70
     1
102
RTVSPropertyOp10
 70
     1
102
RTVSPropertyOp11
 70
     1
102
RTVSPropertyOp12
 70
     1
102
RTVSPropertyOp13
 70
     1
102
RTVSPropertyOp14
 70
     1
102
RTVSPropertyOp15
 70
     1
102
RTVSPropertyOp16
 70
     1
102
RTVSPropertyOp17
 70
     1
102
RTVSPropertyOp18
 70
     1
102
RTVSPropertyOp19
 70
     1
102
RTVSPropertyOp20
 70
     1
102
RTVSPropertyOp21
 70
     1
102
RTVSPropertyOp22
 70
     1
102
RTVSPropertyOp23
 70
     1
102
RTVSPropertyOp24
 70
     1
102
RTVSPropertyOp25
 70
     1
102
RTVSPropertyOp26
 70
     1
102
RTVSPropertyOp27
 70
     1
102
RTVSPropertyOp28
 70
     1
102
RTVSPropertyOp29
 70
     1
102
RTVSPropertyOp30
 70
     1
102
RTVSPropertyOp31
 70
     1
102
RTVSPropertyOp32
 70
     1
102
RTVSPropertyOp33
 70
     1
102
RTVSPropertyOp34
 70
     1
102
RTVSPropertyOp35
 70
     1
102
RTVSPropertyOp36
 70
     1
102
RTVSPropertyOp37
 70
     1
102
RTVSPropertyOp38
 70
     1
102
RTVSPropertyOp39
 70
     1
102
RTVSPropertyOp40
 70
     1
102
RTVSPropertyOp41
 70
     1
102
RTVSPropertyOp42
 70
     1
102
RTVSPropertyOp43
 70
     1
102
RTVSPropertyOp44
 70
     1
102
RTVSPropertyOp45
 70
     1
102
RTVSPropertyOp46
 70
     1
102
RTVSPropertyOp47
 70
     1
102
RTVSPropertyOp48
 70
     1
102
RTVSPropertyOp49
 70
     1
102
RTVSPropertyOp50
 70
     1
102
RTVSPropertyOp51
 70
     0
102
RTVSPropertyOp52
 70
     0
102
RTVSPropertyOp53
 70
     1
102
RTVSPropertyOp54
 70
     1
102
RTVSPropertyOp55
 70
     1
102
RTVSPropertyOp56
 70
     1
102
RTVSPropertyOp57
 70
     1
102
RTVSPropertyOp58
 70
     1
102
RTVSPropertyOp59
 70
     1
102
RTVSPropertyOp60
 70
     1
102
RTVSPropertyOp61
 70
     1
102
RTVSPropertyOp62
 70
     1
  0
XRECORD
  5
15AD
102
{ACAD_REACTORS
330
15AC
102
}
330
15AC
100
AcDbXrecord
280
     1
102
RTVSPost2010Prop28
280
     0
102
RTVSPost2010PropOp28
 70
     0
102
RTVSPost2010Prop29
280
     1
102
RTVSPost2010PropOp29
 70
     0
102
RTVSPost2010Prop30
280
     1
102
RTVSPost2010PropOp30
 70
     0
102
RTVSPost2010Prop31
280
     0
102
RTVSPost2010PropOp31
 70
     0
102
RTVSPost2010Prop32
280
     0
102
RTVSPost2010PropOp32
 70
     0
102
RTVSPost2010Prop33
280
     0
102
RTVSPost2010PropOp33
 70
     0
102
RTVSPost2010Prop34
280
     0
102
RTVSPost2010PropOp34
 70
     0
102
RTVSPost2010Prop35
280
     0
102
RTVSPost2010PropOp35
 70
     0
102
RTVSPost2010Prop36
280
     0
102
RTVSPost2010PropOp36
 70
     0
102
RTVSPost2010Prop37
 90
       50
102
RTVSPost2010PropOp37
 70
     0
102
RTVSPost2010Prop38
140
0.0
102
RTVSPost2010PropOp38
 70
     0
102
RTVSPost2010Prop39
140
1.0
102
RTVSPost2010PropOp39
 70
     0
102
RTVSPost2010Prop40
 90
        0
102
RTVSPost2010PropOp40
 70
     0
102
RTVSPost2010Prop41ColorIndex
 90
       18
102
RTVSPost2010Prop41ColorRGB
 90
        0
102
RTVSPost2010PropOp41
 70
     0
102
RTVSPost2010Prop42
 90
       50
102
RTVSPost2010PropOp42
 70
     0
102
RTVSPost2010Prop43
 90
        3
102
RTVSPost2010PropOp43
 70
     0
102
RTVSPost2010Prop44ColorIndex
 90
        5
102
RTVSPost2010Prop44ColorRGB
 90
      255
102
RTVSPost2010PropOp44
 70
     0
102
RTVSPost2010Prop45
280
     0
102
RTVSPost2010PropOp45
 70
     0
102
RTVSPost2010Prop46
 90
       50
102
RTVSPost2010PropOp46
 70
     0
102
RTVSPost2010Prop47
 90
       50
102
RTVSPost2010PropOp47
 70
     0
102
RTVSPost2010Prop48
 90
       50
102
RTVSPost2010PropOp48
 70
     0
102
RTVSPost2010Prop49
280
     0
102
RTVSPost2010PropOp49
 70
     0
102
RTVSPost2010Prop50
 90
       50
102
RTVSPost2010PropOp50
 70
     0
102
RTVSPost2010Prop51ColorIndex
 90
      256
102
RTVSPost2010Prop51ColorRGB
 90
-16777216
102
RTVSPost2010PropOp51
 70
     0
102
RTVSPost2010Prop52
140
1.0
102
RTVSPost2010PropOp52
 70
     0
102
RTVSPost2010Prop53
 90
        2
102
RTVSPost2010PropOp53
 70
     0
102
RTVSPost2010Prop54
  1
strokes_ogs.tif
102
RTVSPost2010PropOp54
 70
     0
102
RTVSPost2010Prop55
280
     0
102
RTVSPost2010PropOp55
 70
     0
102
RTVSPost2010Prop56
140
1.0
102
RTVSPost2010PropOp56
 70
     0
102
RTVSPost2010Prop57
140
1.0
102
RTVSPost2010PropOp57
 70
     0
102
RTVSPropertyOp0
 70
     0
102
RTVSPropertyOp1
 70
     0
102
RTVSPropertyOp2
 70
     0
102
RTVSPropertyOp3
 70
     0
102
RTVSPropertyOp4
 70
     0
102
RTVSPropertyOp5
 70
     0
102
RTVSPropertyOp6
 70
     0
102
RTVSPropertyOp7
 70
     0
102
RTVSPropertyOp8
 70
     0
102
RTVSPropertyOp9
 70
     0
102
RTVSPropertyOp10
 70
     0
102
RTVSPropertyOp11
 70
     0
102
RTVSPropertyOp12
 70
     0
102
RTVSPropertyOp13
 70
     0
102
RTVSPropertyOp14
 70
     2
102
RTVSPropertyOp15
 70
     0
102
RTVSPropertyOp16
 70
     0
102
RTVSPropertyOp17
 70
     0
102
RTVSPropertyOp18
 70
     0
102
RTVSPropertyOp19
 70
     0
102
RTVSPropertyOp20
 70
     0
102
RTVSPropertyOp21
 70
     0
102
RTVSPropertyOp22
 70
     0
102
RTVSPropertyOp23
 70
     0
102
RTVSPropertyOp24
 70
     0
102
RTVSPropertyOp25
 70
     0
102
RTVSPropertyOp26
 70
     0
102
RTVSPropertyOp27
 70
     0
102
RTVSPropertyOp28
 70
     0
102
RTVSPropertyOp29
 70
     0
102
RTVSPropertyOp30
 70
     0
102
RTVSPropertyOp31
 70
     0
102
RTVSPropertyOp32
 70
     0
102
RTVSPropertyOp33
 70
     0
102
RTVSPropertyOp34
 70
     0
102
RTVSPropertyOp35
 70
     0
102
RTVSPropertyOp36
 70
     0
102
RTVSPropertyOp37
 70
     0
102
RTVSPropertyOp38
 70
     0
102
RTVSPropertyOp39
 70
     0
102
RTVSPropertyOp40
 70
     0
102
RTVSPropertyOp41
 70
     0
102
RTVSPropertyOp42
 70
     0
102
RTVSPropertyOp43
 70
     0
102
RTVSPropertyOp44
 70
     0
102
RTVSPropertyOp45
 70
     0
102
RTVSPropertyOp46
 70
     0
102
RTVSPropertyOp47
 70
     0
102
RTVSPropertyOp48
 70
     0
102
RTVSPropertyOp49
 70
     0
102
RTVSPropertyOp50
 70
     0
102
RTVSPropertyOp51
 70
     0
102
RTVSPropertyOp52
 70
     0
102
RTVSPropertyOp53
 70
     0
102
RTVSPropertyOp54
 70
     0
102
RTVSPropertyOp55
 70
     0
102
RTVSPropertyOp56
 70
     0
102
RTVSPropertyOp57
 70
     0
102
RTVSPropertyOp58
 70
     0
102
RTVSPropertyOp59
 70
     0
102
RTVSPropertyOp60
 70
     0
102
RTVSPropertyOp61
 70
     0
102
RTVSPropertyOp62
 70
     0
  0
XRECORD
  5
1598
102
{ACAD_REACTORS
330
1597
102
}
330
1597
100
AcDbXrecord
280
     1
102
RTVSPost2010Prop28
280
     0
102
RTVSPost2010PropOp28
 70
     1
102
RTVSPost2010Prop29
280
     1
102
RTVSPost2010PropOp29
 70
     1
102
RTVSPost2010Prop30
280
     1
102
RTVSPost2010PropOp30
 70
     1
102
RTVSPost2010Prop31
280
     0
102
RTVSPost2010PropOp31
 70
     1
102
RTVSPost2010Prop32
280
     0
102
RTVSPost2010PropOp32
 70
     1
102
RTVSPost2010Prop33
280
     0
102
RTVSPost2010PropOp33
 70
     1
102
RTVSPost2010Prop34
280
     0
102
RTVSPost2010PropOp34
 70
     1
102
RTVSPost2010Prop35
280
     0
102
RTVSPost2010PropOp35
 70
     1
102
RTVSPost2010Prop36
280
     0
102
RTVSPost2010PropOp36
 70
     1
102
RTVSPost2010Prop37
 90
       50
102
RTVSPost2010PropOp37
 70
     1
102
RTVSPost2010Prop38
140
0.0
102
RTVSPost2010PropOp38
 70
     1
102
RTVSPost2010Prop39
140
1.0
102
RTVSPost2010PropOp39
 70
     1
102
RTVSPost2010Prop40
 90
        0
102
RTVSPost2010PropOp40
 70
     1
102
RTVSPost2010Prop41ColorIndex
 90
       18
102
RTVSPost2010Prop41ColorRGB
 90
        0
102
RTVSPost2010PropOp41
 70
     1
102
RTVSPost2010Prop42
 90
       50
102
RTVSPost2010PropOp42
 70
     1
102
RTVSPost2010Prop43
 90
        3
102
RTVSPost2010PropOp43
 70
     1
102
RTVSPost2010Prop44ColorIndex
 90
        5
102
RTVSPost2010Prop44ColorRGB
 90
      255
102
RTVSPost2010PropOp44
 70
     1
102
RTVSPost2010Prop45
280
     0
102
RTVSPost2010PropOp45
 70
     1
102
RTVSPost2010Prop46
 90
       50
102
RTVSPost2010PropOp46
 70
     1
102
RTVSPost2010Prop47
 90
       50
102
RTVSPost2010PropOp47
 70
     1
102
RTVSPost2010Prop48
 90
       50
102
RTVSPost2010PropOp48
 70
     1
102
RTVSPost2010Prop49
280
     0
102
RTVSPost2010PropOp49
 70
     1
102
RTVSPost2010Prop50
 90
       50
102
RTVSPost2010PropOp50
 70
     1
102
RTVSPost2010Prop51ColorIndex
 90
      256
102
RTVSPost2010Prop51ColorRGB
 90
-16777216
102
RTVSPost2010PropOp51
 70
     0
102
RTVSPost2010Prop52
140
1.0
102
RTVSPost2010PropOp52
 70
     0
102
RTVSPost2010Prop53
 90
        2
102
RTVSPost2010PropOp53
 70
     1
102
RTVSPost2010Prop54
  1
strokes_ogs.tif
102
RTVSPost2010PropOp54
 70
     1
102
RTVSPost2010Prop55
280
     0
102
RTVSPost2010PropOp55
 70
     1
102
RTVSPost2010Prop56
140
1.0
102
RTVSPost2010PropOp56
 70
     1
102
RTVSPost2010Prop57
140
1.0
102
RTVSPost2010PropOp57
 70
     1
102
RTVSPropertyOp0
 70
     1
102
RTVSPropertyOp1
 70
     1
102
RTVSPropertyOp2
 70
     1
102
RTVSPropertyOp3
 70
     1
102
RTVSPropertyOp4
 70
     1
102
RTVSPropertyOp5
 70
     1
102
RTVSPropertyOp6
 70
     1
102
RTVSPropertyOp7
 70
     1
102
RTVSPropertyOp8
 70
     1
102
RTVSPropertyOp9
 70
     1
102
RTVSPropertyOp10
 70
     1
102
RTVSPropertyOp11
 70
     1
102
RTVSPropertyOp12
 70
     1
102
RTVSPropertyOp13
 70
     1
102
RTVSPropertyOp14
 70
     1
102
RTVSPropertyOp15
 70
     1
102
RTVSPropertyOp16
 70
     1
102
RTVSPropertyOp17
 70
     1
102
RTVSPropertyOp18
 70
     1
102
RTVSPropertyOp19
 70
     1
102
RTVSPropertyOp20
 70
     1
102
RTVSPropertyOp21
 70
     1
102
RTVSPropertyOp22
 70
     1
102
RTVSPropertyOp23
 70
     1
102
RTVSPropertyOp24
 70
     1
102
RTVSPropertyOp25
 70
     1
102
RTVSPropertyOp26
 70
     1
102
RTVSPropertyOp27
 70
     1
102
RTVSPropertyOp28
 70
     1
102
RTVSPropertyOp29
 70
     1
102
RTVSPropertyOp30
 70
     1
102
RTVSPropertyOp31
 70
     1
102
RTVSPropertyOp32
 70
     1
102
RTVSPropertyOp33
 70
     1
102
RTVSPropertyOp34
 70
     1
102
RTVSPropertyOp35
 70
     1
102
RTVSPropertyOp36
 70
     1
102
RTVSPropertyOp37
 70
     1
102
RTVSPropertyOp38
 70
     1
102
RTVSPropertyOp39
 70
     1
102
RTVSPropertyOp40
 70
     1
102
RTVSPropertyOp41
 70
     1
102
RTVSPropertyOp42
 70
     1
102
RTVSPropertyOp43
 70
     1
102
RTVSPropertyOp44
 70
     1
102
RTVSPropertyOp45
 70
     1
102
RTVSPropertyOp46
 70
     1
102
RTVSPropertyOp47
 70
     1
102
RTVSPropertyOp48
 70
     1
102
RTVSPropertyOp49
 70
     1
102
RTVSPropertyOp50
 70
     1
102
RTVSPropertyOp51
 70
     0
102
RTVSPropertyOp52
 70
     0
102
RTVSPropertyOp53
 70
     1
102
RTVSPropertyOp54
 70
     1
102
RTVSPropertyOp55
 70
     1
102
RTVSPropertyOp56
 70
     1
102
RTVSPropertyOp57
 70
     1
102
RTVSPropertyOp58
 70
     1
102
RTVSPropertyOp59
 70
     1
102
RTVSPropertyOp60
 70
     1
102
RTVSPropertyOp61
 70
     1
102
RTVSPropertyOp62
 70
     1
  0
XRECORD
  5
15AF
102
{ACAD_REACTORS
330
15AE
102
}
330
15AE
100
AcDbXrecord
280
     1
102
RTVSPost2010Prop28
280
     0
102
RTVSPost2010PropOp28
 70
     0
102
RTVSPost2010Prop29
280
     1
102
RTVSPost2010PropOp29
 70
     0
102
RTVSPost2010Prop30
280
     1
102
RTVSPost2010PropOp30
 70
     0
102
RTVSPost2010Prop31
280
     0
102
RTVSPost2010PropOp31
 70
     0
102
RTVSPost2010Prop32
280
     0
102
RTVSPost2010PropOp32
 70
     0
102
RTVSPost2010Prop33
280
     0
102
RTVSPost2010PropOp33
 70
     0
102
RTVSPost2010Prop34
280
     0
102
RTVSPost2010PropOp34
 70
     0
102
RTVSPost2010Prop35
280
     0
102
RTVSPost2010PropOp35
 70
     0
102
RTVSPost2010Prop36
280
     0
102
RTVSPost2010PropOp36
 70
     0
102
RTVSPost2010Prop37
 90
       50
102
RTVSPost2010PropOp37
 70
     0
102
RTVSPost2010Prop38
140
0.0
102
RTVSPost2010PropOp38
 70
     0
102
RTVSPost2010Prop39
140
1.0
102
RTVSPost2010PropOp39
 70
     0
102
RTVSPost2010Prop40
 90
        0
102
RTVSPost2010PropOp40
 70
     0
102
RTVSPost2010Prop41ColorIndex
 90
       18
102
RTVSPost2010Prop41ColorRGB
 90
        0
102
RTVSPost2010PropOp41
 70
     0
102
RTVSPost2010Prop42
 90
       50
102
RTVSPost2010PropOp42
 70
     0
102
RTVSPost2010Prop43
 90
        3
102
RTVSPost2010PropOp43
 70
     0
102
RTVSPost2010Prop44ColorIndex
 90
        5
102
RTVSPost2010Prop44ColorRGB
 90
      255
102
RTVSPost2010PropOp44
 70
     0
102
RTVSPost2010Prop45
280
     0
102
RTVSPost2010PropOp45
 70
     0
102
RTVSPost2010Prop46
 90
       50
102
RTVSPost2010PropOp46
 70
     0
102
RTVSPost2010Prop47
 90
       50
102
RTVSPost2010PropOp47
 70
     0
102
RTVSPost2010Prop48
 90
       50
102
RTVSPost2010PropOp48
 70
     0
102
RTVSPost2010Prop49
280
     0
102
RTVSPost2010PropOp49
 70
     0
102
RTVSPost2010Prop50
 90
       50
102
RTVSPost2010PropOp50
 70
     0
102
RTVSPost2010Prop51ColorIndex
 90
      256
102
RTVSPost2010Prop51ColorRGB
 90
-16777216
102
RTVSPost2010PropOp51
 70
     0
102
RTVSPost2010Prop52
140
1.0
102
RTVSPost2010PropOp52
 70
     0
102
RTVSPost2010Prop53
 90
        2
102
RTVSPost2010PropOp53
 70
     0
102
RTVSPost2010Prop54
  1
strokes_ogs.tif
102
RTVSPost2010PropOp54
 70
     0
102
RTVSPost2010Prop55
280
     0
102
RTVSPost2010PropOp55
 70
     0
102
RTVSPost2010Prop56
140
1.0
102
RTVSPost2010PropOp56
 70
     0
102
RTVSPost2010Prop57
140
1.0
102
RTVSPost2010PropOp57
 70
     0
102
RTVSPropertyOp0
 70
     0
102
RTVSPropertyOp1
 70
     0
102
RTVSPropertyOp2
 70
     0
102
RTVSPropertyOp3
 70
     0
102
RTVSPropertyOp4
 70
     0
102
RTVSPropertyOp5
 70
     0
102
RTVSPropertyOp6
 70
     0
102
RTVSPropertyOp7
 70
     0
102
RTVSPropertyOp8
 70
     0
102
RTVSPropertyOp9
 70
     0
102
RTVSPropertyOp10
 70
     0
102
RTVSPropertyOp11
 70
     0
102
RTVSPropertyOp12
 70
     0
102
RTVSPropertyOp13
 70
     0
102
RTVSPropertyOp14
 70
     2
102
RTVSPropertyOp15
 70
     0
102
RTVSPropertyOp16
 70
     0
102
RTVSPropertyOp17
 70
     0
102
RTVSPropertyOp18
 70
     0
102
RTVSPropertyOp19
 70
     0
102
RTVSPropertyOp20
 70
     0
102
RTVSPropertyOp21
 70
     0
102
RTVSPropertyOp22
 70
     0
102
RTVSPropertyOp23
 70
     0
102
RTVSPropertyOp24
 70
     0
102
RTVSPropertyOp25
 70
     0
102
RTVSPropertyOp26
 70
     0
102
RTVSPropertyOp27
 70
     0
102
RTVSPropertyOp28
 70
     0
102
RTVSPropertyOp29
 70
     0
102
RTVSPropertyOp30
 70
     0
102
RTVSPropertyOp31
 70
     0
102
RTVSPropertyOp32
 70
     0
102
RTVSPropertyOp33
 70
     0
102
RTVSPropertyOp34
 70
     0
102
RTVSPropertyOp35
 70
     0
102
RTVSPropertyOp36
 70
     0
102
RTVSPropertyOp37
 70
     0
102
RTVSPropertyOp38
 70
     0
102
RTVSPropertyOp39
 70
     0
102
RTVSPropertyOp40
 70
     0
102
RTVSPropertyOp41
 70
     0
102
RTVSPropertyOp42
 70
     0
102
RTVSPropertyOp43
 70
     0
102
RTVSPropertyOp44
 70
     0
102
RTVSPropertyOp45
 70
     0
102
RTVSPropertyOp46
 70
     0
102
RTVSPropertyOp47
 70
     0
102
RTVSPropertyOp48
 70
     0
102
RTVSPropertyOp49
 70
     0
102
RTVSPropertyOp50
 70
     0
102
RTVSPropertyOp51
 70
     0
102
RTVSPropertyOp52
 70
     0
102
RTVSPropertyOp53
 70
     0
102
RTVSPropertyOp54
 70
     0
102
RTVSPropertyOp55
 70
     0
102
RTVSPropertyOp56
 70
     0
102
RTVSPropertyOp57
 70
     0
102
RTVSPropertyOp58
 70
     0
102
RTVSPropertyOp59
 70
     0
102
RTVSPropertyOp60
 70
     0
102
RTVSPropertyOp61
 70
     0
102
RTVSPropertyOp62
 70
     0
  0
XRECORD
  5
1590
102
{ACAD_REACTORS
330
158F
102
}
330
158F
100
AcDbXrecord
280
     1
102
RTVSPost2010Prop28
280
     0
102
RTVSPost2010PropOp28
 70
     1
102
RTVSPost2010Prop29
280
     1
102
RTVSPost2010PropOp29
 70
     1
102
RTVSPost2010Prop30
280
     1
102
RTVSPost2010PropOp30
 70
     1
102
RTVSPost2010Prop31
280
     0
102
RTVSPost2010PropOp31
 70
     1
102
RTVSPost2010Prop32
280
     0
102
RTVSPost2010PropOp32
 70
     1
102
RTVSPost2010Prop33
280
     0
102
RTVSPost2010PropOp33
 70
     1
102
RTVSPost2010Prop34
280
     0
102
RTVSPost2010PropOp34
 70
     1
102
RTVSPost2010Prop35
280
     0
102
RTVSPost2010PropOp35
 70
     1
102
RTVSPost2010Prop36
280
     0
102
RTVSPost2010PropOp36
 70
     1
102
RTVSPost2010Prop37
 90
       50
102
RTVSPost2010PropOp37
 70
     1
102
RTVSPost2010Prop38
140
0.0
102
RTVSPost2010PropOp38
 70
     1
102
RTVSPost2010Prop39
140
1.0
102
RTVSPost2010PropOp39
 70
     1
102
RTVSPost2010Prop40
 90
        0
102
RTVSPost2010PropOp40
 70
     1
102
RTVSPost2010Prop41ColorIndex
 90
       18
102
RTVSPost2010Prop41ColorRGB
 90
        0
102
RTVSPost2010PropOp41
 70
     1
102
RTVSPost2010Prop42
 90
       50
102
RTVSPost2010PropOp42
 70
     1
102
RTVSPost2010Prop43
 90
        3
102
RTVSPost2010PropOp43
 70
     1
102
RTVSPost2010Prop44ColorIndex
 90
        5
102
RTVSPost2010Prop44ColorRGB
 90
      255
102
RTVSPost2010PropOp44
 70
     1
102
RTVSPost2010Prop45
280
     0
102
RTVSPost2010PropOp45
 70
     1
102
RTVSPost2010Prop46
 90
       50
102
RTVSPost2010PropOp46
 70
     1
102
RTVSPost2010Prop47
 90
       50
102
RTVSPost2010PropOp47
 70
     1
102
RTVSPost2010Prop48
 90
       50
102
RTVSPost2010PropOp48
 70
     1
102
RTVSPost2010Prop49
280
     0
102
RTVSPost2010PropOp49
 70
     1
102
RTVSPost2010Prop50
 90
       50
102
RTVSPost2010PropOp50
 70
     1
102
RTVSPost2010Prop51ColorIndex
 90
      256
102
RTVSPost2010Prop51ColorRGB
 90
-16777216
102
RTVSPost2010PropOp51
 70
     0
102
RTVSPost2010Prop52
140
1.0
102
RTVSPost2010PropOp52
 70
     0
102
RTVSPost2010Prop53
 90
        2
102
RTVSPost2010PropOp53
 70
     1
102
RTVSPost2010Prop54
  1
strokes_ogs.tif
102
RTVSPost2010PropOp54
 70
     1
102
RTVSPost2010Prop55
280
     0
102
RTVSPost2010PropOp55
 70
     1
102
RTVSPost2010Prop56
140
1.0
102
RTVSPost2010PropOp56
 70
     1
102
RTVSPost2010Prop57
140
1.0
102
RTVSPost2010PropOp57
 70
     1
102
RTVSPropertyOp0
 70
     1
102
RTVSPropertyOp1
 70
     1
102
RTVSPropertyOp2
 70
     1
102
RTVSPropertyOp3
 70
     1
102
RTVSPropertyOp4
 70
     1
102
RTVSPropertyOp5
 70
     1
102
RTVSPropertyOp6
 70
     1
102
RTVSPropertyOp7
 70
     1
102
RTVSPropertyOp8
 70
     1
102
RTVSPropertyOp9
 70
     1
102
RTVSPropertyOp10
 70
     1
102
RTVSPropertyOp11
 70
     1
102
RTVSPropertyOp12
 70
     1
102
RTVSPropertyOp13
 70
     1
102
RTVSPropertyOp14
 70
     1
102
RTVSPropertyOp15
 70
     1
102
RTVSPropertyOp16
 70
     1
102
RTVSPropertyOp17
 70
     1
102
RTVSPropertyOp18
 70
     1
102
RTVSPropertyOp19
 70
     1
102
RTVSPropertyOp20
 70
     1
102
RTVSPropertyOp21
 70
     1
102
RTVSPropertyOp22
 70
     1
102
RTVSPropertyOp23
 70
     1
102
RTVSPropertyOp24
 70
     1
102
RTVSPropertyOp25
 70
     1
102
RTVSPropertyOp26
 70
     1
102
RTVSPropertyOp27
 70
     1
102
RTVSPropertyOp28
 70
     1
102
RTVSPropertyOp29
 70
     1
102
RTVSPropertyOp30
 70
     1
102
RTVSPropertyOp31
 70
     1
102
RTVSPropertyOp32
 70
     1
102
RTVSPropertyOp33
 70
     1
102
RTVSPropertyOp34
 70
     1
102
RTVSPropertyOp35
 70
     1
102
RTVSPropertyOp36
 70
     1
102
RTVSPropertyOp37
 70
     1
102
RTVSPropertyOp38
 70
     1
102
RTVSPropertyOp39
 70
     1
102
RTVSPropertyOp40
 70
     1
102
RTVSPropertyOp41
 70
     1
102
RTVSPropertyOp42
 70
     1
102
RTVSPropertyOp43
 70
     1
102
RTVSPropertyOp44
 70
     1
102
RTVSPropertyOp45
 70
     1
102
RTVSPropertyOp46
 70
     1
102
RTVSPropertyOp47
 70
     1
102
RTVSPropertyOp48
 70
     1
102
RTVSPropertyOp49
 70
     1
102
RTVSPropertyOp50
 70
     1
102
RTVSPropertyOp51
 70
     0
102
RTVSPropertyOp52
 70
     0
102
RTVSPropertyOp53
 70
     1
102
RTVSPropertyOp54
 70
     1
102
RTVSPropertyOp55
 70
     1
102
RTVSPropertyOp56
 70
     1
102
RTVSPropertyOp57
 70
     1
102
RTVSPropertyOp58
 70
     1
102
RTVSPropertyOp59
 70
     1
102
RTVSPropertyOp60
 70
     1
102
RTVSPropertyOp61
 70
     1
102
RTVSPropertyOp62
 70
     1
  0
XRECORD
  5
15AB
102
{ACAD_REACTORS
330
15AA
102
}
330
15AA
100
AcDbXrecord
280
     1
102
RTVSPost2010Prop28
280
     0
102
RTVSPost2010PropOp28
 70
     1
102
RTVSPost2010Prop29
280
     1
102
RTVSPost2010PropOp29
 70
     1
102
RTVSPost2010Prop30
280
     1
102
RTVSPost2010PropOp30
 70
     1
102
RTVSPost2010Prop31
280
     0
102
RTVSPost2010PropOp31
 70
     1
102
RTVSPost2010Prop32
280
     0
102
RTVSPost2010PropOp32
 70
     1
102
RTVSPost2010Prop33
280
     0
102
RTVSPost2010PropOp33
 70
     1
102
RTVSPost2010Prop34
280
     0
102
RTVSPost2010PropOp34
 70
     1
102
RTVSPost2010Prop35
280
     0
102
RTVSPost2010PropOp35
 70
     1
102
RTVSPost2010Prop36
280
     0
102
RTVSPost2010PropOp36
 70
     1
102
RTVSPost2010Prop37
 90
       50
102
RTVSPost2010PropOp37
 70
     1
102
RTVSPost2010Prop38
140
0.0
102
RTVSPost2010PropOp38
 70
     1
102
RTVSPost2010Prop39
140
1.0
102
RTVSPost2010PropOp39
 70
     1
102
RTVSPost2010Prop40
 90
        0
102
RTVSPost2010PropOp40
 70
     1
102
RTVSPost2010Prop41ColorIndex
 90
       18
102
RTVSPost2010Prop41ColorRGB
 90
        0
102
RTVSPost2010PropOp41
 70
     1
102
RTVSPost2010Prop42
 90
       50
102
RTVSPost2010PropOp42
 70
     1
102
RTVSPost2010Prop43
 90
        3
102
RTVSPost2010PropOp43
 70
     1
102
RTVSPost2010Prop44ColorIndex
 90
        5
102
RTVSPost2010Prop44ColorRGB
 90
      255
102
RTVSPost2010PropOp44
 70
     1
102
RTVSPost2010Prop45
280
     0
102
RTVSPost2010PropOp45
 70
     1
102
RTVSPost2010Prop46
 90
       50
102
RTVSPost2010PropOp46
 70
     1
102
RTVSPost2010Prop47
 90
       50
102
RTVSPost2010PropOp47
 70
     1
102
RTVSPost2010Prop48
 90
       50
102
RTVSPost2010PropOp48
 70
     1
102
RTVSPost2010Prop49
280
     0
102
RTVSPost2010PropOp49
 70
     1
102
RTVSPost2010Prop50
 90
       50
102
RTVSPost2010PropOp50
 70
     1
102
RTVSPost2010Prop51ColorIndex
 90
      256
102
RTVSPost2010Prop51ColorRGB
 90
-16777216
102
RTVSPost2010PropOp51
 70
     0
102
RTVSPost2010Prop52
140
1.0
102
RTVSPost2010PropOp52
 70
     0
102
RTVSPost2010Prop53
 90
        2
102
RTVSPost2010PropOp53
 70
     1
102
RTVSPost2010Prop54
  1
strokes_ogs.tif
102
RTVSPost2010PropOp54
 70
     1
102
RTVSPost2010Prop55
280
     0
102
RTVSPost2010PropOp55
 70
     1
102
RTVSPost2010Prop56
140
1.0
102
RTVSPost2010PropOp56
 70
     1
102
RTVSPost2010Prop57
140
1.0
102
RTVSPost2010PropOp57
 70
     1
102
RTVSPropertyOp0
 70
     1
102
RTVSPropertyOp1
 70
     1
102
RTVSPropertyOp2
 70
     1
102
RTVSPropertyOp3
 70
     1
102
RTVSPropertyOp4
 70
     1
102
RTVSPropertyOp5
 70
     1
102
RTVSPropertyOp6
 70
     1
102
RTVSPropertyOp7
 70
     1
102
RTVSPropertyOp8
 70
     1
102
RTVSPropertyOp9
 70
     1
102
RTVSPropertyOp10
 70
     1
102
RTVSPropertyOp11
 70
     1
102
RTVSPropertyOp12
 70
     1
102
RTVSPropertyOp13
 70
     1
102
RTVSPropertyOp14
 70
     1
102
RTVSPropertyOp15
 70
     1
102
RTVSPropertyOp16
 70
     1
102
RTVSPropertyOp17
 70
     1
102
RTVSPropertyOp18
 70
     1
102
RTVSPropertyOp19
 70
     1
102
RTVSPropertyOp20
 70
     1
102
RTVSPropertyOp21
 70
     1
102
RTVSPropertyOp22
 70
     1
102
RTVSPropertyOp23
 70
     1
102
RTVSPropertyOp24
 70
     1
102
RTVSPropertyOp25
 70
     1
102
RTVSPropertyOp26
 70
     1
102
RTVSPropertyOp27
 70
     1
102
RTVSPropertyOp28
 70
     1
102
RTVSPropertyOp29
 70
     1
102
RTVSPropertyOp30
 70
     1
102
RTVSPropertyOp31
 70
     1
102
RTVSPropertyOp32
 70
     1
102
RTVSPropertyOp33
 70
     1
102
RTVSPropertyOp34
 70
     1
102
RTVSPropertyOp35
 70
     1
102
RTVSPropertyOp36
 70
     1
102
RTVSPropertyOp37
 70
     1
102
RTVSPropertyOp38
 70
     1
102
RTVSPropertyOp39
 70
     1
102
RTVSPropertyOp40
 70
     1
102
RTVSPropertyOp41
 70
     1
102
RTVSPropertyOp42
 70
     1
102
RTVSPropertyOp43
 70
     1
102
RTVSPropertyOp44
 70
     1
102
RTVSPropertyOp45
 70
     1
102
RTVSPropertyOp46
 70
     1
102
RTVSPropertyOp47
 70
     1
102
RTVSPropertyOp48
 70
     1
102
RTVSPropertyOp49
 70
     1
102
RTVSPropertyOp50
 70
     1
102
RTVSPropertyOp51
 70
     0
102
RTVSPropertyOp52
 70
     0
102
RTVSPropertyOp53
 70
     1
102
RTVSPropertyOp54
 70
     1
102
RTVSPropertyOp55
 70
     1
102
RTVSPropertyOp56
 70
     1
102
RTVSPropertyOp57
 70
     1
102
RTVSPropertyOp58
 70
     1
102
RTVSPropertyOp59
 70
     1
102
RTVSPropertyOp60
 70
     1
102
RTVSPropertyOp61
 70
     1
102
RTVSPropertyOp62
 70
     1
  0
XRECORD
  5
15A9
102
{ACAD_REACTORS
330
15A8
102
}
330
15A8
100
AcDbXrecord
280
     1
102
RTVSPost2010Prop28
280
     0
102
RTVSPost2010PropOp28
 70
     1
102
RTVSPost2010Prop29
280
     1
102
RTVSPost2010PropOp29
 70
     1
102
RTVSPost2010Prop30
280
     1
102
RTVSPost2010PropOp30
 70
     1
102
RTVSPost2010Prop31
280
     0
102
RTVSPost2010PropOp31
 70
     1
102
RTVSPost2010Prop32
280
     0
102
RTVSPost2010PropOp32
 70
     1
102
RTVSPost2010Prop33
280
     0
102
RTVSPost2010PropOp33
 70
     1
102
RTVSPost2010Prop34
280
     0
102
RTVSPost2010PropOp34
 70
     1
102
RTVSPost2010Prop35
280
     0
102
RTVSPost2010PropOp35
 70
     1
102
RTVSPost2010Prop36
280
     0
102
RTVSPost2010PropOp36
 70
     1
102
RTVSPost2010Prop37
 90
       50
102
RTVSPost2010PropOp37
 70
     1
102
RTVSPost2010Prop38
140
0.0
102
RTVSPost2010PropOp38
 70
     1
102
RTVSPost2010Prop39
140
1.0
102
RTVSPost2010PropOp39
 70
     1
102
RTVSPost2010Prop40
 90
        0
102
RTVSPost2010PropOp40
 70
     1
102
RTVSPost2010Prop41ColorIndex
 90
       18
102
RTVSPost2010Prop41ColorRGB
 90
        0
102
RTVSPost2010PropOp41
 70
     1
102
RTVSPost2010Prop42
 90
       50
102
RTVSPost2010PropOp42
 70
     1
102
RTVSPost2010Prop43
 90
        3
102
RTVSPost2010PropOp43
 70
     1
102
RTVSPost2010Prop44ColorIndex
 90
        5
102
RTVSPost2010Prop44ColorRGB
 90
      255
102
RTVSPost2010PropOp44
 70
     1
102
RTVSPost2010Prop45
280
     0
102
RTVSPost2010PropOp45
 70
     1
102
RTVSPost2010Prop46
 90
       50
102
RTVSPost2010PropOp46
 70
     1
102
RTVSPost2010Prop47
 90
       50
102
RTVSPost2010PropOp47
 70
     1
102
RTVSPost2010Prop48
 90
       50
102
RTVSPost2010PropOp48
 70
     1
102
RTVSPost2010Prop49
280
     0
102
RTVSPost2010PropOp49
 70
     1
102
RTVSPost2010Prop50
 90
       50
102
RTVSPost2010PropOp50
 70
     1
102
RTVSPost2010Prop51ColorIndex
 90
      256
102
RTVSPost2010Prop51ColorRGB
 90
-16777216
102
RTVSPost2010PropOp51
 70
     0
102
RTVSPost2010Prop52
140
1.0
102
RTVSPost2010PropOp52
 70
     0
102
RTVSPost2010Prop53
 90
        2
102
RTVSPost2010PropOp53
 70
     1
102
RTVSPost2010Prop54
  1
strokes_ogs.tif
102
RTVSPost2010PropOp54
 70
     1
102
RTVSPost2010Prop55
280
     0
102
RTVSPost2010PropOp55
 70
     1
102
RTVSPost2010Prop56
140
1.0
102
RTVSPost2010PropOp56
 70
     1
102
RTVSPost2010Prop57
140
1.0
102
RTVSPost2010PropOp57
 70
     1
102
RTVSPropertyOp0
 70
     1
102
RTVSPropertyOp1
 70
     1
102
RTVSPropertyOp2
 70
     1
102
RTVSPropertyOp3
 70
     1
102
RTVSPropertyOp4
 70
     1
102
RTVSPropertyOp5
 70
     1
102
RTVSPropertyOp6
 70
     1
102
RTVSPropertyOp7
 70
     1
102
RTVSPropertyOp8
 70
     1
102
RTVSPropertyOp9
 70
     1
102
RTVSPropertyOp10
 70
     1
102
RTVSPropertyOp11
 70
     1
102
RTVSPropertyOp12
 70
     1
102
RTVSPropertyOp13
 70
     1
102
RTVSPropertyOp14
 70
     1
102
RTVSPropertyOp15
 70
     1
102
RTVSPropertyOp16
 70
     1
102
RTVSPropertyOp17
 70
     1
102
RTVSPropertyOp18
 70
     1
102
RTVSPropertyOp19
 70
     1
102
RTVSPropertyOp20
 70
     1
102
RTVSPropertyOp21
 70
     1
102
RTVSPropertyOp22
 70
     1
102
RTVSPropertyOp23
 70
     1
102
RTVSPropertyOp24
 70
     1
102
RTVSPropertyOp25
 70
     1
102
RTVSPropertyOp26
 70
     1
102
RTVSPropertyOp27
 70
     1
102
RTVSPropertyOp28
 70
     1
102
RTVSPropertyOp29
 70
     1
102
RTVSPropertyOp30
 70
     1
102
RTVSPropertyOp31
 70
     1
102
RTVSPropertyOp32
 70
     1
102
RTVSPropertyOp33
 70
     1
102
RTVSPropertyOp34
 70
     1
102
RTVSPropertyOp35
 70
     1
102
RTVSPropertyOp36
 70
     1
102
RTVSPropertyOp37
 70
     1
102
RTVSPropertyOp38
 70
     1
102
RTVSPropertyOp39
 70
     1
102
RTVSPropertyOp40
 70
     1
102
RTVSPropertyOp41
 70
     1
102
RTVSPropertyOp42
 70
     1
102
RTVSPropertyOp43
 70
     1
102
RTVSPropertyOp44
 70
     1
102
RTVSPropertyOp45
 70
     1
102
RTVSPropertyOp46
 70
     1
102
RTVSPropertyOp47
 70
     1
102
RTVSPropertyOp48
 70
     1
102
RTVSPropertyOp49
 70
     1
102
RTVSPropertyOp50
 70
     1
102
RTVSPropertyOp51
 70
     0
102
RTVSPropertyOp52
 70
     0
102
RTVSPropertyOp53
 70
     1
102
RTVSPropertyOp54
 70
     1
102
RTVSPropertyOp55
 70
     1
102
RTVSPropertyOp56
 70
     1
102
RTVSPropertyOp57
 70
     1
102
RTVSPropertyOp58
 70
     1
102
RTVSPropertyOp59
 70
     1
102
RTVSPropertyOp60
 70
     1
102
RTVSPropertyOp61
 70
     1
102
RTVSPropertyOp62
 70
     1
  0
XRECORD
  5
15A3
102
{ACAD_REACTORS
330
15A2
102
}
330
15A2
100
AcDbXrecord
280
     1
102
RTVSPost2010Prop28
280
     0
102
RTVSPost2010PropOp28
 70
     1
102
RTVSPost2010Prop29
280
     1
102
RTVSPost2010PropOp29
 70
     1
102
RTVSPost2010Prop30
280
     1
102
RTVSPost2010PropOp30
 70
     1
102
RTVSPost2010Prop31
280
     0
102
RTVSPost2010PropOp31
 70
     1
102
RTVSPost2010Prop32
280
     0
102
RTVSPost2010PropOp32
 70
     1
102
RTVSPost2010Prop33
280
     0
102
RTVSPost2010PropOp33
 70
     1
102
RTVSPost2010Prop34
280
     0
102
RTVSPost2010PropOp34
 70
     1
102
RTVSPost2010Prop35
280
     0
102
RTVSPost2010PropOp35
 70
     1
102
RTVSPost2010Prop36
280
     0
102
RTVSPost2010PropOp36
 70
     1
102
RTVSPost2010Prop37
 90
       50
102
RTVSPost2010PropOp37
 70
     1
102
RTVSPost2010Prop38
140
0.0
102
RTVSPost2010PropOp38
 70
     1
102
RTVSPost2010Prop39
140
1.0
102
RTVSPost2010PropOp39
 70
     1
102
RTVSPost2010Prop40
 90
        0
102
RTVSPost2010PropOp40
 70
     1
102
RTVSPost2010Prop41ColorIndex
 90
       18
102
RTVSPost2010Prop41ColorRGB
 90
        0
102
RTVSPost2010PropOp41
 70
     1
102
RTVSPost2010Prop42
 90
       50
102
RTVSPost2010PropOp42
 70
     1
102
RTVSPost2010Prop43
 90
        3
102
RTVSPost2010PropOp43
 70
     1
102
RTVSPost2010Prop44ColorIndex
 90
        5
102
RTVSPost2010Prop44ColorRGB
 90
      255
102
RTVSPost2010PropOp44
 70
     1
102
RTVSPost2010Prop45
280
     0
102
RTVSPost2010PropOp45
 70
     1
102
RTVSPost2010Prop46
 90
       50
102
RTVSPost2010PropOp46
 70
     1
102
RTVSPost2010Prop47
 90
       50
102
RTVSPost2010PropOp47
 70
     1
102
RTVSPost2010Prop48
 90
       50
102
RTVSPost2010PropOp48
 70
     1
102
RTVSPost2010Prop49
280
     0
102
RTVSPost2010PropOp49
 70
     1
102
RTVSPost2010Prop50
 90
       50
102
RTVSPost2010PropOp50
 70
     1
102
RTVSPost2010Prop51ColorIndex
 90
      256
102
RTVSPost2010Prop51ColorRGB
 90
-16777216
102
RTVSPost2010PropOp51
 70
     0
102
RTVSPost2010Prop52
140
1.0
102
RTVSPost2010PropOp52
 70
     0
102
RTVSPost2010Prop53
 90
        2
102
RTVSPost2010PropOp53
 70
     1
102
RTVSPost2010Prop54
  1
strokes_ogs.tif
102
RTVSPost2010PropOp54
 70
     1
102
RTVSPost2010Prop55
280
     0
102
RTVSPost2010PropOp55
 70
     1
102
RTVSPost2010Prop56
140
1.0
102
RTVSPost2010PropOp56
 70
     1
102
RTVSPost2010Prop57
140
1.0
102
RTVSPost2010PropOp57
 70
     1
102
RTVSPropertyOp0
 70
     1
102
RTVSPropertyOp1
 70
     1
102
RTVSPropertyOp2
 70
     1
102
RTVSPropertyOp3
 70
     1
102
RTVSPropertyOp4
 70
     1
102
RTVSPropertyOp5
 70
     1
102
RTVSPropertyOp6
 70
     1
102
RTVSPropertyOp7
 70
     1
102
RTVSPropertyOp8
 70
     1
102
RTVSPropertyOp9
 70
     1
102
RTVSPropertyOp10
 70
     1
102
RTVSPropertyOp11
 70
     1
102
RTVSPropertyOp12
 70
     1
102
RTVSPropertyOp13
 70
     1
102
RTVSPropertyOp14
 70
     1
102
RTVSPropertyOp15
 70
     1
102
RTVSPropertyOp16
 70
     1
102
RTVSPropertyOp17
 70
     1
102
RTVSPropertyOp18
 70
     1
102
RTVSPropertyOp19
 70
     1
102
RTVSPropertyOp20
 70
     1
102
RTVSPropertyOp21
 70
     1
102
RTVSPropertyOp22
 70
     1
102
RTVSPropertyOp23
 70
     1
102
RTVSPropertyOp24
 70
     1
102
RTVSPropertyOp25
 70
     1
102
RTVSPropertyOp26
 70
     1
102
RTVSPropertyOp27
 70
     1
102
RTVSPropertyOp28
 70
     1
102
RTVSPropertyOp29
 70
     1
102
RTVSPropertyOp30
 70
     1
102
RTVSPropertyOp31
 70
     1
102
RTVSPropertyOp32
 70
     1
102
RTVSPropertyOp33
 70
     1
102
RTVSPropertyOp34
 70
     1
102
RTVSPropertyOp35
 70
     1
102
RTVSPropertyOp36
 70
     1
102
RTVSPropertyOp37
 70
     1
102
RTVSPropertyOp38
 70
     1
102
RTVSPropertyOp39
 70
     1
102
RTVSPropertyOp40
 70
     1
102
RTVSPropertyOp41
 70
     1
102
RTVSPropertyOp42
 70
     1
102
RTVSPropertyOp43
 70
     1
102
RTVSPropertyOp44
 70
     1
102
RTVSPropertyOp45
 70
     1
102
RTVSPropertyOp46
 70
     1
102
RTVSPropertyOp47
 70
     1
102
RTVSPropertyOp48
 70
     1
102
RTVSPropertyOp49
 70
     1
102
RTVSPropertyOp50
 70
     1
102
RTVSPropertyOp51
 70
     0
102
RTVSPropertyOp52
 70
     0
102
RTVSPropertyOp53
 70
     1
102
RTVSPropertyOp54
 70
     1
102
RTVSPropertyOp55
 70
     1
102
RTVSPropertyOp56
 70
     1
102
RTVSPropertyOp57
 70
     1
102
RTVSPropertyOp58
 70
     1
102
RTVSPropertyOp59
 70
     1
102
RTVSPropertyOp60
 70
     1
102
RTVSPropertyOp61
 70
     1
102
RTVSPropertyOp62
 70
     1
  0
XRECORD
  5
15A5
102
{ACAD_REACTORS
330
15A4
102
}
330
15A4
100
AcDbXrecord
280
     1
102
RTVSPost2010Prop28
280
     0
102
RTVSPost2010PropOp28
 70
     1
102
RTVSPost2010Prop29
280
     1
102
RTVSPost2010PropOp29
 70
     1
102
RTVSPost2010Prop30
280
     1
102
RTVSPost2010PropOp30
 70
     1
102
RTVSPost2010Prop31
280
     0
102
RTVSPost2010PropOp31
 70
     1
102
RTVSPost2010Prop32
280
     0
102
RTVSPost2010PropOp32
 70
     1
102
RTVSPost2010Prop33
280
     0
102
RTVSPost2010PropOp33
 70
     1
102
RTVSPost2010Prop34
280
     0
102
RTVSPost2010PropOp34
 70
     1
102
RTVSPost2010Prop35
280
     0
102
RTVSPost2010PropOp35
 70
     1
102
RTVSPost2010Prop36
280
     0
102
RTVSPost2010PropOp36
 70
     1
102
RTVSPost2010Prop37
 90
       50
102
RTVSPost2010PropOp37
 70
     1
102
RTVSPost2010Prop38
140
0.0
102
RTVSPost2010PropOp38
 70
     1
102
RTVSPost2010Prop39
140
1.0
102
RTVSPost2010PropOp39
 70
     1
102
RTVSPost2010Prop40
 90
        0
102
RTVSPost2010PropOp40
 70
     1
102
RTVSPost2010Prop41ColorIndex
 90
       18
102
RTVSPost2010Prop41ColorRGB
 90
        0
102
RTVSPost2010PropOp41
 70
     1
102
RTVSPost2010Prop42
 90
       50
102
RTVSPost2010PropOp42
 70
     1
102
RTVSPost2010Prop43
 90
        3
102
RTVSPost2010PropOp43
 70
     1
102
RTVSPost2010Prop44ColorIndex
 90
        5
102
RTVSPost2010Prop44ColorRGB
 90
      255
102
RTVSPost2010PropOp44
 70
     1
102
RTVSPost2010Prop45
280
     0
102
RTVSPost2010PropOp45
 70
     1
102
RTVSPost2010Prop46
 90
       50
102
RTVSPost2010PropOp46
 70
     1
102
RTVSPost2010Prop47
 90
       50
102
RTVSPost2010PropOp47
 70
     1
102
RTVSPost2010Prop48
 90
       50
102
RTVSPost2010PropOp48
 70
     1
102
RTVSPost2010Prop49
280
     0
102
RTVSPost2010PropOp49
 70
     1
102
RTVSPost2010Prop50
 90
       50
102
RTVSPost2010PropOp50
 70
     1
102
RTVSPost2010Prop51ColorIndex
 90
      256
102
RTVSPost2010Prop51ColorRGB
 90
-16777216
102
RTVSPost2010PropOp51
 70
     0
102
RTVSPost2010Prop52
140
1.0
102
RTVSPost2010PropOp52
 70
     0
102
RTVSPost2010Prop53
 90
        2
102
RTVSPost2010PropOp53
 70
     1
102
RTVSPost2010Prop54
  1
strokes_ogs.tif
102
RTVSPost2010PropOp54
 70
     1
102
RTVSPost2010Prop55
280
     0
102
RTVSPost2010PropOp55
 70
     1
102
RTVSPost2010Prop56
140
1.0
102
RTVSPost2010PropOp56
 70
     1
102
RTVSPost2010Prop57
140
1.0
102
RTVSPost2010PropOp57
 70
     1
102
RTVSPropertyOp0
 70
     1
102
RTVSPropertyOp1
 70
     1
102
RTVSPropertyOp2
 70
     1
102
RTVSPropertyOp3
 70
     1
102
RTVSPropertyOp4
 70
     1
102
RTVSPropertyOp5
 70
     1
102
RTVSPropertyOp6
 70
     1
102
RTVSPropertyOp7
 70
     1
102
RTVSPropertyOp8
 70
     1
102
RTVSPropertyOp9
 70
     1
102
RTVSPropertyOp10
 70
     1
102
RTVSPropertyOp11
 70
     1
102
RTVSPropertyOp12
 70
     1
102
RTVSPropertyOp13
 70
     1
102
RTVSPropertyOp14
 70
     1
102
RTVSPropertyOp15
 70
     1
102
RTVSPropertyOp16
 70
     1
102
RTVSPropertyOp17
 70
     1
102
RTVSPropertyOp18
 70
     1
102
RTVSPropertyOp19
 70
     1
102
RTVSPropertyOp20
 70
     1
102
RTVSPropertyOp21
 70
     1
102
RTVSPropertyOp22
 70
     1
102
RTVSPropertyOp23
 70
     1
102
RTVSPropertyOp24
 70
     1
102
RTVSPropertyOp25
 70
     1
102
RTVSPropertyOp26
 70
     1
102
RTVSPropertyOp27
 70
     1
102
RTVSPropertyOp28
 70
     1
102
RTVSPropertyOp29
 70
     1
102
RTVSPropertyOp30
 70
     1
102
RTVSPropertyOp31
 70
     1
102
RTVSPropertyOp32
 70
     1
102
RTVSPropertyOp33
 70
     1
102
RTVSPropertyOp34
 70
     1
102
RTVSPropertyOp35
 70
     1
102
RTVSPropertyOp36
 70
     1
102
RTVSPropertyOp37
 70
     1
102
RTVSPropertyOp38
 70
     1
102
RTVSPropertyOp39
 70
     1
102
RTVSPropertyOp40
 70
     1
102
RTVSPropertyOp41
 70
     1
102
RTVSPropertyOp42
 70
     1
102
RTVSPropertyOp43
 70
     1
102
RTVSPropertyOp44
 70
     1
102
RTVSPropertyOp45
 70
     1
102
RTVSPropertyOp46
 70
     1
102
RTVSPropertyOp47
 70
     1
102
RTVSPropertyOp48
 70
     1
102
RTVSPropertyOp49
 70
     1
102
RTVSPropertyOp50
 70
     1
102
RTVSPropertyOp51
 70
     0
102
RTVSPropertyOp52
 70
     0
102
RTVSPropertyOp53
 70
     1
102
RTVSPropertyOp54
 70
     1
102
RTVSPropertyOp55
 70
     1
102
RTVSPropertyOp56
 70
     1
102
RTVSPropertyOp57
 70
     1
102
RTVSPropertyOp58
 70
     1
102
RTVSPropertyOp59
 70
     1
102
RTVSPropertyOp60
 70
     1
102
RTVSPropertyOp61
 70
     1
102
RTVSPropertyOp62
 70
     1
  0
XRECORD
  5
1596
102
{ACAD_REACTORS
330
1595
102
}
330
1595
100
AcDbXrecord
280
     1
102
RTVSPost2010Prop28
280
     0
102
RTVSPost2010PropOp28
 70
     1
102
RTVSPost2010Prop29
280
     1
102
RTVSPost2010PropOp29
 70
     1
102
RTVSPost2010Prop30
280
     1
102
RTVSPost2010PropOp30
 70
     1
102
RTVSPost2010Prop31
280
     0
102
RTVSPost2010PropOp31
 70
     1
102
RTVSPost2010Prop32
280
     0
102
RTVSPost2010PropOp32
 70
     1
102
RTVSPost2010Prop33
280
     0
102
RTVSPost2010PropOp33
 70
     1
102
RTVSPost2010Prop34
280
     0
102
RTVSPost2010PropOp34
 70
     1
102
RTVSPost2010Prop35
280
     0
102
RTVSPost2010PropOp35
 70
     1
102
RTVSPost2010Prop36
280
     0
102
RTVSPost2010PropOp36
 70
     1
102
RTVSPost2010Prop37
 90
       50
102
RTVSPost2010PropOp37
 70
     1
102
RTVSPost2010Prop38
140
0.0
102
RTVSPost2010PropOp38
 70
     1
102
RTVSPost2010Prop39
140
1.0
102
RTVSPost2010PropOp39
 70
     1
102
RTVSPost2010Prop40
 90
        0
102
RTVSPost2010PropOp40
 70
     1
102
RTVSPost2010Prop41ColorIndex
 90
       18
102
RTVSPost2010Prop41ColorRGB
 90
        0
102
RTVSPost2010PropOp41
 70
     1
102
RTVSPost2010Prop42
 90
       50
102
RTVSPost2010PropOp42
 70
     1
102
RTVSPost2010Prop43
 90
        3
102
RTVSPost2010PropOp43
 70
     1
102
RTVSPost2010Prop44ColorIndex
 90
        5
102
RTVSPost2010Prop44ColorRGB
 90
      255
102
RTVSPost2010PropOp44
 70
     1
102
RTVSPost2010Prop45
280
     0
102
RTVSPost2010PropOp45
 70
     1
102
RTVSPost2010Prop46
 90
       50
102
RTVSPost2010PropOp46
 70
     1
102
RTVSPost2010Prop47
 90
       50
102
RTVSPost2010PropOp47
 70
     1
102
RTVSPost2010Prop48
 90
       50
102
RTVSPost2010PropOp48
 70
     1
102
RTVSPost2010Prop49
280
     0
102
RTVSPost2010PropOp49
 70
     1
102
RTVSPost2010Prop50
 90
       50
102
RTVSPost2010PropOp50
 70
     1
102
RTVSPost2010Prop51ColorIndex
 90
      256
102
RTVSPost2010Prop51ColorRGB
 90
-16777216
102
RTVSPost2010PropOp51
 70
     0
102
RTVSPost2010Prop52
140
1.0
102
RTVSPost2010PropOp52
 70
     0
102
RTVSPost2010Prop53
 90
        2
102
RTVSPost2010PropOp53
 70
     1
102
RTVSPost2010Prop54
  1
strokes_ogs.tif
102
RTVSPost2010PropOp54
 70
     1
102
RTVSPost2010Prop55
280
     0
102
RTVSPost2010PropOp55
 70
     1
102
RTVSPost2010Prop56
140
1.0
102
RTVSPost2010PropOp56
 70
     1
102
RTVSPost2010Prop57
140
1.0
102
RTVSPost2010PropOp57
 70
     1
102
RTVSPropertyOp0
 70
     1
102
RTVSPropertyOp1
 70
     1
102
RTVSPropertyOp2
 70
     1
102
RTVSPropertyOp3
 70
     1
102
RTVSPropertyOp4
 70
     1
102
RTVSPropertyOp5
 70
     1
102
RTVSPropertyOp6
 70
     1
102
RTVSPropertyOp7
 70
     1
102
RTVSPropertyOp8
 70
     1
102
RTVSPropertyOp9
 70
     1
102
RTVSPropertyOp10
 70
     1
102
RTVSPropertyOp11
 70
     1
102
RTVSPropertyOp12
 70
     1
102
RTVSPropertyOp13
 70
     1
102
RTVSPropertyOp14
 70
     1
102
RTVSPropertyOp15
 70
     1
102
RTVSPropertyOp16
 70
     1
102
RTVSPropertyOp17
 70
     1
102
RTVSPropertyOp18
 70
     1
102
RTVSPropertyOp19
 70
     1
102
RTVSPropertyOp20
 70
     1
102
RTVSPropertyOp21
 70
     1
102
RTVSPropertyOp22
 70
     1
102
RTVSPropertyOp23
 70
     1
102
RTVSPropertyOp24
 70
     1
102
RTVSPropertyOp25
 70
     1
102
RTVSPropertyOp26
 70
     1
102
RTVSPropertyOp27
 70
     1
102
RTVSPropertyOp28
 70
     1
102
RTVSPropertyOp29
 70
     1
102
RTVSPropertyOp30
 70
     1
102
RTVSPropertyOp31
 70
     1
102
RTVSPropertyOp32
 70
     1
102
RTVSPropertyOp33
 70
     1
102
RTVSPropertyOp34
 70
     1
102
RTVSPropertyOp35
 70
     1
102
RTVSPropertyOp36
 70
     1
102
RTVSPropertyOp37
 70
     1
102
RTVSPropertyOp38
 70
     1
102
RTVSPropertyOp39
 70
     1
102
RTVSPropertyOp40
 70
     1
102
RTVSPropertyOp41
 70
     1
102
RTVSPropertyOp42
 70
     1
102
RTVSPropertyOp43
 70
     1
102
RTVSPropertyOp44
 70
     1
102
RTVSPropertyOp45
 70
     1
102
RTVSPropertyOp46
 70
     1
102
RTVSPropertyOp47
 70
     1
102
RTVSPropertyOp48
 70
     1
102
RTVSPropertyOp49
 70
     1
102
RTVSPropertyOp50
 70
     1
102
RTVSPropertyOp51
 70
     0
102
RTVSPropertyOp52
 70
     0
102
RTVSPropertyOp53
 70
     1
102
RTVSPropertyOp54
 70
     1
102
RTVSPropertyOp55
 70
     1
102
RTVSPropertyOp56
 70
     1
102
RTVSPropertyOp57
 70
     1
102
RTVSPropertyOp58
 70
     1
102
RTVSPropertyOp59
 70
     1
102
RTVSPropertyOp60
 70
     1
102
RTVSPropertyOp61
 70
     1
102
RTVSPropertyOp62
 70
     1
  0
XRECORD
  5
159F
102
{ACAD_REACTORS
330
159E
102
}
330
159E
100
AcDbXrecord
280
     1
102
RTVSPost2010Prop28
280
     0
102
RTVSPost2010PropOp28
 70
     1
102
RTVSPost2010Prop29
280
     1
102
RTVSPost2010PropOp29
 70
     1
102
RTVSPost2010Prop30
280
     1
102
RTVSPost2010PropOp30
 70
     1
102
RTVSPost2010Prop31
280
     0
102
RTVSPost2010PropOp31
 70
     1
102
RTVSPost2010Prop32
280
     0
102
RTVSPost2010PropOp32
 70
     1
102
RTVSPost2010Prop33
280
     0
102
RTVSPost2010PropOp33
 70
     1
102
RTVSPost2010Prop34
280
     0
102
RTVSPost2010PropOp34
 70
     1
102
RTVSPost2010Prop35
280
     0
102
RTVSPost2010PropOp35
 70
     1
102
RTVSPost2010Prop36
280
     0
102
RTVSPost2010PropOp36
 70
     1
102
RTVSPost2010Prop37
 90
       50
102
RTVSPost2010PropOp37
 70
     1
102
RTVSPost2010Prop38
140
0.0
102
RTVSPost2010PropOp38
 70
     1
102
RTVSPost2010Prop39
140
1.0
102
RTVSPost2010PropOp39
 70
     1
102
RTVSPost2010Prop40
 90
        0
102
RTVSPost2010PropOp40
 70
     1
102
RTVSPost2010Prop41ColorIndex
 90
       18
102
RTVSPost2010Prop41ColorRGB
 90
        0
102
RTVSPost2010PropOp41
 70
     1
102
RTVSPost2010Prop42
 90
       50
102
RTVSPost2010PropOp42
 70
     1
102
RTVSPost2010Prop43
 90
        3
102
RTVSPost2010PropOp43
 70
     1
102
RTVSPost2010Prop44ColorIndex
 90
        5
102
RTVSPost2010Prop44ColorRGB
 90
      255
102
RTVSPost2010PropOp44
 70
     1
102
RTVSPost2010Prop45
280
     0
102
RTVSPost2010PropOp45
 70
     1
102
RTVSPost2010Prop46
 90
       50
102
RTVSPost2010PropOp46
 70
     1
102
RTVSPost2010Prop47
 90
       50
102
RTVSPost2010PropOp47
 70
     1
102
RTVSPost2010Prop48
 90
       50
102
RTVSPost2010PropOp48
 70
     1
102
RTVSPost2010Prop49
280
     0
102
RTVSPost2010PropOp49
 70
     1
102
RTVSPost2010Prop50
 90
       50
102
RTVSPost2010PropOp50
 70
     1
102
RTVSPost2010Prop51ColorIndex
 90
      256
102
RTVSPost2010Prop51ColorRGB
 90
-16777216
102
RTVSPost2010PropOp51
 70
     0
102
RTVSPost2010Prop52
140
1.0
102
RTVSPost2010PropOp52
 70
     0
102
RTVSPost2010Prop53
 90
        2
102
RTVSPost2010PropOp53
 70
     1
102
RTVSPost2010Prop54
  1
strokes_ogs.tif
102
RTVSPost2010PropOp54
 70
     1
102
RTVSPost2010Prop55
280
     0
102
RTVSPost2010PropOp55
 70
     1
102
RTVSPost2010Prop56
140
1.0
102
RTVSPost2010PropOp56
 70
     1
102
RTVSPost2010Prop57
140
1.0
102
RTVSPost2010PropOp57
 70
     1
102
RTVSPropertyOp0
 70
     1
102
RTVSPropertyOp1
 70
     1
102
RTVSPropertyOp2
 70
     1
102
RTVSPropertyOp3
 70
     1
102
RTVSPropertyOp4
 70
     1
102
RTVSPropertyOp5
 70
     1
102
RTVSPropertyOp6
 70
     1
102
RTVSPropertyOp7
 70
     1
102
RTVSPropertyOp8
 70
     1
102
RTVSPropertyOp9
 70
     1
102
RTVSPropertyOp10
 70
     1
102
RTVSPropertyOp11
 70
     1
102
RTVSPropertyOp12
 70
     1
102
RTVSPropertyOp13
 70
     1
102
RTVSPropertyOp14
 70
     1
102
RTVSPropertyOp15
 70
     1
102
RTVSPropertyOp16
 70
     1
102
RTVSPropertyOp17
 70
     1
102
RTVSPropertyOp18
 70
     1
102
RTVSPropertyOp19
 70
     1
102
RTVSPropertyOp20
 70
     1
102
RTVSPropertyOp21
 70
     1
102
RTVSPropertyOp22
 70
     1
102
RTVSPropertyOp23
 70
     1
102
RTVSPropertyOp24
 70
     1
102
RTVSPropertyOp25
 70
     1
102
RTVSPropertyOp26
 70
     1
102
RTVSPropertyOp27
 70
     1
102
RTVSPropertyOp28
 70
     1
102
RTVSPropertyOp29
 70
     1
102
RTVSPropertyOp30
 70
     1
102
RTVSPropertyOp31
 70
     1
102
RTVSPropertyOp32
 70
     1
102
RTVSPropertyOp33
 70
     1
102
RTVSPropertyOp34
 70
     1
102
RTVSPropertyOp35
 70
     1
102
RTVSPropertyOp36
 70
     1
102
RTVSPropertyOp37
 70
     1
102
RTVSPropertyOp38
 70
     1
102
RTVSPropertyOp39
 70
     1
102
RTVSPropertyOp40
 70
     1
102
RTVSPropertyOp41
 70
     1
102
RTVSPropertyOp42
 70
     1
102
RTVSPropertyOp43
 70
     1
102
RTVSPropertyOp44
 70
     1
102
RTVSPropertyOp45
 70
     1
102
RTVSPropertyOp46
 70
     1
102
RTVSPropertyOp47
 70
     1
102
RTVSPropertyOp48
 70
     1
102
RTVSPropertyOp49
 70
     1
102
RTVSPropertyOp50
 70
     1
102
RTVSPropertyOp51
 70
     0
102
RTVSPropertyOp52
 70
     0
102
RTVSPropertyOp53
 70
     1
102
RTVSPropertyOp54
 70
     1
102
RTVSPropertyOp55
 70
     1
102
RTVSPropertyOp56
 70
     1
102
RTVSPropertyOp57
 70
     1
102
RTVSPropertyOp58
 70
     1
102
RTVSPropertyOp59
 70
     1
102
RTVSPropertyOp60
 70
     1
102
RTVSPropertyOp61
 70
     1
102
RTVSPropertyOp62
 70
     1
  0
XRECORD
  5
15A7
102
{ACAD_REACTORS
330
15A6
102
}
330
15A6
100
AcDbXrecord
280
     1
102
RTVSPost2010Prop28
280
     0
102
RTVSPost2010PropOp28
 70
     1
102
RTVSPost2010Prop29
280
     1
102
RTVSPost2010PropOp29
 70
     1
102
RTVSPost2010Prop30
280
     1
102
RTVSPost2010PropOp30
 70
     1
102
RTVSPost2010Prop31
280
     0
102
RTVSPost2010PropOp31
 70
     1
102
RTVSPost2010Prop32
280
     0
102
RTVSPost2010PropOp32
 70
     1
102
RTVSPost2010Prop33
280
     0
102
RTVSPost2010PropOp33
 70
     1
102
RTVSPost2010Prop34
280
     0
102
RTVSPost2010PropOp34
 70
     1
102
RTVSPost2010Prop35
280
     0
102
RTVSPost2010PropOp35
 70
     1
102
RTVSPost2010Prop36
280
     0
102
RTVSPost2010PropOp36
 70
     1
102
RTVSPost2010Prop37
 90
       50
102
RTVSPost2010PropOp37
 70
     1
102
RTVSPost2010Prop38
140
0.0
102
RTVSPost2010PropOp38
 70
     1
102
RTVSPost2010Prop39
140
1.0
102
RTVSPost2010PropOp39
 70
     1
102
RTVSPost2010Prop40
 90
        0
102
RTVSPost2010PropOp40
 70
     1
102
RTVSPost2010Prop41ColorIndex
 90
       18
102
RTVSPost2010Prop41ColorRGB
 90
        0
102
RTVSPost2010PropOp41
 70
     1
102
RTVSPost2010Prop42
 90
       50
102
RTVSPost2010PropOp42
 70
     1
102
RTVSPost2010Prop43
 90
        3
102
RTVSPost2010PropOp43
 70
     1
102
RTVSPost2010Prop44ColorIndex
 90
        5
102
RTVSPost2010Prop44ColorRGB
 90
      255
102
RTVSPost2010PropOp44
 70
     1
102
RTVSPost2010Prop45
280
     0
102
RTVSPost2010PropOp45
 70
     1
102
RTVSPost2010Prop46
 90
       50
102
RTVSPost2010PropOp46
 70
     1
102
RTVSPost2010Prop47
 90
       50
102
RTVSPost2010PropOp47
 70
     1
102
RTVSPost2010Prop48
 90
       50
102
RTVSPost2010PropOp48
 70
     1
102
RTVSPost2010Prop49
280
     0
102
RTVSPost2010PropOp49
 70
     1
102
RTVSPost2010Prop50
 90
       50
102
RTVSPost2010PropOp50
 70
     1
102
RTVSPost2010Prop51ColorIndex
 90
      256
102
RTVSPost2010Prop51ColorRGB
 90
-16777216
102
RTVSPost2010PropOp51
 70
     0
102
RTVSPost2010Prop52
140
1.0
102
RTVSPost2010PropOp52
 70
     0
102
RTVSPost2010Prop53
 90
        2
102
RTVSPost2010PropOp53
 70
     1
102
RTVSPost2010Prop54
  1
strokes_ogs.tif
102
RTVSPost2010PropOp54
 70
     1
102
RTVSPost2010Prop55
280
     0
102
RTVSPost2010PropOp55
 70
     1
102
RTVSPost2010Prop56
140
1.0
102
RTVSPost2010PropOp56
 70
     1
102
RTVSPost2010Prop57
140
1.0
102
RTVSPost2010PropOp57
 70
     1
102
RTVSPropertyOp0
 70
     1
102
RTVSPropertyOp1
 70
     1
102
RTVSPropertyOp2
 70
     1
102
RTVSPropertyOp3
 70
     1
102
RTVSPropertyOp4
 70
     1
102
RTVSPropertyOp5
 70
     1
102
RTVSPropertyOp6
 70
     1
102
RTVSPropertyOp7
 70
     1
102
RTVSPropertyOp8
 70
     1
102
RTVSPropertyOp9
 70
     1
102
RTVSPropertyOp10
 70
     1
102
RTVSPropertyOp11
 70
     1
102
RTVSPropertyOp12
 70
     1
102
RTVSPropertyOp13
 70
     1
102
RTVSPropertyOp14
 70
     1
102
RTVSPropertyOp15
 70
     1
102
RTVSPropertyOp16
 70
     1
102
RTVSPropertyOp17
 70
     1
102
RTVSPropertyOp18
 70
     1
102
RTVSPropertyOp19
 70
     1
102
RTVSPropertyOp20
 70
     1
102
RTVSPropertyOp21
 70
     1
102
RTVSPropertyOp22
 70
     1
102
RTVSPropertyOp23
 70
     1
102
RTVSPropertyOp24
 70
     1
102
RTVSPropertyOp25
 70
     1
102
RTVSPropertyOp26
 70
     1
102
RTVSPropertyOp27
 70
     1
102
RTVSPropertyOp28
 70
     1
102
RTVSPropertyOp29
 70
     1
102
RTVSPropertyOp30
 70
     1
102
RTVSPropertyOp31
 70
     1
102
RTVSPropertyOp32
 70
     1
102
RTVSPropertyOp33
 70
     1
102
RTVSPropertyOp34
 70
     1
102
RTVSPropertyOp35
 70
     1
102
RTVSPropertyOp36
 70
     1
102
RTVSPropertyOp37
 70
     1
102
RTVSPropertyOp38
 70
     1
102
RTVSPropertyOp39
 70
     1
102
RTVSPropertyOp40
 70
     1
102
RTVSPropertyOp41
 70
     1
102
RTVSPropertyOp42
 70
     1
102
RTVSPropertyOp43
 70
     1
102
RTVSPropertyOp44
 70
     1
102
RTVSPropertyOp45
 70
     1
102
RTVSPropertyOp46
 70
     1
102
RTVSPropertyOp47
 70
     1
102
RTVSPropertyOp48
 70
     1
102
RTVSPropertyOp49
 70
     1
102
RTVSPropertyOp50
 70
     1
102
RTVSPropertyOp51
 70
     0
102
RTVSPropertyOp52
 70
     0
102
RTVSPropertyOp53
 70
     1
102
RTVSPropertyOp54
 70
     1
102
RTVSPropertyOp55
 70
     1
102
RTVSPropertyOp56
 70
     1
102
RTVSPropertyOp57
 70
     1
102
RTVSPropertyOp58
 70
     1
102
RTVSPropertyOp59
 70
     1
102
RTVSPropertyOp60
 70
     1
102
RTVSPropertyOp61
 70
     1
102
RTVSPropertyOp62
 70
     1
  0
ENDSEC
  0
EOF
