  0
SECTION
  2
HEADER
  9
$ACADVER
  1
AC1014
  9
$ACADMAINTVER
 70
     9
  9
$DWGCODEPAGE
  3
ANSI_932
  9
$INSBASE
 10
0.0
 20
0.0
 30
0.0
  9
$EXTMIN
 10
78.77813557439026
 20
43.41657997745921
 30
0.0
  9
$EXTMAX
 10
514.0315930078775
 20
364.6481246919782
 30
0.0
  9
$LIMMIN
 10
0.0
 20
0.0
  9
$LIMMAX
 10
297.0
 20
210.0
  9
$ORTHOMODE
 70
     1
  9
$REGENMODE
 70
     1
  9
$FILLMODE
 70
     1
  9
$QTEXTMODE
 70
     0
  9
$MIRRTEXT
 70
     0
  9
$DRAGMODE
 70
     2
  9
$LTSCALE
 40
2.0
  9
$OSMODE
 70
    37
  9
$ATTMODE
 70
     1
  9
$TEXTSIZE
 40
2.0
  9
$TRACEWID
 40
1.0
  9
$TEXTSTYLE
  7
STANDARD
  9
$CLAYER
  8
0
  9
$CELTYPE
  6
BYLAYER
  9
$CECOLOR
 62
   256
  9
$CELTSCALE
 40
1.0
  9
$DELOBJ
 70
     1
  9
$DISPSILH
 70
     0
  9
$DIMSCALE
 40
2.0
  9
$DIMASZ
 40
1.8
  9
$DIMEXO
 40
0.625
  9
$DIMDLI
 40
3.75
  9
$DIMRND
 40
0.0
  9
$DIMDLE
 40
0.0
  9
$DIMEXE
 40
0.8
  9
$DIMTP
 40
0.0
  9
$DIMTM
 40
0.0
  9
$DIMTXT
 40
1.8
  9
$DIMCEN
 40
2.5
  9
$DIMTSZ
 40
0.0
  9
$DIMTOL
 70
     0
  9
$DIMLIM
 70
     0
  9
$DIMTIH
 70
     0
  9
$DIMTOH
 70
     0
  9
$DIMSE1
 70
     0
  9
$DIMSE2
 70
     0
  9
$DIMTAD
 70
     1
  9
$DIMZIN
 70
     8
  9
$DIMBLK
  1

  9
$DIMASO
 70
     1
  9
$DIMSHO
 70
     1
  9
$DIMPOST
  1

  9
$DIMAPOST
  1

  9
$DIMALT
 70
     0
  9
$DIMALTD
 70
     4
  9
$DIMALTF
 40
0.0394
  9
$DIMLFAC
 40
1.0
  9
$DIMTOFL
 70
     1
  9
$DIMTVP
 40
0.0
  9
$DIMTIX
 70
     0
  9
$DIMSOXD
 70
     0
  9
$DIMSAH
 70
     0
  9
$DIMBLK1
  1

  9
$DIMBLK2
  1

  9
$DIMSTYLE
  2
STANDARD
  9
$DIMCLRD
 70
     0
  9
$DIMCLRE
 70
     0
  9
$DIMCLRT
 70
     0
  9
$DIMTFAC
 40
1.0
  9
$DIMGAP
 40
0.75
  9
$DIMJUST
 70
     0
  9
$DIMSD1
 70
     0
  9
$DIMSD2
 70
     0
  9
$DIMTOLJ
 70
     1
  9
$DIMTZIN
 70
     0
  9
$DIMALTZ
 70
     0
  9
$DIMALTTZ
 70
     0
  9
$DIMFIT
 70
     3
  9
$DIMUPT
 70
     0
  9
$DIMUNIT
 70
     8
  9
$DIMDEC
 70
     2
  9
$DIMTDEC
 70
     2
  9
$DIMALTU
 70
     8
  9
$DIMALTTD
 70
     4
  9
$DIMTXSTY
  7
STANDARD
  9
$DIMAUNIT
 70
     0
  9
$LUNITS
 70
     2
  9
$LUPREC
 70
     3
  9
$SKETCHINC
 40
1.0
  9
$FILLETRAD
 40
10.0
  9
$AUNITS
 70
     0
  9
$AUPREC
 70
     2
  9
$MENU
  1
.
  9
$ELEVATION
 40
0.0
  9
$PELEVATION
 40
0.0
  9
$THICKNESS
 40
0.0
  9
$LIMCHECK
 70
     0
  9
$BLIPMODE
 70
     0
  9
$CHAMFERA
 40
0.0
  9
$CHAMFERB
 40
0.0
  9
$CHAMFERC
 40
20.0
  9
$CHAMFERD
 40
0.0
  9
$SKPOLY
 70
     0
  9
$TDCREATE
 40
2453759.643870798
  9
$TDUPDATE
 40
2454399.567245000
  9
$TDINDWG
 40
0.0937411227
  9
$TDUSRTIMER
 40
0.0937411227
  9
$USRTIMER
 70
     1
  9
$ANGBASE
 50
0.0
  9
$ANGDIR
 70
     0
  9
$PDMODE
 70
     0
  9
$PDSIZE
 40
-10.0
  9
$PLINEWID
 40
0.0
  9
$COORDS
 70
     1
  9
$SPLFRAME
 70
     0
  9
$SPLINETYPE
 70
     6
  9
$SPLINESEGS
 70
     8
  9
$ATTDIA
 70
     0
  9
$ATTREQ
 70
     1
  9
$HANDLING
 70
-16383
  9
$HANDSEED
  5
1303
  9
$SURFTAB1
 70
     6
  9
$SURFTAB2
 70
     6
  9
$SURFTYPE
 70
     6
  9
$SURFU
 70
     6
  9
$SURFV
 70
     6
  9
$UCSNAME
  2

  9
$UCSORG
 10
0.0
 20
0.0
 30
0.0
  9
$UCSXDIR
 10
1.0
 20
0.0
 30
0.0
  9
$UCSYDIR
 10
0.0
 20
1.0
 30
0.0
  9
$PUCSNAME
  2

  9
$PUCSORG
 10
0.0
 20
0.0
 30
0.0
  9
$PUCSXDIR
 10
1.0
 20
0.0
 30
0.0
  9
$PUCSYDIR
 10
0.0
 20
1.0
 30
0.0
  9
$USERI1
 70
     0
  9
$USERI2
 70
     0
  9
$USERI3
 70
     0
  9
$USERI4
 70
     0
  9
$USERI5
 70
     0
  9
$USERR1
 40
0.0
  9
$USERR2
 40
0.0
  9
$USERR3
 40
0.0
  9
$USERR4
 40
0.0
  9
$USERR5
 40
0.0
  9
$WORLDVIEW
 70
     1
  9
$SHADEDGE
 70
     3
  9
$SHADEDIF
 70
    70
  9
$TILEMODE
 70
     1
  9
$MAXACTVP
 70
    48
  9
$PINSBASE
 10
0.0
 20
0.0
 30
0.0
  9
$PLIMCHECK
 70
     0
  9
$PEXTMIN
 10
0.0
 20
0.0
 30
0.0
  9
$PEXTMAX
 10
0.0
 20
0.0
 30
0.0
  9
$PLIMMIN
 10
0.0
 20
0.0
  9
$PLIMMAX
 10
12.0
 20
9.0
  9
$UNITMODE
 70
     0
  9
$VISRETAIN
 70
     1
  9
$PLINEGEN
 70
     0
  9
$PSLTSCALE
 70
     1
  9
$TREEDEPTH
 70
  3020
  9
$PICKSTYLE
 70
     1
  9
$CMLSTYLE
  2
STANDARD
  9
$CMLJUST
 70
     0
  9
$CMLSCALE
 40
1.0
  9
$PROXYGRAPHICS
 70
     1
  9
$MEASUREMENT
 70
     0
  0
ENDSEC
  0
SECTION
  2
CLASSES
  0
CLASS
  1
DICTIONARYVAR
  2
AcDbDictionaryVar
  3
AutoCAD 2000
 90
        0
280
     0
281
     0
  0
CLASS
  1
ACDBDICTIONARYWDFLT
  2
AcDbDictionaryWithDefault
  3
AutoCAD 2000
 90
        0
280
     0
281
     0
  0
CLASS
  1
ACDBPLACEHOLDER
  2
AcDbPlaceHolder
  3
AutoCAD 2000
 90
        0
280
     0
281
     0
  0
CLASS
  1
LAYOUT
  2
AcDbLayout
  3
AutoCAD 2000
 90
        0
280
     0
281
     0
  0
CLASS
  1
LONG_TRANSACTION
  2
AcDbLongTransaction
  3
AutoCAD 2000
 90
        0
280
     0
281
     0
  0
CLASS
  1
LWPOLYLINE
  2
AcDbPolyline
  3
AutoCAD 2000
 90
        0
280
     0
281
     1
  0
CLASS
  1
HATCH
  2
AcDbHatch
  3
AutoCAD 2000
 90
        0
280
     0
281
     1
  0
CLASS
  1
XRECORD
  2
AcDbXrecord
  3
AutoCAD 2000
 90
        0
280
     0
281
     0
  0
ENDSEC
  0
SECTION
  2
TABLES
  0
TABLE
  2
VPORT
  5
6E
330
0
100
AcDbSymbolTable
 70
     2
  0
VPORT
  5
12DD
330
6E
100
AcDbSymbolTableRecord
100
AcDbViewportTableRecord
  2
*ACTIVE
 70
     0
 10
0.0
 20
0.0
 11
1.0
 21
1.0
 12
276.153462072332
 22
192.27574002496
 13
0.0
 23
0.0
 14
10.0
 24
10.0
 15
10.0
 25
10.0
 16
0.0
 26
0.0
 36
1.0
 17
0.0
 27
0.0
 37
0.0
 40
347.431349615158
 41
1.540920716112531
 42
50.0
 43
0.0
 44
0.0
 50
0.0
 51
0.0
 71
     0
 72
   100
 73
     1
 74
     3
 75
     0
 76
     0
 77
     0
 78
     0
  0
ENDTAB
  0
TABLE
  2
LTYPE
  5
69
330
0
100
AcDbSymbolTable
 70
     4
  0
LTYPE
  5
6A
330
69
100
AcDbSymbolTableRecord
100
AcDbLinetypeTableRecord
  2
BYBLOCK
 70
     0
  3

 72
    65
 73
     0
 40
0.0
  0
LTYPE
  5
6B
330
69
100
AcDbSymbolTableRecord
100
AcDbLinetypeTableRecord
  2
BYLAYER
 70
     0
  3

 72
    65
 73
     0
 40
0.0
  0
LTYPE
  5
8
330
69
100
AcDbSymbolTableRecord
100
AcDbLinetypeTableRecord
  2
CONTINUOUS
 70
     0
  3
Solid line
 72
    65
 73
     0
 40
0.0
  0
LTYPE
  5
27C
330
69
100
AcDbSymbolTableRecord
100
AcDbLinetypeTableRecord
  2
SEKKEI_A2_
 70
     0
  3
center(A2)  ____ _ ____ _ ____ _ ____ _ ____ _ 
 72
    65
 73
     4
 40
14.28749999999999
 49
9.525
 74
     0
 49
-1.587499999999999
 74
     0
 49
1.587499999999999
 74
     0
 49
-1.587499999999999
 74
     0
  0
LTYPE
  5
2B4
330
69
100
AcDbSymbolTableRecord
100
AcDbLinetypeTableRecord
  2
HIDDEN2
 70
     0
  3
Hidden (.5x) _ _ _ _ _ _ _ _ _ _ _ _ _ _ _ _ _
 72
    65
 73
     2
 40
4.762499999999999
 49
3.174999999999999
 74
     0
 49
-1.587499999999999
 74
     0
  0
LTYPE
  5
48F
330
69
100
AcDbSymbolTableRecord
100
AcDbLinetypeTableRecord
  2
SEKKEI_H
 70
     0
  3
Hidden-S _ _ _ _ _ _ _ _ _ _ _ _ _ _ _ _ _
 72
    65
 73
     2
 40
2.381249999999999
 49
1.587499999999999
 74
     0
 49
-0.79375
 74
     0
  0
ENDTAB
  0
TABLE
  2
LAYER
  5
66
330
0
100
AcDbSymbolTable
 70
     9
  0
LAYER
  5
5E
330
66
100
AcDbSymbolTableRecord
100
AcDbLayerTableRecord
  2
0
 70
     0
 62
     7
  6
CONTINUOUS
  0
LAYER
  5
3E
330
66
100
AcDbSymbolTableRecord
100
AcDbLayerTableRecord
  2
CENTER
 70
     0
 62
     3
  6
SEKKEI_A2_
  0
LAYER
  5
2B5
330
66
100
AcDbSymbolTableRecord
100
AcDbLayerTableRecord
  2
HIDS
 70
     0
 62
     1
  6
HIDDEN2
  0
LAYER
  5
2BA
330
66
100
AcDbSymbolTableRecord
100
AcDbLayerTableRecord
  2
HOJO
 70
     0
 62
     4
  6
CONTINUOUS
  0
LAYER
  5
3FA
330
66
100
AcDbSymbolTableRecord
100
AcDbLayerTableRecord
  2
TITLE
 70
     0
 62
     4
  6
CONTINUOUS
  0
ENDTAB
  0
TABLE
  2
STYLE
  5
67
330
0
100
AcDbSymbolTable
 70
     1
  0
STYLE
  5
16
330
67
100
AcDbSymbolTableRecord
100
AcDbTextStyleTableRecord
  2
STANDARD
 70
     0
 40
0.0
 41
1.0
 50
0.0
 71
     0
 42
2.0
  3
simplex.shx
  4
extfont.shx
  0
ENDTAB
  0
TABLE
  2
VIEW
  5
6C
330
0
100
AcDbSymbolTable
 70
     0
  0
ENDTAB
  0
TABLE
  2
UCS
  5
6D
330
0
100
AcDbSymbolTable
 70
     0
  0
ENDTAB
  0
TABLE
  2
APPID
  5
70
330
0
100
AcDbSymbolTable
 70
     1
  0
APPID
  5
71
330
70
100
AcDbSymbolTableRecord
100
AcDbRegAppTableRecord
  2
ACAD
 70
     0
  0
ENDTAB
  0
TABLE
  2
DIMSTYLE
  5
72
330
0
100
AcDbSymbolTable
 70
     1
  0
DIMSTYLE
105
73
102
{ACAD_REACTORS
330
8A5
330
94C
102
}
330
72
100
AcDbSymbolTableRecord
100
AcDbDimStyleTableRecord
  2
STANDARD
 70
     0
  3

  4

  5

  6

  7

 40
2.0
 41
1.8
 42
0.625
 43
3.75
 44
0.8
 45
0.0
 46
0.0
 47
0.0
 48
0.0
140
1.8
141
2.5
142
0.0
143
0.0394
144
1.0
145
0.0
146
1.0
147
0.75
 71
     0
 72
     0
 73
     0
 74
     0
 75
     0
 76
     0
 77
     1
 78
     8
170
     0
171
     4
172
     1
173
     0
174
     0
175
     0
176
     0
177
     0
178
     0
270
     8
271
     2
272
     2
273
     8
274
     4
340
16
275
     0
280
     0
281
     0
282
     0
283
     1
284
     0
285
     0
286
     0
287
     3
288
     0
  0
ENDTAB
  0
TABLE
  2
BLOCK_RECORD
  5
1
330
0
100
AcDbSymbolTable
 70
    58
  0
BLOCK_RECORD
  5
2
102
{ACAD_XDICTIONARY
360
12FF
102
}
330
1
100
AcDbSymbolTableRecord
100
AcDbBlockTableRecord
  2
*MODEL_SPACE
  0
BLOCK_RECORD
  5
12D8
102
{ACAD_XDICTIONARY
360
1301
102
}
330
1
100
AcDbSymbolTableRecord
100
AcDbBlockTableRecord
  2
*PAPER_SPACE
  0
ENDTAB
  0
ENDSEC
  0
SECTION
  2
BLOCKS
  0
BLOCK
  5
5D
330
2
100
AcDbEntity
  8
0
100
AcDbBlockBegin
  2
*MODEL_SPACE
 70
     0
 10
0.0
 20
0.0
 30
0.0
  3
*MODEL_SPACE
  1

  0
ENDBLK
  5
5F
330
2
100
AcDbEntity
  8
0
100
AcDbBlockEnd
  0
BLOCK
  5
12DA
330
12D8
100
AcDbEntity
 67
     1
  8
0
100
AcDbBlockBegin
  2
*PAPER_SPACE
 70
     0
 10
0.0
 20
0.0
 30
0.0
  3
*PAPER_SPACE
  1

  0
ENDBLK
  5
12DB
330
12D8
100
AcDbEntity
 67
     1
  8
0
100
AcDbBlockEnd
  0
ENDSEC
  0
SECTION
  2
ENTITIES
  0
LINE
  5
8A7
330
2
100
AcDbEntity
  8
0
100
AcDbLine
 10
379.0315930078775
 20
112.9165819774591
 30
0.0
 11
400.5315930078775
 21
112.9165819774591
 31
0.0
  0
LINE
  5
8A8
330
2
100
AcDbEntity
  8
0
100
AcDbLine
 10
379.0315930078775
 20
117.9165819774592
 30
0.0
 11
400.5315930078775
 21
117.9165819774592
 31
0.0
  0
ARC
  5
8AA
330
2
100
AcDbEntity
  8
0
100
AcDbCircle
 10
398.0315930078775
 20
56.41658997745924
 30
0.0
 40
2.0
100
AcDbArc
 50
90.0
 51
180.0
  0
LINE
  5
8AE
330
2
100
AcDbEntity
  8
0
100
AcDbLine
 10
396.0315930078775
 20
50.41657997745921
 30
0.0
 11
490.0315930078774
 21
50.41657997745921
 31
0.0
  0
LINE
  5
8AF
330
2
100
AcDbEntity
  8
CENTER
100
AcDbLine
 10
372.0315930078775
 20
115.4165819774592
 30
0.0
 11
514.0315930078775
 21
115.4165819774592
 31
0.0
  0
LINE
  5
8B2
330
2
100
AcDbEntity
  8
0
100
AcDbLine
 10
379.0315930078775
 20
107.9165819774592
 30
0.0
 11
406.0315930078775
 21
107.9165819774592
 31
0.0
  0
LINE
  5
8B3
330
2
100
AcDbEntity
  8
0
100
AcDbLine
 10
379.0315930078775
 20
122.9165819774592
 30
0.0
 11
406.0315930078775
 21
122.9165819774592
 31
0.0
  0
LINE
  5
8BA
330
2
100
AcDbEntity
  8
0
100
AcDbLine
 10
216.9058325743902
 20
130.2098399774592
 30
0.0
 11
240.9852395743902
 21
147.1092309774592
 31
0.0
  0
LINE
  5
8BB
330
2
100
AcDbEntity
  8
CENTER
100
AcDbLine
 10
78.77813557439026
 20
93.11657797745921
 30
0.0
 11
234.0281315743902
 21
93.11657797745926
 31
0.0
  0
LINE
  5
8BC
330
2
100
AcDbEntity
  8
CENTER
100
AcDbLine
 10
230.5281940844882
 20
115.4165819774592
 30
0.0
 11
284.5280690642921
 21
115.4165819774592
 31
0.0
  0
ARC
  5
8BD
330
2
100
AcDbEntity
  8
0
100
AcDbCircle
 10
257.2781315743902
 20
102.4165779774592
 30
0.0
 40
42.5
100
AcDbArc
 50
19.749901
 51
160.2501070000007
  0
LINE
  5
8BE
330
2
100
AcDbEntity
  8
0
100
AcDbLine
 10
216.7781475743902
 20
58.41657997745921
 30
0.0
 11
297.7781315743902
 21
58.41657997745921
 31
0.0
  0
LINE
  5
8BF
330
2
100
AcDbEntity
  8
0
100
AcDbLine
 10
214.7781315743902
 20
50.41657997745921
 30
0.0
 11
299.7781315743902
 21
50.41657997745921
 31
0.0
  0
ARC
  5
8C0
330
2
100
AcDbEntity
  8
0
100
AcDbCircle
 10
257.2781315743902
 20
102.4165779774592
 30
0.0
 40
42.5
100
AcDbArc
 50
199.7498929999992
 51
340.2500920000002
  0
LINE
  5
8C2
330
2
100
AcDbEntity
  8
0
100
AcDbLine
 10
214.7781315743902
 20
126.1171809774592
 30
0.0
 11
214.7781315743902
 21
50.41657997745921
 31
0.0
  0
LINE
  5
8C3
330
2
100
AcDbEntity
  8
0
100
AcDbLine
 10
85.77813557439027
 20
120.6355679774592
 30
0.0
 11
85.77813557439027
 21
65.54850097745935
 31
0.0
  0
LINE
  5
8C4
330
2
100
AcDbEntity
  8
0
100
AcDbLine
 10
142.2781355743902
 20
55.1165999774592
 30
0.0
 11
142.2781355743902
 21
131.1165779774592
 31
0.0
  0
LINE
  5
8C5
330
2
100
AcDbEntity
  8
0
100
AcDbLine
 10
117.2781355743902
 20
123.6555189774592
 30
0.0
 11
117.2781355743902
 21
56.11656997745922
 31
0.0
  0
LINE
  5
8C6
330
2
100
AcDbEntity
  8
0
100
AcDbLine
 10
142.2780865743902
 20
62.86757997745922
 30
0.0
 11
214.7781245743902
 21
62.86757997745922
 31
0.0
  0
LINE
  5
8C7
330
2
100
AcDbEntity
  8
0
100
AcDbLine
 10
142.2781355743902
 20
55.11657997745925
 30
0.0
 11
214.7781315743902
 21
55.11657997745925
 31
0.0
  0
LINE
  5
8C8
330
2
100
AcDbEntity
  8
0
100
AcDbLine
 10
88.77709857439032
 20
63.11293197745914
 30
0.0
 11
117.2789905743902
 21
62.36658197745924
 31
0.0
  0
LINE
  5
8C9
330
2
100
AcDbEntity
  8
0
100
AcDbLine
 10
87.10131657439029
 20
63.71560397745913
 30
0.0
 11
88.77709857439032
 21
63.11293197745914
 31
0.0
  0
ARC
  5
8CA
330
2
100
AcDbEntity
  8
0
100
AcDbCircle
 10
87.77813557439026
 20
65.59759697745931
 30
0.0
 40
2.0
100
AcDbArc
 50
180.0
 51
250.2197109999995
  0
LINE
  5
8CB
330
2
100
AcDbEntity
  8
0
100
AcDbLine
 10
142.2781355743902
 20
62.86760997745921
 30
0.0
 11
128.2781355743902
 21
62.86760997745921
 31
0.0
  0
LINE
  5
8CC
330
2
100
AcDbEntity
  8
0
100
AcDbLine
 10
119.2778305743902
 20
55.51805197745927
 30
0.0
 11
142.2781355743902
 21
55.11657997745925
 31
0.0
  0
ARC
  5
8CD
330
2
100
AcDbEntity
  8
0
100
AcDbCircle
 10
127.2781355743902
 20
62.61657997745925
 30
0.0
 40
1.0
100
AcDbArc
 50
0.0
 51
90.0
  0
ARC
  5
8CE
330
2
100
AcDbEntity
  8
0
100
AcDbCircle
 10
133.6781255743902
 20
59.11657997745925
 30
0.0
 40
8.999999
100
AcDbArc
 50
163.3984989999996
 51
196.6009979999997
  0
LINE
  5
8CF
330
2
100
AcDbEntity
  8
0
100
AcDbLine
 10
127.2781355743902
 20
62.61657997745925
 30
0.0
 11
127.2781355743902
 21
55.61657997745925
 31
0.0
  0
LINE
  5
8D0
330
2
100
AcDbEntity
  8
0
100
AcDbLine
 10
128.2781355743902
 20
62.73464897745924
 30
0.0
 11
128.2781355743902
 21
55.61657997745925
 31
0.0
  0
LINE
  5
8D1
330
2
100
AcDbEntity
  8
0
100
AcDbLine
 10
128.2781355743902
 20
62.61657997745925
 30
0.0
 11
128.2781355743902
 21
55.97016997745924
 31
0.0
  0
ARC
  5
8D2
330
2
100
AcDbEntity
  8
0
100
AcDbCircle
 10
126.2991315743902
 20
56.91656997745923
 30
0.0
 40
1.3
100
AcDbArc
 50
196.6009060000003
 51
270.0
  0
ARC
  5
8D3
330
2
100
AcDbEntity
  8
0
100
AcDbCircle
 10
128.7781355743902
 20
55.85229997745921
 30
0.0
 40
0.5
100
AcDbArc
 50
180.0
 51
268.9999999999982
  0
LINE
  5
8D4
330
2
100
AcDbEntity
  8
0
100
AcDbLine
 10
128.2781355743902
 20
55.61657997745925
 30
0.0
 11
126.2991315743902
 21
55.61657997745925
 31
0.0
  0
ARC
  5
8D5
330
2
100
AcDbEntity
  8
0
100
AcDbCircle
 10
126.2991315743902
 20
61.31655997745923
 30
0.0
 40
1.3
100
AcDbArc
 50
90.0
 51
163.3984069999999
  0
LINE
  5
8D6
330
2
100
AcDbEntity
  8
0
100
AcDbLine
 10
128.2781355743902
 20
62.61657997745925
 30
0.0
 11
126.2991315743902
 21
62.61657997745925
 31
0.0
  0
LINE
  5
8D7
330
2
100
AcDbEntity
  8
0
100
AcDbLine
 10
119.2778305743902
 20
63.61657997745925
 30
0.0
 11
127.2781355743902
 21
63.61657997745925
 31
0.0
  0
ARC
  5
8D8
330
2
100
AcDbEntity
  8
0
100
AcDbCircle
 10
113.7781355743902
 20
56.70839297745925
 30
0.0
 40
0.5
100
AcDbArc
 50
180.0
 51
268.5000000000005
  0
ARC
  5
8D9
330
2
100
AcDbEntity
  8
0
100
AcDbCircle
 10
117.5780625743902
 20
59.61657997745925
 30
0.0
 40
7.0
100
AcDbArc
 50
163.0435029999997
 51
196.9579929999995
  0
LINE
  5
8DA
330
2
100
AcDbEntity
  8
0
100
AcDbLine
 10
112.5780625743902
 20
56.86657997745925
 30
0.0
 11
112.5780625743902
 21
62.36657997745925
 31
0.0
  0
LINE
  5
8DB
330
2
100
AcDbEntity
  8
0
100
AcDbLine
 10
113.2781355743902
 20
56.70839297745925
 30
0.0
 11
113.2781355743902
 21
62.47132397745923
 31
0.0
  0
ARC
  5
8DC
330
2
100
AcDbEntity
  8
0
100
AcDbCircle
 10
111.8388655743902
 20
57.86657997745925
 30
0.0
 40
1.0
100
AcDbArc
 50
196.9580989999995
 51
270.0
  0
LINE
  5
8DD
330
2
100
AcDbEntity
  8
0
100
AcDbLine
 10
113.2781355743902
 20
56.86657997745925
 30
0.0
 11
111.8388655743902
 21
56.86657997745925
 31
0.0
  0
ARC
  5
8DE
330
2
100
AcDbEntity
  8
0
100
AcDbCircle
 10
111.8388655743902
 20
61.36657997745925
 30
0.0
 40
1.0
100
AcDbArc
 50
90.0
 51
163.0431060000002
  0
LINE
  5
8DF
330
2
100
AcDbEntity
  8
0
100
AcDbLine
 10
113.2781355743902
 20
62.36657997745925
 30
0.0
 11
111.8388655743902
 21
62.36657997745925
 31
0.0
  0
LINE
  5
8E0
330
2
100
AcDbEntity
  8
0
100
AcDbLine
 10
113.7650475743902
 20
56.20856397745922
 30
0.0
 11
117.2781355743902
 21
56.11656997745922
 31
0.0
  0
ARC
  5
8E1
330
2
100
AcDbEntity
  8
0
100
AcDbCircle
 10
118.2781355743902
 20
56.82062197745921
 30
0.0
 40
1.0
100
AcDbArc
 50
180.0
 51
255.0243839999999
  0
ARC
  5
8E2
330
2
100
AcDbEntity
  8
0
100
AcDbCircle
 10
118.2781355743902
 20
64.9191509774592
 30
0.0
 40
1.0
100
AcDbArc
 50
180.0
 51
255.0243839999999
  0
ARC
  5
8E3
330
2
100
AcDbEntity
  8
0
100
AcDbCircle
 10
118.2781355743902
 20
64.9191509774592
 30
0.0
 40
1.0
100
AcDbArc
 50
180.0
 51
255.0243839999999
  0
LINE
  5
8E4
330
2
100
AcDbEntity
  8
0
100
AcDbLine
 10
118.0197285743902
 20
63.95311497745922
 30
0.0
 11
119.2778305743902
 21
63.61657997745925
 31
0.0
  0
LINE
  5
8E5
330
2
100
AcDbEntity
  8
0
100
AcDbLine
 10
118.0197285743902
 20
55.85458597745923
 30
0.0
 11
119.2778305743902
 21
55.51805197745927
 31
0.0
  0
LINE
  5
8E6
330
2
100
AcDbEntity
  8
CENTER
100
AcDbLine
 10
223.2781315743902
 20
61.91657997745926
 30
0.0
 11
223.2781315743901
 21
46.9165799774592
 31
0.0
  0
LINE
  5
8E7
330
2
100
AcDbEntity
  8
HIDS
  6
SEKKEI_H
100
AcDbLine
 10
226.5281315743902
 20
58.41657997745921
 30
0.0
 11
226.5281315743902
 21
50.41657997745921
 31
0.0
  0
ARC
  5
8E8
330
2
100
AcDbEntity
  8
0
100
AcDbCircle
 10
216.7781475743902
 20
56.41658997745924
 30
0.0
 40
2.0
100
AcDbArc
 50
90.0
 51
180.0
  0
LINE
  5
8E9
330
2
100
AcDbEntity
  8
HIDS
  6
SEKKEI_H
100
AcDbLine
 10
220.0281315743902
 20
58.41657997745921
 30
0.0
 11
220.0281315743902
 21
50.41657997745921
 31
0.0
  0
LINE
  5
8EA
330
2
100
AcDbEntity
  8
0
100
AcDbLine
 10
142.2780865743902
 20
123.3655789774592
 30
0.0
 11
214.7781245743902
 21
123.3655789774592
 31
0.0
  0
LINE
  5
8EB
330
2
100
AcDbEntity
  8
0
100
AcDbLine
 10
142.2781355743902
 20
131.1165779774592
 30
0.0
 11
218.1978095743902
 21
131.1165779774592
 31
0.0
  0
LINE
  5
8ED
330
2
100
AcDbEntity
  8
0
100
AcDbLine
 10
141.7782535743902
 20
143.6165779774592
 30
0.0
 11
141.7782535743902
 21
139.1165779774592
 31
0.0
  0
LINE
  5
8EE
330
2
100
AcDbEntity
  8
0
100
AcDbLine
 10
139.7782535743901
 20
132.1561899774592
 30
0.0
 11
139.7782535743901
 21
143.6165779774592
 31
0.0
  0
LINE
  5
8EF
330
2
100
AcDbEntity
  8
CENTER
100
AcDbLine
 10
124.7781355743902
 20
155.1420989774592
 30
0.0
 11
124.7782535743901
 21
137.3432779774591
 31
0.0
  0
LINE
  5
8F0
330
2
100
AcDbEntity
  8
0
100
AcDbLine
 10
107.7782555743902
 20
143.6165779774592
 30
0.0
 11
107.7782555743902
 21
139.1165779774592
 31
0.0
  0
LINE
  5
8F1
330
2
100
AcDbEntity
  8
0
100
AcDbLine
 10
109.7782555743902
 20
126.7743769774592
 30
0.0
 11
109.7782555743902
 21
143.6165779774592
 31
0.0
  0
LINE
  5
8F2
330
2
100
AcDbEntity
  8
HOJO
100
AcDbLine
 10
93.55755557439023
 20
142.9564829774592
 30
0.0
 11
92.62945557439024
 21
140.5665829774592
 31
0.0
  0
LINE
  5
8F3
330
2
100
AcDbEntity
  8
0
100
AcDbLine
 10
109.2782555743902
 20
138.1165779774592
 30
0.0
 11
108.7782555743902
 21
138.1165779774592
 31
0.0
  0
LINE
  5
8F4
330
2
100
AcDbEntity
  8
0
100
AcDbLine
 10
88.77709857439032
 20
123.1202329774592
 30
0.0
 11
117.2789905743902
 21
123.8665779774592
 31
0.0
  0
LINE
  5
8F5
330
2
100
AcDbEntity
  8
0
100
AcDbLine
 10
113.2781355743902
 20
112.8403719774592
 30
0.0
 11
85.77813557439027
 21
112.1202709774592
 31
0.0
  0
LINE
  5
8F6
330
2
100
AcDbEntity
  8
0
100
AcDbLine
 10
113.2781355743902
 20
106.8927889774592
 30
0.0
 11
85.77813557439027
 21
107.6128859774592
 31
0.0
  0
LINE
  5
8F7
330
2
100
AcDbEntity
  8
0
100
AcDbLine
 10
87.10131657439029
 20
122.5175569774592
 30
0.0
 11
88.77709857439032
 21
123.1202329774592
 31
0.0
  0
ARC
  5
8F8
330
2
100
AcDbEntity
  8
0
100
AcDbCircle
 10
87.77813557439026
 20
120.6355679774592
 30
0.0
 40
2.0
100
AcDbArc
 50
109.7802890000004
 51
180.0
  0
ARC
  5
8F9
330
2
100
AcDbEntity
  8
0
100
AcDbCircle
 10
108.7782555743902
 20
139.1165779774592
 30
0.0
 40
1.0
100
AcDbArc
 50
180.0
 51
270.0
  0
LINE
  5
8FA
330
2
100
AcDbEntity
  8
0
100
AcDbLine
 10
92.62945557439024
 20
140.5665829774592
 30
0.0
 11
107.7782555743902
 21
140.5665829774592
 31
0.0
  0
ARC
  5
8FB
330
2
100
AcDbEntity
  8
0
100
AcDbCircle
 10
117.5780625743902
 20
109.8665779774592
 30
0.0
 40
7.0
100
AcDbArc
 50
163.0435029999997
 51
196.9579929999995
  0
LINE
  5
8FC
330
2
100
AcDbEntity
  8
0
100
AcDbLine
 10
112.5780625743902
 20
107.1165779774592
 30
0.0
 11
112.5780625743902
 21
112.6165779774592
 31
0.0
  0
LINE
  5
8FD
330
2
100
AcDbEntity
  8
0
100
AcDbLine
 10
113.2781355743902
 20
114.4578569774592
 30
0.0
 11
113.2781355743902
 21
101.0515609774592
 31
0.0
  0
ARC
  5
8FE
330
2
100
AcDbEntity
  8
0
100
AcDbCircle
 10
111.8388655743902
 20
108.1165779774592
 30
0.0
 40
1.0
100
AcDbArc
 50
196.9580989999995
 51
270.0
  0
LINE
  5
8FF
330
2
100
AcDbEntity
  8
0
100
AcDbLine
 10
113.2781355743902
 20
107.1165779774592
 30
0.0
 11
111.8388655743902
 21
107.1165779774592
 31
0.0
  0
LINE
  5
900
330
2
100
AcDbEntity
  8
0
100
AcDbLine
 10
113.2781355743902
 20
101.0515609774592
 30
0.0
 11
117.2781355743902
 21
101.0515609774592
 31
0.0
  0
LINE
  5
901
330
2
100
AcDbEntity
  8
0
100
AcDbLine
 10
142.2781355743902
 20
123.3655489774592
 30
0.0
 11
128.2781355743902
 21
123.3655489774592
 31
0.0
  0
ARC
  5
902
330
2
100
AcDbEntity
  8
0
100
AcDbCircle
 10
133.6781255743902
 20
127.1165779774592
 30
0.0
 40
8.999999
100
AcDbArc
 50
163.3990020000002
 51
196.6015010000003
  0
LINE
  5
903
330
2
100
AcDbEntity
  8
0
100
AcDbLine
 10
127.2781355743902
 20
123.6165779774592
 30
0.0
 11
127.2781355743902
 21
130.6165779774592
 31
0.0
  0
LINE
  5
904
330
2
100
AcDbEntity
  8
0
100
AcDbLine
 10
128.2781355743902
 20
123.1165779774592
 30
0.0
 11
128.2781355743902
 21
130.6165779774592
 31
0.0
  0
ARC
  5
905
330
2
100
AcDbEntity
  8
0
100
AcDbCircle
 10
126.2991315743902
 20
124.9165969774592
 30
0.0
 40
1.3
100
AcDbArc
 50
196.601593
 51
270.0
  0
ARC
  5
906
330
2
100
AcDbEntity
  8
0
100
AcDbCircle
 10
127.7781355743902
 20
123.1165779774592
 30
0.0
 40
0.5
100
AcDbArc
 50
270.0
 51
0.0
  0
LINE
  5
907
330
2
100
AcDbEntity
  8
0
100
AcDbLine
 10
128.2781355743902
 20
123.6165779774592
 30
0.0
 11
126.2991315743902
 21
123.6165779774592
 31
0.0
  0
LINE
  5
908
330
2
100
AcDbEntity
  8
0
100
AcDbLine
 10
128.2781355743902
 20
130.6165779774592
 30
0.0
 11
126.2991315743902
 21
130.6165779774592
 31
0.0
  0
ARC
  5
909
330
2
100
AcDbEntity
  8
0
100
AcDbCircle
 10
126.2991315743902
 20
129.3165909774592
 30
0.0
 40
1.3
100
AcDbArc
 50
90.0
 51
163.3990939999996
  0
ARC
  5
90A
330
2
100
AcDbEntity
  8
0
100
AcDbCircle
 10
127.2781355743902
 20
130.6165779774592
 30
0.0
 40
1.0
100
AcDbArc
 50
0.0
 51
90.0
  0
LINE
  5
90B
330
2
100
AcDbEntity
  8
0
100
AcDbLine
 10
127.7781355743902
 20
122.6165779774592
 30
0.0
 11
119.2778305743902
 21
122.6165779774592
 31
0.0
  0
ARC
  5
90C
330
2
100
AcDbEntity
  8
0
100
AcDbCircle
 10
109.2782555743902
 20
137.6165779774592
 30
0.0
 40
0.5
100
AcDbArc
 50
0.0
 51
90.0
  0
LINE
  5
90D
330
2
100
AcDbEntity
  8
0
100
AcDbLine
 10
113.2781355743902
 20
114.4578569774592
 30
0.0
 11
117.2781355743902
 21
114.4578569774592
 31
0.0
  0
ARC
  5
90E
330
2
100
AcDbEntity
  8
0
100
AcDbCircle
 10
111.8388655743902
 20
111.6165779774592
 30
0.0
 40
1.0
100
AcDbArc
 50
90.0
 51
163.0431060000002
  0
LINE
  5
90F
330
2
100
AcDbEntity
  8
0
100
AcDbLine
 10
113.2781355743902
 20
112.6165779774592
 30
0.0
 11
111.8388655743902
 21
112.6165779774592
 31
0.0
  0
LINE
  5
910
330
2
100
AcDbEntity
  8
0
100
AcDbLine
 10
116.3043125743902
 20
124.6551759774592
 30
0.0
 11
111.7259015743902
 21
124.7750639774592
 31
0.0
  0
ARC
  5
911
330
2
100
AcDbEntity
  8
0
100
AcDbCircle
 10
111.7782555743902
 20
126.7743769774592
 30
0.0
 40
2.0
100
AcDbArc
 50
180.0
 51
268.5000000000005
  0
ARC
  5
912
330
2
100
AcDbEntity
  8
0
100
AcDbCircle
 10
116.2781355743902
 20
123.6555189774592
 30
0.0
 40
1.0
100
AcDbArc
 50
0.0
 51
88.50000000000054
  0
ARC
  5
913
330
2
100
AcDbEntity
  8
0
100
AcDbCircle
 10
118.2781355743902
 20
121.3140119774592
 30
0.0
 40
1.0
100
AcDbArc
 50
104.975616
 51
180.0
  0
LINE
  5
914
330
2
100
AcDbEntity
  8
0
100
AcDbLine
 10
118.0197285743902
 20
122.2800459774592
 30
0.0
 11
119.2778305743902
 21
122.6165779774592
 31
0.0
  0
LINE
  5
915
330
2
100
AcDbEntity
  8
0
100
AcDbLine
 10
109.7782555743902
 20
131.6165779774592
 30
0.0
 11
127.2781355743902
 21
131.6165779774592
 31
0.0
  0
ARC
  5
916
330
2
100
AcDbEntity
  8
0
100
AcDbCircle
 10
140.7781355743902
 20
132.1561899774592
 30
0.0
 40
1.0
100
AcDbArc
 50
180.0
 51
268.4999080000003
  0
ARC
  5
917
330
2
100
AcDbEntity
  8
0
100
AcDbCircle
 10
140.2782535743902
 20
137.6165779774592
 30
0.0
 40
0.5
100
AcDbArc
 50
90.0
 51
180.0
  0
LINE
  5
918
330
2
100
AcDbEntity
  8
0
100
AcDbLine
 10
140.2782535743902
 20
138.1165779774592
 30
0.0
 11
140.7782535743902
 21
138.1165779774592
 31
0.0
  0
LINE
  5
919
330
2
100
AcDbEntity
  8
0
100
AcDbLine
 10
140.7519245743902
 20
131.1565569774592
 30
0.0
 11
142.2781355743902
 21
131.1165779774592
 31
0.0
  0
ARC
  5
91A
330
2
100
AcDbEntity
  8
0
100
AcDbCircle
 10
140.7782535743902
 20
139.1165779774592
 30
0.0
 40
1.0
100
AcDbArc
 50
270.0
 51
0.0
  0
LINE
  5
91C
330
2
100
AcDbEntity
  8
0
100
AcDbLine
 10
109.2782555743902
 20
150.1165779774592
 30
0.0
 11
108.7782555743902
 21
150.1165779774592
 31
0.0
  0
LINE
  5
91D
330
2
100
AcDbEntity
  8
0
100
AcDbLine
 10
107.7782555743902
 20
143.6165779774592
 30
0.0
 11
141.7782535743902
 21
143.6165779774592
 31
0.0
  0
LINE
  5
91E
330
2
100
AcDbEntity
  8
0
100
AcDbLine
 10
107.7782555743902
 20
144.6165779774592
 30
0.0
 11
141.7782535743902
 21
144.6165779774592
 31
0.0
  0
LINE
  5
91F
330
2
100
AcDbEntity
  8
0
100
AcDbLine
 10
107.7782555743902
 20
149.1165779774592
 30
0.0
 11
107.7782555743902
 21
144.6165779774592
 31
0.0
  0
ARC
  5
920
330
2
100
AcDbEntity
  8
0
100
AcDbCircle
 10
108.7782555743902
 20
149.1165779774592
 30
0.0
 40
1.0
100
AcDbArc
 50
90.0
 51
180.0
  0
LINE
  5
921
330
2
100
AcDbEntity
  8
HOJO
100
AcDbLine
 10
93.48125557439022
 20
148.2665799774592
 30
0.0
 11
92.74545557439024
 21
145.4314819774592
 31
0.0
  0
LINE
  5
922
330
2
100
AcDbEntity
  8
HOJO
100
AcDbLine
 10
92.74545557439024
 20
145.4314819774592
 30
0.0
 11
93.55755557439023
 21
142.9564829774592
 31
0.0
  0
LINE
  5
923
330
2
100
AcDbEntity
  8
0
100
AcDbLine
 10
93.48125557439022
 20
148.2665799774592
 30
0.0
 11
107.7782555743902
 21
148.2665799774592
 31
0.0
  0
ARC
  5
924
330
2
100
AcDbEntity
  8
0
100
AcDbCircle
 10
124.7782535743901
 20
-97.88339902254078
 30
0.0
 40
250.0
100
AcDbArc
 50
86.66830399999998
 51
93.33169600000003
  0
ARC
  5
925
330
2
100
AcDbEntity
  8
0
100
AcDbCircle
 10
112.7782555743902
 20
144.3165829774592
 30
0.0
 40
7.0
100
AcDbArc
 50
73.04348799999949
 51
106.9579999999994
  0
LINE
  5
926
330
2
100
AcDbEntity
  8
0
100
AcDbLine
 10
110.0282555743902
 20
149.3165829774592
 30
0.0
 11
115.5282555743902
 21
149.3165829774592
 31
0.0
  0
LINE
  5
927
330
2
100
AcDbEntity
  8
0
100
AcDbLine
 10
115.7780135743902
 20
148.6165779774592
 30
0.0
 11
110.2780135743902
 21
148.6165779774592
 31
0.0
  0
LINE
  5
928
330
2
100
AcDbEntity
  8
0
100
AcDbLine
 10
109.7782555743902
 20
144.6165779774592
 30
0.0
 11
109.7782555743902
 21
151.1949019774592
 31
0.0
  0
LINE
  5
929
330
2
100
AcDbEntity
  8
0
100
AcDbLine
 10
110.2782555743902
 20
144.6165779774592
 30
0.0
 11
110.2782555743902
 21
143.6165779774592
 31
0.0
  0
ARC
  5
92A
330
2
100
AcDbEntity
  8
0
100
AcDbCircle
 10
111.0282555743902
 20
150.0557799774592
 30
0.0
 40
1.0
100
AcDbArc
 50
106.9581990000001
 51
180.0
  0
LINE
  5
92B
330
2
100
AcDbEntity
  8
0
100
AcDbLine
 10
110.0282555743902
 20
148.6165779774592
 30
0.0
 11
110.0282555743902
 21
150.0557799774592
 31
0.0
  0
ARC
  5
92C
330
2
100
AcDbEntity
  8
0
100
AcDbCircle
 10
110.2780135743902
 20
148.1165779774592
 30
0.0
 40
0.5
100
AcDbArc
 50
90.0
 51
180.0
  0
ARC
  5
92D
330
2
100
AcDbEntity
  8
0
100
AcDbCircle
 10
110.2782555743902
 20
151.1949019774592
 30
0.0
 40
0.5
100
AcDbArc
 50
93.33169600000003
 51
180.0
  0
ARC
  5
92E
330
2
100
AcDbEntity
  8
0
100
AcDbCircle
 10
109.2782555743902
 20
150.6165779774592
 30
0.0
 40
0.5
100
AcDbArc
 50
270.0
 51
0.0
  0
ARC
  5
92F
330
2
100
AcDbEntity
  8
0
100
AcDbCircle
 10
114.5282555743902
 20
150.0557799774592
 30
0.0
 40
1.0
100
AcDbArc
 50
0.0
 51
73.04309800000067
  0
LINE
  5
930
330
2
100
AcDbEntity
  8
0
100
AcDbLine
 10
115.5282555743902
 20
148.6163799774592
 30
0.0
 11
115.5282555743902
 21
150.0557799774592
 31
0.0
  0
ARC
  5
931
330
2
100
AcDbEntity
  8
0
100
AcDbCircle
 10
116.7780135743902
 20
151.4883129774592
 30
0.0
 40
0.5
100
AcDbArc
 50
91.83745599999886
 51
180.0
  0
LINE
  5
932
330
2
100
AcDbEntity
  8
0
100
AcDbLine
 10
116.2780135743902
 20
149.1165779774592
 30
0.0
 11
116.2780135743902
 21
151.4883129774592
 31
0.0
  0
ARC
  5
933
330
2
100
AcDbEntity
  8
0
100
AcDbCircle
 10
115.7780135743902
 20
149.1165779774592
 30
0.0
 40
0.5
100
AcDbArc
 50
270.0
 51
0.0
  0
ARC
  5
934
330
2
100
AcDbEntity
  8
0
100
AcDbCircle
 10
136.7782535743901
 20
144.3165829774592
 30
0.0
 40
7.0
100
AcDbArc
 50
73.04348799999949
 51
106.9579999999994
  0
LINE
  5
935
330
2
100
AcDbEntity
  8
0
100
AcDbLine
 10
134.0282535743901
 20
149.3165829774592
 30
0.0
 11
139.5282535743902
 21
149.3165829774592
 31
0.0
  0
LINE
  5
936
330
2
100
AcDbEntity
  8
0
100
AcDbLine
 10
134.0282535743901
 20
148.6165779774592
 30
0.0
 11
134.0282535743901
 21
150.0557799774592
 31
0.0
  0
LINE
  5
937
330
2
100
AcDbEntity
  8
0
100
AcDbLine
 10
139.7782535743901
 20
144.6165779774592
 30
0.0
 11
139.7782535743901
 21
151.1949019774592
 31
0.0
  0
LINE
  5
938
330
2
100
AcDbEntity
  8
0
100
AcDbLine
 10
141.7782535743902
 20
149.1165779774592
 30
0.0
 11
141.7782535743902
 21
144.6165779774592
 31
0.0
  0
LINE
  5
939
330
2
100
AcDbEntity
  8
0
100
AcDbLine
 10
141.2782535743902
 20
144.6165779774592
 30
0.0
 11
141.2782535743902
 21
143.6165779774592
 31
0.0
  0
ARC
  5
93A
330
2
100
AcDbEntity
  8
0
100
AcDbCircle
 10
138.5282535743902
 20
150.0557799774592
 30
0.0
 40
1.0
100
AcDbArc
 50
0.0
 51
73.04309800000067
  0
LINE
  5
93B
330
2
100
AcDbEntity
  8
0
100
AcDbLine
 10
139.5282535743902
 20
148.6163799774592
 30
0.0
 11
139.5282535743902
 21
150.0557799774592
 31
0.0
  0
ARC
  5
93C
330
2
100
AcDbEntity
  8
0
100
AcDbCircle
 10
139.2782535743901
 20
148.1165779774592
 30
0.0
 40
0.5
100
AcDbArc
 50
0.0
 51
90.0
  0
ARC
  5
93D
330
2
100
AcDbEntity
  8
0
100
AcDbCircle
 10
139.2782535743901
 20
151.1949019774592
 30
0.0
 40
0.5
100
AcDbArc
 50
0.0
 51
86.66830399999998
  0
ARC
  5
93E
330
2
100
AcDbEntity
  8
0
100
AcDbCircle
 10
140.2782535743902
 20
150.6165779774592
 30
0.0
 40
0.5
100
AcDbArc
 50
180.0
 51
270.0
  0
LINE
  5
93F
330
2
100
AcDbEntity
  8
0
100
AcDbLine
 10
140.2782535743902
 20
150.1165779774592
 30
0.0
 11
140.7782535743902
 21
150.1165779774592
 31
0.0
  0
ARC
  5
940
330
2
100
AcDbEntity
  8
0
100
AcDbCircle
 10
132.7782535743901
 20
151.4883129774592
 30
0.0
 40
0.5
100
AcDbArc
 50
0.0
 51
88.16254400000113
  0
ARC
  5
941
330
2
100
AcDbEntity
  8
0
100
AcDbCircle
 10
133.7782535743901
 20
149.1165779774592
 30
0.0
 40
0.5
100
AcDbArc
 50
180.0
 51
270.0
  0
LINE
  5
942
330
2
100
AcDbEntity
  8
0
100
AcDbLine
 10
133.2782535743902
 20
149.1165779774592
 30
0.0
 11
133.2782535743902
 21
151.4883129774592
 31
0.0
  0
LINE
  5
943
330
2
100
AcDbEntity
  8
0
100
AcDbLine
 10
133.7782535743901
 20
148.6165779774592
 30
0.0
 11
139.2782535743901
 21
148.6165779774592
 31
0.0
  0
ARC
  5
944
330
2
100
AcDbEntity
  8
0
100
AcDbCircle
 10
135.0282535743901
 20
150.0557799774592
 30
0.0
 40
1.0
100
AcDbArc
 50
106.9581990000001
 51
180.0
  0
ARC
  5
945
330
2
100
AcDbEntity
  8
0
100
AcDbCircle
 10
140.7782535743902
 20
149.1165779774592
 30
0.0
 40
1.0
100
AcDbArc
 50
0.0
 51
90.0
  0
LINE
  5
946
330
2
100
AcDbEntity
  8
0
100
AcDbLine
 10
217.2781315743902
 20
116.7778489774591
 30
0.0
 11
217.2781315743902
 21
88.05503997745921
 31
0.0
  0
ARC
  5
947
330
2
100
AcDbEntity
  8
0
100
AcDbCircle
 10
219.7781625743902
 20
126.1171959774592
 30
0.0
 40
5.0
100
AcDbArc
 50
125.062302000001
 51
180.0
  0
LINE
  5
94A
330
2
100
AcDbEntity
  8
0
100
AcDbLine
 10
299.7781315743902
 20
126.1171579774592
 30
0.0
 11
299.7781315743902
 21
50.41657997745921
 31
0.0
  0
LINE
  5
94B
330
2
100
AcDbEntity
  8
CENTER
100
AcDbLine
 10
257.2781315743902
 20
155.0165799774592
 30
0.0
 11
257.2781315743902
 21
43.41657997745921
 31
0.0
  0
LINE
  5
94E
330
2
100
AcDbEntity
  8
CENTER
100
AcDbLine
 10
291.2781315743902
 20
61.91657997745926
 30
0.0
 11
291.2781315743902
 21
46.9165799774592
 31
0.0
  0
LINE
  5
94F
330
2
100
AcDbEntity
  8
HIDS
  6
SEKKEI_H
100
AcDbLine
 10
288.0281315743902
 20
58.41657997745921
 30
0.0
 11
288.0281315743902
 21
50.41657997745921
 31
0.0
  0
LINE
  5
950
330
2
100
AcDbEntity
  8
HIDS
  6
SEKKEI_H
100
AcDbLine
 10
294.5281315743902
 20
58.41657997745921
 30
0.0
 11
294.5281315743902
 21
50.41657997745921
 31
0.0
  0
ARC
  5
951
330
2
100
AcDbEntity
  8
0
100
AcDbCircle
 10
297.7781315743902
 20
56.41656997745923
 30
0.0
 40
2.0
100
AcDbArc
 50
0.0
 51
90.0
  0
LINE
  5
952
330
2
100
AcDbEntity
  8
0
100
AcDbLine
 10
396.0315930078775
 20
56.4165799774592
 30
0.0
 11
396.0315930078775
 21
50.41657997745921
 31
0.0
  0
LINE
  5
955
330
2
100
AcDbEntity
  8
0
100
AcDbLine
 10
297.6504465743902
 20
130.2098329774592
 30
0.0
 11
273.5710095743902
 21
147.1091929774592
 31
0.0
  0
CIRCLE
  5
957
330
2
100
AcDbEntity
  8
0
100
AcDbCircle
 10
257.2781315743902
 20
115.4165819774592
 30
0.0
 40
20.0
  0
ARC
  5
958
330
2
100
AcDbEntity
  8
0
100
AcDbCircle
 10
257.2781315743902
 20
115.4165819774592
 30
0.0
 40
7.5
100
AcDbArc
 50
19.47121000000032
 51
340.5288089999999
  0
LINE
  5
959
330
2
100
AcDbEntity
  8
0
100
AcDbLine
 10
250.9031315743902
 20
84.96979997745922
 30
0.0
 11
250.9031315743902
 21
79.4165819774592
 31
0.0
  0
LINE
  5
95A
330
2
100
AcDbEntity
  8
0
100
AcDbLine
 10
250.9031315743902
 20
87.94593597745921
 30
0.0
 11
250.9031315743902
 21
86.98688997745922
 31
0.0
  0
LINE
  5
95B
330
2
100
AcDbEntity
  8
0
100
AcDbLine
 10
249.9817295743901
 20
80.17883797745923
 30
0.0
 11
249.0732365743901
 21
79.4165819774592
 31
0.0
  0
LINE
  5
95C
330
2
100
AcDbEntity
  8
0
100
AcDbLine
 10
249.9817295743901
 20
87.13761297745923
 30
0.0
 11
249.3785345743901
 21
87.70905797745923
 31
0.0
  0
LINE
  5
95D
330
2
100
AcDbEntity
  8
0
100
AcDbLine
 10
249.9817295743901
 20
80.17883797745923
 30
0.0
 11
249.9817295743901
 21
79.4165819774592
 31
0.0
  0
LINE
  5
95E
330
2
100
AcDbEntity
  8
0
100
AcDbLine
 10
249.9817295743901
 20
83.92390197745925
 30
0.0
 11
249.9817295743901
 21
82.52937097745922
 31
0.0
  0
LINE
  5
95F
330
2
100
AcDbEntity
  8
0
100
AcDbLine
 10
249.9817295743901
 20
82.92780797745923
 30
0.0
 11
249.9817295743901
 21
83.72468297745923
 31
0.0
  0
LINE
  5
960
330
2
100
AcDbEntity
  8
0
100
AcDbLine
 10
249.9817295743901
 20
87.13761297745923
 30
0.0
 11
249.9817295743901
 21
86.98688997745922
 31
0.0
  0
LINE
  5
961
330
2
100
AcDbEntity
  8
0
100
AcDbLine
 10
249.9817295743901
 20
79.4165819774592
 30
0.0
 11
250.9031315743902
 21
79.4165819774592
 31
0.0
  0
LINE
  5
962
330
2
100
AcDbEntity
  8
0
100
AcDbLine
 10
249.9817295743901
 20
86.98688997745922
 30
0.0
 11
250.9031315743902
 21
86.98688997745922
 31
0.0
  0
LINE
  5
963
330
2
100
AcDbEntity
  8
0
100
AcDbLine
 10
249.9721325743902
 20
88.9790779774592
 30
0.0
 11
250.9031315743902
 21
87.94593597745921
 31
0.0
  0
LINE
  5
964
330
2
100
AcDbEntity
  8
0
100
AcDbLine
 10
245.5989325743902
 20
86.81655597745924
 30
0.0
 11
245.5989325743902
 21
81.30749997745926
 31
0.0
  0
LINE
  5
965
330
2
100
AcDbEntity
  8
0
100
AcDbLine
 10
244.5281315743902
 20
87.49707897745924
 30
0.0
 11
244.5281315743902
 21
80.65744197745919
 31
0.0
  0
LINE
  5
966
330
2
100
AcDbEntity
  8
0
100
AcDbLine
 10
244.5281315743902
 20
80.65744197745919
 30
0.0
 11
245.7579295743902
 21
79.4165819774592
 31
0.0
  0
LINE
  5
967
330
2
100
AcDbEntity
  8
0
100
AcDbLine
 10
245.5989325743902
 20
81.30749997745926
 30
0.0
 11
246.3302405743902
 21
80.53717897745924
 31
0.0
  0
LINE
  5
968
330
2
100
AcDbEntity
  8
0
100
AcDbLine
 10
248.3133335743902
 20
84.96979997745922
 30
0.0
 11
248.3133335743902
 21
83.92390197745925
 31
0.0
  0
LINE
  5
969
330
2
100
AcDbEntity
  8
0
100
AcDbLine
 10
247.9895425743902
 20
80.53717897745924
 30
0.0
 11
246.3302405743902
 21
80.53717897745924
 31
0.0
  0
LINE
  5
96A
330
2
100
AcDbEntity
  8
0
100
AcDbLine
 10
246.3187355743901
 20
87.70905797745923
 30
0.0
 11
245.5989325743902
 21
86.81655597745924
 31
0.0
  0
LINE
  5
96B
330
2
100
AcDbEntity
  8
0
100
AcDbLine
 10
245.6855415743902
 20
88.9790779774592
 30
0.0
 11
244.5281315743902
 21
87.49707897745924
 31
0.0
  0
ARC
  5
96C
330
2
100
AcDbEntity
  8
0
100
AcDbCircle
 10
247.9895425743902
 20
82.52937097745922
 30
0.0
 40
1.992186999999999
100
AcDbArc
 50
270.0002140000007
 51
0.0001089999998967
  0
LINE
  5
96D
330
2
100
AcDbEntity
  8
0
100
AcDbLine
 10
249.9817295743901
 20
83.92390197745925
 30
0.0
 11
248.3133335743902
 21
83.92390197745925
 31
0.0
  0
LINE
  5
96E
330
2
100
AcDbEntity
  8
0
100
AcDbLine
 10
245.6855415743902
 20
88.9790779774592
 30
0.0
 11
249.9721325743902
 21
88.9790779774592
 31
0.0
  0
LINE
  5
96F
330
2
100
AcDbEntity
  8
0
100
AcDbLine
 10
245.7579295743902
 20
79.4165819774592
 30
0.0
 11
249.0732365743901
 21
79.4165819774592
 31
0.0
  0
LINE
  5
970
330
2
100
AcDbEntity
  8
0
100
AcDbLine
 10
249.3906345743902
 20
87.70905797745923
 30
0.0
 11
246.3187355743901
 21
87.70905797745923
 31
0.0
  0
LINE
  5
971
330
2
100
AcDbEntity
  8
0
100
AcDbLine
 10
248.3133335743902
 20
84.96979997745922
 30
0.0
 11
250.9031315743902
 21
84.96979997745922
 31
0.0
  0
LINE
  5
972
330
2
100
AcDbEntity
  8
0
100
AcDbLine
 10
265.2219335743903
 20
84.88241297745924
 30
0.0
 11
267.6766305743901
 21
84.88241297745924
 31
0.0
  0
LINE
  5
973
330
2
100
AcDbEntity
  8
0
100
AcDbLine
 10
265.2219335743903
 20
87.80866797745927
 30
0.0
 11
268.1968335743902
 21
87.80672997745922
 31
0.0
  0
LINE
  5
974
330
2
100
AcDbEntity
  8
0
100
AcDbLine
 10
267.2624305743902
 20
83.88654797745919
 30
0.0
 11
268.7574405743902
 21
80.41267097745924
 31
0.0
  0
LINE
  5
975
330
2
100
AcDbEntity
  8
0
100
AcDbLine
 10
265.2219335743903
 20
83.88654797745919
 30
0.0
 11
267.2624305743902
 21
83.88654797745919
 31
0.0
  0
LINE
  5
976
330
2
100
AcDbEntity
  8
0
100
AcDbLine
 10
265.2219335743903
 20
87.80866797745927
 30
0.0
 11
265.2219335743903
 21
84.88241297745924
 31
0.0
  0
LINE
  5
977
330
2
100
AcDbEntity
  8
0
100
AcDbLine
 10
265.2219335743903
 20
83.88654797745919
 30
0.0
 11
265.2219335743903
 21
80.41267097745924
 31
0.0
  0
LINE
  5
978
330
2
100
AcDbEntity
  8
0
100
AcDbLine
 10
265.6577395743902
 20
80.41267097745924
 30
0.0
 11
265.6577395743902
 21
79.4165819774592
 31
0.0
  0
LINE
  5
979
330
2
100
AcDbEntity
  8
0
100
AcDbLine
 10
265.2219335743903
 20
80.41267097745924
 30
0.0
 11
265.6577395743902
 21
80.41267097745924
 31
0.0
  0
ARC
  5
97A
330
2
100
AcDbEntity
  8
0
100
AcDbCircle
 10
267.4756415743902
 20
86.42658697745924
 30
0.0
 40
1.557193
100
AcDbArc
 50
277.4147260000004
 51
62.41184999999767
  0
ARC
  5
97B
330
2
100
AcDbEntity
  8
0
100
AcDbCircle
 10
267.4756415743902
 20
86.42658697745924
 30
0.0
 40
2.55249
100
AcDbArc
 50
286.0181270000003
 51
90.00351000000046
  0
LINE
  5
97C
330
2
100
AcDbEntity
  8
0
100
AcDbLine
 10
268.1799415743902
 20
83.97319897745921
 30
0.0
 11
269.7598365743901
 21
80.41267097745924
 31
0.0
  0
LINE
  5
97D
330
2
100
AcDbEntity
  8
0
100
AcDbLine
 10
268.5589395743902
 20
79.4165819774592
 30
0.0
 11
270.0281315743902
 21
79.4165819774592
 31
0.0
  0
LINE
  5
97E
330
2
100
AcDbEntity
  8
0
100
AcDbLine
 10
269.7598365743901
 20
80.41267097745924
 30
0.0
 11
270.0281315743902
 21
80.41267097745924
 31
0.0
  0
LINE
  5
97F
330
2
100
AcDbEntity
  8
0
100
AcDbLine
 10
268.5589395743902
 20
80.41267097745924
 30
0.0
 11
268.5589395743902
 21
79.4165819774592
 31
0.0
  0
LINE
  5
980
330
2
100
AcDbEntity
  8
0
100
AcDbLine
 10
268.5589395743902
 20
80.41267097745924
 30
0.0
 11
268.7574405743902
 21
80.41267097745924
 31
0.0
  0
LINE
  5
981
330
2
100
AcDbEntity
  8
0
100
AcDbLine
 10
270.0281315743902
 20
80.41267097745924
 30
0.0
 11
270.0281315743902
 21
79.4165819774592
 31
0.0
  0
LINE
  5
982
330
2
100
AcDbEntity
  8
0
100
AcDbLine
 10
264.1262305743901
 20
87.80866797745927
 30
0.0
 11
264.1262305743901
 21
80.41267097745924
 31
0.0
  0
LINE
  5
983
330
2
100
AcDbEntity
  8
0
100
AcDbLine
 10
263.6531315743902
 20
80.41267097745924
 30
0.0
 11
263.6531315743902
 21
79.4165819774592
 31
0.0
  0
LINE
  5
984
330
2
100
AcDbEntity
  8
0
100
AcDbLine
 10
263.6531315743902
 20
80.41267097745924
 30
0.0
 11
264.1262305743901
 21
80.41267097745924
 31
0.0
  0
LINE
  5
985
330
2
100
AcDbEntity
  8
0
100
AcDbLine
 10
263.6531315743902
 20
87.80866797745927
 30
0.0
 11
264.1262305743901
 21
87.80866797745927
 31
0.0
  0
LINE
  5
986
330
2
100
AcDbEntity
  8
0
100
AcDbLine
 10
263.6531315743902
 20
88.9790779774592
 30
0.0
 11
263.6531315743902
 21
87.80866797745927
 31
0.0
  0
LINE
  5
987
330
2
100
AcDbEntity
  8
0
100
AcDbLine
 10
263.6531315743902
 20
88.9790779774592
 30
0.0
 11
267.4756415743902
 21
88.9790779774592
 31
0.0
  0
LINE
  5
988
330
2
100
AcDbEntity
  8
0
100
AcDbLine
 10
265.6577395743902
 20
79.4165819774592
 30
0.0
 11
263.6531315743902
 21
79.4165819774592
 31
0.0
  0
LINE
  5
989
330
2
100
AcDbEntity
  8
0
100
AcDbLine
 10
257.8509315743902
 20
87.80866797745927
 30
0.0
 11
259.5119425743902
 21
87.80866797745927
 31
0.0
  0
LINE
  5
98A
330
2
100
AcDbEntity
  8
0
100
AcDbLine
 10
257.8509315743902
 20
87.80866797745927
 30
0.0
 11
257.8509315743902
 21
80.46247997745922
 31
0.0
  0
LINE
  5
98B
330
2
100
AcDbEntity
  8
0
100
AcDbLine
 10
256.6555425743902
 20
87.80866797745927
 30
0.0
 11
256.6555425743902
 21
80.46247997745922
 31
0.0
  0
LINE
  5
98C
330
2
100
AcDbEntity
  8
0
100
AcDbLine
 10
256.1824285743901
 20
79.4165819774592
 30
0.0
 11
258.2493385743902
 21
79.4165819774592
 31
0.0
  0
LINE
  5
98D
330
2
100
AcDbEntity
  8
0
100
AcDbLine
 10
256.1824285743901
 20
80.46247997745922
 30
0.0
 11
256.6555425743902
 21
80.46247997745922
 31
0.0
  0
LINE
  5
98E
330
2
100
AcDbEntity
  8
0
100
AcDbLine
 10
256.1824285743901
 20
80.46247997745922
 30
0.0
 11
256.1824285743901
 21
79.4165819774592
 31
0.0
  0
LINE
  5
98F
330
2
100
AcDbEntity
  8
0
100
AcDbLine
 10
258.2493385743902
 20
80.46247997745922
 30
0.0
 11
258.2493385743902
 21
79.4165819774592
 31
0.0
  0
LINE
  5
990
330
2
100
AcDbEntity
  8
0
100
AcDbLine
 10
257.8509315743902
 20
80.46247997745922
 30
0.0
 11
258.2493385743902
 21
80.46247997745922
 31
0.0
  0
LINE
  5
991
330
2
100
AcDbEntity
  8
0
100
AcDbLine
 10
259.5119425743902
 20
87.80866797745927
 30
0.0
 11
259.8006385743901
 21
86.98688997745922
 31
0.0
  0
LINE
  5
992
330
2
100
AcDbEntity
  8
0
100
AcDbLine
 10
259.8006385743901
 20
86.98688997745922
 30
0.0
 11
260.4656315743902
 21
86.98688997745922
 31
0.0
  0
LINE
  5
993
330
2
100
AcDbEntity
  8
0
100
AcDbLine
 10
260.4656315743902
 20
86.98688997745922
 30
0.0
 11
260.4656315743902
 21
88.9790779774592
 31
0.0
  0
LINE
  5
994
330
2
100
AcDbEntity
  8
0
100
AcDbLine
 10
255.1406345743902
 20
87.80866797745927
 30
0.0
 11
254.7982425743902
 21
86.98688997745922
 31
0.0
  0
LINE
  5
995
330
2
100
AcDbEntity
  8
0
100
AcDbLine
 10
254.0906315743902
 20
86.98688997745922
 30
0.0
 11
254.7982425743902
 21
86.98688997745922
 31
0.0
  0
LINE
  5
996
330
2
100
AcDbEntity
  8
0
100
AcDbLine
 10
254.0906315743902
 20
86.98688997745922
 30
0.0
 11
254.0906315743902
 21
88.9790779774592
 31
0.0
  0
LINE
  5
997
330
2
100
AcDbEntity
  8
0
100
AcDbLine
 10
254.0906315743902
 20
88.9790779774592
 30
0.0
 11
260.4656315743902
 21
88.9790779774592
 31
0.0
  0
LINE
  5
998
330
2
100
AcDbEntity
  8
0
100
AcDbLine
 10
256.6555425743902
 20
87.80866797745927
 30
0.0
 11
255.1406345743902
 21
87.80866797745927
 31
0.0
  0
LINE
  5
999
330
2
100
AcDbEntity
  8
0
100
AcDbLine
 10
266.7781315743902
 20
117.9165819774592
 30
0.0
 11
266.7781315743902
 21
112.9165819774591
 31
0.0
  0
LINE
  5
99A
330
2
100
AcDbEntity
  8
0
100
AcDbLine
 10
261.7781315743902
 20
112.9165819774591
 30
0.0
 11
261.7781315743902
 21
117.9165819774592
 31
0.0
  0
LINE
  5
99B
330
2
100
AcDbEntity
  8
0
100
AcDbLine
 10
261.7781315743902
 20
112.9165819774591
 30
0.0
 11
266.7781315743902
 21
112.9165819774591
 31
0.0
  0
LINE
  5
99C
330
2
100
AcDbEntity
  8
0
100
AcDbLine
 10
261.7781315743902
 20
117.9165819774592
 30
0.0
 11
266.7781315743902
 21
117.9165819774592
 31
0.0
  0
LINE
  5
99D
330
2
100
AcDbEntity
  8
0
100
AcDbLine
 10
297.2781315743903
 20
116.7779779774592
 30
0.0
 11
297.2781315743903
 21
88.05543997745923
 31
0.0
  0
ARC
  5
99E
330
2
100
AcDbEntity
  8
0
100
AcDbCircle
 10
294.7781315743902
 20
126.1171579774592
 30
0.0
 40
5.0
100
AcDbArc
 50
0.0
 51
54.93837000000068
  0
LINE
  5
99F
330
2
100
AcDbEntity
  8
0
100
AcDbLine
 10
243.8576305743902
 20
148.0165799774592
 30
0.0
 11
270.6987405743902
 21
148.0165799774592
 31
0.0
  0
ARC
  5
9A0
330
2
100
AcDbEntity
  8
0
100
AcDbCircle
 10
243.8576305743902
 20
143.0165879774592
 30
0.0
 40
5.0
100
AcDbArc
 50
90.0
 51
125.0622019999999
  0
ARC
  5
9A1
330
2
100
AcDbEntity
  8
0
100
AcDbCircle
 10
270.6987405743902
 20
143.0165719774592
 30
0.0
 40
5.0
100
AcDbArc
 50
54.93843100000127
 51
90.0
  0
LINE
  5
9A3
330
2
100
AcDbEntity
  8
0
100
AcDbLine
 10
379.0315930078775
 20
122.9165819774592
 30
0.0
 11
379.0315930078775
 21
107.9165819774592
 31
0.0
  0
ARC
  5
9A4
330
2
100
AcDbEntity
  8
0
100
AcDbCircle
 10
443.0315930078775
 20
93.11657797745926
 30
0.0
 40
38.0
100
AcDbArc
 50
158.7057339999995
 51
215.3345029999996
  0
LINE
  5
9A5
330
2
100
AcDbEntity
  8
0
100
AcDbLine
 10
412.0315930078775
 20
61.4165799774592
 30
0.0
 11
412.0315930078775
 21
145.5099809774592
 31
0.0
  0
LINE
  5
9A6
330
2
100
AcDbEntity
  8
0
100
AcDbLine
 10
474.0315930078775
 20
61.4165799774592
 30
0.0
 11
474.0315930078775
 21
145.5100869774592
 31
0.0
  0
ARC
  5
9A7
330
2
100
AcDbEntity
  8
0
100
AcDbCircle
 10
443.0315930078775
 20
93.11657797745926
 30
0.0
 40
38.0
100
AcDbArc
 50
324.6655010000007
 51
21.29426199999998
  0
LINE
  5
9A8
330
2
100
AcDbEntity
  8
CENTER
100
AcDbLine
 10
443.0315930078775
 20
43.41657997745926
 30
0.0
 11
443.0315930078775
 21
159.1166009774592
 31
0.0
  0
LINE
  5
9AB
330
2
100
AcDbEntity
  8
0
100
AcDbLine
 10
477.0315930078774
 20
58.41657997745921
 30
0.0
 11
488.0315930078775
 21
58.41657997745921
 31
0.0
  0
LINE
  5
9AC
330
2
100
AcDbEntity
  8
HIDS
100
AcDbLine
 10
422.0315930078775
 20
55.11658097745925
 30
0.0
 11
464.0315930078775
 21
55.11658097745925
 31
0.0
  0
LINE
  5
9AD
330
2
100
AcDbEntity
  8
CENTER
100
AcDbLine
 10
403.0315930078775
 20
61.9165799774592
 30
0.0
 11
403.0315930078775
 21
46.9165799774592
 31
0.0
  0
ARC
  5
9AE
330
2
100
AcDbEntity
  8
HIDS
100
AcDbCircle
 10
443.0315930078775
 20
93.11657797745926
 30
0.0
 40
38.0
100
AcDbArc
 50
215.3345029999996
 51
230.6432950000005
  0
ARC
  5
9AF
330
2
100
AcDbEntity
  8
0
100
AcDbCircle
 10
409.0315930078775
 20
61.41656997745923
 30
0.0
 40
3.0
100
AcDbArc
 50
270.0
 51
0.0
  0
LINE
  5
9B0
330
2
100
AcDbEntity
  8
HIDS
  6
SEKKEI_H
100
AcDbLine
 10
406.2815930078775
 20
58.41657997745921
 30
0.0
 11
406.2815930078775
 21
50.41657997745921
 31
0.0
  0
LINE
  5
9B1
330
2
100
AcDbEntity
  8
HIDS
  6
SEKKEI_H
100
AcDbLine
 10
399.7815930078775
 20
58.41657997745921
 30
0.0
 11
399.7815930078775
 21
50.41657997745921
 31
0.0
  0
LINE
  5
9B2
330
2
100
AcDbEntity
  8
0
100
AcDbLine
 10
409.0315930078775
 20
58.41657997745921
 30
0.0
 11
398.0315930078775
 21
58.41657997745921
 31
0.0
  0
ARC
  5
9B3
330
2
100
AcDbEntity
  8
HIDS
100
AcDbCircle
 10
417.0315930078775
 20
61.41484597745926
 30
0.0
 40
3.0
100
AcDbArc
 50
0.0
 51
50.64329900000029
  0
LINE
  5
9B4
330
2
100
AcDbEntity
  8
HIDS
100
AcDbLine
 10
420.0315930078775
 20
57.11658097745925
 30
0.0
 11
420.0315930078775
 21
61.41484597745926
 31
0.0
  0
ARC
  5
9B5
330
2
100
AcDbEntity
  8
HIDS
100
AcDbCircle
 10
422.0315930078775
 20
57.11658097745925
 30
0.0
 40
2.0
100
AcDbArc
 50
180.0
 51
199.2166900000005
  0
ARC
  5
9B6
330
2
100
AcDbEntity
  8
HIDS
100
AcDbCircle
 10
422.0315930078775
 20
57.11658097745925
 30
0.0
 40
2.0
100
AcDbArc
 50
199.2166900000005
 51
270.0
  0
LINE
  5
9B7
330
2
100
AcDbEntity
  8
HIDS
  6
SEKKEI_H
100
AcDbLine
 10
479.7815930078775
 20
58.41657997745921
 30
0.0
 11
479.7815930078775
 21
50.41657997745921
 31
0.0
  0
ARC
  5
9B8
330
2
100
AcDbEntity
  8
HIDS
100
AcDbCircle
 10
469.0315930078774
 20
61.41484597745926
 30
0.0
 40
3.0
100
AcDbArc
 50
129.3567049999994
 51
180.0
  0
LINE
  5
9B9
330
2
100
AcDbEntity
  8
HIDS
100
AcDbLine
 10
466.0315930078775
 20
57.25944997745921
 30
0.0
 11
466.0315930078775
 21
61.41484597745926
 31
0.0
  0
ARC
  5
9BA
330
2
100
AcDbEntity
  8
HIDS
100
AcDbCircle
 10
443.0315930078775
 20
93.11657797745926
 30
0.0
 40
38.0
100
AcDbArc
 50
309.3567009999997
 51
324.6654970000002
  0
ARC
  5
9BB
330
2
100
AcDbEntity
  8
0
100
AcDbCircle
 10
477.0315930078774
 20
61.4165799774592
 30
0.0
 40
3.0
100
AcDbArc
 50
180.0
 51
270.0
  0
ARC
  5
9BC
330
2
100
AcDbEntity
  8
HIDS
100
AcDbCircle
 10
464.0315930078775
 20
57.11658097745925
 30
0.0
 40
2.0
100
AcDbArc
 50
270.0
 51
0.0
  0
LINE
  5
9BD
330
2
100
AcDbEntity
  8
CENTER
100
AcDbLine
 10
483.0315930078775
 20
61.9165799774592
 30
0.0
 11
483.0315930078775
 21
46.9165799774592
 31
0.0
  0
ARC
  5
9BE
330
2
100
AcDbEntity
  8
0
100
AcDbCircle
 10
488.0315930078775
 20
56.41656997745923
 30
0.0
 40
2.0
100
AcDbArc
 50
0.0
 51
90.0
  0
LINE
  5
9BF
330
2
100
AcDbEntity
  8
0
100
AcDbLine
 10
490.0315930078774
 20
56.4165799774592
 30
0.0
 11
490.0315930078774
 21
50.41657997745921
 31
0.0
  0
LINE
  5
9C0
330
2
100
AcDbEntity
  8
HIDS
  6
SEKKEI_H
100
AcDbLine
 10
486.2815930078775
 20
58.41657997745921
 30
0.0
 11
486.2815930078775
 21
50.41657997745921
 31
0.0
  0
LINE
  5
9C1
330
2
100
AcDbEntity
  8
0
100
AcDbLine
 10
507.0315930078775
 20
122.9165819774592
 30
0.0
 11
480.0315930078775
 21
122.9165819774592
 31
0.0
  0
LINE
  5
9C2
330
2
100
AcDbEntity
  8
0
100
AcDbLine
 10
507.0315930078775
 20
107.9165819774592
 30
0.0
 11
480.0315930078775
 21
107.9165819774592
 31
0.0
  0
LINE
  5
9C5
330
2
100
AcDbEntity
  8
CENTER
100
AcDbLine
 10
398.0315930078775
 20
93.11657797745926
 30
0.0
 11
488.0315930078775
 21
93.11657797745926
 31
0.0
  0
LINE
  5
9C6
330
2
100
AcDbEntity
  8
HIDS
100
AcDbLine
 10
466.0315930078775
 20
143.6165779774592
 30
0.0
 11
466.0315930078775
 21
128.7497109774592
 31
0.0
  0
LINE
  5
9C7
330
2
100
AcDbEntity
  8
HIDS
100
AcDbLine
 10
420.0315930078775
 20
143.6165779774592
 30
0.0
 11
420.0315930078775
 21
128.7497109774592
 31
0.0
  0
LINE
  5
9C8
330
2
100
AcDbEntity
  8
HIDS
100
AcDbLine
 10
421.9966810078776
 20
130.7494209774592
 30
0.0
 11
443.0315930078775
 21
131.1165709774592
 31
0.0
  0
LINE
  5
9C9
330
2
100
AcDbEntity
  8
0
100
AcDbLine
 10
413.7052680078775
 20
128.7165919774592
 30
0.0
 11
472.4239880078775
 21
128.7165919774592
 31
0.0
  0
LINE
  5
9CA
330
2
100
AcDbEntity
  8
0
100
AcDbLine
 10
406.0315930078775
 20
123.9165819774592
 30
0.0
 11
406.0315930078775
 21
106.9165819774592
 31
0.0
  0
LINE
  5
9CB
330
2
100
AcDbEntity
  8
0
100
AcDbLine
 10
408.0315930078775
 20
96.41657797745921
 30
0.0
 11
408.0315930078775
 21
134.4165819774592
 31
0.0
  0
ARC
  5
9CC
330
2
100
AcDbEntity
  8
HIDS
100
AcDbCircle
 10
443.0315930078775
 20
93.11657797745926
 30
0.0
 40
38.0
100
AcDbArc
 50
129.3567049999994
 51
158.7057339999995
  0
LINE
  5
9CD
330
2
100
AcDbEntity
  8
0
100
AcDbLine
 10
406.0315930078775
 20
106.9165819774592
 30
0.0
 11
408.0315930078775
 21
106.9165819774592
 31
0.0
  0
LINE
  5
9CE
330
2
100
AcDbEntity
  8
0
100
AcDbLine
 10
409.0315930078775
 20
95.41657797745921
 30
0.0
 11
410.0355930059008
 21
95.41657797745921
 31
0.0
  0
ARC
  5
9CF
330
2
100
AcDbEntity
  8
0
100
AcDbCircle
 10
409.0315930078775
 20
96.41657797745921
 30
0.0
 40
1.0
100
AcDbArc
 50
180.0
 51
270.0
  0
LINE
  5
9D0
330
2
100
AcDbEntity
  8
0
100
AcDbLine
 10
409.0315930078775
 20
135.4165819774592
 30
0.0
 11
410.0315930078773
 21
135.4165819774592
 31
0.0
  0
ARC
  5
9D1
330
2
100
AcDbEntity
  8
0
100
AcDbCircle
 10
409.0315930078775
 20
134.4165819774592
 30
0.0
 40
1.0
100
AcDbArc
 50
90.0
 51
180.0
  0
LINE
  5
9D2
330
2
100
AcDbEntity
  8
0
100
AcDbLine
 10
406.0315930078775
 20
123.9165819774592
 30
0.0
 11
408.0315930078775
 21
123.9165819774592
 31
0.0
  0
LINE
  5
9D3
330
2
100
AcDbEntity
  8
0
100
AcDbLine
 10
400.5315930078775
 20
117.9165819774592
 30
0.0
 11
400.5315930078775
 21
112.9165819774591
 31
0.0
  0
ARC
  5
9D4
330
2
100
AcDbEntity
  8
0
100
AcDbCircle
 10
400.5315930078775
 20
115.4165819774592
 30
0.0
 40
2.5
100
AcDbArc
 50
270.0
 51
0.0
  0
ARC
  5
9D5
330
2
100
AcDbEntity
  8
0
100
AcDbCircle
 10
400.5315930078775
 20
115.4165659774592
 30
0.0
 40
2.5
100
AcDbArc
 50
0.0
 51
90.0
  0
ARC
  5
9D6
330
2
100
AcDbEntity
  8
HIDS
100
AcDbCircle
 10
417.0315930078775
 20
124.8183149774592
 30
0.0
 40
3.0
100
AcDbArc
 50
309.3567009999997
 51
0.0
  0
LINE
  5
9D7
330
2
100
AcDbEntity
  8
HIDS
100
AcDbLine
 10
420.0315930078775
 20
128.7497109774592
 30
0.0
 11
420.0315930078775
 21
124.8183149774592
 31
0.0
  0
ARC
  5
9D8
330
2
100
AcDbEntity
  8
HIDS
100
AcDbCircle
 10
422.0315930078775
 20
128.7497109774592
 30
0.0
 40
2.0
100
AcDbArc
 50
90.9998629999991
 51
180.0
  0
LINE
  5
9D9
330
2
100
AcDbEntity
  8
0
100
AcDbLine
 10
480.0315930078775
 20
123.9165819774592
 30
0.0
 11
480.0315930078775
 21
106.9165819774592
 31
0.0
  0
LINE
  5
9DA
330
2
100
AcDbEntity
  8
0
100
AcDbLine
 10
478.0315930078775
 20
96.41657797745921
 30
0.0
 11
478.0315930078775
 21
134.4165819774592
 31
0.0
  0
ARC
  5
9DB
330
2
100
AcDbEntity
  8
HIDS
100
AcDbCircle
 10
443.0315930078775
 20
93.11657797745926
 30
0.0
 40
38.0
100
AcDbArc
 50
21.29425999999975
 51
50.64329900000029
  0
ARC
  5
9DC
330
2
100
AcDbEntity
  8
0
100
AcDbCircle
 10
477.0315930078774
 20
96.41657797745921
 30
0.0
 40
1.0
100
AcDbArc
 50
270.0
 51
0.0
  0
LINE
  5
9DD
330
2
100
AcDbEntity
  8
0
100
AcDbLine
 10
477.0315930078774
 20
95.41657797745921
 30
0.0
 11
476.0275930098543
 21
95.41657797745921
 31
0.0
  0
LINE
  5
9DE
330
2
100
AcDbEntity
  8
0
100
AcDbLine
 10
478.0315930078775
 20
106.9165819774592
 30
0.0
 11
480.0315930078775
 21
106.9165819774592
 31
0.0
  0
LINE
  5
9DF
330
2
100
AcDbEntity
  8
HIDS
100
AcDbLine
 10
464.0664750078776
 20
130.7494209774592
 30
0.0
 11
443.0315930078775
 21
131.1165709774592
 31
0.0
  0
ARC
  5
9E0
330
2
100
AcDbEntity
  8
0
100
AcDbCircle
 10
477.0315930078774
 20
134.4165819774592
 30
0.0
 40
1.0
100
AcDbArc
 50
0.0
 51
90.0
  0
ARC
  5
9E1
330
2
100
AcDbEntity
  8
HIDS
100
AcDbCircle
 10
469.0315930078774
 20
124.8183149774592
 30
0.0
 40
3.0
100
AcDbArc
 50
180.0
 51
230.6432950000005
  0
LINE
  5
9E2
330
2
100
AcDbEntity
  8
HIDS
100
AcDbLine
 10
466.0315930078775
 20
128.7165919774592
 30
0.0
 11
466.0315930078775
 21
124.8183149774592
 31
0.0
  0
LINE
  5
9E3
330
2
100
AcDbEntity
  8
0
100
AcDbLine
 10
477.0315930078774
 20
135.4165819774592
 30
0.0
 11
476.0315930078776
 21
135.4165819774592
 31
0.0
  0
LINE
  5
9E4
330
2
100
AcDbEntity
  8
0
100
AcDbLine
 10
478.0315930078775
 20
123.9165819774592
 30
0.0
 11
480.0315930078775
 21
123.9165819774592
 31
0.0
  0
ARC
  5
9E5
330
2
100
AcDbEntity
  8
HIDS
100
AcDbCircle
 10
464.0315930078775
 20
128.7497109774592
 30
0.0
 40
2.0
100
AcDbArc
 50
0.0
 51
89.00013700000089
  0
LINE
  5
9E6
330
2
100
AcDbEntity
  8
0
100
AcDbLine
 10
413.9966810078776
 20
147.5097899774592
 30
0.0
 11
443.0315930078775
 21
148.0165879774592
 31
0.0
  0
ARC
  5
9E8
330
2
100
AcDbEntity
  8
0
100
AcDbCircle
 10
443.0315930078775
 20
-97.8833990225408
 30
0.0
 40
250.0
100
AcDbArc
 50
84.82601899999895
 51
95.17398100000105
  0
ARC
  5
9E9
330
2
100
AcDbEntity
  8
0
100
AcDbCircle
 10
443.0315930078775
 20
144.1165779774592
 30
0.0
 40
6.0
100
AcDbArc
 50
39.53427499999995
 51
140.4657289999985
  0
ARC
  5
9EA
330
2
100
AcDbEntity
  8
0
100
AcDbCircle
 10
414.0315930078775
 20
145.5099879774592
 30
0.0
 40
2.0
100
AcDbArc
 50
91.00064099999883
 51
180.0
  0
ARC
  5
9EB
330
2
100
AcDbEntity
  8
0
100
AcDbCircle
 10
426.0315930078775
 20
149.1165779774592
 30
0.0
 40
0.5
100
AcDbArc
 50
270.0
 51
0.0
  0
ARC
  5
9EC
330
2
100
AcDbEntity
  8
0
100
AcDbCircle
 10
427.0315930078774
 20
151.1030439774592
 30
0.0
 40
0.5
100
AcDbArc
 50
93.67680399999908
 51
180.0
  0
LINE
  5
9ED
330
2
100
AcDbEntity
  8
0
100
AcDbLine
 10
426.5315930078775
 20
151.1030439774592
 30
0.0
 11
426.5315930078775
 21
149.1165779774592
 31
0.0
  0
ARC
  5
9EE
330
2
100
AcDbEntity
  8
0
100
AcDbCircle
 10
424.7815930078775
 20
150.0557799774592
 30
0.0
 40
1.0
100
AcDbArc
 50
0.0
 51
73.04309800000067
  0
LINE
  5
9EF
330
2
100
AcDbEntity
  8
0
100
AcDbLine
 10
425.7815930078775
 20
148.6163799774592
 30
0.0
 11
425.7815930078775
 21
150.0557799774592
 31
0.0
  0
ARC
  5
9F0
330
2
100
AcDbEntity
  8
0
100
AcDbCircle
 10
420.5315930078775
 20
148.1165779774592
 30
0.0
 40
0.5
100
AcDbArc
 50
90.0
 51
180.0
  0
ARC
  5
9F1
330
2
100
AcDbEntity
  8
0
100
AcDbCircle
 10
420.5315930078775
 20
150.5999999774592
 30
0.0
 40
0.5
100
AcDbArc
 50
95.17398100000105
 51
180.0
  0
LINE
  5
9F2
330
2
100
AcDbEntity
  8
0
100
AcDbLine
 10
420.0315930078775
 20
147.6151289774592
 30
0.0
 11
420.0315930078775
 21
150.5999999774592
 31
0.0
  0
ARC
  5
9F3
330
2
100
AcDbEntity
  8
0
100
AcDbCircle
 10
421.2815930078774
 20
150.0557799774592
 30
0.0
 40
1.0
100
AcDbArc
 50
106.9581530000005
 51
180.0
  0
LINE
  5
9F4
330
2
100
AcDbEntity
  8
0
100
AcDbLine
 10
420.2815930078775
 20
148.6165779774592
 30
0.0
 11
420.2815930078775
 21
150.0557799774592
 31
0.0
  0
LINE
  5
9F5
330
2
100
AcDbEntity
  8
HIDS
100
AcDbLine
 10
420.0315930078775
 20
144.6165779774592
 30
0.0
 11
420.0315930078775
 21
147.6151289774592
 31
0.0
  0
LINE
  5
9F6
330
2
100
AcDbEntity
  8
HIDS
100
AcDbLine
 10
420.5315930078775
 20
143.6165779774592
 30
0.0
 11
420.0315930078775
 21
143.6165779774592
 31
0.0
  0
LINE
  5
9F7
330
2
100
AcDbEntity
  8
HIDS
100
AcDbLine
 10
420.5315930078775
 20
144.6165779774592
 30
0.0
 11
420.0315930078775
 21
144.6165779774592
 31
0.0
  0
LINE
  5
9F8
330
2
100
AcDbEntity
  8
HIDS
100
AcDbLine
 10
420.5315930078775
 20
143.6165779774592
 30
0.0
 11
420.5315930078775
 21
144.6165779774592
 31
0.0
  0
LINE
  5
9F9
330
2
100
AcDbEntity
  8
0
100
AcDbLine
 10
420.2815930078775
 20
148.6165779774592
 30
0.0
 11
426.0315930078775
 21
148.6165779774592
 31
0.0
  0
ARC
  5
9FA
330
2
100
AcDbEntity
  8
0
100
AcDbCircle
 10
423.0315930078774
 20
144.3165829774592
 30
0.0
 40
7.0
100
AcDbArc
 50
73.04350300000075
 51
106.9580229999977
  0
LINE
  5
9FB
330
2
100
AcDbEntity
  8
0
100
AcDbLine
 10
420.2815930078775
 20
149.3165829774592
 30
0.0
 11
425.7815930078775
 21
149.3165829774592
 31
0.0
  0
ARC
  5
9FC
330
2
100
AcDbEntity
  8
0
100
AcDbCircle
 10
460.0315930078775
 20
149.1165779774592
 30
0.0
 40
0.5
100
AcDbArc
 50
180.0
 51
270.0
  0
ARC
  5
9FD
330
2
100
AcDbEntity
  8
0
100
AcDbCircle
 10
459.0315930078775
 20
151.1030439774592
 30
0.0
 40
0.5
100
AcDbArc
 50
0.0
 51
86.32319600000093
  0
LINE
  5
9FE
330
2
100
AcDbEntity
  8
0
100
AcDbLine
 10
472.0664750078777
 20
147.5097899774592
 30
0.0
 11
443.0315930078775
 21
148.0165879774592
 31
0.0
  0
LINE
  5
9FF
330
2
100
AcDbEntity
  8
0
100
AcDbLine
 10
459.5315930078775
 20
151.1030439774592
 30
0.0
 11
459.5315930078775
 21
149.1165779774592
 31
0.0
  0
LINE
  5
A00
330
2
100
AcDbEntity
  8
0
100
AcDbLine
 10
466.0315930078775
 20
147.6151289774592
 30
0.0
 11
466.0315930078775
 21
150.5999999774592
 31
0.0
  0
ARC
  5
A01
330
2
100
AcDbEntity
  8
0
100
AcDbCircle
 10
465.5315930078775
 20
148.1165779774592
 30
0.0
 40
0.5
100
AcDbArc
 50
0.0
 51
90.0
  0
ARC
  5
A02
330
2
100
AcDbEntity
  8
0
100
AcDbCircle
 10
465.5315930078775
 20
150.5999999774592
 30
0.0
 40
0.5
100
AcDbArc
 50
0.0
 51
84.82601899999895
  0
ARC
  5
A03
330
2
100
AcDbEntity
  8
0
100
AcDbCircle
 10
464.7815930078775
 20
150.0557799774592
 30
0.0
 40
1.0
100
AcDbArc
 50
0.0
 51
73.04184699999942
  0
LINE
  5
A04
330
2
100
AcDbEntity
  8
0
100
AcDbLine
 10
465.7815930078775
 20
148.6165779774592
 30
0.0
 11
465.7815930078775
 21
150.0557799774592
 31
0.0
  0
LINE
  5
A05
330
2
100
AcDbEntity
  8
HIDS
100
AcDbLine
 10
466.0315930078775
 20
144.6165779774592
 30
0.0
 11
466.0315930078775
 21
147.6151289774592
 31
0.0
  0
LINE
  5
A06
330
2
100
AcDbEntity
  8
HIDS
100
AcDbLine
 10
465.5315930078775
 20
143.6165779774592
 30
0.0
 11
466.0315930078775
 21
143.6165779774592
 31
0.0
  0
LINE
  5
A07
330
2
100
AcDbEntity
  8
HIDS
100
AcDbLine
 10
465.5315930078775
 20
144.6165779774592
 30
0.0
 11
466.0315930078775
 21
144.6165779774592
 31
0.0
  0
LINE
  5
A08
330
2
100
AcDbEntity
  8
HIDS
100
AcDbLine
 10
465.5315930078775
 20
143.6165779774592
 30
0.0
 11
465.5315930078775
 21
144.6165779774592
 31
0.0
  0
ARC
  5
A09
330
2
100
AcDbEntity
  8
0
100
AcDbCircle
 10
472.0315930078775
 20
145.5100869774592
 30
0.0
 40
2.0
100
AcDbArc
 50
0.0
 51
89.00013700000089
  0
ARC
  5
A0A
330
2
100
AcDbEntity
  8
0
100
AcDbCircle
 10
461.2815930078775
 20
150.0557799774592
 30
0.0
 40
1.0
100
AcDbArc
 50
106.9569019999993
 51
180.0
  0
LINE
  5
A0B
330
2
100
AcDbEntity
  8
0
100
AcDbLine
 10
460.2815930078775
 20
148.6163799774592
 30
0.0
 11
460.2815930078775
 21
150.0557799774592
 31
0.0
  0
LINE
  5
A0C
330
2
100
AcDbEntity
  8
0
100
AcDbLine
 10
465.7815930078775
 20
149.3165829774592
 30
0.0
 11
460.2815930078775
 21
149.3165829774592
 31
0.0
  0
LINE
  5
A0D
330
2
100
AcDbEntity
  8
0
100
AcDbLine
 10
465.7815930078775
 20
148.6165779774592
 30
0.0
 11
460.0315930078775
 21
148.6165779774592
 31
0.0
  0
ARC
  5
A0E
330
2
100
AcDbEntity
  8
0
100
AcDbCircle
 10
463.0315930078775
 20
144.3165829774592
 30
0.0
 40
7.0
100
AcDbArc
 50
73.04197699999868
 51
106.9564969999992
  0
LINE
  5
A11
330
2
100
AcDbEntity
  8
0
100
AcDbLine
 10
507.0315930078775
 20
122.9165819774592
 30
0.0
 11
507.0315930078775
 21
107.9165819774592
 31
0.0
  0
LINE
  5
A12
330
2
100
AcDbEntity
  8
0
100
AcDbLine
 10
507.0315930078775
 20
112.9165819774591
 30
0.0
 11
485.5315930078774
 21
112.9165819774591
 31
0.0
  0
LINE
  5
A13
330
2
100
AcDbEntity
  8
0
100
AcDbLine
 10
507.0315930078775
 20
117.9165819774592
 30
0.0
 11
485.5315930078774
 21
117.9165819774592
 31
0.0
  0
LINE
  5
A14
330
2
100
AcDbEntity
  8
0
100
AcDbLine
 10
485.5315930078774
 20
117.9165819774592
 30
0.0
 11
485.5315930078774
 21
112.9165819774591
 31
0.0
  0
ARC
  5
A15
330
2
100
AcDbEntity
  8
0
100
AcDbCircle
 10
485.5315930078774
 20
115.4165819774592
 30
0.0
 40
2.5
100
AcDbArc
 50
180.0
 51
270.0
  0
ARC
  5
A16
330
2
100
AcDbEntity
  8
0
100
AcDbCircle
 10
485.5315930078774
 20
115.4165659774592
 30
0.0
 40
2.5
100
AcDbArc
 50
90.0
 51
180.0
  0
TEXT
  5
A17
330
2
100
AcDbEntity
  8
TITLE
100
AcDbText
 10
382.9657245307815
 20
303.2693641690762
 30
0.0
 40
5.0
  1
HLV-15T-10~240-T15
100
AcDbText
  0
TEXT
  5
A18
330
2
100
AcDbEntity
  8
TITLE
100
AcDbText
 10
382.9657245307815
 20
295.2693641690762
 30
0.0
 40
5.0
  1
HLV-15T-10~240-T25
100
AcDbText
  0
TEXT
  5
A19
330
2
100
AcDbEntity
  8
TITLE
100
AcDbText
 10
382.9657245307815
 20
287.2693641690762
 30
0.0
 40
5.0
  1
HLV-15T-10~120-T40
100
AcDbText
  0
TEXT
  5
A1A
330
2
100
AcDbEntity
  8
TITLE
100
AcDbText
 10
382.9657245307815
 20
279.2693641690762
 30
0.0
 40
5.0
  1
HLV-15T-10~240-S15
100
AcDbText
  0
TEXT
  5
A1B
330
2
100
AcDbEntity
  8
TITLE
100
AcDbText
 10
382.9657245307815
 20
271.2693641690762
 30
0.0
 40
5.0
  1
HLV-15T-10~240-S25
100
AcDbText
  0
LINE
  5
A1C
330
2
100
AcDbEntity
  8
0
100
AcDbLine
 10
218.5465035743902
 20
340.6481246919783
 30
0.0
 11
249.7781315743902
 21
340.6481246919783
 31
0.0
  0
LINE
  5
A1D
330
2
100
AcDbEntity
  8
0
100
AcDbLine
 10
218.5465035743902
 20
246.6481096919783
 30
0.0
 11
249.7781315743902
 21
246.6481096919783
 31
0.0
  0
LINE
  5
A1E
330
2
100
AcDbEntity
  8
0
100
AcDbLine
 10
217.2846325743902
 20
324.6481096919783
 30
0.0
 11
297.2716315743901
 21
324.6481096919783
 31
0.0
  0
LINE
  5
A1F
330
2
100
AcDbEntity
  8
0
100
AcDbLine
 10
217.2846325743902
 20
262.6481096919783
 30
0.0
 11
297.2716315743901
 21
262.6481096919783
 31
0.0
  0
LINE
  5
A20
330
2
100
AcDbEntity
  8
CENTER
100
AcDbLine
 10
78.77813557439026
 20
293.6481096919783
 30
0.0
 11
306.7781315743901
 21
293.6481096919783
 31
0.0
  0
LINE
  5
A21
330
2
100
AcDbEntity
  8
CENTER
100
AcDbLine
 10
223.2781315743902
 20
327.3579318620068
 30
0.0
 11
223.2781315743902
 21
339.9383175219496
 31
0.0
  0
ARC
  5
A22
330
2
100
AcDbEntity
  8
0
100
AcDbCircle
 10
212.7781315743902
 20
329.6481096919784
 30
0.0
 40
2.0
100
AcDbArc
 50
0.0
 51
90.0
  0
LINE
  5
A23
330
2
100
AcDbEntity
  8
0
100
AcDbLine
 10
215.5469535743902
 20
337.7004626919783
 30
0.0
 11
215.3225805743902
 21
324.8440176919783
 31
0.0
  0
LINE
  5
A24
330
2
100
AcDbEntity
  8
0
100
AcDbLine
 10
142.2781355743902
 20
255.6481096919783
 30
0.0
 11
142.2781355743902
 21
331.6481096919783
 31
0.0
  0
ARC
  5
A25
330
2
100
AcDbEntity
  8
0
100
AcDbCircle
 10
118.2781355743902
 20
329.9440076919783
 30
0.0
 40
1.0
100
AcDbArc
 50
104.9743959999986
 51
180.0
  0
LINE
  5
A26
330
2
100
AcDbEntity
  8
0
100
AcDbLine
 10
142.2781355743902
 20
270.6481096919783
 30
0.0
 11
218.1978095743902
 21
270.6481096919783
 31
0.0
  0
LINE
  5
A27
330
2
100
AcDbEntity
  8
0
100
AcDbLine
 10
142.2781355743902
 20
316.6481096919783
 30
0.0
 11
218.1978095743902
 21
316.6481096919783
 31
0.0
  0
LINE
  5
A28
330
2
100
AcDbEntity
  8
0
100
AcDbLine
 10
142.2781355743902
 20
255.6481096919783
 30
0.0
 11
212.7781315743902
 21
255.6481096919783
 31
0.0
  0
LINE
  5
A29
330
2
100
AcDbEntity
  8
0
100
AcDbLine
 10
85.77813557439027
 20
321.1670996919784
 30
0.0
 11
85.77813557439027
 21
266.1291196919783
 31
0.0
  0
ARC
  5
A2A
330
2
100
AcDbEntity
  8
0
100
AcDbCircle
 10
111.8388655743902
 20
266.3862076919783
 30
0.0
 40
1.0
100
AcDbArc
 50
90.0
 51
163.0431060000002
  0
LINE
  5
A2B
330
2
100
AcDbEntity
  8
CENTER
100
AcDbLine
 10
124.7781355743902
 20
323.6481096919784
 30
0.0
 11
124.7781355743902
 21
263.6481096919783
 31
0.0
  0
LINE
  5
A2C
330
2
100
AcDbEntity
  8
0
100
AcDbLine
 10
117.2781355743902
 20
257.3522116919783
 30
0.0
 11
117.2781355743902
 21
270.6481096919783
 31
0.0
  0
LINE
  5
A2D
330
2
100
AcDbEntity
  8
0
100
AcDbLine
 10
113.2781355743902
 20
261.1709976919783
 30
0.0
 11
113.2781355743902
 21
270.6481096919783
 31
0.0
  0
LINE
  5
A2E
330
2
100
AcDbEntity
  8
0
100
AcDbLine
 10
112.5780625743902
 20
261.8862076919783
 30
0.0
 11
112.5780625743902
 21
267.3862076919783
 31
0.0
  0
LINE
  5
A2F
330
2
100
AcDbEntity
  8
0
100
AcDbLine
 10
110.5836895743902
 20
264.9168166919783
 30
0.0
 11
85.85955775125137
 21
265.5642664928551
 31
0.0
  0
LINE
  5
A30
330
2
100
AcDbEntity
  8
0
100
AcDbLine
 10
88.77709857439032
 20
263.6444546919784
 30
0.0
 11
110.7557726445752
 21
263.0689254078554
 31
0.0
  0
LINE
  5
A31
330
2
100
AcDbEntity
  8
0
100
AcDbLine
 10
87.10131657439029
 20
264.2471306919783
 30
0.0
 11
88.77709857439032
 21
263.6444546919784
 31
0.0
  0
ARC
  5
A32
330
2
100
AcDbEntity
  8
0
100
AcDbCircle
 10
87.77813557439026
 20
266.1291196919783
 30
0.0
 40
2.0
100
AcDbArc
 50
180.0
 51
250.2197109999995
  0
LINE
  5
A33
330
2
100
AcDbEntity
  8
0
100
AcDbLine
 10
119.2778365743902
 20
256.0496136919783
 30
0.0
 11
142.2781355743902
 21
255.6481096919783
 31
0.0
  0
LINE
  5
A34
330
2
100
AcDbEntity
  8
0
100
AcDbLine
 10
113.7650515743902
 20
260.6711656919783
 30
0.0
 11
117.2781355743902
 21
260.5792006919783
 31
0.0
  0
LINE
  5
A35
330
2
100
AcDbEntity
  8
0
100
AcDbLine
 10
113.2781355743902
 20
261.8862076919783
 30
0.0
 11
111.8388655743902
 21
261.8862076919783
 31
0.0
  0
ARC
  5
A36
330
2
100
AcDbEntity
  8
0
100
AcDbCircle
 10
113.7781355743902
 20
261.1709976919783
 30
0.0
 40
0.5
100
AcDbArc
 50
180.0
 51
268.5005189999991
  0
ARC
  5
A37
330
2
100
AcDbEntity
  8
0
100
AcDbCircle
 10
111.8388655743902
 20
262.8862076919783
 30
0.0
 40
1.0
100
AcDbArc
 50
196.9580989999995
 51
270.0
  0
ARC
  5
A38
330
2
100
AcDbEntity
  8
0
100
AcDbCircle
 10
118.2781355743902
 20
257.3522116919783
 30
0.0
 40
1.0
100
AcDbArc
 50
180.0
 51
255.0256040000013
  0
ARC
  5
A39
330
2
100
AcDbEntity
  8
0
100
AcDbCircle
 10
117.5780625743902
 20
264.6362076919783
 30
0.0
 40
7.0
100
AcDbArc
 50
163.0435029999997
 51
196.9579929999995
  0
LINE
  5
A3A
330
2
100
AcDbEntity
  8
0
100
AcDbLine
 10
118.0197355743902
 20
256.3862076919783
 30
0.0
 11
119.2778365743902
 21
256.0496136919783
 31
0.0
  0
LINE
  5
A3B
330
2
100
AcDbEntity
  8
0
100
AcDbLine
 10
109.2781355743902
 20
299.6481096919783
 30
0.0
 11
108.7781355743902
 21
299.6481096919783
 31
0.0
  0
LINE
  5
A3C
330
2
100
AcDbEntity
  8
0
100
AcDbLine
 10
110.5836895743902
 20
322.3794026919783
 30
0.0
 11
85.85955775125137
 21
321.7319528911014
 31
0.0
  0
LINE
  5
A3D
330
2
100
AcDbEntity
  8
0
100
AcDbLine
 10
88.77709857439032
 20
323.6517646919783
 30
0.0
 11
110.7557726445752
 21
324.2272939761012
 31
0.0
  0
LINE
  5
A3E
330
2
100
AcDbEntity
  8
0
100
AcDbLine
 10
113.2781355743902
 20
318.8443226919783
 30
0.0
 11
85.77813557439027
 21
319.5644456919783
 31
0.0
  0
LINE
  5
A3F
330
2
100
AcDbEntity
  8
0
100
AcDbLine
 10
109.2781355743902
 20
287.6481096919783
 30
0.0
 11
108.7781355743902
 21
287.6481096919783
 31
0.0
  0
LINE
  5
A40
330
2
100
AcDbEntity
  8
0
100
AcDbLine
 10
113.2781355743902
 20
268.4519116919783
 30
0.0
 11
85.77813557439027
 21
267.7317886919783
 31
0.0
  0
ARC
  5
A41
330
2
100
AcDbEntity
  8
0
100
AcDbCircle
 10
108.7781355743902
 20
298.6481096919784
 30
0.0
 40
1.0
100
AcDbArc
 50
90.0
 51
180.0
  0
ARC
  5
A42
330
2
100
AcDbEntity
  8
0
100
AcDbCircle
 10
108.7781355743902
 20
288.6481096919784
 30
0.0
 40
1.0
100
AcDbArc
 50
180.0
 51
270.0
  0
LINE
  5
A43
330
2
100
AcDbEntity
  8
0
100
AcDbLine
 10
107.7781355743902
 20
298.6481096919784
 30
0.0
 11
107.7781355743902
 21
288.6481096919784
 31
0.0
  0
LINE
  5
A44
330
2
100
AcDbEntity
  8
HOJO
100
AcDbLine
 10
93.48125557439022
 20
297.4981156919783
 30
0.0
 11
92.74545557439024
 21
294.6630176919783
 31
0.0
  0
LINE
  5
A45
330
2
100
AcDbEntity
  8
HOJO
100
AcDbLine
 10
92.74545557439024
 20
294.6630176919783
 30
0.0
 11
93.55755557439023
 21
292.1880116919783
 31
0.0
  0
LINE
  5
A46
330
2
100
AcDbEntity
  8
HOJO
100
AcDbLine
 10
93.55755557439023
 20
292.1880116919783
 30
0.0
 11
92.62945557439024
 21
289.7981186919783
 31
0.0
  0
LINE
  5
A47
330
2
100
AcDbEntity
  8
0
100
AcDbLine
 10
92.62945557439024
 20
289.7981186919783
 30
0.0
 11
107.7782555743902
 21
289.7981186919783
 31
0.0
  0
LINE
  5
A48
330
2
100
AcDbEntity
  8
0
100
AcDbLine
 10
93.48125557439022
 20
297.4981156919783
 30
0.0
 11
107.7782555743902
 21
297.4981156919783
 31
0.0
  0
LINE
  5
A49
330
2
100
AcDbEntity
  8
0
100
AcDbLine
 10
87.10131657439029
 20
323.0490886919783
 30
0.0
 11
88.77709857439032
 21
323.6517646919783
 31
0.0
  0
ARC
  5
A4A
330
2
100
AcDbEntity
  8
0
100
AcDbCircle
 10
87.77813557439026
 20
321.1670996919784
 30
0.0
 40
2.0
100
AcDbArc
 50
109.7802890000004
 51
180.0
  0
ARC
  5
A4B
330
2
100
AcDbEntity
  8
0
100
AcDbCircle
 10
140.7781355743902
 20
298.6481096919784
 30
0.0
 40
1.0
100
AcDbArc
 50
0.0
 51
90.0
  0
LINE
  5
A4C
330
2
100
AcDbEntity
  8
0
100
AcDbLine
 10
139.7781355743902
 20
314.6481096919783
 30
0.0
 11
139.7781355743902
 21
272.6481096919783
 31
0.0
  0
LINE
  5
A4D
330
2
100
AcDbEntity
  8
0
100
AcDbLine
 10
109.7780345743902
 20
272.6481096919783
 30
0.0
 11
109.7780345743902
 21
314.6481096919783
 31
0.0
  0
LINE
  5
A4E
330
2
100
AcDbEntity
  8
0
100
AcDbLine
 10
137.7781355743902
 20
270.6481096919783
 30
0.0
 11
111.7780345743902
 21
270.6481096919783
 31
0.0
  0
LINE
  5
A4F
330
2
100
AcDbEntity
  8
0
100
AcDbLine
 10
113.2781355743902
 20
267.3862076919783
 30
0.0
 11
111.8388655743902
 21
267.3862076919783
 31
0.0
  0
LINE
  5
A50
330
2
100
AcDbEntity
  8
0
100
AcDbLine
 10
113.2781355743902
 20
267.3862076919783
 30
0.0
 11
111.8388655743902
 21
267.3862076919783
 31
0.0
  0
LINE
  5
A51
330
2
100
AcDbEntity
  8
0
100
AcDbLine
 10
110.7780345743902
 20
277.1481096919783
 30
0.0
 11
112.7781355743902
 21
277.1481096919783
 31
0.0
  0
ARC
  5
A52
330
2
100
AcDbEntity
  8
0
100
AcDbCircle
 10
110.7780345743902
 20
278.1481096919783
 30
0.0
 40
1.0
100
AcDbArc
 50
180.0
 51
270.0
  0
LINE
  5
A53
330
2
100
AcDbEntity
  8
0
100
AcDbLine
 10
112.3781115743902
 20
275.3981096919783
 30
0.0
 11
113.1781295743902
 21
275.3981096919783
 31
0.0
  0
LINE
  5
A54
330
2
100
AcDbEntity
  8
0
100
AcDbLine
 10
116.2781355743902
 20
271.6481096919783
 30
0.0
 11
116.2781355743902
 21
273.6481096919783
 31
0.0
  0
ARC
  5
A55
330
2
100
AcDbEntity
  8
0
100
AcDbCircle
 10
117.2781355743902
 20
271.6481096919783
 30
0.0
 40
1.0
100
AcDbArc
 50
180.0
 51
270.0
  0
LINE
  5
A56
330
2
100
AcDbEntity
  8
0
100
AcDbLine
 10
114.5281355743902
 20
274.0481036919783
 30
0.0
 11
114.5281355743902
 21
273.2480856919783
 31
0.0
  0
LINE
  5
A57
330
2
100
AcDbEntity
  8
0
100
AcDbLine
 10
112.3781115743902
 20
271.8981096919783
 30
0.0
 11
113.1781295743902
 21
271.8981096919783
 31
0.0
  0
LINE
  5
A58
330
2
100
AcDbEntity
  8
0
100
AcDbLine
 10
111.0281355743902
 20
274.0481036919783
 30
0.0
 11
111.0281355743902
 21
273.2480856919783
 31
0.0
  0
ARC
  5
A59
330
2
100
AcDbEntity
  8
0
100
AcDbCircle
 10
111.0281355743902
 20
271.8981096919783
 30
0.0
 40
1.35
100
AcDbArc
 50
0.0
 51
90.0
  0
ARC
  5
A5A
330
2
100
AcDbEntity
  8
0
100
AcDbCircle
 10
111.7780345743902
 20
272.6481096919783
 30
0.0
 40
2.0
100
AcDbArc
 50
180.0
 51
270.0
  0
ARC
  5
A5B
330
2
100
AcDbEntity
  8
0
100
AcDbCircle
 10
114.5281355743902
 20
271.8981096919783
 30
0.0
 40
1.35
100
AcDbArc
 50
90.0
 51
180.0
  0
ARC
  5
A5C
330
2
100
AcDbEntity
  8
0
100
AcDbCircle
 10
112.7781355743902
 20
273.6481096919783
 30
0.0
 40
3.5
100
AcDbArc
 50
0.0
 51
90.0
  0
CIRCLE
  5
A5D
330
2
100
AcDbEntity
  8
0
100
AcDbCircle
 10
112.7781355743902
 20
273.6481096919783
 30
0.0
 40
2.75
  0
ARC
  5
A5E
330
2
100
AcDbEntity
  8
0
100
AcDbCircle
 10
111.0281355743902
 20
275.3981096919783
 30
0.0
 40
1.35
100
AcDbArc
 50
270.0
 51
0.0
  0
ARC
  5
A5F
330
2
100
AcDbEntity
  8
0
100
AcDbCircle
 10
114.5281355743902
 20
275.3981096919783
 30
0.0
 40
1.35
100
AcDbArc
 50
180.0
 51
270.0
  0
ARC
  5
A60
330
2
100
AcDbEntity
  8
0
100
AcDbCircle
 10
109.2781355743902
 20
287.1481096919783
 30
0.0
 40
0.5
100
AcDbArc
 50
0.0
 51
90.0
  0
LINE
  5
A61
330
2
100
AcDbEntity
  8
0
100
AcDbLine
 10
140.2781355743902
 20
287.6481096919783
 30
0.0
 11
140.7781355743902
 21
287.6481096919783
 31
0.0
  0
ARC
  5
A62
330
2
100
AcDbEntity
  8
0
100
AcDbCircle
 10
138.7782345743902
 20
278.1481096919783
 30
0.0
 40
1.0
100
AcDbArc
 50
270.0
 51
0.0
  0
LINE
  5
A63
330
2
100
AcDbEntity
  8
0
100
AcDbLine
 10
138.5281355743902
 20
274.0481036919783
 30
0.0
 11
138.5281355743902
 21
273.2480856919783
 31
0.0
  0
ARC
  5
A64
330
2
100
AcDbEntity
  8
0
100
AcDbCircle
 10
140.2781355743902
 20
287.1481096919783
 30
0.0
 40
0.5
100
AcDbArc
 50
90.0
 51
180.0
  0
LINE
  5
A65
330
2
100
AcDbEntity
  8
0
100
AcDbLine
 10
136.3781115743902
 20
275.3981096919783
 30
0.0
 11
137.1781295743902
 21
275.3981096919783
 31
0.0
  0
LINE
  5
A66
330
2
100
AcDbEntity
  8
0
100
AcDbLine
 10
136.3781115743902
 20
271.8981096919783
 30
0.0
 11
137.1781295743902
 21
271.8981096919783
 31
0.0
  0
LINE
  5
A67
330
2
100
AcDbEntity
  8
0
100
AcDbLine
 10
135.0281355743902
 20
274.0481036919783
 30
0.0
 11
135.0281355743902
 21
273.2480856919783
 31
0.0
  0
ARC
  5
A68
330
2
100
AcDbEntity
  8
0
100
AcDbCircle
 10
135.0281355743902
 20
271.8981096919783
 30
0.0
 40
1.35
100
AcDbArc
 50
0.0
 51
90.0
  0
ARC
  5
A69
330
2
100
AcDbEntity
  8
0
100
AcDbCircle
 10
135.0281355743902
 20
275.3981096919783
 30
0.0
 40
1.35
100
AcDbArc
 50
270.0
 51
0.0
  0
ARC
  5
A6A
330
2
100
AcDbEntity
  8
0
100
AcDbCircle
 10
137.7781355743902
 20
272.6481096919783
 30
0.0
 40
2.0
100
AcDbArc
 50
270.0
 51
0.0
  0
LINE
  5
A6B
330
2
100
AcDbEntity
  8
0
100
AcDbLine
 10
138.7782345743902
 20
277.1481096919783
 30
0.0
 11
136.7781355743902
 21
277.1481096919783
 31
0.0
  0
CIRCLE
  5
A6C
330
2
100
AcDbEntity
  8
0
100
AcDbCircle
 10
136.7781355743902
 20
273.6481096919783
 30
0.0
 40
2.75
  0
ARC
  5
A6D
330
2
100
AcDbEntity
  8
0
100
AcDbCircle
 10
138.5281355743902
 20
275.3981096919783
 30
0.0
 40
1.35
100
AcDbArc
 50
180.0
 51
270.0
  0
ARC
  5
A6E
330
2
100
AcDbEntity
  8
0
100
AcDbCircle
 10
138.5281355743902
 20
271.8981096919783
 30
0.0
 40
1.35
100
AcDbArc
 50
90.0
 51
180.0
  0
LINE
  5
A6F
330
2
100
AcDbEntity
  8
0
100
AcDbLine
 10
133.2781355743902
 20
271.6481096919783
 30
0.0
 11
133.2781355743902
 21
273.6481096919783
 31
0.0
  0
ARC
  5
A70
330
2
100
AcDbEntity
  8
0
100
AcDbCircle
 10
132.2781355743902
 20
271.6481096919783
 30
0.0
 40
1.0
100
AcDbArc
 50
270.0
 51
0.0
  0
ARC
  5
A71
330
2
100
AcDbEntity
  8
0
100
AcDbCircle
 10
136.7781355743902
 20
273.6481096919783
 30
0.0
 40
3.5
100
AcDbArc
 50
90.0
 51
180.0
  0
LINE
  5
A72
330
2
100
AcDbEntity
  8
0
100
AcDbLine
 10
141.7781355743902
 20
298.6481096919784
 30
0.0
 11
141.7781355743902
 21
288.6481096919784
 31
0.0
  0
LINE
  5
A73
330
2
100
AcDbEntity
  8
0
100
AcDbLine
 10
138.1558215743902
 20
270.6841046919783
 30
0.0
 11
142.2781355743902
 21
270.6481096919783
 31
0.0
  0
ARC
  5
A74
330
2
100
AcDbEntity
  8
0
100
AcDbCircle
 10
140.7781355743902
 20
288.6481096919784
 30
0.0
 40
1.0
100
AcDbArc
 50
270.0
 51
0.0
  0
LINE
  5
A75
330
2
100
AcDbEntity
  8
0
100
AcDbLine
 10
137.7781355743902
 20
316.6481096919783
 30
0.0
 11
111.7780345743902
 21
316.6481096919783
 31
0.0
  0
ARC
  5
A76
330
2
100
AcDbEntity
  8
0
100
AcDbCircle
 10
117.5780625743902
 20
322.6600116919783
 30
0.0
 40
7.0
100
AcDbArc
 50
163.0420070000004
 51
196.9564970000002
  0
LINE
  5
A77
330
2
100
AcDbEntity
  8
0
100
AcDbLine
 10
112.5780625743902
 20
325.4100116919783
 30
0.0
 11
112.5780625743902
 21
319.9100116919783
 31
0.0
  0
LINE
  5
A78
330
2
100
AcDbEntity
  8
0
100
AcDbLine
 10
117.2781355743902
 20
329.9440076919783
 30
0.0
 11
117.2781355743902
 21
316.6481096919783
 31
0.0
  0
LINE
  5
A79
330
2
100
AcDbEntity
  8
0
100
AcDbLine
 10
113.2781355743902
 20
326.1252366919784
 30
0.0
 11
113.2781355743902
 21
316.6481096919783
 31
0.0
  0
LINE
  5
A7A
330
2
100
AcDbEntity
  8
0
100
AcDbLine
 10
113.2781355743902
 20
319.9100116919783
 30
0.0
 11
111.8388655743902
 21
319.9100116919783
 31
0.0
  0
ARC
  5
A7B
330
2
100
AcDbEntity
  8
0
100
AcDbCircle
 10
111.8388655743902
 20
320.9100116919783
 30
0.0
 40
1.0
100
AcDbArc
 50
196.9568939999997
 51
270.0
  0
LINE
  5
A7C
330
2
100
AcDbEntity
  8
0
100
AcDbLine
 10
113.7650515743902
 20
326.6250536919784
 30
0.0
 11
117.2781355743902
 21
326.7170186919783
 31
0.0
  0
ARC
  5
A7D
330
2
100
AcDbEntity
  8
0
100
AcDbCircle
 10
113.7781355743902
 20
326.1252366919784
 30
0.0
 40
0.5
100
AcDbArc
 50
91.49948100000081
 51
180.0
  0
LINE
  5
A7E
330
2
100
AcDbEntity
  8
0
100
AcDbLine
 10
113.2781355743902
 20
325.4100116919783
 30
0.0
 11
111.8388655743902
 21
325.4100116919783
 31
0.0
  0
ARC
  5
A7F
330
2
100
AcDbEntity
  8
0
100
AcDbCircle
 10
111.8388655743902
 20
324.4100116919783
 30
0.0
 40
1.0
100
AcDbArc
 50
90.0
 51
163.0419010000004
  0
LINE
  5
A80
330
2
100
AcDbEntity
  8
0
100
AcDbLine
 10
114.5281355743902
 20
314.0481036919783
 30
0.0
 11
114.5281355743902
 21
313.2480856919783
 31
0.0
  0
LINE
  5
A81
330
2
100
AcDbEntity
  8
0
100
AcDbLine
 10
116.2781355743902
 20
315.6481096919784
 30
0.0
 11
116.2781355743902
 21
313.6481096919784
 31
0.0
  0
LINE
  5
A82
330
2
100
AcDbEntity
  8
0
100
AcDbLine
 10
112.3781115743902
 20
315.3981096919784
 30
0.0
 11
113.1781295743902
 21
315.3981096919784
 31
0.0
  0
LINE
  5
A83
330
2
100
AcDbEntity
  8
0
100
AcDbLine
 10
111.0281355743902
 20
314.0481036919783
 30
0.0
 11
111.0281355743902
 21
313.2480856919783
 31
0.0
  0
ARC
  5
A84
330
2
100
AcDbEntity
  8
0
100
AcDbCircle
 10
111.0281355743902
 20
315.3981096919784
 30
0.0
 40
1.35
100
AcDbArc
 50
270.0
 51
0.0
  0
ARC
  5
A85
330
2
100
AcDbEntity
  8
0
100
AcDbCircle
 10
114.5281355743902
 20
315.3981096919784
 30
0.0
 40
1.35
100
AcDbArc
 50
180.0
 51
270.0
  0
LINE
  5
A86
330
2
100
AcDbEntity
  8
0
100
AcDbLine
 10
110.7780345743902
 20
310.1481096919783
 30
0.0
 11
112.7781355743902
 21
310.1481096919783
 31
0.0
  0
ARC
  5
A87
330
2
100
AcDbEntity
  8
0
100
AcDbCircle
 10
110.7780345743902
 20
309.1481096919784
 30
0.0
 40
1.0
100
AcDbArc
 50
90.0
 51
180.0
  0
LINE
  5
A88
330
2
100
AcDbEntity
  8
0
100
AcDbLine
 10
112.3781115743902
 20
311.8981096919783
 30
0.0
 11
113.1781295743902
 21
311.8981096919783
 31
0.0
  0
ARC
  5
A89
330
2
100
AcDbEntity
  8
0
100
AcDbCircle
 10
109.2781355743902
 20
300.1481096919783
 30
0.0
 40
0.5
100
AcDbArc
 50
270.0
 51
0.0
  0
ARC
  5
A8A
330
2
100
AcDbEntity
  8
0
100
AcDbCircle
 10
111.0281355743902
 20
311.8981096919783
 30
0.0
 40
1.35
100
AcDbArc
 50
0.0
 51
90.0
  0
ARC
  5
A8B
330
2
100
AcDbEntity
  8
0
100
AcDbCircle
 10
112.7781355743902
 20
313.6481096919784
 30
0.0
 40
3.5
100
AcDbArc
 50
270.0
 51
0.0
  0
ARC
  5
A8C
330
2
100
AcDbEntity
  8
0
100
AcDbCircle
 10
114.5281355743902
 20
311.8981096919783
 30
0.0
 40
1.35
100
AcDbArc
 50
90.0
 51
180.0
  0
ARC
  5
A8D
330
2
100
AcDbEntity
  8
0
100
AcDbCircle
 10
117.2781355743902
 20
315.6481096919784
 30
0.0
 40
1.0
100
AcDbArc
 50
90.0
 51
180.0
  0
ARC
  5
A8E
330
2
100
AcDbEntity
  8
0
100
AcDbCircle
 10
111.7780345743902
 20
314.6481096919783
 30
0.0
 40
2.0
100
AcDbArc
 50
90.0
 51
180.0
  0
CIRCLE
  5
A8F
330
2
100
AcDbEntity
  8
0
100
AcDbCircle
 10
112.7781355743902
 20
313.6481096919784
 30
0.0
 40
2.75
  0
LINE
  5
A90
330
2
100
AcDbEntity
  8
0
100
AcDbLine
 10
138.5281355743902
 20
314.0481036919783
 30
0.0
 11
138.5281355743902
 21
313.2480856919783
 31
0.0
  0
LINE
  5
A91
330
2
100
AcDbEntity
  8
0
100
AcDbLine
 10
136.3781115743902
 20
315.3981096919784
 30
0.0
 11
137.1781295743902
 21
315.3981096919784
 31
0.0
  0
LINE
  5
A92
330
2
100
AcDbEntity
  8
0
100
AcDbLine
 10
135.0281355743902
 20
314.0481036919783
 30
0.0
 11
135.0281355743902
 21
313.2480856919783
 31
0.0
  0
ARC
  5
A93
330
2
100
AcDbEntity
  8
0
100
AcDbCircle
 10
135.0281355743902
 20
315.3981096919784
 30
0.0
 40
1.35
100
AcDbArc
 50
270.0
 51
0.0
  0
ARC
  5
A94
330
2
100
AcDbEntity
  8
0
100
AcDbCircle
 10
138.5281355743902
 20
315.3981096919784
 30
0.0
 40
1.35
100
AcDbArc
 50
180.0
 51
270.0
  0
ARC
  5
A95
330
2
100
AcDbEntity
  8
0
100
AcDbCircle
 10
138.7782345743902
 20
309.1481096919784
 30
0.0
 40
1.0
100
AcDbArc
 50
0.0
 51
90.0
  0
LINE
  5
A96
330
2
100
AcDbEntity
  8
0
100
AcDbLine
 10
140.2781355743902
 20
299.6481096919783
 30
0.0
 11
140.7781355743902
 21
299.6481096919783
 31
0.0
  0
ARC
  5
A97
330
2
100
AcDbEntity
  8
0
100
AcDbCircle
 10
140.2781355743902
 20
300.1481096919783
 30
0.0
 40
0.5
100
AcDbArc
 50
180.0
 51
270.0
  0
LINE
  5
A98
330
2
100
AcDbEntity
  8
0
100
AcDbLine
 10
136.3781115743902
 20
311.8981096919783
 30
0.0
 11
137.1781295743902
 21
311.8981096919783
 31
0.0
  0
LINE
  5
A99
330
2
100
AcDbEntity
  8
0
100
AcDbLine
 10
138.7782345743902
 20
310.1481096919783
 30
0.0
 11
136.7781355743902
 21
310.1481096919783
 31
0.0
  0
ARC
  5
A9A
330
2
100
AcDbEntity
  8
0
100
AcDbCircle
 10
135.0281355743902
 20
311.8981096919783
 30
0.0
 40
1.35
100
AcDbArc
 50
0.0
 51
90.0
  0
ARC
  5
A9B
330
2
100
AcDbEntity
  8
0
100
AcDbCircle
 10
138.5281355743902
 20
311.8981096919783
 30
0.0
 40
1.35
100
AcDbArc
 50
90.0
 51
180.0
  0
LINE
  5
A9C
330
2
100
AcDbEntity
  8
0
100
AcDbLine
 10
133.2781355743902
 20
315.6481096919784
 30
0.0
 11
133.2781355743902
 21
313.6481096919784
 31
0.0
  0
ARC
  5
A9D
330
2
100
AcDbEntity
  8
0
100
AcDbCircle
 10
136.7781355743902
 20
313.6481096919784
 30
0.0
 40
3.5
100
AcDbArc
 50
180.0
 51
270.0
  0
ARC
  5
A9E
330
2
100
AcDbEntity
  8
0
100
AcDbCircle
 10
137.7781355743902
 20
314.6481096919783
 30
0.0
 40
2.0
100
AcDbArc
 50
0.0
 51
90.0
  0
CIRCLE
  5
A9F
330
2
100
AcDbEntity
  8
0
100
AcDbCircle
 10
136.7781355743902
 20
313.6481096919784
 30
0.0
 40
2.75
  0
ARC
  5
AA0
330
2
100
AcDbEntity
  8
0
100
AcDbCircle
 10
132.2781355743902
 20
315.6481096919784
 30
0.0
 40
1.0
100
AcDbArc
 50
0.0
 51
90.0
  0
LINE
  5
AA1
330
2
100
AcDbEntity
  8
0
100
AcDbLine
 10
138.1558215743902
 20
316.6121296919782
 30
0.0
 11
142.2781355743902
 21
316.6481096919783
 31
0.0
  0
LINE
  5
AA2
330
2
100
AcDbEntity
  8
0
100
AcDbLine
 10
215.2848605743902
 20
264.6132126919783
 30
0.0
 11
215.1795445743902
 21
270.6481096919783
 31
0.0
  0
LINE
  5
AA3
330
2
100
AcDbEntity
  8
CENTER
100
AcDbLine
 10
223.2781315743902
 20
247.357916862007
 30
0.0
 11
223.2781315743902
 21
259.9383025219497
 31
0.0
  0
ARC
  5
AA4
330
2
100
AcDbEntity
  8
0
100
AcDbCircle
 10
212.7781315743902
 20
257.6481096919783
 30
0.0
 40
2.0
100
AcDbArc
 50
270.0
 51
0.0
  0
LINE
  5
AA5
330
2
100
AcDbEntity
  8
0
100
AcDbLine
 10
214.7781315743902
 20
257.6481096919783
 30
0.0
 11
214.7781315743902
 21
261.2959516919783
 31
0.0
  0
ARC
  5
AA6
330
2
100
AcDbEntity
  8
0
100
AcDbCircle
 10
218.5465035743902
 20
249.6481096919783
 30
0.0
 40
3.0
100
AcDbArc
 50
180.9998470000002
 51
270.0
  0
ARC
  5
AA7
330
2
100
AcDbEntity
  8
0
100
AcDbCircle
 10
216.2781315743902
 20
261.2959516919783
 30
0.0
 40
1.5
100
AcDbArc
 50
73.28735399999892
 51
180.0
  0
LINE
  5
AA8
330
2
100
AcDbEntity
  8
0
100
AcDbLine
 10
215.5469535743902
 20
249.5957566919783
 30
0.0
 11
215.3225805743902
 21
262.4522016919783
 31
0.0
  0
ARC
  5
AA9
330
2
100
AcDbEntity
  8
0
100
AcDbCircle
 10
217.2846325743902
 20
264.6481096919783
 30
0.0
 40
2.0
100
AcDbArc
 50
181.0000000000001
 51
270.0
  0
CIRCLE
  5
AAA
330
2
100
AcDbEntity
  8
0
100
AcDbCircle
 10
223.2781315743902
 20
253.6481096919783
 30
0.0
 40
3.25
  0
LINE
  5
AAB
330
2
100
AcDbEntity
  8
CENTER
100
AcDbLine
 10
216.9879387444189
 20
253.6481096919783
 30
0.0
 11
229.5683244043616
 21
253.6481096919783
 31
0.0
  0
LINE
  5
AAC
330
2
100
AcDbEntity
  8
0
100
AcDbLine
 10
218.1978095743902
 20
272.6481096919783
 30
0.0
 11
218.1978095743902
 21
314.6483846919783
 31
0.0
  0
LINE
  5
AAD
330
2
100
AcDbEntity
  8
0
100
AcDbLine
 10
215.2848605743902
 20
322.6830066919784
 30
0.0
 11
215.1795445743902
 21
316.6481096919783
 31
0.0
  0
LINE
  5
AAE
330
2
100
AcDbEntity
  8
0
100
AcDbLine
 10
214.7781315743902
 20
329.6481096919784
 30
0.0
 11
214.7781315743902
 21
326.0002676919782
 31
0.0
  0
ARC
  5
AAF
330
2
100
AcDbEntity
  8
0
100
AcDbCircle
 10
217.2846325743902
 20
322.6481096919783
 30
0.0
 40
2.0
100
AcDbArc
 50
90.0
 51
178.9999999999998
  0
ARC
  5
AB0
330
2
100
AcDbEntity
  8
0
100
AcDbCircle
 10
216.2781315743902
 20
326.0002676919782
 30
0.0
 40
1.5
100
AcDbArc
 50
180.0
 51
286.712646000001
  0
LINE
  5
AB1
330
2
100
AcDbEntity
  8
0
100
AcDbLine
 10
212.7781315743902
 20
331.6481096919783
 30
0.0
 11
142.2781355743902
 21
331.6481096919783
 31
0.0
  0
LINE
  5
AB2
330
2
100
AcDbEntity
  8
0
100
AcDbLine
 10
119.2778365743902
 20
331.2465136919783
 30
0.0
 11
142.2781355743902
 21
331.6481096919783
 31
0.0
  0
LINE
  5
AB3
330
2
100
AcDbEntity
  8
0
100
AcDbLine
 10
118.0197355743902
 20
330.9100116919783
 30
0.0
 11
119.2778365743902
 21
331.2465136919783
 31
0.0
  0
ARC
  5
AB4
330
2
100
AcDbEntity
  8
0
100
AcDbCircle
 10
218.5465035743902
 20
337.6481246919783
 30
0.0
 40
3.0
100
AcDbArc
 50
90.0
 51
179.0001529999997
  0
CIRCLE
  5
AB5
330
2
100
AcDbEntity
  8
0
100
AcDbCircle
 10
223.2781315743902
 20
333.6481246919783
 30
0.0
 40
3.25
  0
LINE
  5
AB6
330
2
100
AcDbEntity
  8
CENTER
100
AcDbLine
 10
216.9879387444189
 20
333.6481246919782
 30
0.0
 11
229.5683244043616
 21
333.6481246919782
 31
0.0
  0
LINE
  5
AB7
330
2
100
AcDbEntity
  8
CENTER
100
AcDbLine
 10
291.2781315743901
 20
327.3579318620068
 30
0.0
 11
291.2781315743901
 21
339.9383175219496
 31
0.0
  0
LINE
  5
AB8
330
2
100
AcDbEntity
  8
0
100
AcDbLine
 10
265.7781315743902
 20
330.6481096919783
 30
0.0
 11
265.7781315743902
 21
328.6481096919783
 31
0.0
  0
LINE
  5
AB9
330
2
100
AcDbEntity
  8
0
100
AcDbLine
 10
299.0091955743902
 20
337.7004626919783
 30
0.0
 11
299.7781315743902
 21
293.6481096919783
 31
0.0
  0
LINE
  5
ABA
330
2
100
AcDbEntity
  8
CENTER
100
AcDbLine
 10
257.2781315743902
 20
364.6481246919782
 30
0.0
 11
257.2781315743902
 21
222.6481096919783
 31
0.0
  0
LINE
  5
ABB
330
2
100
AcDbEntity
  8
0
100
AcDbLine
 10
248.7781315743902
 20
330.6481096919783
 30
0.0
 11
248.7781315743902
 21
328.6481096919783
 31
0.0
  0
LINE
  5
ABC
330
2
100
AcDbEntity
  8
0
100
AcDbLine
 10
272.2781315743902
 20
322.6830216919783
 30
0.0
 11
272.2781315743902
 21
264.6132126919783
 31
0.0
  0
LINE
  5
ABD
330
2
100
AcDbEntity
  8
0
100
AcDbLine
 10
299.0091955743902
 20
249.5957566919783
 30
0.0
 11
299.7781315743902
 21
293.6481096919783
 31
0.0
  0
LINE
  5
ABE
330
2
100
AcDbEntity
  8
0
100
AcDbLine
 10
242.2781315743902
 20
322.6830216919783
 30
0.0
 11
242.2781315743902
 21
264.6132126919783
 31
0.0
  0
LINE
  5
ABF
330
2
100
AcDbEntity
  8
0
100
AcDbLine
 10
266.7781315743902
 20
246.6481096919783
 30
0.0
 11
296.0096535743902
 21
246.6481096919783
 31
0.0
  0
LINE
  5
AC0
330
2
100
AcDbEntity
  8
0
100
AcDbLine
 10
276.2781315743902
 20
258.6481096919783
 30
0.0
 11
238.2781315743902
 21
258.6481096919783
 31
0.0
  0
LINE
  5
AC1
330
2
100
AcDbEntity
  8
0
100
AcDbLine
 10
266.7781315743902
 20
251.1481096919783
 30
0.0
 11
266.7781315743902
 21
229.6481096919783
 31
0.0
  0
LINE
  5
AC2
330
2
100
AcDbEntity
  8
0
100
AcDbLine
 10
264.3491305743901
 20
251.1481096919783
 30
0.0
 11
264.3491305743901
 21
229.6481096919783
 31
0.0
  0
LINE
  5
AC3
330
2
100
AcDbEntity
  8
0
100
AcDbLine
 10
249.7781315743902
 20
229.6481096919783
 30
0.0
 11
249.7781315743902
 21
256.6481096919783
 31
0.0
  0
LINE
  5
AC4
330
2
100
AcDbEntity
  8
0
100
AcDbLine
 10
249.7781315743902
 20
229.6481096919783
 30
0.0
 11
266.7781315743902
 21
229.6481096919783
 31
0.0
  0
LINE
  5
AC5
330
2
100
AcDbEntity
  8
0
100
AcDbLine
 10
248.7781315743902
 20
256.6481096919783
 30
0.0
 11
265.7781315743902
 21
256.6481096919783
 31
0.0
  0
LINE
  5
AC6
330
2
100
AcDbEntity
  8
0
100
AcDbLine
 10
248.7781315743902
 20
256.6481096919783
 30
0.0
 11
248.7781315743902
 21
258.6481096919783
 31
0.0
  0
ARC
  5
AC7
330
2
100
AcDbEntity
  8
0
100
AcDbCircle
 10
238.2781315743902
 20
259.6481096919783
 30
0.0
 40
1.0
100
AcDbArc
 50
180.0
 51
270.0
  0
LINE
  5
AC8
330
2
100
AcDbEntity
  8
0
100
AcDbLine
 10
237.2781315743902
 20
259.6481096919783
 30
0.0
 11
237.2781315743901
 21
260.6481096919782
 31
0.0
  0
LINE
  5
AC9
330
2
100
AcDbEntity
  8
0
100
AcDbLine
 10
265.7781315743902
 20
256.6481096919783
 30
0.0
 11
265.7781315743902
 21
258.6481096919783
 31
0.0
  0
LINE
  5
ACA
330
2
100
AcDbEntity
  8
0
100
AcDbLine
 10
264.7781315743902
 20
251.1481096919783
 30
0.0
 11
264.7781315743902
 21
256.6481096919783
 31
0.0
  0
LINE
  5
ACB
330
2
100
AcDbEntity
  8
0
100
AcDbLine
 10
264.3491305743901
 20
251.1481096919783
 30
0.0
 11
266.7781315743902
 21
251.1481096919783
 31
0.0
  0
LINE
  5
ACC
330
2
100
AcDbEntity
  8
CENTER
100
AcDbLine
 10
284.9879387444187
 20
253.6481096919783
 30
0.0
 11
297.5683244043615
 21
253.6481096919783
 31
0.0
  0
CIRCLE
  5
ACD
330
2
100
AcDbEntity
  8
0
100
AcDbCircle
 10
291.2781315743902
 20
253.6481096919783
 30
0.0
 40
3.25
  0
LINE
  5
ACE
330
2
100
AcDbEntity
  8
CENTER
100
AcDbLine
 10
291.2781315743901
 20
247.357916862007
 30
0.0
 11
291.2781315743901
 21
259.9383025219497
 31
0.0
  0
ARC
  5
ACF
330
2
100
AcDbEntity
  8
0
100
AcDbCircle
 10
276.2781315743902
 20
259.6481096919783
 30
0.0
 40
1.0
100
AcDbArc
 50
270.0
 51
0.0
  0
LINE
  5
AD0
330
2
100
AcDbEntity
  8
0
100
AcDbLine
 10
277.2781315743902
 20
259.6481096919783
 30
0.0
 11
277.2781315743902
 21
260.6481096919782
 31
0.0
  0
ARC
  5
AD1
330
2
100
AcDbEntity
  8
0
100
AcDbCircle
 10
296.0096535743902
 20
249.6481096919783
 30
0.0
 40
3.0
100
AcDbArc
 50
270.0
 51
358.9999999999998
  0
ARC
  5
AD2
330
2
100
AcDbEntity
  8
0
100
AcDbCircle
 10
297.2716315743901
 20
264.6481096919783
 30
0.0
 40
2.0
100
AcDbArc
 50
270.0
 51
358.9999999999998
  0
LINE
  5
AD3
330
2
100
AcDbEntity
  8
0
100
AcDbLine
 10
276.2781315743902
 20
328.6481096919783
 30
0.0
 11
238.2781315743902
 21
328.6481096919783
 31
0.0
  0
ARC
  5
AD4
330
2
100
AcDbEntity
  8
0
100
AcDbCircle
 10
238.2781315743902
 20
327.6481096919784
 30
0.0
 40
1.0
100
AcDbArc
 50
90.0
 51
180.0
  0
LINE
  5
AD5
330
2
100
AcDbEntity
  8
0
100
AcDbLine
 10
237.2781315743902
 20
327.6481096919784
 30
0.0
 11
237.2781315743901
 21
326.6481096919783
 31
0.0
  0
ARC
  5
AD6
330
2
100
AcDbEntity
  8
0
100
AcDbCircle
 10
276.2781315743902
 20
327.6481096919784
 30
0.0
 40
1.0
100
AcDbArc
 50
0.0
 51
90.0
  0
LINE
  5
AD7
330
2
100
AcDbEntity
  8
0
100
AcDbLine
 10
277.2781315743902
 20
327.6481096919784
 30
0.0
 11
277.2781315743902
 21
326.6481096919783
 31
0.0
  0
ARC
  5
AD8
330
2
100
AcDbEntity
  8
0
100
AcDbCircle
 10
297.2716315743901
 20
322.6481096919783
 30
0.0
 40
2.0
100
AcDbArc
 50
1.000000000000147
 51
90.0
  0
LINE
  5
AD9
330
2
100
AcDbEntity
  8
0
100
AcDbLine
 10
266.7781315743902
 20
340.6481246919783
 30
0.0
 11
296.0096535743902
 21
340.6481246919783
 31
0.0
  0
LINE
  5
ADA
330
2
100
AcDbEntity
  8
0
100
AcDbLine
 10
249.7781315743902
 20
357.6481246919783
 30
0.0
 11
266.7781315743902
 21
357.6481246919783
 31
0.0
  0
LINE
  5
ADB
330
2
100
AcDbEntity
  8
0
100
AcDbLine
 10
248.7781315743902
 20
330.6481096919783
 30
0.0
 11
265.7781315743902
 21
330.6481096919783
 31
0.0
  0
LINE
  5
ADC
330
2
100
AcDbEntity
  8
0
100
AcDbLine
 10
249.7781315743902
 20
357.6481246919783
 30
0.0
 11
249.7781315743902
 21
330.6481096919783
 31
0.0
  0
LINE
  5
ADD
330
2
100
AcDbEntity
  8
0
100
AcDbLine
 10
264.7781315743902
 20
336.1481246919783
 30
0.0
 11
264.7781315743902
 21
330.6481096919783
 31
0.0
  0
LINE
  5
ADE
330
2
100
AcDbEntity
  8
0
100
AcDbLine
 10
264.3491305743901
 20
336.1481246919783
 30
0.0
 11
266.7781315743902
 21
336.1481246919783
 31
0.0
  0
LINE
  5
ADF
330
2
100
AcDbEntity
  8
0
100
AcDbLine
 10
266.7781315743902
 20
336.1481246919783
 30
0.0
 11
266.7781315743902
 21
357.6481246919783
 31
0.0
  0
LINE
  5
AE0
330
2
100
AcDbEntity
  8
0
100
AcDbLine
 10
264.3491305743901
 20
336.1481246919783
 30
0.0
 11
264.3491305743901
 21
357.6481246919783
 31
0.0
  0
LINE
  5
AE1
330
2
100
AcDbEntity
  8
CENTER
100
AcDbLine
 10
284.9879387444187
 20
333.6481246919782
 30
0.0
 11
297.5683244043615
 21
333.6481246919782
 31
0.0
  0
CIRCLE
  5
AE2
330
2
100
AcDbEntity
  8
0
100
AcDbCircle
 10
291.2781315743902
 20
333.6481246919783
 30
0.0
 40
3.25
  0
ARC
  5
AE3
330
2
100
AcDbEntity
  8
0
100
AcDbCircle
 10
296.0096535743902
 20
337.6481246919783
 30
0.0
 40
3.0
100
AcDbArc
 50
1.000000000000147
 51
90.0
  0
ARC
  5
128F
330
2
100
AcDbEntity
  8
0
100
AcDbCircle
 10
476.0315930078776
 20
137.4165819774592
 30
0.0
 40
2.0
100
AcDbArc
 50
180.0
 51
270.0
  0
ARC
  5
1290
330
2
100
AcDbEntity
  8
0
100
AcDbCircle
 10
476.0315930078776
 20
93.41658197745926
 30
0.0
 40
2.0
100
AcDbArc
 50
90.00000000000003
 51
180.0
  0
ARC
  5
1291
330
2
100
AcDbEntity
  8
0
100
AcDbCircle
 10
410.0315930078773
 20
93.41658197745926
 30
0.0
 40
2.0
100
AcDbArc
 50
0.000000000000007
 51
89.99999999999998
  0
ARC
  5
1292
330
2
100
AcDbEntity
  8
0
100
AcDbCircle
 10
410.0315930078773
 20
137.4165819774592
 30
0.0
 40
2.0
100
AcDbArc
 50
270.0
 51
0.000000000000007
  0
ARC
  5
1298
330
2
100
AcDbEntity
  8
0
100
AcDbCircle
 10
279.2781315743904
 20
326.6481096919783
 30
0.0
 40
2.0
100
AcDbArc
 50
180.0
 51
270.0
  0
ARC
  5
1299
330
2
100
AcDbEntity
  8
0
100
AcDbCircle
 10
235.2781315743901
 20
326.6481096919783
 30
0.0
 40
2.0
100
AcDbArc
 50
270.0
 51
0.000000000000007
  0
ARC
  5
129A
330
2
100
AcDbEntity
  8
0
100
AcDbCircle
 10
235.2781315743901
 20
260.6481096919782
 30
0.0
 40
2.0
100
AcDbArc
 50
0.0
 51
90.00000000000003
  0
ARC
  5
129B
330
2
100
AcDbEntity
  8
0
100
AcDbCircle
 10
279.2781315743904
 20
260.6481096919782
 30
0.0
 40
2.0
100
AcDbArc
 50
90.00000000000003
 51
180.0
  0
ENDSEC
  0
SECTION
  2
OBJECTS
  0
DICTIONARY
  5
7
330
0
100
AcDbDictionary
  3
ACAD_GROUP
350
75
  3
ACAD_LAYOUT
350
61
  3
ACAD_MLINESTYLE
350
76
  3
ACAD_PLOTSETTINGS
350
77
  3
ACAD_PLOTSTYLENAME
350
6
  3
ACADDIM
350
480
  3
ACDBHEADERROUNDTRIPXREC
350
12DE
  3
ACDBVARIABLEDICTIONARY
350
102
  3
DWGPROPS
350
1285
  0
DICTIONARY
  5
12FF
330
2
100
AcDbDictionary
280
     1
  3
ACAD_LAYOUTSELFREF
360
1300
  0
DICTIONARY
  5
1301
330
12D8
100
AcDbDictionary
280
     1
  3
ACAD_LAYOUTSELFREF
360
1302
  0
DICTIONARY
  5
75
102
{ACAD_REACTORS
330
7
102
}
330
7
100
AcDbDictionary
  0
DICTIONARY
  5
61
102
{ACAD_REACTORS
330
7
102
}
330
7
100
AcDbDictionary
  0
DICTIONARY
  5
76
102
{ACAD_REACTORS
330
7
102
}
330
7
100
AcDbDictionary
  3
STANDARD
350
78
  0
DICTIONARY
  5
77
102
{ACAD_REACTORS
330
7
102
}
330
7
100
AcDbDictionary
  0
ACDBDICTIONARYWDFLT
  5
6
102
{ACAD_REACTORS
330
7
102
}
330
7
100
AcDbDictionary
281
     1
  3
Normal
350
5
100
AcDbDictionaryWithDefault
340
5
  0
XRECORD
  5
480
102
{ACAD_REACTORS
330
7
102
}
330
7
100
AcDbXrecord
 90
   990106
  3

 60
     0
 61
     0
 62
     1
 63
     3
 64
     1
 65
     0
 66
     0
 67
     3
 68
     1
 69
     0
 70
     0
 71
     0
 72
     0
 40
0.0
170
     2
340
0
  0
DICTIONARY
  5
12DE
102
{ACAD_REACTORS
330
7
102
}
330
7
100
AcDbDictionary
  3
CEPSNTYPE
350
12E8
  3
DIMSTYLEDATA
350
12EC
  3
FINGERPRINTGUID
350
12E9
  3
HYPERLINKBASE
350
12E1
  3
INSUNITS
350
12E7
  3
LAYOUTDICT
350
12E3
  3
LWETCUNION
350
12E6
  3
PLOTSETDICT
350
12E4
  3
PLOTSTYLNAMDICT
350
12E5
  3
PSVPSCALE
350
12EB
  3
PUCSBASE
350
12EF
  3
PUCSORGBACK
350
12F5
  3
PUCSORGBOTTOM
350
12F1
  3
PUCSORGFRONT
350
12F4
  3
PUCSORGLEFT
350
12F2
  3
PUCSORGRIGHT
350
12F3
  3
PUCSORGTOP
350
12F0
  3
PUCSORTHOREF
350
12ED
  3
PUCSORTHOVIEW
350
12EE
  3
STYLESHEET
350
12E2
  3
TSTACKALIGN
350
12DF
  3
TSTACKSIZE
350
12E0
  3
UCSBASE
350
12F8
  3
UCSORGBACK
350
12FE
  3
UCSORGBOTTOM
350
12FA
  3
UCSORGFRONT
350
12FD
  3
UCSORGLEFT
350
12FB
  3
UCSORGRIGHT
350
12FC
  3
UCSORGTOP
350
12F9
  3
UCSORTHOREF
350
12F6
  3
UCSORTHOVIEW
350
12F7
  3
VERSIONGUID
350
12EA
  0
DICTIONARY
  5
102
102
{ACAD_REACTORS
330
7
102
}
330
7
100
AcDbDictionary
  3
DIMASSOC
350
103
  0
XRECORD
  5
1285
102
{ACAD_REACTORS
330
7
102
}
330
7
100
AcDbXrecord
  1
DWGPROPS COOKIE
  2

  3

  4

  6

  7

  8

  9

300
=
301
=
302
=
303
=
304
=
305
=
306
=
307
=
308
=
309
=
 40
0.090884675925926
 41
2453759.643870798
 42
2454397.699580972
  1

 90
        0
  0
XRECORD
  5
1300
102
{ACAD_REACTORS
330
12FF
102
}
330
12FF
100
AcDbXrecord
340
2
  0
XRECORD
  5
1302
102
{ACAD_REACTORS
330
1301
102
}
330
1301
100
AcDbXrecord
340
12D8
  0
MLINESTYLE
  5
78
102
{ACAD_REACTORS
330
76
102
}
330
76
100
AcDbMlineStyle
  2
STANDARD
 70
     0
  3

 62
     0
 51
90.0
 52
90.0
 71
     2
 49
0.5
 62
   256
  6
BYLAYER
 49
-0.5
 62
   256
  6
BYLAYER
  0
ACDBPLACEHOLDER
  5
5
102
{ACAD_REACTORS
330
6
102
}
330
6
100
AcDbPlaceHolder
280
     0
  0
XRECORD
  5
12E8
102
{ACAD_REACTORS
330
12DE
102
}
330
12DE
100
AcDbXrecord
 90
        0
  0
XRECORD
  5
12EC
102
{ACAD_REACTORS
330
12DE
102
}
330
12DE
100
AcDbXrecord
1000
DSTYLE
1002
{
1070
   179
 70
     2
1070
   277
 70
     6
1002
}
  0
XRECORD
  5
12E9
102
{ACAD_REACTORS
330
12DE
102
}
330
12DE
100
AcDbXrecord
  1
{6385560B-F4B1-4644-A7C2-A3E32AC3D232}
  0
XRECORD
  5
12E1
102
{ACAD_REACTORS
330
12DE
102
}
330
12DE
100
AcDbXrecord
  1

  0
XRECORD
  5
12E7
102
{ACAD_REACTORS
330
12DE
102
}
330
12DE
100
AcDbXrecord
 90
        0
  0
XRECORD
  5
12E3
102
{ACAD_REACTORS
330
12DE
102
}
330
12DE
100
AcDbXrecord
340
61
  0
XRECORD
  5
12E6
102
{ACAD_REACTORS
330
12DE
102
}
330
12DE
100
AcDbXrecord
 90
    10781
  0
XRECORD
  5
12E4
102
{ACAD_REACTORS
330
12DE
102
}
330
12DE
100
AcDbXrecord
340
77
  0
XRECORD
  5
12E5
102
{ACAD_REACTORS
330
12DE
102
}
330
12DE
100
AcDbXrecord
340
6
  0
XRECORD
  5
12EB
102
{ACAD_REACTORS
330
12DE
102
}
330
12DE
100
AcDbXrecord
 40
0.0
  0
XRECORD
  5
12EF
102
{ACAD_REACTORS
330
12DE
102
}
330
12DE
100
AcDbXrecord
340
0
  0
XRECORD
  5
12F5
102
{ACAD_REACTORS
330
12DE
102
}
330
12DE
100
AcDbXrecord
 10
0.0
 20
0.0
 30
0.0
  0
XRECORD
  5
12F1
102
{ACAD_REACTORS
330
12DE
102
}
330
12DE
100
AcDbXrecord
 10
0.0
 20
0.0
 30
0.0
  0
XRECORD
  5
12F4
102
{ACAD_REACTORS
330
12DE
102
}
330
12DE
100
AcDbXrecord
 10
0.0
 20
0.0
 30
0.0
  0
XRECORD
  5
12F2
102
{ACAD_REACTORS
330
12DE
102
}
330
12DE
100
AcDbXrecord
 10
0.0
 20
0.0
 30
0.0
  0
XRECORD
  5
12F3
102
{ACAD_REACTORS
330
12DE
102
}
330
12DE
100
AcDbXrecord
 10
0.0
 20
0.0
 30
0.0
  0
XRECORD
  5
12F0
102
{ACAD_REACTORS
330
12DE
102
}
330
12DE
100
AcDbXrecord
 10
0.0
 20
0.0
 30
0.0
  0
XRECORD
  5
12ED
102
{ACAD_REACTORS
330
12DE
102
}
330
12DE
100
AcDbXrecord
340
0
  0
XRECORD
  5
12EE
102
{ACAD_REACTORS
330
12DE
102
}
330
12DE
100
AcDbXrecord
 70
     0
  0
XRECORD
  5
12E2
102
{ACAD_REACTORS
330
12DE
102
}
330
12DE
100
AcDbXrecord
  1
Sekkei.ctb
  0
XRECORD
  5
12DF
102
{ACAD_REACTORS
330
12DE
102
}
330
12DE
100
AcDbXrecord
 90
        1
  0
XRECORD
  5
12E0
102
{ACAD_REACTORS
330
12DE
102
}
330
12DE
100
AcDbXrecord
 90
       70
  0
XRECORD
  5
12F8
102
{ACAD_REACTORS
330
12DE
102
}
330
12DE
100
AcDbXrecord
340
0
  0
XRECORD
  5
12FE
102
{ACAD_REACTORS
330
12DE
102
}
330
12DE
100
AcDbXrecord
 10
0.0
 20
0.0
 30
0.0
  0
XRECORD
  5
12FA
102
{ACAD_REACTORS
330
12DE
102
}
330
12DE
100
AcDbXrecord
 10
0.0
 20
0.0
 30
0.0
  0
XRECORD
  5
12FD
102
{ACAD_REACTORS
330
12DE
102
}
330
12DE
100
AcDbXrecord
 10
0.0
 20
0.0
 30
0.0
  0
XRECORD
  5
12FB
102
{ACAD_REACTORS
330
12DE
102
}
330
12DE
100
AcDbXrecord
 10
0.0
 20
0.0
 30
0.0
  0
XRECORD
  5
12FC
102
{ACAD_REACTORS
330
12DE
102
}
330
12DE
100
AcDbXrecord
 10
0.0
 20
0.0
 30
0.0
  0
XRECORD
  5
12F9
102
{ACAD_REACTORS
330
12DE
102
}
330
12DE
100
AcDbXrecord
 10
0.0
 20
0.0
 30
0.0
  0
XRECORD
  5
12F6
102
{ACAD_REACTORS
330
12DE
102
}
330
12DE
100
AcDbXrecord
340
0
  0
XRECORD
  5
12F7
102
{ACAD_REACTORS
330
12DE
102
}
330
12DE
100
AcDbXrecord
 70
     0
  0
XRECORD
  5
12EA
102
{ACAD_REACTORS
330
12DE
102
}
330
12DE
100
AcDbXrecord
  1
{B7E8A13D-7677-4613-A0DD-9046132D467C}
  0
DICTIONARYVAR
  5
103
102
{ACAD_REACTORS
330
102
102
}
330
102
100
DictionaryVariables
280
     0
  1
1
  0
ENDSEC
  0
EOF
