  0
SECTION
  2
HEADER
  9
$CLAYER
  8
1
  9
$LTSCALE
 40
3.0
  0
ENDSEC
  0
SECTION
  2
TABLES
  0
TABLE
  2
LTYPE
 70
     4
  0
LTYPE
  2
CONTINUOUS
  3
solid line
 70
    64
 72
    65
 73
     0
 40
0.0
  0
LTYPE
  2
DASHED
  3
__ __ __ __ __ __ __ __ __ __ __ __ __ __ __
 70
    64
 72
    65
 73
     2
 40
0.75
 49
0.5
 49
-0.25
  0
LTYPE
  2
CENTER
  3
____ _ ____ _ ____ _ ____ _ ____ _ ____ _ ____
 70
    64
 72
    65
 73
     4
 40
2.0
 49
1.25
 49
-0.25
 49
0.25
 49
-0.25
  0
LTYPE
  2
PHANTOM
  3
_____ _ _ _____ _ _ _____ _ _ _____ _ _ ____
 70
    64
 72
    65
 73
     6
 40
2.5
 49
1.25
 49
-0.25
 49
0.25
 49
-0.25
 49
0.25
 49
-0.25
  0
ENDTAB
  0
TABLE
  2
LAYER
 70
     1
  0
LAYER
  2
0
 70
    64
 62
     7
  6
CONTINUOUS
  0
ENDTAB
  0
TABLE
  2
STYLE
 70
     1
  0
STYLE
  2
STANDARD
 70
     0
 40
0.000000
 41
1.000000
 50
0.000000
 71
     0
 42
3.000000
  3
txt
  4
BIGFONT
  0
ENDTAB
  0
ENDSEC
  0
SECTION
  2
BLOCKS
  0
ENDSEC
  0
SECTION
  2
ENTITIES
  0
LINE
  8
0
  6
CENTER
 10
459.111237
 20
56.709999
 11
292.624695
 21
56.709999
  0
LINE
  8
0
  6
CONTINUOUS
 10
219.059998
 20
14.410000
 11
219.059998
 21
7.410000
  0
LINE
  8
0
  6
CONTINUOUS
 10
320.059998
 20
14.409990
 11
320.059998
 21
7.410000
  0
LINE
  8
0
  6
CONTINUOUS
 10
392.559998
 20
11.710000
 11
320.059998
 21
11.710000
  0
LINE
  8
0
  6
CONTINUOUS
 10
392.559998
 20
101.709999
 11
313.217407
 21
101.709999
  0
LINE
  8
0
  6
CENTER
 10
269.559998
 20
130.397507
 11
269.559998
 21
-0.495750
  0
LINE
  8
0
  6
CENTER
 10
299.734680
 20
82.410004
 11
234.164688
 21
82.410004
  0
LINE
  8
0
  6
CONTINUOUS
 10
320.059998
 20
7.410000
 11
219.059998
 21
7.410000
  0
LINE
  8
0
  6
CONTINUOUS
 10
284.981110
 20
120.410004
 11
254.138901
 21
120.410004
  0
LINE
  8
0
  6
CONTINUOUS
 10
318.059998
 20
16.410000
 11
221.059998
 21
16.410000
  0
LINE
  8
0
  6
CENTER
 10
231.559998
 20
21.897499
 11
231.559998
 21
0.647500
  0
LINE
  8
0
  6
CENTER
 10
307.559998
 20
22.147499
 11
307.559998
 21
0.147500
  0
LINE
  8
0
  6
CONTINUOUS
 10
221.188599
 20
98.403183
 11
251.267502
 21
119.503288
  0
LINE
  8
0
  6
CONTINUOUS
 10
317.931396
 20
98.403183
 11
287.852509
 21
119.503281
  0
ARC
  8
0
  6
CONTINUOUS
 10
254.138794
 20
115.409988
 40
5.000000
 50
90.000000
 51
125.049103
  0
ARC
  8
0
  6
CONTINUOUS
 10
284.981110
 20
115.410004
 40
5.000000
 50
54.950329
 51
90.000000
  0
ARC
  8
0
  6
CONTINUOUS
 10
315.059998
 20
94.309929
 40
5.000000
 50
0.000000
 51
54.950199
  0
ARC
  8
0
  6
CONTINUOUS
 10
224.059998
 20
94.309883
 40
5.000000
 50
125.049103
 51
180.000000
  0
LINE
  8
0
  6
CONTINUOUS
 10
219.059998
 20
14.410000
 11
219.059998
 21
94.309898
  0
ARC
  8
0
  6
CONTINUOUS
 10
221.059998
 20
14.409990
 40
2.000000
 50
90.000000
 51
180.000000
  0
LINE
  8
0
  6
CONTINUOUS
 10
320.059998
 20
14.409990
 11
320.059998
 21
94.309898
  0
ARC
  8
0
  6
CONTINUOUS
 10
318.059998
 20
14.410000
 40
2.000000
 50
0.000000
 51
90.000000
  0
LINE
  8
0
  6
DASHED
 10
227.309998
 20
16.410000
 11
227.309998
 21
7.410000
  0
LINE
  8
0
  6
DASHED
 10
235.809998
 20
16.410000
 11
235.809998
 21
7.410000
  0
LINE
  8
0
  6
DASHED
 10
303.309998
 20
16.410000
 11
303.309998
 21
7.410000
  0
LINE
  8
0
  6
DASHED
 10
311.809998
 20
16.410000
 11
311.809998
 21
7.410000
  0
CIRCLE
  8
0
  6
CONTINUOUS
 10
269.559998
 20
82.410004
 40
23.500000
  0
CIRCLE
  8
0
  6
CONTINUOUS
 10
269.559998
 20
82.410004
 40
23.500000
  0
LINE
  8
0
  6
CONTINUOUS
 10
263.186005
 20
44.964100
 11
263.186005
 21
39.410000
  0
LINE
  8
0
  6
CONTINUOUS
 10
266.373993
 20
46.981499
 11
266.373993
 21
48.974007
  0
LINE
  8
0
  6
CONTINUOUS
 10
272.750000
 20
46.981499
 11
272.750000
 21
48.974007
  0
LINE
  8
0
  6
CONTINUOUS
 10
268.939301
 20
47.803413
 11
268.939301
 21
40.456059
  0
LINE
  8
0
  6
CONTINUOUS
 10
270.134796
 20
47.803413
 11
270.134796
 21
40.456059
  0
LINE
  8
0
  6
CONTINUOUS
 10
276.411194
 20
47.803413
 11
276.411194
 21
40.406261
  0
LINE
  8
0
  6
CONTINUOUS
 10
277.507111
 20
43.880669
 11
277.507111
 21
40.406261
  0
LINE
  8
0
  6
CONTINUOUS
 10
261.673309
 20
47.703789
 11
258.600800
 21
47.703789
  0
LINE
  8
0
  6
CONTINUOUS
 10
258.600800
 20
47.703789
 11
257.881012
 21
46.811150
  0
LINE
  8
0
  6
CONTINUOUS
 10
257.967499
 20
48.974007
 11
256.809998
 21
47.491783
  0
LINE
  8
0
  6
CONTINUOUS
 10
257.881012
 20
41.301220
 11
258.612396
 21
40.530788
  0
LINE
  8
0
  6
CONTINUOUS
 10
256.809998
 20
40.651039
 11
258.040009
 21
39.410000
  0
LINE
  8
0
  6
CONTINUOUS
 10
256.809998
 20
47.491783
 11
256.809998
 21
40.651039
  0
LINE
  8
0
  6
CONTINUOUS
 10
257.881012
 20
46.811150
 11
257.881012
 21
41.301220
  0
LINE
  8
0
  6
CONTINUOUS
 10
262.264496
 20
47.132256
 11
261.661194
 21
47.703789
  0
LINE
  8
0
  6
CONTINUOUS
 10
262.254913
 20
48.974007
 11
263.186005
 21
47.940697
  0
LINE
  8
0
  6
CONTINUOUS
 10
262.264496
 20
46.981499
 11
263.186005
 21
46.981499
  0
LINE
  8
0
  6
CONTINUOUS
 10
257.967499
 20
48.974007
 11
262.254913
 21
48.974007
  0
LINE
  8
0
  6
CONTINUOUS
 10
262.264496
 20
43.918041
 11
260.595795
 21
43.918041
  0
LINE
  8
0
  6
CONTINUOUS
 10
262.264496
 20
42.921791
 11
262.264496
 21
43.718788
  0
LINE
  8
0
  6
CONTINUOUS
 10
260.272003
 20
40.530788
 11
258.612396
 21
40.530788
  0
ARC
  8
0
  6
CONTINUOUS
 10
260.272003
 20
42.523281
 40
1.992500
 50
-89.999786
 51
0.000109
  0
LINE
  8
0
  6
CONTINUOUS
 10
262.264496
 20
40.172390
 11
262.264496
 21
39.410000
  0
LINE
  8
0
  6
CONTINUOUS
 10
263.186005
 20
47.940697
 11
263.186005
 21
46.981499
  0
LINE
  8
0
  6
CONTINUOUS
 10
262.264496
 20
43.918041
 11
262.264496
 21
42.523281
  0
LINE
  8
0
  6
CONTINUOUS
 10
260.595795
 20
44.964100
 11
260.595795
 21
43.918041
  0
LINE
  8
0
  6
CONTINUOUS
 10
262.264496
 20
39.410000
 11
263.186005
 21
39.410000
  0
LINE
  8
0
  6
CONTINUOUS
 10
262.264496
 20
40.172390
 11
261.355804
 21
39.410000
  0
LINE
  8
0
  6
CONTINUOUS
 10
270.134796
 20
40.456059
 11
270.533295
 21
40.456059
  0
LINE
  8
0
  6
CONTINUOUS
 10
268.466095
 20
40.456059
 11
268.466095
 21
39.410000
  0
LINE
  8
0
  6
CONTINUOUS
 10
270.533295
 20
40.456059
 11
270.533295
 21
39.410000
  0
LINE
  8
0
  6
CONTINUOUS
 10
272.084900
 20
46.981499
 11
272.750000
 21
46.981499
  0
LINE
  8
0
  6
CONTINUOUS
 10
266.373993
 20
46.981499
 11
267.081696
 21
46.981499
  0
LINE
  8
0
  6
CONTINUOUS
 10
266.373993
 20
48.974007
 11
272.750000
 21
48.974007
  0
LINE
  8
0
  6
CONTINUOUS
 10
268.466095
 20
39.410000
 11
270.533295
 21
39.410000
  0
LINE
  8
0
  6
CONTINUOUS
 10
268.466095
 20
40.456059
 11
268.939301
 21
40.456059
  0
ARC
  8
0
  6
CONTINUOUS
 10
279.761108
 20
46.421108
 40
2.552891
 50
-73.981873
 51
90.003510
  0
ARC
  8
0
  6
CONTINUOUS
 10
279.761108
 20
46.421108
 40
1.557438
 50
-82.585274
 51
62.411850
  0
LINE
  8
0
  6
CONTINUOUS
 10
275.937988
 20
48.974007
 11
279.761108
 21
48.974007
  0
LINE
  8
0
  6
CONTINUOUS
 10
275.937988
 20
48.974007
 11
275.937988
 21
47.803413
  0
LINE
  8
0
  6
CONTINUOUS
 10
277.507111
 20
47.803413
 11
277.507111
 21
44.876690
  0
LINE
  8
0
  6
CONTINUOUS
 10
280.465607
 20
43.967339
 11
282.045593
 21
40.406261
  0
LINE
  8
0
  6
CONTINUOUS
 10
279.547791
 20
43.880669
 11
281.043213
 21
40.406261
  0
LINE
  8
0
  6
CONTINUOUS
 10
275.937988
 20
40.406261
 11
276.411194
 21
40.406261
  0
LINE
  8
0
  6
CONTINUOUS
 10
277.507111
 20
40.406261
 11
277.942902
 21
40.406261
  0
LINE
  8
0
  6
CONTINUOUS
 10
277.942902
 20
39.410000
 11
275.937988
 21
39.410000
  0
LINE
  8
0
  6
CONTINUOUS
 10
280.844513
 20
40.406261
 11
281.043213
 21
40.406261
  0
LINE
  8
0
  6
CONTINUOUS
 10
282.045593
 20
40.406261
 11
282.313995
 21
40.406261
  0
LINE
  8
0
  6
CONTINUOUS
 10
280.844513
 20
39.410000
 11
282.313995
 21
39.410000
  0
LINE
  8
0
  6
CONTINUOUS
 10
282.313995
 20
40.406261
 11
282.313995
 21
39.410000
  0
LINE
  8
0
  6
CONTINUOUS
 10
280.844513
 20
40.406261
 11
280.844513
 21
39.410000
  0
LINE
  8
0
  6
CONTINUOUS
 10
277.942902
 20
40.406261
 11
277.942902
 21
39.410000
  0
LINE
  8
0
  6
CONTINUOUS
 10
275.937988
 20
40.406261
 11
275.937988
 21
39.410000
  0
LINE
  8
0
  6
CONTINUOUS
 10
267.424194
 20
47.803413
 11
267.081696
 21
46.981499
  0
LINE
  8
0
  6
CONTINUOUS
 10
271.796112
 20
47.803413
 11
272.084900
 21
46.981499
  0
LINE
  8
0
  6
CONTINUOUS
 10
270.134796
 20
47.803413
 11
271.796112
 21
47.803413
  0
LINE
  8
0
  6
CONTINUOUS
 10
268.939301
 20
47.803413
 11
267.424194
 21
47.803413
  0
LINE
  8
0
  6
CONTINUOUS
 10
275.937988
 20
47.803413
 11
276.411194
 21
47.803413
  0
LINE
  8
0
  6
CONTINUOUS
 10
277.507111
 20
47.803413
 11
280.482391
 21
47.801476
  0
LINE
  8
0
  6
CONTINUOUS
 10
262.264496
 20
47.132256
 11
262.264496
 21
46.981499
  0
LINE
  8
0
  6
CONTINUOUS
 10
258.040009
 20
39.410000
 11
261.355804
 21
39.410000
  0
LINE
  8
0
  6
CONTINUOUS
 10
277.507111
 20
44.876690
 11
279.962097
 21
44.876690
  0
LINE
  8
0
  6
CONTINUOUS
 10
277.507111
 20
43.880669
 11
279.547791
 21
43.880669
  0
LINE
  8
0
  6
CONTINUOUS
 10
260.595795
 20
44.964100
 11
263.186005
 21
44.964100
  0
LINE
  8
0
  6
CONTINUOUS
 10
321.977905
 20
91.119301
 11
392.559998
 21
91.119301
  0
LINE
  8
0
  6
CONTINUOUS
 10
321.977905
 20
22.300699
 11
392.559998
 21
22.300699
  0
LINE
  8
0
  6
CONTINUOUS
 10
264.059998
 20
85.410004
 11
264.059998
 21
79.410004
  0
LINE
  8
0
  6
CONTINUOUS
 10
258.059998
 20
85.410004
 11
258.059998
 21
79.410004
  0
LINE
  8
0
  6
CONTINUOUS
 10
258.059998
 20
85.410004
 11
264.059998
 21
85.410004
  0
LINE
  8
0
  6
CONTINUOUS
 10
258.059998
 20
79.410004
 11
264.059998
 21
79.410004
  0
ARC
  8
0
  6
CONTINUOUS
 10
269.559998
 20
82.410004
 40
9.000000
 50
-160.528793
 51
160.528793
  0
LINE
  8
0
  6
CENTER
 10
269.559998
 20
176.201248
 11
269.559998
 21
324.055634
  0
LINE
  8
0
  6
CENTER
 10
231.559998
 20
197.853119
 11
231.559998
 21
219.183121
  0
LINE
  8
0
  6
CENTER
 10
459.437500
 20
257.078735
 11
205.418747
 21
257.078735
  0
LINE
  8
0
  6
CONTINUOUS
 10
219.900894
 20
208.904221
 11
219.059998
 21
257.078735
  0
LINE
  8
0
  6
CONTINUOUS
 10
229.899368
 20
199.078751
 11
258.059998
 21
199.078751
  0
LINE
  8
0
  6
CONTINUOUS
 10
318.059998
 20
220.078751
 11
221.671234
 21
220.078751
  0
ARC
  8
0
  6
CONTINUOUS
 10
229.899368
 20
209.078751
 40
10.000000
 50
-179.000000
 51
-90.000000
  0
ARC
  8
0
  6
CONTINUOUS
 10
221.671234
 20
222.078751
 40
2.000000
 50
-179.000000
 51
-90.000000
  0
LINE
  8
0
  6
CENTER
 10
243.052185
 20
209.078751
 11
221.919693
 21
209.078751
  0
CIRCLE
  8
0
  6
CONTINUOUS
 10
231.559998
 20
209.078751
 40
4.250000
  0
LINE
  8
0
  6
CENTER
 10
307.559998
 20
197.655624
 11
307.559998
 21
218.985626
  0
LINE
  8
0
  6
CONTINUOUS
 10
319.219116
 20
208.904221
 11
319.405090
 21
219.558868
  0
ARC
  8
0
  6
CONTINUOUS
 10
309.220642
 20
209.078751
 40
10.000000
 50
-90.000000
 51
-1.000000
  0
ARC
  8
0
  6
CONTINUOUS
 10
317.448761
 20
222.078751
 40
2.000000
 50
-90.000000
 51
-1.000000
  0
LINE
  8
0
  6
CENTER
 10
296.870941
 20
209.078751
 11
317.509674
 21
209.078751
  0
CIRCLE
  8
0
  6
CONTINUOUS
 10
307.559998
 20
209.078751
 40
4.250000
  0
LINE
  8
0
  6
CONTINUOUS
 10
320.059998
 20
218.078751
 11
320.059998
 21
214.078751
  0
LINE
  8
0
  6
CONTINUOUS
 10
322.059998
 20
212.078751
 11
392.559998
 21
212.078751
  0
ARC
  8
0
  6
CONTINUOUS
 10
322.059998
 20
214.078751
 40
2.000000
 50
-180.000000
 51
-90.000000
  0
ARC
  8
0
  6
CONTINUOUS
 10
318.059998
 20
218.078751
 40
2.000000
 50
0.000000
 51
90.000000
  0
LINE
  8
0
  6
CONTINUOUS
 10
319.448456
 20
222.043839
 11
319.553802
 21
228.078751
  0
LINE
  8
0
  6
CONTINUOUS
 10
392.559998
 20
228.078751
 11
313.217438
 21
228.078751
  0
LINE
  8
0
  6
CONTINUOUS
 10
392.559998
 20
286.078735
 11
313.217438
 21
286.078735
  0
LINE
  8
0
  6
CONTINUOUS
 10
322.059998
 20
302.078735
 11
392.559998
 21
302.078735
  0
ARC
  8
0
  6
CONTINUOUS
 10
322.059998
 20
300.078735
 40
2.000000
 50
-270.000000
 51
-180.000000
  0
LINE
  8
0
  6
CENTER
 10
231.559998
 20
318.920624
 11
231.559998
 21
294.825623
  0
LINE
  8
0
  6
CONTINUOUS
 10
219.900894
 20
305.253265
 11
219.059998
 21
257.078735
  0
LINE
  8
0
  6
CONTINUOUS
 10
229.899368
 20
315.078735
 11
269.559998
 21
315.078735
  0
LINE
  8
0
  6
CONTINUOUS
 10
318.059998
 20
294.078735
 11
221.671234
 21
294.078735
  0
ARC
  8
0
  6
CONTINUOUS
 10
229.899368
 20
305.078735
 40
10.000000
 50
-270.000000
 51
-181.000000
  0
ARC
  8
0
  6
CONTINUOUS
 10
221.671234
 20
292.078735
 40
2.000000
 50
-270.000000
 51
-181.000000
  0
LINE
  8
0
  6
CENTER
 10
242.064682
 20
305.078735
 11
221.524689
 21
305.078735
  0
CIRCLE
  8
0
  6
CONTINUOUS
 10
231.559998
 20
305.078735
 40
4.250000
  0
LINE
  8
0
  6
CENTER
 10
307.559998
 20
319.315613
 11
307.559998
 21
294.628113
  0
LINE
  8
0
  6
CONTINUOUS
 10
319.219116
 20
305.253265
 11
319.405090
 21
294.598633
  0
ARC
  8
0
  6
CONTINUOUS
 10
309.220642
 20
305.078735
 40
10.000000
 50
-359.000000
 51
-270.000000
  0
ARC
  8
0
  6
CONTINUOUS
 10
317.448761
 20
292.078735
 40
2.000000
 50
-359.000000
 51
-270.000000
  0
LINE
  8
0
  6
CENTER
 10
298.154694
 20
305.078735
 11
317.707184
 21
305.078735
  0
CIRCLE
  8
0
  6
CONTINUOUS
 10
307.559998
 20
305.078735
 40
4.250000
  0
LINE
  8
0
  6
CONTINUOUS
 10
320.059998
 20
296.078735
 11
320.059998
 21
300.078735
  0
ARC
  8
0
  6
CONTINUOUS
 10
318.059998
 20
296.078735
 40
2.000000
 50
-90.000000
 51
0.000000
  0
LINE
  8
0
  6
CONTINUOUS
 10
319.448456
 20
292.113647
 11
319.553802
 21
286.078735
  0
LINE
  8
0
  6
CONTINUOUS
 10
286.559998
 20
225.078751
 11
286.559998
 21
289.078735
  0
LINE
  8
0
  6
CONTINUOUS
 10
252.559998
 20
225.078751
 11
252.559998
 21
289.078735
  0
LINE
  8
0
  6
CONTINUOUS
 10
313.217438
 20
230.078751
 11
313.217438
 21
284.078735
  0
LINE
  8
0
  6
CONTINUOUS
 10
247.059998
 20
215.078751
 11
292.059998
 21
215.078751
  0
LINE
  8
0
  6
CONTINUOUS
 10
293.059998
 20
216.078751
 11
293.059998
 21
218.078751
  0
LINE
  8
0
  6
CONTINUOUS
 10
246.059998
 20
216.078751
 11
246.059998
 21
218.078751
  0
ARC
  8
0
  6
CONTINUOUS
 10
295.059998
 20
218.078751
 40
2.000000
 50
-270.000000
 51
-180.000000
  0
ARC
  8
0
  6
CONTINUOUS
 10
244.060013
 20
218.078751
 40
2.000000
 50
0.000000
 51
90.000000
  0
ARC
  8
0
  6
CONTINUOUS
 10
292.059998
 20
216.078751
 40
1.000000
 50
-90.000000
 51
0.000000
  0
ARC
  8
0
  6
CONTINUOUS
 10
247.059998
 20
216.078751
 40
1.000000
 50
-180.000000
 51
-90.000000
  0
LINE
  8
0
  6
CONTINUOUS
 10
258.059998
 20
183.078751
 11
278.559998
 21
183.078751
  0
LINE
  8
0
  6
CONTINUOUS
 10
278.559998
 20
213.078751
 11
278.559998
 21
183.078751
  0
LINE
  8
0
  6
CONTINUOUS
 10
260.559998
 20
213.078751
 11
260.559998
 21
207.078751
  0
LINE
  8
0
  6
CONTINUOUS
 10
279.559998
 20
213.078751
 11
259.559998
 21
213.078751
  0
LINE
  8
0
  6
CONTINUOUS
 10
279.559998
 20
215.078751
 11
279.559998
 21
213.078751
  0
LINE
  8
0
  6
CONTINUOUS
 10
259.559998
 20
215.078751
 11
259.559998
 21
213.078751
  0
LINE
  8
0
  6
CONTINUOUS
 10
258.059998
 20
183.078751
 11
258.059998
 21
207.078751
  0
LINE
  8
0
  6
CONTINUOUS
 10
258.059998
 20
207.078751
 11
261.075012
 21
207.078751
  0
LINE
  8
0
  6
CONTINUOUS
 10
261.075012
 20
183.078751
 11
261.075012
 21
207.078751
  0
LINE
  8
0
  6
CONTINUOUS
 10
278.559998
 20
199.078751
 11
309.220642
 21
199.078751
  0
LINE
  8
0
  6
CONTINUOUS
 10
247.059998
 20
299.078735
 11
292.059998
 21
299.078735
  0
LINE
  8
0
  6
CONTINUOUS
 10
293.059998
 20
298.078735
 11
293.059998
 21
296.078735
  0
LINE
  8
0
  6
CONTINUOUS
 10
246.059998
 20
298.078735
 11
246.059998
 21
296.078735
  0
ARC
  8
0
  6
CONTINUOUS
 10
295.059998
 20
296.078735
 40
2.000000
 50
-180.000000
 51
-90.000000
  0
ARC
  8
0
  6
CONTINUOUS
 10
244.060013
 20
296.078735
 40
2.000000
 50
-90.000000
 51
0.000000
  0
ARC
  8
0
  6
CONTINUOUS
 10
292.059998
 20
298.078735
 40
1.000000
 50
0.000000
 51
90.000000
  0
ARC
  8
0
  6
CONTINUOUS
 10
247.059998
 20
298.078735
 40
1.000000
 50
-270.000000
 51
-180.000000
  0
LINE
  8
0
  6
CONTINUOUS
 10
269.559998
 20
315.078735
 11
309.220642
 21
315.078735
  0
LINE
  8
0
  6
CENTER
 10
66.559998
 20
0.623310
 11
66.559998
 21
129.366257
  0
LINE
  8
0
  6
CENTER
 10
16.398594
 20
56.709999
 11
118.559998
 21
56.709999
  0
LINE
  8
0
  6
CONTINUOUS
 10
124.559998
 20
14.410000
 11
124.559998
 21
7.410000
  0
LINE
  8
0
  6
CONTINUOUS
 10
8.560000
 20
14.410000
 11
8.560000
 21
7.410000
  0
LINE
  8
0
  6
CENTER
 10
21.623594
 20
82.410004
 11
147.809998
 21
82.410004
  0
LINE
  8
0
  6
CONTINUOUS
 10
8.560000
 20
7.410000
 11
124.559998
 21
7.410000
  0
LINE
  8
0
  6
CONTINUOUS
 10
106.559998
 20
16.410000
 11
122.559998
 21
16.410000
  0
LINE
  8
0
  6
CONTINUOUS
 10
29.559999
 20
19.410000
 11
29.559999
 21
117.798630
  0
LINE
  8
0
  6
CONTINUOUS
 10
103.559998
 20
19.410000
 11
103.559998
 21
117.798759
  0
LINE
  8
0
  6
CONTINUOUS
 10
108.559998
 20
59.909996
 11
108.559998
 21
104.910004
  0
LINE
  8
0
  6
CONTINUOUS
 10
107.559998
 20
105.910004
 11
105.559998
 21
105.910004
  0
LINE
  8
0
  6
CONTINUOUS
 10
107.559998
 20
58.909996
 11
105.559998
 21
58.909996
  0
LINE
  8
0
  6
CONTINUOUS
 10
66.559998
 20
120.410004
 11
101.594902
 21
119.798470
  0
LINE
  8
0
  6
CONTINUOUS
 10
31.525101
 20
119.798332
 11
66.559998
 21
120.410004
  0
ARC
  8
0
  6
CONTINUOUS
 10
105.559998
 20
107.910004
 40
2.000000
 50
180.000000
 51
270.000000
  0
ARC
  8
0
  6
CONTINUOUS
 10
101.559998
 20
117.798759
 40
2.000000
 50
0.000000
 51
89.000137
  0
ARC
  8
0
  6
CONTINUOUS
 10
31.559999
 20
117.798637
 40
2.000000
 50
91.000641
 51
180.000000
  0
ARC
  8
0
  6
CONTINUOUS
 10
105.559998
 20
56.910007
 40
2.000000
 50
90.000000
 51
180.000000
  0
ARC
  8
0
  6
CONTINUOUS
 10
107.559998
 20
104.909988
 40
1.000000
 50
0.000000
 51
90.000000
  0
ARC
  8
0
  6
CONTINUOUS
 10
107.559998
 20
59.909996
 40
1.000000
 50
-90.000000
 51
0.000000
  0
LINE
  8
0
  6
CONTINUOUS
 10
30.809999
 20
96.910004
 11
102.559998
 21
96.910004
  0
ARC
  8
0
  6
CONTINUOUS
 10
122.559998
 20
14.409990
 40
2.000000
 50
0.000000
 51
90.000000
  0
ARC
  8
0
  6
CONTINUOUS
 10
10.560000
 20
14.410010
 40
2.000000
 50
90.000000
 51
180.000000
  0
LINE
  8
0
  6
CENTER
 10
114.559998
 20
20.366249
 11
114.559998
 21
3.116250
  0
LINE
  8
0
  6
CENTER
 10
18.559999
 20
20.366249
 11
18.559999
 21
2.366250
  0
LINE
  8
0
  6
DASHED
 10
22.809999
 20
16.410000
 11
22.809999
 21
7.410000
  0
LINE
  8
0
  6
DASHED
 10
14.310000
 20
16.410000
 11
14.310000
 21
7.410000
  0
LINE
  8
0
  6
DASHED
 10
118.809998
 20
16.410000
 11
118.809998
 21
7.410000
  0
LINE
  8
0
  6
DASHED
 10
110.309998
 20
16.410000
 11
110.309998
 21
7.410000
  0
ARC
  8
0
  6
CONTINUOUS
 10
66.559998
 20
56.709999
 40
45.000000
 50
159.580627
 51
214.692123
  0
ARC
  8
0
  6
CONTINUOUS
 10
66.559998
 20
56.709999
 40
45.000000
 50
-34.692108
 51
20.437799
  0
LINE
  8
0
  6
CONTINUOUS
 10
24.559999
 20
59.909996
 11
24.559999
 21
104.910004
  0
LINE
  8
0
  6
CONTINUOUS
 10
25.559999
 20
105.910004
 11
27.559999
 21
105.910004
  0
LINE
  8
0
  6
CONTINUOUS
 10
25.559999
 20
58.909996
 11
27.559999
 21
58.909996
  0
ARC
  8
0
  6
CONTINUOUS
 10
27.559999
 20
107.910004
 40
2.000000
 50
-90.000000
 51
0.000000
  0
ARC
  8
0
  6
CONTINUOUS
 10
27.559999
 20
56.910007
 40
2.000000
 50
0.000000
 51
90.000000
  0
ARC
  8
0
  6
CONTINUOUS
 10
25.559999
 20
104.909988
 40
1.000000
 50
90.000000
 51
180.000000
  0
ARC
  8
0
  6
CONTINUOUS
 10
25.559999
 20
59.909996
 40
1.000000
 50
180.000000
 51
270.000000
  0
LINE
  8
0
  6
CONTINUOUS
 10
26.559999
 20
16.410000
 11
10.560000
 21
16.410000
  0
ARC
  8
0
  6
CONTINUOUS
 10
26.559999
 20
19.410000
 40
3.000000
 50
-90.000000
 51
0.000000
  0
ARC
  8
0
  6
CONTINUOUS
 10
106.559998
 20
19.410000
 40
3.000000
 50
180.000000
 51
270.000000
  0
LINE
  8
0
  6
CONTINUOUS
 10
140.559998
 20
73.410004
 11
140.559998
 21
91.410004
  0
LINE
  8
0
  6
CONTINUOUS
 10
110.559998
 20
91.410004
 11
140.559998
 21
91.410004
  0
LINE
  8
0
  6
CONTINUOUS
 10
110.559998
 20
73.410004
 11
140.559998
 21
73.410004
  0
LINE
  8
0
  6
CONTINUOUS
 10
110.559998
 20
92.410004
 11
110.559998
 21
72.410004
  0
LINE
  8
0
  6
CONTINUOUS
 10
108.559998
 20
92.410004
 11
110.559998
 21
92.410004
  0
LINE
  8
0
  6
CONTINUOUS
 10
108.559998
 20
72.410004
 11
110.559998
 21
72.410004
  0
ARC
  8
0
  6
CONTINUOUS
 10
116.559998
 20
82.410004
 40
3.000000
 50
90.000000
 51
270.000000
  0
LINE
  8
0
  6
CONTINUOUS
 10
116.559998
 20
85.410004
 11
140.559998
 21
85.410004
  0
LINE
  8
0
  6
CONTINUOUS
 10
116.559998
 20
79.410004
 11
140.559998
 21
79.410004
  0
LINE
  8
0
  6
DASHED
 10
40.560001
 20
11.710000
 11
92.559998
 21
11.710000
  0
ARC
  8
0
  6
DASHED
 10
92.559998
 20
14.710000
 40
3.000000
 50
-90.000000
 51
0.000000
  0
ARC
  8
0
  6
DASHED
 10
40.560001
 20
14.710000
 40
3.000000
 50
208.811234
 51
270.000000
  0
LINE
  8
0
  6
DASHED
 10
93.594902
 20
101.239799
 11
66.559998
 21
101.711693
  0
ARC
  8
0
  6
DASHED
 10
93.559998
 20
99.240097
 40
2.000000
 50
0.000000
 51
89.000191
  0
LINE
  8
0
  6
DASHED
 10
95.559998
 20
99.240112
 11
95.559998
 21
92.487091
  0
LINE
  8
0
  6
DASHED
 10
39.525101
 20
101.239799
 11
66.559998
 21
101.711693
  0
ARC
  8
0
  6
DASHED
 10
39.560001
 20
99.240097
 40
2.000000
 50
90.999809
 51
180.000000
  0
LINE
  8
0
  6
DASHED
 10
37.560001
 20
99.240112
 11
37.560001
 21
92.487091
  0
LINE
  8
0
  6
DASHED
 10
37.560001
 20
14.710000
 11
37.560001
 21
20.932913
  0
ARC
  8
0
  6
DASHED
 10
40.560001
 20
14.710000
 40
3.000000
 50
180.000000
 51
208.811234
  0
LINE
  8
0
  6
DASHED
 10
95.559998
 20
14.710000
 11
95.559998
 21
20.932913
  0
ARC
  8
0
  6
DASHED
 10
66.559998
 20
56.709999
 40
45.000000
 50
-48.189686
 51
-34.692131
  0
ARC
  8
0
  6
DASHED
 10
98.559998
 20
92.487091
 40
3.000000
 50
180.000000
 51
228.189682
  0
ARC
  8
0
  6
DASHED
 10
34.560001
 20
92.487091
 40
3.000000
 50
-48.189686
 51
0.000000
  0
ARC
  8
0
  6
DASHED
 10
34.560001
 20
20.932913
 40
3.000000
 50
0.000000
 51
48.189686
  0
ARC
  8
0
  6
DASHED
 10
98.559998
 20
20.932913
 40
3.000000
 50
131.810318
 51
180.000000
  0
ARC
  8
0
  6
DASHED
 10
66.559998
 20
56.709999
 40
45.000000
 50
20.419371
 51
48.189686
  0
ARC
  8
0
  6
DASHED
 10
66.559998
 20
56.709999
 40
45.000000
 50
214.692123
 51
228.189682
  0
ARC
  8
0
  6
DASHED
 10
66.559998
 20
56.709999
 40
45.000000
 50
131.810318
 51
159.580627
  0
LINE
  8
0
  6
DASHED
 10
89.559998
 20
113.710297
 11
89.559998
 21
101.308533
  0
LINE
  8
0
  6
DASHED
 10
43.560001
 20
113.710297
 11
43.560001
 21
101.308533
  0
LINE
  8
0
  6
DASHED
 10
89.059998
 20
113.710297
 11
89.059998
 21
114.710297
  0
LINE
  8
0
  6
DASHED
 10
44.060001
 20
113.710297
 11
44.060001
 21
114.710297
  0
LINE
  8
0
  6
CONTINUOUS
 10
43.560001
 20
120.693703
 11
43.560001
 21
120.008446
  0
LINE
  8
0
  6
CONTINUOUS
 10
89.559998
 20
120.693703
 11
89.559998
 21
120.008537
  0
ARC
  8
0
  6
CONTINUOUS
 10
86.559998
 20
114.410202
 40
7.000000
 50
73.041977
 51
106.956497
  0
ARC
  8
0
  6
CONTINUOUS
 10
84.809998
 20
120.149498
 40
1.000000
 50
106.956902
 51
180.000000
  0
ARC
  8
0
  6
CONTINUOUS
 10
88.309998
 20
120.149498
 40
1.000000
 50
0.000000
 51
73.041847
  0
LINE
  8
0
  6
CONTINUOUS
 10
83.059998
 20
121.196747
 11
83.059998
 21
120.121994
  0
ARC
  8
0
  6
CONTINUOUS
 10
66.559998
 20
-127.789703
 40
250.000000
 50
84.826019
 51
95.173981
  0
ARC
  8
0
  6
CONTINUOUS
 10
89.059998
 20
120.693703
 40
0.500000
 50
0.000000
 51
84.826019
  0
ARC
  8
0
  6
CONTINUOUS
 10
82.559998
 20
121.196747
 40
0.500000
 50
0.000000
 51
86.323196
  0
ARC
  8
0
  6
CONTINUOUS
 10
46.560001
 20
114.410202
 40
7.000000
 50
73.043503
 51
106.958023
  0
ARC
  8
0
  6
CONTINUOUS
 10
48.310001
 20
120.149498
 40
1.000000
 50
0.000000
 51
73.043098
  0
ARC
  8
0
  6
CONTINUOUS
 10
44.810001
 20
120.149498
 40
1.000000
 50
106.958153
 51
180.000000
  0
LINE
  8
0
  6
CONTINUOUS
 10
50.060001
 20
121.196747
 11
50.060001
 21
120.121925
  0
ARC
  8
0
  6
CONTINUOUS
 10
44.060001
 20
120.693703
 40
0.500000
 50
95.173981
 51
180.000000
  0
ARC
  8
0
  6
CONTINUOUS
 10
50.560001
 20
121.196747
 40
0.500000
 50
93.676804
 51
180.000000
  0
LINE
  8
0
  6
DASHED
 10
89.059998
 20
114.710297
 11
89.559998
 21
114.710297
  0
LINE
  8
0
  6
DASHED
 10
89.059998
 20
113.710297
 11
89.559998
 21
113.710297
  0
LINE
  8
0
  6
DASHED
 10
44.060001
 20
114.710297
 11
43.560001
 21
114.710297
  0
LINE
  8
0
  6
DASHED
 10
44.060001
 20
113.710297
 11
43.560001
 21
113.710297
  0
LINE
  8
0
  6
DASHED
 10
89.559998
 20
120.008537
 11
89.559998
 21
114.710297
  0
LINE
  8
0
  6
CONTINUOUS
 10
89.309998
 20
120.012901
 11
89.309998
 21
120.149498
  0
LINE
  8
0
  6
CONTINUOUS
 10
83.809998
 20
120.108902
 11
83.809998
 21
120.149498
  0
LINE
  8
0
  6
CONTINUOUS
 10
49.310001
 20
120.108833
 11
49.310001
 21
120.149498
  0
LINE
  8
0
  6
CONTINUOUS
 10
43.810001
 20
120.012810
 11
43.810001
 21
120.149498
  0
LINE
  8
0
  6
DASHED
 10
43.560001
 20
120.008446
 11
43.560001
 21
114.710297
  0
LINE
  8
0
  6
CONTINUOUS
 10
116.559998
 20
85.410004
 11
116.559998
 21
79.410004
  0
LINE
  8
0
  6
CONTINUOUS
 10
393.059998
 20
252.195053
 11
393.059998
 21
261.962463
  0
LINE
  8
0
  6
CONTINUOUS
 10
392.559998
 20
302.078735
 11
392.559998
 21
212.078751
  0
LINE
  8
0
  6
CONTINUOUS
 10
419.559998
 20
213.809052
 11
419.559998
 21
234.078751
  0
LINE
  8
0
  6
CONTINUOUS
 10
419.559998
 20
300.348450
 11
419.559998
 21
280.078735
  0
LINE
  8
0
  6
CONTINUOUS
 10
392.559998
 20
228.078751
 11
406.073090
 21
228.432648
  0
LINE
  8
0
  6
CONTINUOUS
 10
406.073090
 20
285.724854
 11
392.559998
 21
286.078735
  0
LINE
  8
0
  6
CONTINUOUS
 10
427.059998
 20
252.195053
 11
427.059998
 21
261.962463
  0
LINE
  8
0
  6
CONTINUOUS
 10
406.559998
 20
285.224945
 11
406.559998
 21
280.078735
  0
ARC
  8
0
  6
CONTINUOUS
 10
406.059998
 20
285.224945
 40
0.500000
 50
0.000000
 51
88.496399
  0
LINE
  8
0
  6
CONTINUOUS
 10
406.559998
 20
228.932556
 11
406.559998
 21
234.078751
  0
ARC
  8
0
  6
CONTINUOUS
 10
406.059998
 20
228.932556
 40
0.500000
 50
-88.496399
 51
0.000000
  0
LINE
  8
0
  6
CONTINUOUS
 10
406.559998
 20
284.728760
 11
419.559998
 21
284.388245
  0
LINE
  8
0
  6
CONTINUOUS
 10
406.559998
 20
229.428757
 11
419.559998
 21
229.769241
  0
ARC
  8
0
  6
CONTINUOUS
 10
397.059998
 20
278.061249
 40
2.000000
 50
89.499939
 51
180.000000
  0
LINE
  8
0
  6
CONTINUOUS
 10
417.595215
 20
301.641724
 11
392.559998
 21
302.078735
  0
LINE
  8
0
  6
CONTINUOUS
 10
418.818390
 20
301.314545
 11
417.595215
 21
301.641724
  0
ARC
  8
0
  6
CONTINUOUS
 10
418.559998
 20
300.348450
 40
1.000000
 50
0.000000
 51
75.023903
  0
LINE
  8
0
  6
CONTINUOUS
 10
417.595215
 20
212.515793
 11
392.559998
 21
212.078751
  0
LINE
  8
0
  6
CONTINUOUS
 10
418.818390
 20
212.843048
 11
417.595215
 21
212.515793
  0
ARC
  8
0
  6
CONTINUOUS
 10
418.559998
 20
213.809052
 40
1.000000
 50
-75.023903
 51
0.000000
  0
LINE
  8
0
  6
CONTINUOUS
 10
425.060089
 20
278.078735
 11
425.060089
 21
236.078751
  0
LINE
  8
0
  6
CENTER
 10
410.059998
 20
225.268753
 11
410.059998
 21
288.803741
  0
LINE
  8
0
  6
CONTINUOUS
 10
395.059998
 20
236.078751
 11
395.059998
 21
278.078735
  0
LINE
  8
0
  6
CONTINUOUS
 10
393.059998
 20
252.078751
 11
393.059998
 21
262.078735
  0
LINE
  8
0
  6
CONTINUOUS
 10
427.059998
 20
252.078751
 11
427.059998
 21
262.078735
  0
ARC
  8
0
  6
CONTINUOUS
 10
422.059998
 20
277.078735
 40
3.500000
 50
180.000000
 51
270.000000
  0
LINE
  8
0
  6
CONTINUOUS
 10
424.060089
 20
273.578735
 11
422.059998
 21
273.578735
  0
LINE
  8
0
  6
CONTINUOUS
 10
418.559998
 20
279.078735
 11
418.559998
 21
277.078735
  0
ARC
  8
0
  6
CONTINUOUS
 10
424.060089
 20
272.578735
 40
1.000000
 50
0.000000
 51
90.000000
  0
ARC
  8
0
  6
CONTINUOUS
 10
398.059998
 20
277.078735
 40
3.500000
 50
-90.000000
 51
0.000000
  0
LINE
  8
0
  6
CONTINUOUS
 10
401.559998
 20
279.078735
 11
401.559998
 21
277.078735
  0
LINE
  8
0
  6
CONTINUOUS
 10
396.059906
 20
273.578735
 11
398.059998
 21
273.578735
  0
ARC
  8
0
  6
CONTINUOUS
 10
396.059906
 20
272.578735
 40
1.000000
 50
90.000000
 51
180.000000
  0
LINE
  8
0
  6
CONTINUOUS
 10
397.059998
 20
280.078735
 11
423.060089
 21
280.078735
  0
ARC
  8
0
  6
CONTINUOUS
 10
402.559998
 20
279.078735
 40
1.000000
 50
90.000000
 51
180.000000
  0
ARC
  8
0
  6
CONTINUOUS
 10
417.559998
 20
279.078735
 40
1.000000
 50
0.000000
 51
90.000000
  0
ARC
  8
0
  6
CONTINUOUS
 10
423.060089
 20
278.078735
 40
2.000000
 50
0.000000
 51
90.000000
  0
ARC
  8
0
  6
CONTINUOUS
 10
397.059998
 20
278.078735
 40
2.000000
 50
90.000000
 51
180.000000
  0
ARC
  8
0
  6
CONTINUOUS
 10
422.059998
 20
237.078751
 40
3.500000
 50
90.000000
 51
180.000000
  0
LINE
  8
0
  6
CONTINUOUS
 10
424.060089
 20
240.578751
 11
422.059998
 21
240.578751
  0
LINE
  8
0
  6
CONTINUOUS
 10
418.559998
 20
235.078751
 11
418.559998
 21
237.078751
  0
ARC
  8
0
  6
CONTINUOUS
 10
424.060089
 20
241.578751
 40
1.000000
 50
-90.000000
 51
0.000000
  0
ARC
  8
0
  6
CONTINUOUS
 10
398.059998
 20
237.078751
 40
3.500000
 50
0.000000
 51
90.000000
  0
LINE
  8
0
  6
CONTINUOUS
 10
401.559998
 20
235.078751
 11
401.559998
 21
237.078751
  0
LINE
  8
0
  6
CONTINUOUS
 10
396.059906
 20
240.578751
 11
398.059998
 21
240.578751
  0
ARC
  8
0
  6
CONTINUOUS
 10
396.059906
 20
241.578751
 40
1.000000
 50
180.000000
 51
270.000000
  0
LINE
  8
0
  6
CONTINUOUS
 10
397.059998
 20
234.078751
 11
423.060089
 21
234.078751
  0
ARC
  8
0
  6
CONTINUOUS
 10
402.559998
 20
235.078751
 40
1.000000
 50
180.000000
 51
270.000000
  0
ARC
  8
0
  6
CONTINUOUS
 10
417.559998
 20
235.078751
 40
1.000000
 50
-90.000000
 51
0.000000
  0
ARC
  8
0
  6
CONTINUOUS
 10
423.060089
 20
236.078751
 40
2.000000
 50
-90.000000
 51
0.000000
  0
ARC
  8
0
  6
CONTINUOUS
 10
397.059998
 20
236.078751
 40
2.000000
 50
180.000000
 51
270.000000
  0
LINE
  8
0
  6
CONTINUOUS
 10
425.559998
 20
251.078751
 11
426.059998
 21
251.078751
  0
ARC
  8
0
  6
CONTINUOUS
 10
426.059998
 20
252.078751
 40
1.000000
 50
-90.000000
 51
0.000000
  0
ARC
  8
0
  6
CONTINUOUS
 10
425.559998
 20
250.578751
 40
0.500000
 50
90.000000
 51
180.000000
  0
LINE
  8
0
  6
CONTINUOUS
 10
425.559998
 20
263.078735
 11
426.059998
 21
263.078735
  0
ARC
  8
0
  6
CONTINUOUS
 10
426.059998
 20
262.078735
 40
1.000000
 50
0.000000
 51
90.000000
  0
ARC
  8
0
  6
CONTINUOUS
 10
425.559998
 20
263.578735
 40
0.500000
 50
180.000000
 51
270.000000
  0
LINE
  8
0
  6
CONTINUOUS
 10
394.559998
 20
251.078751
 11
394.059998
 21
251.078751
  0
ARC
  8
0
  6
CONTINUOUS
 10
394.059998
 20
252.078751
 40
1.000000
 50
180.000000
 51
270.000000
  0
ARC
  8
0
  6
CONTINUOUS
 10
394.559998
 20
250.578751
 40
0.500000
 50
0.000000
 51
90.000000
  0
LINE
  8
0
  6
CONTINUOUS
 10
394.559998
 20
263.078735
 11
394.059998
 21
263.078735
  0
ARC
  8
0
  6
CONTINUOUS
 10
394.059998
 20
262.078735
 40
1.000000
 50
90.000000
 51
180.000000
  0
ARC
  8
0
  6
CONTINUOUS
 10
394.559998
 20
263.578735
 40
0.500000
 50
-90.000000
 51
0.000000
  0
LINE
  8
0
  6
CONTINUOUS
 10
420.309998
 20
276.678741
 11
420.309998
 21
277.478760
  0
LINE
  8
0
  6
CONTINUOUS
 10
422.460022
 20
275.328735
 11
421.660004
 21
275.328735
  0
LINE
  8
0
  6
CONTINUOUS
 10
422.460022
 20
278.828735
 11
421.660004
 21
278.828735
  0
LINE
  8
0
  6
CONTINUOUS
 10
423.809998
 20
276.678741
 11
423.809998
 21
277.478760
  0
CIRCLE
  8
0
  6
CONTINUOUS
 10
422.059998
 20
277.078735
 40
2.750000
  0
ARC
  8
0
  6
CONTINUOUS
 10
423.809998
 20
275.328735
 40
1.350000
 50
90.000000
 51
180.000000
  0
ARC
  8
0
  6
CONTINUOUS
 10
423.809998
 20
278.828735
 40
1.350000
 50
180.000000
 51
270.000000
  0
ARC
  8
0
  6
CONTINUOUS
 10
420.309998
 20
275.328735
 40
1.350000
 50
0.000000
 51
90.000000
  0
ARC
  8
0
  6
CONTINUOUS
 10
420.309998
 20
278.828735
 40
1.350000
 50
-90.000000
 51
0.000000
  0
LINE
  8
0
  6
CONTINUOUS
 10
396.309998
 20
276.678741
 11
396.309998
 21
277.478760
  0
LINE
  8
0
  6
CONTINUOUS
 10
398.460022
 20
275.328735
 11
397.660004
 21
275.328735
  0
LINE
  8
0
  6
CONTINUOUS
 10
398.460022
 20
278.828735
 11
397.660004
 21
278.828735
  0
LINE
  8
0
  6
CONTINUOUS
 10
399.809998
 20
276.678741
 11
399.809998
 21
277.478760
  0
CIRCLE
  8
0
  6
CONTINUOUS
 10
398.059998
 20
277.078735
 40
2.750000
  0
ARC
  8
0
  6
CONTINUOUS
 10
399.809998
 20
275.328735
 40
1.350000
 50
90.000000
 51
180.000000
  0
ARC
  8
0
  6
CONTINUOUS
 10
399.809998
 20
278.828735
 40
1.350000
 50
180.000000
 51
270.000000
  0
ARC
  8
0
  6
CONTINUOUS
 10
396.309998
 20
275.328735
 40
1.350000
 50
0.000000
 51
90.000000
  0
ARC
  8
0
  6
CONTINUOUS
 10
396.309998
 20
278.828735
 40
1.350000
 50
-90.000000
 51
0.000000
  0
LINE
  8
0
  6
CONTINUOUS
 10
396.309998
 20
236.678757
 11
396.309998
 21
237.478775
  0
LINE
  8
0
  6
CONTINUOUS
 10
398.460022
 20
235.328751
 11
397.660004
 21
235.328751
  0
LINE
  8
0
  6
CONTINUOUS
 10
398.460022
 20
238.828751
 11
397.660004
 21
238.828751
  0
LINE
  8
0
  6
CONTINUOUS
 10
399.809998
 20
236.678757
 11
399.809998
 21
237.478775
  0
CIRCLE
  8
0
  6
CONTINUOUS
 10
398.059998
 20
237.078751
 40
2.750000
  0
ARC
  8
0
  6
CONTINUOUS
 10
399.809998
 20
235.328751
 40
1.350000
 50
90.000000
 51
180.000000
  0
ARC
  8
0
  6
CONTINUOUS
 10
399.809998
 20
238.828751
 40
1.350000
 50
180.000000
 51
270.000000
  0
ARC
  8
0
  6
CONTINUOUS
 10
396.309998
 20
235.328751
 40
1.350000
 50
0.000000
 51
90.000000
  0
ARC
  8
0
  6
CONTINUOUS
 10
396.309998
 20
238.828751
 40
1.350000
 50
-90.000000
 51
0.000000
  0
LINE
  8
0
  6
CONTINUOUS
 10
420.309998
 20
236.678757
 11
420.309998
 21
237.478775
  0
LINE
  8
0
  6
CONTINUOUS
 10
422.460022
 20
235.328751
 11
421.660004
 21
235.328751
  0
LINE
  8
0
  6
CONTINUOUS
 10
422.460022
 20
238.828751
 11
421.660004
 21
238.828751
  0
LINE
  8
0
  6
CONTINUOUS
 10
423.809998
 20
236.678757
 11
423.809998
 21
237.478775
  0
CIRCLE
  8
0
  6
CONTINUOUS
 10
422.059998
 20
237.078751
 40
2.750000
  0
ARC
  8
0
  6
CONTINUOUS
 10
423.809998
 20
235.328751
 40
1.350000
 50
90.000000
 51
180.000000
  0
ARC
  8
0
  6
CONTINUOUS
 10
423.809998
 20
238.828751
 40
1.350000
 50
180.000000
 51
270.000000
  0
ARC
  8
0
  6
CONTINUOUS
 10
420.309998
 20
235.328751
 40
1.350000
 50
0.000000
 51
90.000000
  0
ARC
  8
0
  6
CONTINUOUS
 10
420.309998
 20
238.828751
 40
1.350000
 50
-90.000000
 51
0.000000
  0
LINE
  8
0
  6
CONTINUOUS
 10
442.208679
 20
260.928741
 11
427.059875
 21
260.928741
  0
LINE
  8
0
  6
CONTINUOUS
 10
441.356873
 20
253.228745
 11
442.092682
 21
256.063843
  0
LINE
  8
0
  6
CONTINUOUS
 10
442.092682
 20
256.063843
 11
441.280579
 21
258.538849
  0
LINE
  8
0
  6
CONTINUOUS
 10
441.280579
 20
258.538849
 11
442.208679
 21
260.928741
  0
LINE
  8
0
  6
CONTINUOUS
 10
441.356873
 20
253.228745
 11
427.059875
 21
253.228745
  0
LINE
  8
0
  6
CONTINUOUS
 10
407.559998
 20
234.078751
 11
407.559998
 21
229.578751
  0
LINE
  8
0
  6
CONTINUOUS
 10
406.559998
 20
229.578751
 11
408.539001
 21
229.578751
  0
ARC
  8
0
  6
CONTINUOUS
 10
401.159973
 20
233.078751
 40
8.999999
 50
-16.601009
 51
6.379371
  0
ARC
  8
0
  6
CONTINUOUS
 10
408.539001
 20
230.878738
 40
1.300000
 50
270.000000
 51
343.399109
  0
LINE
  8
0
  6
CONTINUOUS
 10
407.559998
 20
280.078735
 11
407.559998
 21
284.578735
  0
LINE
  8
0
  6
CONTINUOUS
 10
406.559998
 20
284.578735
 11
408.539001
 21
284.578735
  0
ARC
  8
0
  6
CONTINUOUS
 10
401.159973
 20
281.078735
 40
8.999999
 50
-6.379371
 51
16.601009
  0
ARC
  8
0
  6
CONTINUOUS
 10
408.539001
 20
283.278748
 40
1.300000
 50
16.600901
 51
90.000000
  0
LINE
  8
0
  6
CONTINUOUS
 10
446.815887
 20
218.542465
 11
419.559998
 21
217.828751
  0
LINE
  8
0
  6
CONTINUOUS
 10
450.559998
 20
221.003479
 11
450.559998
 21
293.154022
  0
LINE
  8
0
  6
CONTINUOUS
 10
448.266144
 20
218.797348
 11
449.192444
 21
219.106110
  0
ARC
  8
0
  6
CONTINUOUS
 10
448.559998
 20
221.003479
 40
2.000000
 50
-71.565048
 51
0.000000
  0
ARC
  8
0
  6
CONTINUOUS
 10
446.685028
 20
223.540756
 40
5.000000
 50
271.500000
 51
288.434937
  0
LINE
  8
0
  6
CONTINUOUS
 10
423.073090
 20
296.231171
 11
419.559998
 21
296.323151
  0
LINE
  8
0
  6
CONTINUOUS
 10
423.559998
 20
295.731323
 11
423.559998
 21
286.608612
  0
LINE
  8
0
  6
CONTINUOUS
 10
446.815887
 20
295.615021
 11
419.559998
 21
296.328735
  0
LINE
  8
0
  6
CONTINUOUS
 10
448.266144
 20
295.360168
 11
449.192444
 21
295.051392
  0
ARC
  8
0
  6
CONTINUOUS
 10
448.559998
 20
293.154022
 40
2.000000
 50
0.000000
 51
71.565048
  0
ARC
  8
0
  6
CONTINUOUS
 10
446.685028
 20
290.616730
 40
5.000000
 50
71.565048
 51
88.500000
  0
LINE
  8
0
  6
CONTINUOUS
 10
423.559998
 20
295.119141
 11
424.999207
 21
295.119141
  0
LINE
  8
0
  6
CONTINUOUS
 10
423.559998
 20
289.619141
 11
424.999207
 21
289.619141
  0
LINE
  8
0
  6
CONTINUOUS
 10
424.259949
 20
295.119141
 11
424.259949
 21
289.619141
  0
ARC
  8
0
  6
CONTINUOUS
 10
419.259949
 20
292.369141
 40
7.000000
 50
-16.956499
 51
16.958000
  0
ARC
  8
0
  6
CONTINUOUS
 10
424.999207
 20
290.619141
 40
1.000000
 50
270.000000
 51
343.043091
  0
ARC
  8
0
  6
CONTINUOUS
 10
424.999207
 20
294.119141
 40
1.000000
 50
16.958099
 51
90.000000
  0
LINE
  8
0
  6
CONTINUOUS
 10
423.559998
 20
286.608612
 11
419.559998
 21
286.608612
  0
LINE
  8
0
  6
CONTINUOUS
 10
450.550751
 20
288.399597
 11
450.559998
 21
288.399353
  0
ARC
  8
0
  6
CONTINUOUS
 10
423.059998
 20
295.731323
 40
0.500000
 50
0.000000
 51
88.500000
  0
LINE
  8
0
  6
CONTINUOUS
 10
423.073090
 20
217.926346
 11
419.559998
 21
217.834351
  0
LINE
  8
0
  6
CONTINUOUS
 10
423.559998
 20
218.426178
 11
423.559998
 21
227.548889
  0
LINE
  8
0
  6
CONTINUOUS
 10
423.559998
 20
219.038345
 11
424.999207
 21
219.038345
  0
LINE
  8
0
  6
CONTINUOUS
 10
423.559998
 20
224.538345
 11
424.999207
 21
224.538345
  0
LINE
  8
0
  6
CONTINUOUS
 10
424.259949
 20
219.038345
 11
424.259949
 21
224.538345
  0
ARC
  8
0
  6
CONTINUOUS
 10
419.259949
 20
221.788345
 40
7.000000
 50
-16.958000
 51
16.956499
  0
ARC
  8
0
  6
CONTINUOUS
 10
424.999207
 20
223.538345
 40
1.000000
 50
16.956900
 51
90.000000
  0
ARC
  8
0
  6
CONTINUOUS
 10
424.999207
 20
220.038345
 40
1.000000
 50
-90.000000
 51
-16.958099
  0
LINE
  8
0
  6
CONTINUOUS
 10
423.559998
 20
227.548889
 11
419.559998
 21
227.548889
  0
ARC
  8
0
  6
CONTINUOUS
 10
423.059998
 20
218.426178
 40
0.500000
 50
-88.500000
 51
0.000000
  0
LINE
  8
0
  6
CONTINUOUS
 10
426.253418
 20
292.671204
 11
450.559998
 21
292.034729
  0
LINE
  8
0
  6
CONTINUOUS
 10
423.559998
 20
288.760559
 11
450.559998
 21
289.467590
  0
LINE
  8
0
  6
CONTINUOUS
 10
426.253418
 20
221.486298
 11
450.559998
 21
222.122772
  0
LINE
  8
0
  6
CONTINUOUS
 10
423.559998
 20
225.396927
 11
450.559998
 21
224.689896
  0
LINE
  8
0
  6
CONTINUOUS
 10
423.559998
 20
13.051823
 11
423.559998
 21
17.829557
  0
LINE
  8
0
  6
CONTINUOUS
 10
423.559998
 20
13.210020
 11
424.999207
 21
13.210020
  0
LINE
  8
0
  6
CONTINUOUS
 10
424.259949
 20
13.210020
 11
424.259949
 21
17.847887
  0
ARC
  8
0
  6
CONTINUOUS
 10
419.259949
 20
15.960020
 40
7.000000
 50
-16.958000
 51
16.031073
  0
ARC
  8
0
  6
CONTINUOUS
 10
424.999207
 20
14.210020
 40
1.000000
 50
-90.000000
 51
-16.958099
  0
LINE
  8
0
  6
CONTINUOUS
 10
450.559967
 20
92.742104
 11
450.559998
 21
56.709999
  0
LINE
  8
0
  6
CONTINUOUS
 10
450.559967
 20
20.968901
 11
450.559998
 21
56.709999
  0
LINE
  8
0
  6
CONTINUOUS
 10
423.559998
 20
68.973557
 11
423.559998
 21
81.084999
  0
LINE
  8
0
  6
CONTINUOUS
 10
423.559998
 20
74.334999
 11
424.999207
 21
74.334999
  0
LINE
  8
0
  6
CONTINUOUS
 10
423.559998
 20
79.834999
 11
424.999207
 21
79.834999
  0
LINE
  8
0
  6
CONTINUOUS
 10
424.259949
 20
74.334999
 11
424.259949
 21
79.834999
  0
ARC
  8
0
  6
CONTINUOUS
 10
419.259949
 20
77.084999
 40
7.000000
 50
-16.958000
 51
16.956499
  0
ARC
  8
0
  6
CONTINUOUS
 10
424.999207
 20
78.834999
 40
1.000000
 50
16.956900
 51
90.000000
  0
ARC
  8
0
  6
CONTINUOUS
 10
424.999207
 20
75.334999
 40
1.000000
 50
-90.000000
 51
-16.958099
  0
LINE
  8
0
  6
CONTINUOUS
 10
423.559998
 20
68.973557
 11
419.559998
 21
68.973557
  0
LINE
  8
0
  6
CONTINUOUS
 10
423.559998
 20
81.084999
 11
419.559998
 21
81.084999
  0
LINE
  8
0
  6
CONTINUOUS
 10
392.559998
 20
11.710000
 11
392.559998
 21
101.709999
  0
LINE
  8
0
  6
CONTINUOUS
 10
406.559998
 20
12.445720
 11
406.559998
 21
22.300711
  0
LINE
  8
0
  6
CONTINUOUS
 10
419.559998
 20
94.736145
 11
419.559998
 21
12.460000
  0
LINE
  8
0
  6
CENTER
 10
410.059998
 20
103.648277
 11
410.059998
 21
124.910782
  0
ARC
  8
0
  6
CONTINUOUS
 10
394.059998
 20
102.709999
 40
1.000000
 50
-90.000000
 51
0.000000
  0
LINE
  8
0
  6
CONTINUOUS
 10
392.559998
 20
22.300711
 11
406.559998
 21
22.300711
  0
LINE
  8
0
  6
CONTINUOUS
 10
406.559998
 20
101.209999
 11
406.559998
 21
91.209999
  0
LINE
  8
0
  6
CONTINUOUS
 10
392.559998
 20
91.119301
 11
406.559998
 21
91.119301
  0
LINE
  8
0
  6
CONTINUOUS
 10
392.559998
 20
101.709999
 11
425.059937
 21
101.709999
  0
ARC
  8
0
  6
CONTINUOUS
 10
406.059998
 20
101.209999
 40
0.500000
 50
0.000000
 51
90.000000
  0
LINE
  8
0
  6
CONTINUOUS
 10
425.059662
 20
113.710236
 11
425.059937
 21
101.712746
  0
LINE
  8
0
  6
CONTINUOUS
 10
395.059998
 20
113.710297
 11
395.059998
 21
102.709999
  0
LINE
  8
0
  6
CONTINUOUS
 10
395.059998
 20
114.710297
 11
395.059998
 21
121.288605
  0
LINE
  8
0
  6
CONTINUOUS
 10
438.947571
 20
110.660301
 11
427.059998
 21
110.660301
  0
LINE
  8
0
  6
CONTINUOUS
 10
425.060211
 20
114.710297
 11
425.060211
 21
121.288605
  0
LINE
  8
0
  6
CONTINUOUS
 10
393.059998
 20
119.210297
 11
393.059998
 21
114.710297
  0
LINE
  8
0
  6
CONTINUOUS
 10
427.059998
 20
114.710297
 11
393.059998
 21
114.710297
  0
LINE
  8
0
  6
CONTINUOUS
 10
427.059998
 20
113.710297
 11
393.059998
 21
113.710297
  0
LINE
  8
0
  6
CONTINUOUS
 10
427.059998
 20
119.210297
 11
427.059998
 21
118.460297
  0
LINE
  8
0
  6
CONTINUOUS
 10
427.059998
 20
118.460297
 11
427.059998
 21
114.710297
  0
LINE
  8
0
  6
CONTINUOUS
 10
438.095764
 20
118.360298
 11
427.059998
 21
118.360298
  0
ARC
  8
0
  6
CONTINUOUS
 10
410.059998
 20
-127.789703
 40
250.000000
 50
86.668304
 51
93.331696
  0
LINE
  8
0
  6
CONTINUOUS
 10
394.559998
 20
120.210297
 11
394.059998
 21
120.210297
  0
ARC
  8
0
  6
CONTINUOUS
 10
394.059998
 20
119.210297
 40
1.000000
 50
90.000000
 51
180.000000
  0
ARC
  8
0
  6
CONTINUOUS
 10
394.559998
 20
120.710297
 40
0.500000
 50
-90.000000
 51
0.000000
  0
LINE
  8
0
  6
CONTINUOUS
 10
394.559998
 20
108.210297
 11
394.059998
 21
108.210297
  0
ARC
  8
0
  6
CONTINUOUS
 10
394.059998
 20
109.210297
 40
1.000000
 50
180.000000
 51
270.000000
  0
ARC
  8
0
  6
CONTINUOUS
 10
394.559998
 20
107.710297
 40
0.500000
 50
0.000000
 51
90.000000
  0
LINE
  8
0
  6
CONTINUOUS
 10
425.559998
 20
120.210297
 11
426.059998
 21
120.210297
  0
ARC
  8
0
  6
CONTINUOUS
 10
426.059998
 20
119.210297
 40
1.000000
 50
0.000000
 51
90.000000
  0
ARC
  8
0
  6
CONTINUOUS
 10
425.559998
 20
120.710297
 40
0.500000
 50
180.000000
 51
270.000000
  0
LINE
  8
0
  6
CONTINUOUS
 10
425.559998
 20
108.210297
 11
426.059998
 21
108.210297
  0
ARC
  8
0
  6
CONTINUOUS
 10
426.059998
 20
109.210297
 40
1.000000
 50
-90.000000
 51
0.000000
  0
ARC
  8
0
  6
CONTINUOUS
 10
425.559998
 20
107.710297
 40
0.500000
 50
90.000000
 51
180.000000
  0
LINE
  8
0
  6
CONTINUOUS
 10
393.559998
 20
114.710297
 11
393.559998
 21
113.710297
  0
LINE
  8
0
  6
CONTINUOUS
 10
393.059998
 20
113.710297
 11
393.059998
 21
109.210297
  0
ARC
  8
0
  6
CONTINUOUS
 10
395.559998
 20
121.288605
 40
0.500000
 50
93.331696
 51
180.000000
  0
LINE
  8
0
  6
CONTINUOUS
 10
427.059998
 20
113.710297
 11
427.059998
 21
109.210297
  0
LINE
  8
0
  6
CONTINUOUS
 10
424.559662
 20
114.710297
 11
424.559662
 21
113.710236
  0
LINE
  8
0
  6
CONTINUOUS
 10
401.059998
 20
118.710297
 11
395.309998
 21
118.710297
  0
LINE
  8
0
  6
CONTINUOUS
 10
401.559998
 20
119.210297
 11
401.559998
 21
121.582008
  0
LINE
  8
0
  6
CONTINUOUS
 10
400.809998
 20
118.710297
 11
400.809998
 21
120.149498
  0
LINE
  8
0
  6
CONTINUOUS
 10
395.309998
 20
118.710098
 11
395.309998
 21
120.149498
  0
LINE
  8
0
  6
CONTINUOUS
 10
400.809998
 20
119.410202
 11
395.309998
 21
119.410202
  0
ARC
  8
0
  6
CONTINUOUS
 10
398.059998
 20
114.410202
 40
7.000000
 50
73.042000
 51
106.956497
  0
ARC
  8
0
  6
CONTINUOUS
 10
396.309998
 20
120.149498
 40
1.000000
 50
106.956902
 51
180.000000
  0
ARC
  8
0
  6
CONTINUOUS
 10
399.809998
 20
120.149498
 40
1.000000
 50
0.000000
 51
73.041801
  0
ARC
  8
0
  6
CONTINUOUS
 10
401.059998
 20
119.210297
 40
0.500000
 50
-90.000000
 51
0.000000
  0
ARC
  8
0
  6
CONTINUOUS
 10
395.559998
 20
118.210297
 40
0.500000
 50
90.000000
 51
180.000000
  0
ARC
  8
0
  6
CONTINUOUS
 10
402.059998
 20
121.582008
 40
0.500000
 50
91.837456
 51
180.000000
  0
ARC
  8
0
  6
CONTINUOUS
 10
424.559998
 20
121.288605
 40
0.500000
 50
0.000000
 51
86.668304
  0
LINE
  8
0
  6
CONTINUOUS
 10
419.059998
 20
118.710297
 11
424.809998
 21
118.710297
  0
LINE
  8
0
  6
CONTINUOUS
 10
418.559998
 20
119.210297
 11
418.559998
 21
121.582008
  0
LINE
  8
0
  6
CONTINUOUS
 10
419.309998
 20
118.710297
 11
419.309998
 21
120.149498
  0
LINE
  8
0
  6
CONTINUOUS
 10
424.809998
 20
118.710098
 11
424.809998
 21
120.149498
  0
LINE
  8
0
  6
CONTINUOUS
 10
419.309998
 20
119.410202
 11
424.809998
 21
119.410202
  0
ARC
  8
0
  6
CONTINUOUS
 10
422.059998
 20
114.410202
 40
7.000000
 50
73.043503
 51
106.958000
  0
ARC
  8
0
  6
CONTINUOUS
 10
423.809998
 20
120.149498
 40
1.000000
 50
0.000000
 51
73.043098
  0
ARC
  8
0
  6
CONTINUOUS
 10
420.309998
 20
120.149498
 40
1.000000
 50
106.958199
 51
180.000000
  0
ARC
  8
0
  6
CONTINUOUS
 10
419.059998
 20
119.210297
 40
0.500000
 50
180.000000
 51
270.000000
  0
ARC
  8
0
  6
CONTINUOUS
 10
424.559998
 20
118.210297
 40
0.500000
 50
0.000000
 51
90.000000
  0
ARC
  8
0
  6
CONTINUOUS
 10
418.059998
 20
121.582008
 40
0.500000
 50
0.000000
 51
88.162544
  0
LINE
  8
0
  6
CONTINUOUS
 10
425.059937
 20
97.802635
 11
425.059937
 21
101.709999
  0
LINE
  8
0
  6
CONTINUOUS
 10
417.592010
 20
12.107619
 11
392.559998
 21
11.710000
  0
ARC
  8
0
  6
CONTINUOUS
 10
406.059998
 20
12.445720
 40
0.500000
 50
-89.000000
 51
0.000000
  0
LINE
  8
0
  6
CONTINUOUS
 10
418.816986
 20
12.433358
 11
417.560242
 21
12.099173
  0
ARC
  8
0
  6
CONTINUOUS
 10
418.559998
 20
13.399773
 40
1.000000
 50
-75.108749
 51
0.000000
  0
LINE
  8
0
  6
CONTINUOUS
 10
417.560242
 20
21.209591
 11
406.559998
 21
21.209591
  0
LINE
  8
0
  6
CONTINUOUS
 10
418.816986
 20
21.543776
 11
417.560242
 21
21.209591
  0
ARC
  8
0
  6
CONTINUOUS
 10
418.559998
 20
22.510191
 40
1.000000
 50
-75.108749
 51
0.000000
  0
LINE
  8
0
  6
CONTINUOUS
 10
417.560242
 20
92.210411
 11
406.559998
 21
92.210411
  0
LINE
  8
0
  6
CONTINUOUS
 10
418.816986
 20
91.876228
 11
417.560242
 21
92.210411
  0
ARC
  8
0
  6
CONTINUOUS
 10
418.559998
 20
90.909805
 40
1.000000
 50
0.000000
 51
75.108749
  0
LINE
  8
0
  6
CONTINUOUS
 10
420.533813
 20
95.735802
 11
423.112274
 21
95.803322
  0
ARC
  8
0
  6
CONTINUOUS
 10
423.059937
 20
97.802635
 40
2.000000
 50
-88.500000
 51
0.000000
  0
LINE
  8
0
  6
CONTINUOUS
 10
446.756805
 20
95.247826
 11
423.520142
 21
95.856300
  0
ARC
  8
0
  6
CONTINUOUS
 10
420.559998
 20
94.736145
 40
1.000000
 50
91.500015
 51
180.000000
  0
LINE
  8
0
  6
CONTINUOUS
 10
448.317993
 20
94.954529
 11
449.236816
 21
94.624092
  0
ARC
  8
0
  6
CONTINUOUS
 10
448.559967
 20
92.742104
 40
2.000000
 50
0.000000
 51
70.219681
  0
LINE
  8
0
  6
CONTINUOUS
 10
423.073090
 20
12.551994
 11
419.559998
 21
12.460000
  0
LINE
  8
0
  6
CONTINUOUS
 10
446.756805
 20
18.463175
 11
419.559998
 21
17.750999
  0
LINE
  8
0
  6
CONTINUOUS
 10
448.317993
 20
18.756474
 11
449.236816
 21
19.086906
  0
ARC
  8
0
  6
CONTINUOUS
 10
448.559967
 20
20.968901
 40
2.000000
 50
-70.219681
 51
0.000000
  0
LINE
  8
0
  6
CONTINUOUS
 10
438.095764
 20
118.360298
 11
438.831573
 21
115.525200
  0
LINE
  8
0
  6
CONTINUOUS
 10
438.831573
 20
115.525200
 11
438.019470
 21
113.050201
  0
LINE
  8
0
  6
CONTINUOUS
 10
438.019470
 20
113.050201
 11
438.947571
 21
110.660301
  0
ARC
  8
0
  6
CONTINUOUS
 10
446.625946
 20
90.249542
 40
5.000000
 50
70.219719
 51
88.500000
  0
ARC
  8
0
  6
CONTINUOUS
 10
446.625946
 20
23.461460
 40
5.000000
 50
-88.500000
 51
-70.219719
  0
LINE
  8
0
  6
CONTINUOUS
 10
407.559998
 20
93.210403
 11
407.559998
 21
100.210403
  0
LINE
  8
0
  6
CONTINUOUS
 10
406.559998
 20
93.210403
 11
408.539001
 21
93.210403
  0
LINE
  8
0
  6
CONTINUOUS
 10
406.559998
 20
100.210403
 11
408.539001
 21
100.210403
  0
ARC
  8
0
  6
CONTINUOUS
 10
401.159973
 20
96.710403
 40
8.999999
 50
-16.601521
 51
16.601009
  0
ARC
  8
0
  6
CONTINUOUS
 10
408.539001
 20
94.510422
 40
1.300000
 50
-90.000000
 51
-16.601580
  0
ARC
  8
0
  6
CONTINUOUS
 10
408.539001
 20
98.910416
 40
1.300000
 50
16.600901
 51
90.000000
  0
LINE
  8
0
  6
CONTINUOUS
 10
407.559998
 20
13.209590
 11
407.559998
 21
20.209591
  0
LINE
  8
0
  6
CONTINUOUS
 10
406.559998
 20
13.209590
 11
408.539001
 21
13.209590
  0
LINE
  8
0
  6
CONTINUOUS
 10
406.559998
 20
20.209591
 11
408.539001
 21
20.209591
  0
ARC
  8
0
  6
CONTINUOUS
 10
401.159973
 20
16.709591
 40
8.999999
 50
-16.601521
 51
16.601009
  0
ARC
  8
0
  6
CONTINUOUS
 10
408.539001
 20
14.509608
 40
1.300000
 50
-90.000000
 51
-16.601580
  0
ARC
  8
0
  6
CONTINUOUS
 10
408.539001
 20
18.909601
 40
1.300000
 50
16.600901
 51
90.000000
  0
ARC
  8
0
  6
CONTINUOUS
 10
423.059998
 20
13.051823
 40
0.500000
 50
-88.499992
 51
0.000000
  0
LINE
  8
0
  6
CONTINUOUS
 10
423.559998
 20
80.058815
 11
450.559998
 21
79.351799
  0
LINE
  8
0
  6
CONTINUOUS
 10
423.559998
 20
74.111183
 11
450.559998
 21
74.818199
  0
TEXT
  8
0
 10
1.000000
 20
0.000000
 40
4.000000
 41
1.000000
  1
HLV-18L-10~240-S40
 50
0.000000
  0
ENDSEC
  0
EOF
