  0
SECTION
  2
HEADER
  9
$CLAYER
  8
1
  9
$LTSCALE
 40
3.0
  0
ENDSEC
  0
SECTION
  2
TABLES
  0
TABLE
  2
LTYPE
 70
     4
  0
LTYPE
  2
CONTINUOUS
  3
solid line
 70
    64
 72
    65
 73
     0
 40
0.0
  0
LTYPE
  2
DASHED
  3
__ __ __ __ __ __ __ __ __ __ __ __ __ __ __
 70
    64
 72
    65
 73
     2
 40
0.75
 49
0.5
 49
-0.25
  0
LTYPE
  2
CENTER
  3
____ _ ____ _ ____ _ ____ _ ____ _ ____ _ ____
 70
    64
 72
    65
 73
     4
 40
2.0
 49
1.25
 49
-0.25
 49
0.25
 49
-0.25
  0
LTYPE
  2
PHANTOM
  3
_____ _ _ _____ _ _ _____ _ _ _____ _ _ ____
 70
    64
 72
    65
 73
     6
 40
2.5
 49
1.25
 49
-0.25
 49
0.25
 49
-0.25
 49
0.25
 49
-0.25
  0
ENDTAB
  0
TABLE
  2
LAYER
 70
     1
  0
LAYER
  2
0
 70
    64
 62
     7
  6
CONTINUOUS
  0
ENDTAB
  0
TABLE
  2
STYLE
 70
     1
  0
STYLE
  2
STANDARD
 70
     0
 40
0.000000
 41
1.000000
 50
0.000000
 71
     0
 42
3.000000
  3
txt
  4
BIGFONT
  0
ENDTAB
  0
ENDSEC
  0
SECTION
  2
BLOCKS
  0
ENDSEC
  0
SECTION
  2
ENTITIES
  0
LINE
  8
0
  6
CENTER
 10
-10.250625
 20
59.029999
 11
152.970749
 21
59.029999
  0
LINE
  8
0
  6
CONTINUOUS
 10
230.681244
 20
16.730000
 11
230.681244
 21
9.730000
  0
LINE
  8
0
  6
CONTINUOUS
 10
57.181240
 20
14.030000
 11
129.681244
 21
14.030000
  0
LINE
  8
0
  6
CONTINUOUS
 10
57.181240
 20
104.029999
 11
136.523743
 21
104.029999
  0
LINE
  8
0
  6
CENTER
 10
180.181244
 20
132.717499
 11
180.181244
 21
2.510900
  0
LINE
  8
0
  6
CENTER
 10
144.668549
 20
84.730003
 11
208.757248
 21
84.730003
  0
LINE
  8
0
  6
CONTINUOUS
 10
129.681244
 20
9.730000
 11
230.681244
 21
9.730000
  0
LINE
  8
0
  6
CONTINUOUS
 10
164.760147
 20
122.730003
 11
195.602356
 21
122.730003
  0
LINE
  8
0
  6
CONTINUOUS
 10
131.681244
 20
18.730000
 11
228.681244
 21
18.730000
  0
LINE
  8
0
  6
CENTER
 10
218.181244
 20
24.217501
 11
218.181244
 21
2.967500
  0
LINE
  8
0
  6
CENTER
 10
142.181244
 20
24.467501
 11
142.181244
 21
2.467500
  0
LINE
  8
0
  6
CONTINUOUS
 10
228.552643
 20
100.723183
 11
198.473755
 21
121.823288
  0
LINE
  8
0
  6
CONTINUOUS
 10
131.809845
 20
100.723183
 11
161.888748
 21
121.823280
  0
ARC
  8
0
  6
CONTINUOUS
 10
195.602448
 20
117.729988
 40
5.000000
 50
54.950878
 51
90.000000
  0
ARC
  8
0
  6
CONTINUOUS
 10
164.760147
 20
117.730003
 40
5.000000
 50
90.000000
 51
125.049698
  0
ARC
  8
0
  6
CONTINUOUS
 10
134.681244
 20
96.629929
 40
5.000000
 50
125.049797
 51
180.000000
  0
ARC
  8
0
  6
CONTINUOUS
 10
225.681244
 20
96.629883
 40
5.000000
 50
0.000000
 51
54.950901
  0
LINE
  8
0
  6
CONTINUOUS
 10
230.681244
 20
16.730000
 11
230.681244
 21
96.629898
  0
ARC
  8
0
  6
CONTINUOUS
 10
228.681244
 20
16.729990
 40
2.000000
 50
0.000000
 51
90.000000
  0
LINE
  8
0
  6
CONTINUOUS
 10
129.681244
 20
96.629929
 11
129.681244
 21
96.629898
  0
ARC
  8
0
  6
CONTINUOUS
 10
131.681244
 20
16.730000
 40
2.000000
 50
90.000000
 51
180.000000
  0
LINE
  8
0
  6
DASHED
 10
222.431244
 20
18.730000
 11
222.431244
 21
9.730000
  0
LINE
  8
0
  6
DASHED
 10
213.931244
 20
18.730000
 11
213.931244
 21
9.730000
  0
LINE
  8
0
  6
DASHED
 10
146.431244
 20
18.730000
 11
146.431244
 21
9.730000
  0
LINE
  8
0
  6
DASHED
 10
137.931244
 20
18.730000
 11
137.931244
 21
9.730000
  0
CIRCLE
  8
0
  6
CONTINUOUS
 10
180.181244
 20
84.730003
 40
23.500000
  0
LINE
  8
0
  6
CONTINUOUS
 10
132.181244
 20
85.422188
 11
132.181244
 21
54.037483
  0
LINE
  8
0
  6
CONTINUOUS
 10
228.181244
 20
85.422363
 11
228.181244
 21
54.037647
  0
ARC
  8
0
  6
CONTINUOUS
 10
180.181244
 20
69.730003
 40
50.500000
 50
198.103806
 51
341.896210
  0
LINE
  8
0
  6
CONTINUOUS
 10
129.681244
 20
96.629913
 11
129.681152
 21
9.730000
  0
ARC
  8
0
  6
CONTINUOUS
 10
180.181244
 20
69.730003
 40
50.500000
 50
18.103790
 51
161.896194
  0
LINE
  8
0
  6
CONTINUOUS
 10
57.181240
 20
93.439301
 11
128.064148
 21
93.439301
  0
LINE
  8
0
  6
CONTINUOUS
 10
57.181240
 20
24.620701
 11
128.064148
 21
24.620701
  0
LINE
  8
0
  6
CONTINUOUS
 10
173.806244
 20
47.283218
 11
173.806244
 21
41.730000
  0
LINE
  8
0
  6
CONTINUOUS
 10
176.993744
 20
49.300312
 11
176.993744
 21
51.292500
  0
LINE
  8
0
  6
CONTINUOUS
 10
183.368744
 20
49.300312
 11
183.368744
 21
51.292500
  0
LINE
  8
0
  6
CONTINUOUS
 10
179.558655
 20
50.122089
 11
179.558655
 21
42.775902
  0
LINE
  8
0
  6
CONTINUOUS
 10
180.754044
 20
50.122089
 11
180.754044
 21
42.775902
  0
LINE
  8
0
  6
CONTINUOUS
 10
187.029343
 20
50.122089
 11
187.029343
 21
42.726089
  0
LINE
  8
0
  6
CONTINUOUS
 10
188.125046
 20
46.199970
 11
188.125046
 21
42.726089
  0
LINE
  8
0
  6
CONTINUOUS
 10
172.293747
 20
50.022480
 11
169.221848
 21
50.022480
  0
LINE
  8
0
  6
CONTINUOUS
 10
169.221848
 20
50.022480
 11
168.502045
 21
49.129986
  0
LINE
  8
0
  6
CONTINUOUS
 10
168.588654
 20
51.292500
 11
167.431244
 21
49.810505
  0
LINE
  8
0
  6
CONTINUOUS
 10
168.502045
 20
43.620918
 11
169.233353
 21
42.850609
  0
LINE
  8
0
  6
CONTINUOUS
 10
167.431244
 20
42.970860
 11
168.661057
 21
41.730000
  0
LINE
  8
0
  6
CONTINUOUS
 10
167.431244
 20
49.810505
 11
167.431244
 21
42.970860
  0
LINE
  8
0
  6
CONTINUOUS
 10
168.502045
 20
49.129986
 11
168.502045
 21
43.620918
  0
LINE
  8
0
  6
CONTINUOUS
 10
172.884857
 20
49.451038
 11
172.281647
 21
50.022480
  0
LINE
  8
0
  6
CONTINUOUS
 10
172.875244
 20
51.292500
 11
173.806244
 21
50.259357
  0
LINE
  8
0
  6
CONTINUOUS
 10
172.884857
 20
49.300312
 11
173.806244
 21
49.300312
  0
LINE
  8
0
  6
CONTINUOUS
 10
168.588654
 20
51.292500
 11
172.875244
 21
51.292500
  0
LINE
  8
0
  6
CONTINUOUS
 10
172.884857
 20
46.237320
 11
171.216446
 21
46.237320
  0
LINE
  8
0
  6
CONTINUOUS
 10
172.884857
 20
45.241230
 11
172.884857
 21
46.038109
  0
LINE
  8
0
  6
CONTINUOUS
 10
170.892654
 20
42.850609
 11
169.233353
 21
42.850609
  0
ARC
  8
0
  6
CONTINUOUS
 10
170.892654
 20
44.842789
 40
1.992187
 50
-89.999786
 51
0.000109
  0
LINE
  8
0
  6
CONTINUOUS
 10
172.884857
 20
42.492271
 11
172.884857
 21
41.730000
  0
LINE
  8
0
  6
CONTINUOUS
 10
173.806244
 20
50.259357
 11
173.806244
 21
49.300312
  0
LINE
  8
0
  6
CONTINUOUS
 10
172.884857
 20
46.237320
 11
172.884857
 21
44.842789
  0
LINE
  8
0
  6
CONTINUOUS
 10
171.216446
 20
47.283218
 11
171.216446
 21
46.237320
  0
LINE
  8
0
  6
CONTINUOUS
 10
172.884857
 20
41.730000
 11
173.806244
 21
41.730000
  0
LINE
  8
0
  6
CONTINUOUS
 10
172.884857
 20
42.492271
 11
171.976349
 21
41.730000
  0
LINE
  8
0
  6
CONTINUOUS
 10
180.754044
 20
42.775902
 11
181.152451
 21
42.775902
  0
LINE
  8
0
  6
CONTINUOUS
 10
179.085556
 20
42.775902
 11
179.085556
 21
41.730000
  0
LINE
  8
0
  6
CONTINUOUS
 10
181.152451
 20
42.775902
 11
181.152451
 21
41.730000
  0
LINE
  8
0
  6
CONTINUOUS
 10
182.703751
 20
49.300312
 11
183.368744
 21
49.300312
  0
LINE
  8
0
  6
CONTINUOUS
 10
176.993744
 20
49.300312
 11
177.701355
 21
49.300312
  0
LINE
  8
0
  6
CONTINUOUS
 10
176.993744
 20
51.292500
 11
183.368744
 21
51.292500
  0
LINE
  8
0
  6
CONTINUOUS
 10
179.085556
 20
41.730000
 11
181.152451
 21
41.730000
  0
LINE
  8
0
  6
CONTINUOUS
 10
179.085556
 20
42.775902
 11
179.558655
 21
42.775902
  0
ARC
  8
0
  6
CONTINUOUS
 10
190.378754
 20
48.740009
 40
2.552490
 50
-73.981873
 51
90.003510
  0
ARC
  8
0
  6
CONTINUOUS
 10
190.378754
 20
48.740009
 40
1.557193
 50
-82.585274
 51
62.411850
  0
LINE
  8
0
  6
CONTINUOUS
 10
186.556244
 20
51.292500
 11
190.378754
 21
51.292500
  0
LINE
  8
0
  6
CONTINUOUS
 10
186.556244
 20
51.292500
 11
186.556244
 21
50.122089
  0
LINE
  8
0
  6
CONTINUOUS
 10
188.125046
 20
50.122089
 11
188.125046
 21
47.195839
  0
LINE
  8
0
  6
CONTINUOUS
 10
191.083054
 20
46.286621
 11
192.662949
 21
42.726089
  0
LINE
  8
0
  6
CONTINUOUS
 10
190.165543
 20
46.199970
 11
191.660645
 21
42.726089
  0
LINE
  8
0
  6
CONTINUOUS
 10
186.556244
 20
42.726089
 11
187.029343
 21
42.726089
  0
LINE
  8
0
  6
CONTINUOUS
 10
188.125046
 20
42.726089
 11
188.560852
 21
42.726089
  0
LINE
  8
0
  6
CONTINUOUS
 10
188.560852
 20
41.730000
 11
186.556244
 21
41.730000
  0
LINE
  8
0
  6
CONTINUOUS
 10
191.462051
 20
42.726089
 11
191.660645
 21
42.726089
  0
LINE
  8
0
  6
CONTINUOUS
 10
192.662949
 20
42.726089
 11
192.931244
 21
42.726089
  0
LINE
  8
0
  6
CONTINUOUS
 10
191.462051
 20
41.730000
 11
192.931244
 21
41.730000
  0
LINE
  8
0
  6
CONTINUOUS
 10
192.931244
 20
42.726089
 11
192.931244
 21
41.730000
  0
LINE
  8
0
  6
CONTINUOUS
 10
191.462051
 20
42.726089
 11
191.462051
 21
41.730000
  0
LINE
  8
0
  6
CONTINUOUS
 10
188.560852
 20
42.726089
 11
188.560852
 21
41.730000
  0
LINE
  8
0
  6
CONTINUOUS
 10
186.556244
 20
42.726089
 11
186.556244
 21
41.730000
  0
LINE
  8
0
  6
CONTINUOUS
 10
178.043747
 20
50.122089
 11
177.701355
 21
49.300312
  0
LINE
  8
0
  6
CONTINUOUS
 10
182.415054
 20
50.122089
 11
182.703751
 21
49.300312
  0
LINE
  8
0
  6
CONTINUOUS
 10
180.754044
 20
50.122089
 11
182.415054
 21
50.122089
  0
LINE
  8
0
  6
CONTINUOUS
 10
179.558655
 20
50.122089
 11
178.043747
 21
50.122089
  0
LINE
  8
0
  6
CONTINUOUS
 10
186.556244
 20
50.122089
 11
187.029343
 21
50.122089
  0
LINE
  8
0
  6
CONTINUOUS
 10
188.125046
 20
50.122089
 11
191.099945
 21
50.120152
  0
LINE
  8
0
  6
CONTINUOUS
 10
172.884857
 20
49.451038
 11
172.884857
 21
49.300312
  0
LINE
  8
0
  6
CONTINUOUS
 10
168.661057
 20
41.730000
 11
171.976349
 21
41.730000
  0
LINE
  8
0
  6
CONTINUOUS
 10
188.125046
 20
47.195839
 11
190.579742
 21
47.195839
  0
LINE
  8
0
  6
CONTINUOUS
 10
188.125046
 20
46.199970
 11
190.165543
 21
46.199970
  0
LINE
  8
0
  6
CONTINUOUS
 10
171.216446
 20
47.283218
 11
173.806244
 21
47.283218
  0
LINE
  8
0
  6
CONTINUOUS
 10
185.681244
 20
81.730019
 11
185.681244
 21
87.730019
  0
LINE
  8
0
  6
CONTINUOUS
 10
191.681244
 20
81.730042
 11
191.681244
 21
87.730042
  0
LINE
  8
0
  6
CONTINUOUS
 10
191.681244
 20
81.730042
 11
185.681244
 21
81.730019
  0
LINE
  8
0
  6
CONTINUOUS
 10
191.681244
 20
87.730042
 11
185.681244
 21
87.730019
  0
ARC
  8
0
  6
CONTINUOUS
 10
180.181244
 20
84.730003
 40
9.000000
 50
19.471210
 51
340.528809
  0
LINE
  8
0
  6
CENTER
 10
180.181244
 20
325.708740
 11
180.181244
 21
178.241257
  0
LINE
  8
0
  6
CENTER
 10
218.181244
 20
315.043762
 11
218.181244
 21
296.281250
  0
LINE
  8
0
  6
CENTER
 10
-10.250625
 20
258.534363
 11
244.322495
 21
258.534363
  0
LINE
  8
0
  6
CONTINUOUS
 10
229.840363
 20
306.708893
 11
230.681244
 21
258.534363
  0
LINE
  8
0
  6
CONTINUOUS
 10
219.841888
 20
316.534363
 11
180.181244
 21
316.534363
  0
LINE
  8
0
  6
CONTINUOUS
 10
131.681244
 20
295.534363
 11
228.070023
 21
295.534363
  0
ARC
  8
0
  6
CONTINUOUS
 10
219.841888
 20
306.534363
 40
10.000000
 50
1.000000
 51
90.000000
  0
ARC
  8
0
  6
CONTINUOUS
 10
228.070023
 20
293.534363
 40
2.000000
 50
1.000000
 51
90.000000
  0
LINE
  8
0
  6
CENTER
 10
208.585938
 20
306.534363
 11
228.928436
 21
306.534363
  0
CIRCLE
  8
0
  6
CONTINUOUS
 10
218.181244
 20
306.534363
 40
4.250000
  0
LINE
  8
0
  6
CENTER
 10
142.181244
 20
315.241241
 11
142.181244
 21
296.281250
  0
LINE
  8
0
  6
CONTINUOUS
 10
130.522141
 20
306.708893
 11
130.336166
 21
296.054260
  0
ARC
  8
0
  6
CONTINUOUS
 10
140.520615
 20
306.534363
 40
10.000000
 50
90.000000
 51
179.000000
  0
ARC
  8
0
  6
CONTINUOUS
 10
132.292480
 20
293.534363
 40
2.000000
 50
90.000000
 51
179.000000
  0
LINE
  8
0
  6
CENTER
 10
151.508438
 20
306.534363
 11
131.955933
 21
306.534363
  0
CIRCLE
  8
0
  6
CONTINUOUS
 10
142.181244
 20
306.534363
 40
4.250000
  0
LINE
  8
0
  6
CONTINUOUS
 10
129.681244
 20
297.534363
 11
129.681244
 21
301.534363
  0
LINE
  8
0
  6
CONTINUOUS
 10
127.681252
 20
303.534363
 11
57.181252
 21
303.534363
  0
ARC
  8
0
  6
CONTINUOUS
 10
127.681252
 20
301.534363
 40
2.000000
 50
0.000000
 51
90.000000
  0
ARC
  8
0
  6
CONTINUOUS
 10
131.681244
 20
297.534363
 40
2.000000
 50
180.000000
 51
270.000000
  0
LINE
  8
0
  6
CONTINUOUS
 10
130.292786
 20
293.569275
 11
130.187454
 21
287.534363
  0
LINE
  8
0
  6
CONTINUOUS
 10
57.181252
 20
287.534363
 11
136.523804
 21
287.534363
  0
LINE
  8
0
  6
CONTINUOUS
 10
57.181252
 20
229.534378
 11
136.523804
 21
229.534378
  0
LINE
  8
0
  6
CONTINUOUS
 10
127.681252
 20
213.534378
 11
57.181252
 21
213.534378
  0
ARC
  8
0
  6
CONTINUOUS
 10
127.681252
 20
215.534378
 40
2.000000
 50
-90.000000
 51
0.000000
  0
LINE
  8
0
  6
CENTER
 10
218.181244
 20
201.678757
 11
218.181244
 21
220.737503
  0
LINE
  8
0
  6
CONTINUOUS
 10
229.840363
 20
210.359848
 11
230.681244
 21
258.534363
  0
LINE
  8
0
  6
CONTINUOUS
 10
219.841888
 20
200.534378
 11
191.681244
 21
200.534378
  0
LINE
  8
0
  6
CONTINUOUS
 10
131.681244
 20
221.534378
 11
228.070023
 21
221.534378
  0
ARC
  8
0
  6
CONTINUOUS
 10
219.841888
 20
210.534378
 40
10.000000
 50
-90.000000
 51
-1.000000
  0
ARC
  8
0
  6
CONTINUOUS
 10
228.070023
 20
223.534378
 40
2.000000
 50
-90.000000
 51
-1.000000
  0
LINE
  8
0
  6
CENTER
 10
209.079681
 20
210.534378
 11
229.125931
 21
210.534378
  0
CIRCLE
  8
0
  6
CONTINUOUS
 10
218.181244
 20
210.534378
 40
4.250000
  0
LINE
  8
0
  6
CENTER
 10
142.181244
 20
201.184998
 11
142.181244
 21
220.539993
  0
LINE
  8
0
  6
CONTINUOUS
 10
130.522141
 20
210.359848
 11
130.336166
 21
221.014496
  0
ARC
  8
0
  6
CONTINUOUS
 10
140.520615
 20
210.534378
 40
10.000000
 50
-179.000000
 51
-90.000000
  0
ARC
  8
0
  6
CONTINUOUS
 10
132.292480
 20
223.534378
 40
2.000000
 50
-179.000000
 51
-90.000000
  0
LINE
  8
0
  6
CENTER
 10
152.002182
 20
210.534378
 11
131.758438
 21
210.534378
  0
CIRCLE
  8
0
  6
CONTINUOUS
 10
142.181244
 20
210.534378
 40
4.250000
  0
LINE
  8
0
  6
CONTINUOUS
 10
129.681244
 20
219.534378
 11
129.681244
 21
215.534378
  0
ARC
  8
0
  6
CONTINUOUS
 10
131.681244
 20
219.534378
 40
2.000000
 50
-270.000000
 51
-180.000000
  0
LINE
  8
0
  6
CONTINUOUS
 10
130.292786
 20
223.499466
 11
130.187454
 21
229.534378
  0
LINE
  8
0
  6
CONTINUOUS
 10
163.181244
 20
290.534363
 11
163.181244
 21
226.534378
  0
LINE
  8
0
  6
CONTINUOUS
 10
197.181244
 20
290.534363
 11
197.181244
 21
226.534378
  0
LINE
  8
0
  6
CONTINUOUS
 10
136.523804
 20
285.534363
 11
136.523804
 21
231.534378
  0
LINE
  8
0
  6
CONTINUOUS
 10
202.681259
 20
300.534363
 11
157.681244
 21
300.534363
  0
LINE
  8
0
  6
CONTINUOUS
 10
156.681244
 20
299.534363
 11
156.681244
 21
297.534363
  0
LINE
  8
0
  6
CONTINUOUS
 10
203.681259
 20
299.534363
 11
203.681259
 21
297.534363
  0
ARC
  8
0
  6
CONTINUOUS
 10
154.681244
 20
297.534363
 40
2.000000
 50
-90.000000
 51
0.000000
  0
ARC
  8
0
  6
CONTINUOUS
 10
205.681244
 20
297.534363
 40
2.000000
 50
180.000000
 51
270.000000
  0
ARC
  8
0
  6
CONTINUOUS
 10
157.681259
 20
299.534363
 40
1.000000
 50
90.000000
 51
180.000000
  0
ARC
  8
0
  6
CONTINUOUS
 10
202.681259
 20
299.534363
 40
1.000000
 50
0.000000
 51
90.000000
  0
LINE
  8
0
  6
CONTINUOUS
 10
180.181244
 20
316.534363
 11
140.520615
 21
316.534363
  0
LINE
  8
0
  6
CONTINUOUS
 10
202.681259
 20
216.534378
 11
157.681244
 21
216.534378
  0
LINE
  8
0
  6
CONTINUOUS
 10
156.681244
 20
217.534378
 11
156.681244
 21
219.534378
  0
LINE
  8
0
  6
CONTINUOUS
 10
203.681259
 20
217.534378
 11
203.681259
 21
219.534378
  0
ARC
  8
0
  6
CONTINUOUS
 10
154.681244
 20
219.534378
 40
2.000000
 50
0.000000
 51
90.000000
  0
ARC
  8
0
  6
CONTINUOUS
 10
205.681244
 20
219.534378
 40
2.000000
 50
-270.000000
 51
-180.000000
  0
ARC
  8
0
  6
CONTINUOUS
 10
157.681259
 20
217.534378
 40
1.000000
 50
-180.000000
 51
-90.000000
  0
ARC
  8
0
  6
CONTINUOUS
 10
202.681259
 20
217.534378
 40
1.000000
 50
-90.000000
 51
0.000000
  0
LINE
  8
0
  6
CONTINUOUS
 10
191.681244
 20
184.534378
 11
171.181244
 21
184.534378
  0
LINE
  8
0
  6
CONTINUOUS
 10
171.181244
 20
214.534378
 11
171.181244
 21
184.534378
  0
LINE
  8
0
  6
CONTINUOUS
 10
189.181244
 20
214.534378
 11
189.181244
 21
208.534378
  0
LINE
  8
0
  6
CONTINUOUS
 10
170.181244
 20
214.534378
 11
190.181244
 21
214.534378
  0
LINE
  8
0
  6
CONTINUOUS
 10
170.181244
 20
216.534378
 11
170.181244
 21
214.534378
  0
LINE
  8
0
  6
CONTINUOUS
 10
190.181244
 20
216.534378
 11
190.181244
 21
214.534378
  0
LINE
  8
0
  6
CONTINUOUS
 10
191.681244
 20
184.534378
 11
191.681244
 21
208.534378
  0
LINE
  8
0
  6
CONTINUOUS
 10
191.681244
 20
208.534378
 11
188.666245
 21
208.534378
  0
LINE
  8
0
  6
CONTINUOUS
 10
188.666245
 20
184.534378
 11
188.666245
 21
208.534378
  0
LINE
  8
0
  6
CONTINUOUS
 10
171.181244
 20
200.534378
 11
140.520615
 21
200.534378
  0
LINE
  8
0
  6
CENTER
 10
380.181244
 20
2.943310
 11
380.181244
 21
131.686249
  0
LINE
  8
0
  6
CENTER
 10
325.907501
 20
59.029999
 11
433.890015
 21
59.029999
  0
LINE
  8
0
  6
CONTINUOUS
 10
438.181244
 20
16.730000
 11
438.181244
 21
9.730000
  0
LINE
  8
0
  6
CONTINUOUS
 10
322.181244
 20
16.730000
 11
322.181244
 21
9.730000
  0
LINE
  8
0
  6
CENTER
 10
296.931244
 20
84.730003
 11
433.890015
 21
84.730003
  0
LINE
  8
0
  6
CONTINUOUS
 10
322.181244
 20
9.730000
 11
438.181244
 21
9.730000
  0
LINE
  8
0
  6
CONTINUOUS
 10
420.181244
 20
18.730000
 11
436.181244
 21
18.730000
  0
LINE
  8
0
  6
CONTINUOUS
 10
343.181244
 20
21.730000
 11
343.181244
 21
120.118629
  0
LINE
  8
0
  6
CONTINUOUS
 10
417.181244
 20
21.730000
 11
417.181244
 21
120.118759
  0
LINE
  8
0
  6
CONTINUOUS
 10
422.181244
 20
62.229996
 11
422.181244
 21
107.230003
  0
LINE
  8
0
  6
CONTINUOUS
 10
421.181244
 20
108.230003
 11
419.181244
 21
108.230003
  0
LINE
  8
0
  6
CONTINUOUS
 10
421.181244
 20
61.229996
 11
419.181244
 21
61.229996
  0
LINE
  8
0
  6
CONTINUOUS
 10
380.181244
 20
122.730003
 11
415.216156
 21
122.118469
  0
LINE
  8
0
  6
CONTINUOUS
 10
345.146362
 20
122.118332
 11
380.181244
 21
122.730003
  0
ARC
  8
0
  6
CONTINUOUS
 10
419.181244
 20
110.230003
 40
2.000000
 50
180.000000
 51
270.000000
  0
ARC
  8
0
  6
CONTINUOUS
 10
415.181244
 20
120.118759
 40
2.000000
 50
0.000000
 51
89.000137
  0
ARC
  8
0
  6
CONTINUOUS
 10
345.181244
 20
120.118637
 40
2.000000
 50
91.000641
 51
180.000000
  0
ARC
  8
0
  6
CONTINUOUS
 10
419.181244
 20
59.230007
 40
2.000000
 50
90.000000
 51
180.000000
  0
ARC
  8
0
  6
CONTINUOUS
 10
421.181244
 20
107.229988
 40
1.000000
 50
0.000000
 51
90.000000
  0
ARC
  8
0
  6
CONTINUOUS
 10
421.181244
 20
62.229996
 40
1.000000
 50
-90.000000
 51
0.000000
  0
LINE
  8
0
  6
CONTINUOUS
 10
344.431244
 20
99.230003
 11
416.181244
 21
99.230003
  0
ARC
  8
0
  6
CONTINUOUS
 10
436.181244
 20
16.729990
 40
2.000000
 50
0.000000
 51
90.000000
  0
ARC
  8
0
  6
CONTINUOUS
 10
324.181244
 20
16.730009
 40
2.000000
 50
90.000000
 51
180.000000
  0
LINE
  8
0
  6
CENTER
 10
428.181244
 20
22.686251
 11
428.181244
 21
5.436250
  0
LINE
  8
0
  6
CENTER
 10
332.181244
 20
22.686251
 11
332.181244
 21
4.686250
  0
LINE
  8
0
  6
DASHED
 10
336.431244
 20
18.730000
 11
336.431244
 21
9.730000
  0
LINE
  8
0
  6
DASHED
 10
327.931244
 20
18.730000
 11
327.931244
 21
9.730000
  0
LINE
  8
0
  6
DASHED
 10
432.431244
 20
18.730000
 11
432.431244
 21
9.730000
  0
LINE
  8
0
  6
DASHED
 10
423.931244
 20
18.730000
 11
423.931244
 21
9.730000
  0
ARC
  8
0
  6
CONTINUOUS
 10
380.181244
 20
59.029999
 40
45.000000
 50
159.580627
 51
214.692123
  0
ARC
  8
0
  6
CONTINUOUS
 10
380.181244
 20
59.029999
 40
45.000000
 50
-34.692108
 51
20.437799
  0
LINE
  8
0
  6
CONTINUOUS
 10
338.181244
 20
62.229996
 11
338.181244
 21
107.230003
  0
LINE
  8
0
  6
CONTINUOUS
 10
339.181244
 20
108.230003
 11
341.181244
 21
108.230003
  0
LINE
  8
0
  6
CONTINUOUS
 10
339.181244
 20
61.229996
 11
341.181244
 21
61.229996
  0
ARC
  8
0
  6
CONTINUOUS
 10
341.181244
 20
110.230003
 40
2.000000
 50
-90.000000
 51
0.000000
  0
ARC
  8
0
  6
CONTINUOUS
 10
341.181244
 20
59.230007
 40
2.000000
 50
0.000000
 51
90.000000
  0
ARC
  8
0
  6
CONTINUOUS
 10
339.181244
 20
107.229988
 40
1.000000
 50
90.000000
 51
180.000000
  0
ARC
  8
0
  6
CONTINUOUS
 10
339.181244
 20
62.229996
 40
1.000000
 50
180.000000
 51
270.000000
  0
LINE
  8
0
  6
CONTINUOUS
 10
340.181244
 20
18.730000
 11
324.181244
 21
18.730000
  0
ARC
  8
0
  6
CONTINUOUS
 10
340.181244
 20
21.730000
 40
3.000000
 50
-90.000000
 51
0.000000
  0
ARC
  8
0
  6
CONTINUOUS
 10
420.181244
 20
21.730000
 40
3.000000
 50
180.000000
 51
270.000000
  0
LINE
  8
0
  6
CONTINUOUS
 10
306.181244
 20
75.730003
 11
306.181244
 21
93.730003
  0
LINE
  8
0
  6
CONTINUOUS
 10
336.181244
 20
93.730003
 11
306.181244
 21
93.730003
  0
LINE
  8
0
  6
CONTINUOUS
 10
336.181244
 20
75.730003
 11
306.181244
 21
75.730003
  0
LINE
  8
0
  6
CONTINUOUS
 10
336.181244
 20
94.730003
 11
336.181244
 21
74.730003
  0
LINE
  8
0
  6
CONTINUOUS
 10
338.181244
 20
94.730003
 11
336.181244
 21
94.730003
  0
LINE
  8
0
  6
CONTINUOUS
 10
338.181244
 20
74.730003
 11
336.181244
 21
74.730003
  0
ARC
  8
0
  6
CONTINUOUS
 10
330.181244
 20
84.730003
 40
3.000000
 50
-90.000000
 51
90.000000
  0
LINE
  8
0
  6
CONTINUOUS
 10
330.181244
 20
87.730003
 11
306.181244
 21
87.730003
  0
LINE
  8
0
  6
CONTINUOUS
 10
330.181152
 20
81.730003
 11
306.181244
 21
81.730003
  0
LINE
  8
0
  6
DASHED
 10
354.181244
 20
14.030000
 11
406.181244
 21
14.030000
  0
ARC
  8
0
  6
DASHED
 10
406.181244
 20
17.030001
 40
3.000000
 50
-90.000000
 51
0.000000
  0
ARC
  8
0
  6
DASHED
 10
354.181244
 20
17.030001
 40
3.000000
 50
208.811234
 51
270.000000
  0
LINE
  8
0
  6
DASHED
 10
407.216156
 20
103.559799
 11
380.181244
 21
104.031693
  0
ARC
  8
0
  6
DASHED
 10
407.181244
 20
101.560097
 40
2.000000
 50
0.000000
 51
89.000191
  0
LINE
  8
0
  6
DASHED
 10
409.181244
 20
101.560112
 11
409.181244
 21
94.807091
  0
LINE
  8
0
  6
DASHED
 10
353.146362
 20
103.559799
 11
380.181244
 21
104.031693
  0
ARC
  8
0
  6
DASHED
 10
353.181244
 20
101.560097
 40
2.000000
 50
90.999809
 51
180.000000
  0
LINE
  8
0
  6
DASHED
 10
351.181244
 20
101.560112
 11
351.181244
 21
94.807091
  0
LINE
  8
0
  6
DASHED
 10
351.181244
 20
17.030001
 11
351.181244
 21
23.252913
  0
ARC
  8
0
  6
DASHED
 10
354.181244
 20
17.030001
 40
3.000000
 50
180.000000
 51
208.811234
  0
LINE
  8
0
  6
DASHED
 10
409.181244
 20
17.030001
 11
409.181244
 21
23.252913
  0
ARC
  8
0
  6
DASHED
 10
380.181244
 20
59.029999
 40
45.000000
 50
-48.189686
 51
-34.692131
  0
ARC
  8
0
  6
DASHED
 10
412.181244
 20
94.807091
 40
3.000000
 50
180.000000
 51
228.189682
  0
ARC
  8
0
  6
DASHED
 10
348.181244
 20
94.807091
 40
3.000000
 50
-48.189686
 51
0.000000
  0
ARC
  8
0
  6
DASHED
 10
348.181244
 20
23.252913
 40
3.000000
 50
0.000000
 51
48.189686
  0
ARC
  8
0
  6
DASHED
 10
412.181244
 20
23.252913
 40
3.000000
 50
131.810318
 51
180.000000
  0
ARC
  8
0
  6
DASHED
 10
380.181244
 20
59.029999
 40
45.000000
 50
20.419371
 51
48.189686
  0
ARC
  8
0
  6
DASHED
 10
380.181244
 20
59.029999
 40
45.000000
 50
214.692123
 51
228.189682
  0
ARC
  8
0
  6
DASHED
 10
380.181244
 20
59.029999
 40
45.000000
 50
131.810318
 51
159.580627
  0
LINE
  8
0
  6
DASHED
 10
403.181244
 20
116.030296
 11
403.181244
 21
103.628532
  0
LINE
  8
0
  6
DASHED
 10
357.181244
 20
116.030296
 11
357.181244
 21
103.628532
  0
LINE
  8
0
  6
DASHED
 10
402.681244
 20
116.030296
 11
402.681244
 21
117.030296
  0
LINE
  8
0
  6
DASHED
 10
357.681244
 20
116.030296
 11
357.681244
 21
117.030296
  0
LINE
  8
0
  6
CONTINUOUS
 10
357.181244
 20
123.013702
 11
357.181244
 21
122.328445
  0
LINE
  8
0
  6
CONTINUOUS
 10
403.181244
 20
123.013702
 11
403.181244
 21
122.328537
  0
ARC
  8
0
  6
CONTINUOUS
 10
400.181244
 20
116.730202
 40
7.000000
 50
73.041977
 51
106.956497
  0
ARC
  8
0
  6
CONTINUOUS
 10
398.431244
 20
122.469498
 40
1.000000
 50
106.956902
 51
180.000000
  0
ARC
  8
0
  6
CONTINUOUS
 10
401.931244
 20
122.469498
 40
1.000000
 50
0.000000
 51
73.041847
  0
LINE
  8
0
  6
CONTINUOUS
 10
396.681244
 20
123.516747
 11
396.681244
 21
122.441994
  0
ARC
  8
0
  6
CONTINUOUS
 10
380.181244
 20
-125.469704
 40
250.000000
 50
84.826019
 51
95.173981
  0
ARC
  8
0
  6
CONTINUOUS
 10
402.681244
 20
123.013702
 40
0.500000
 50
0.000000
 51
84.826019
  0
ARC
  8
0
  6
CONTINUOUS
 10
396.181244
 20
123.516747
 40
0.500000
 50
0.000000
 51
86.323196
  0
ARC
  8
0
  6
CONTINUOUS
 10
360.181244
 20
116.730202
 40
7.000000
 50
73.043503
 51
106.958023
  0
ARC
  8
0
  6
CONTINUOUS
 10
361.931244
 20
122.469498
 40
1.000000
 50
0.000000
 51
73.043098
  0
ARC
  8
0
  6
CONTINUOUS
 10
358.431244
 20
122.469498
 40
1.000000
 50
106.958153
 51
180.000000
  0
LINE
  8
0
  6
CONTINUOUS
 10
363.681244
 20
123.516747
 11
363.681244
 21
122.441933
  0
ARC
  8
0
  6
CONTINUOUS
 10
357.681244
 20
123.013702
 40
0.500000
 50
95.173981
 51
180.000000
  0
ARC
  8
0
  6
CONTINUOUS
 10
364.181244
 20
123.516747
 40
0.500000
 50
93.676804
 51
180.000000
  0
LINE
  8
0
  6
DASHED
 10
402.681244
 20
117.030296
 11
403.181244
 21
117.030296
  0
LINE
  8
0
  6
DASHED
 10
402.681244
 20
116.030296
 11
403.181244
 21
116.030296
  0
LINE
  8
0
  6
DASHED
 10
357.681244
 20
117.030296
 11
357.181244
 21
117.030296
  0
LINE
  8
0
  6
DASHED
 10
357.681244
 20
116.030296
 11
357.181244
 21
116.030296
  0
LINE
  8
0
  6
DASHED
 10
403.181244
 20
122.328537
 11
403.181244
 21
117.030296
  0
LINE
  8
0
  6
CONTINUOUS
 10
402.931244
 20
122.332901
 11
402.931244
 21
122.469498
  0
LINE
  8
0
  6
CONTINUOUS
 10
397.431244
 20
122.428902
 11
397.431244
 21
122.469498
  0
LINE
  8
0
  6
CONTINUOUS
 10
362.931244
 20
122.428833
 11
362.931244
 21
122.469498
  0
LINE
  8
0
  6
CONTINUOUS
 10
357.431244
 20
122.332809
 11
357.431244
 21
122.469498
  0
LINE
  8
0
  6
DASHED
 10
357.181244
 20
122.328445
 11
357.181244
 21
117.030296
  0
LINE
  8
0
  6
CONTINUOUS
 10
330.181244
 20
87.730003
 11
330.181244
 21
81.730003
  0
LINE
  8
0
  6
CONTINUOUS
 10
26.181250
 20
15.371823
 11
26.181250
 21
20.149557
  0
LINE
  8
0
  6
CONTINUOUS
 10
26.181250
 20
15.530020
 11
24.742041
 21
15.530020
  0
LINE
  8
0
  6
CONTINUOUS
 10
25.481298
 20
15.530020
 11
25.481298
 21
20.167887
  0
ARC
  8
0
  6
CONTINUOUS
 10
30.481298
 20
18.280020
 40
7.000000
 50
163.968933
 51
196.957993
  0
ARC
  8
0
  6
CONTINUOUS
 10
24.742041
 20
16.530020
 40
1.000000
 50
196.958099
 51
270.000000
  0
LINE
  8
0
  6
CONTINUOUS
 10
-0.818729
 20
95.062103
 11
-0.818750
 21
59.029999
  0
LINE
  8
0
  6
CONTINUOUS
 10
-0.818730
 20
23.288900
 11
-0.818750
 21
59.029999
  0
LINE
  8
0
  6
CONTINUOUS
 10
26.181250
 20
71.293556
 11
26.181250
 21
83.404999
  0
LINE
  8
0
  6
CONTINUOUS
 10
26.181250
 20
76.654999
 11
24.742041
 21
76.654999
  0
LINE
  8
0
  6
CONTINUOUS
 10
26.181250
 20
82.154999
 11
24.742041
 21
82.154999
  0
LINE
  8
0
  6
CONTINUOUS
 10
25.481298
 20
76.654999
 11
25.481298
 21
82.154999
  0
ARC
  8
0
  6
CONTINUOUS
 10
30.481298
 20
79.404999
 40
7.000000
 50
163.043503
 51
196.957993
  0
ARC
  8
0
  6
CONTINUOUS
 10
24.742041
 20
81.154999
 40
1.000000
 50
90.000000
 51
163.043106
  0
ARC
  8
0
  6
CONTINUOUS
 10
24.742041
 20
77.654999
 40
1.000000
 50
196.958099
 51
270.000000
  0
LINE
  8
0
  6
CONTINUOUS
 10
26.181250
 20
71.293556
 11
30.181250
 21
71.293556
  0
LINE
  8
0
  6
CONTINUOUS
 10
26.181250
 20
83.404999
 11
30.181250
 21
83.404999
  0
LINE
  8
0
  6
CONTINUOUS
 10
57.181252
 20
14.030000
 11
57.181252
 21
104.029999
  0
LINE
  8
0
  6
CONTINUOUS
 10
43.181252
 20
14.765720
 11
43.181252
 21
24.620710
  0
LINE
  8
0
  6
CONTINUOUS
 10
30.181250
 20
97.056145
 11
30.181250
 21
14.780000
  0
LINE
  8
0
  6
CENTER
 10
39.681252
 20
105.968285
 11
39.681252
 21
127.230782
  0
ARC
  8
0
  6
CONTINUOUS
 10
55.681252
 20
105.029999
 40
1.000000
 50
180.000000
 51
270.000000
  0
LINE
  8
0
  6
CONTINUOUS
 10
57.181252
 20
24.620710
 11
43.181252
 21
24.620710
  0
LINE
  8
0
  6
CONTINUOUS
 10
43.181252
 20
103.529999
 11
43.181252
 21
93.529999
  0
LINE
  8
0
  6
CONTINUOUS
 10
57.181252
 20
93.439301
 11
43.181252
 21
93.439301
  0
LINE
  8
0
  6
CONTINUOUS
 10
57.181252
 20
104.029999
 11
24.681320
 21
104.029999
  0
ARC
  8
0
  6
CONTINUOUS
 10
43.681252
 20
103.529999
 40
0.500000
 50
90.000000
 51
180.000000
  0
LINE
  8
0
  6
CONTINUOUS
 10
24.681597
 20
116.030235
 11
24.681299
 21
104.032745
  0
LINE
  8
0
  6
CONTINUOUS
 10
54.681252
 20
116.030296
 11
54.681252
 21
105.029999
  0
LINE
  8
0
  6
CONTINUOUS
 10
54.681252
 20
117.030296
 11
54.681252
 21
123.608604
  0
LINE
  8
0
  6
CONTINUOUS
 10
10.793680
 20
112.980301
 11
22.681250
 21
112.980301
  0
LINE
  8
0
  6
CONTINUOUS
 10
24.681049
 20
117.030296
 11
24.681049
 21
123.608604
  0
LINE
  8
0
  6
CONTINUOUS
 10
56.681252
 20
121.530296
 11
56.681252
 21
117.030296
  0
LINE
  8
0
  6
CONTINUOUS
 10
22.681250
 20
117.030296
 11
56.681252
 21
117.030296
  0
LINE
  8
0
  6
CONTINUOUS
 10
22.681250
 20
116.030296
 11
56.681252
 21
116.030296
  0
LINE
  8
0
  6
CONTINUOUS
 10
22.681250
 20
121.530296
 11
22.681250
 21
120.780296
  0
LINE
  8
0
  6
CONTINUOUS
 10
22.681250
 20
120.780296
 11
22.681250
 21
117.030296
  0
LINE
  8
0
  6
CONTINUOUS
 10
11.645480
 20
120.680298
 11
22.681250
 21
120.680298
  0
ARC
  8
0
  6
CONTINUOUS
 10
39.681252
 20
-125.469704
 40
250.000000
 50
86.668304
 51
93.331696
  0
LINE
  8
0
  6
CONTINUOUS
 10
55.181252
 20
122.530296
 11
55.681252
 21
122.530296
  0
ARC
  8
0
  6
CONTINUOUS
 10
55.681252
 20
121.530296
 40
1.000000
 50
0.000000
 51
90.000000
  0
ARC
  8
0
  6
CONTINUOUS
 10
55.181252
 20
123.030296
 40
0.500000
 50
180.000000
 51
270.000000
  0
LINE
  8
0
  6
CONTINUOUS
 10
55.181252
 20
110.530296
 11
55.681252
 21
110.530296
  0
ARC
  8
0
  6
CONTINUOUS
 10
55.681252
 20
111.530296
 40
1.000000
 50
-90.000000
 51
0.000000
  0
ARC
  8
0
  6
CONTINUOUS
 10
55.181252
 20
110.030296
 40
0.500000
 50
90.000000
 51
180.000000
  0
LINE
  8
0
  6
CONTINUOUS
 10
24.181250
 20
122.530296
 11
23.681250
 21
122.530296
  0
ARC
  8
0
  6
CONTINUOUS
 10
23.681250
 20
121.530296
 40
1.000000
 50
90.000000
 51
180.000000
  0
ARC
  8
0
  6
CONTINUOUS
 10
24.181250
 20
123.030296
 40
0.500000
 50
-90.000000
 51
0.000000
  0
LINE
  8
0
  6
CONTINUOUS
 10
24.181250
 20
110.530296
 11
23.681250
 21
110.530296
  0
ARC
  8
0
  6
CONTINUOUS
 10
23.681250
 20
111.530296
 40
1.000000
 50
180.000000
 51
270.000000
  0
ARC
  8
0
  6
CONTINUOUS
 10
24.181250
 20
110.030296
 40
0.500000
 50
0.000000
 51
90.000000
  0
LINE
  8
0
  6
CONTINUOUS
 10
56.181252
 20
117.030296
 11
56.181252
 21
116.030296
  0
LINE
  8
0
  6
CONTINUOUS
 10
56.681252
 20
116.030296
 11
56.681252
 21
111.530296
  0
ARC
  8
0
  6
CONTINUOUS
 10
54.181252
 20
123.608604
 40
0.500000
 50
0.000000
 51
86.668304
  0
LINE
  8
0
  6
CONTINUOUS
 10
22.681250
 20
116.030296
 11
22.681250
 21
111.530296
  0
LINE
  8
0
  6
CONTINUOUS
 10
25.181597
 20
117.030296
 11
25.181597
 21
116.030235
  0
LINE
  8
0
  6
CONTINUOUS
 10
48.681252
 20
121.030296
 11
54.431252
 21
121.030296
  0
LINE
  8
0
  6
CONTINUOUS
 10
48.181252
 20
121.530296
 11
48.181252
 21
123.902008
  0
LINE
  8
0
  6
CONTINUOUS
 10
48.931252
 20
121.030296
 11
48.931252
 21
122.469498
  0
LINE
  8
0
  6
CONTINUOUS
 10
54.431252
 20
121.030098
 11
54.431252
 21
122.469498
  0
LINE
  8
0
  6
CONTINUOUS
 10
48.931252
 20
121.730202
 11
54.431252
 21
121.730202
  0
ARC
  8
0
  6
CONTINUOUS
 10
51.681252
 20
116.730202
 40
7.000000
 50
73.043503
 51
106.958000
  0
ARC
  8
0
  6
CONTINUOUS
 10
53.431252
 20
122.469498
 40
1.000000
 50
0.000000
 51
73.043098
  0
ARC
  8
0
  6
CONTINUOUS
 10
49.931252
 20
122.469498
 40
1.000000
 50
106.958199
 51
180.000000
  0
ARC
  8
0
  6
CONTINUOUS
 10
48.681252
 20
121.530296
 40
0.500000
 50
180.000000
 51
270.000000
  0
ARC
  8
0
  6
CONTINUOUS
 10
54.181252
 20
120.530296
 40
0.500000
 50
0.000000
 51
90.000000
  0
ARC
  8
0
  6
CONTINUOUS
 10
47.681252
 20
123.902008
 40
0.500000
 50
0.000000
 51
88.162544
  0
ARC
  8
0
  6
CONTINUOUS
 10
25.181250
 20
123.608604
 40
0.500000
 50
93.331696
 51
180.000000
  0
LINE
  8
0
  6
CONTINUOUS
 10
30.681250
 20
121.030296
 11
24.931250
 21
121.030296
  0
LINE
  8
0
  6
CONTINUOUS
 10
31.181250
 20
121.530296
 11
31.181250
 21
123.902008
  0
LINE
  8
0
  6
CONTINUOUS
 10
30.431250
 20
121.030296
 11
30.431250
 21
122.469498
  0
LINE
  8
0
  6
CONTINUOUS
 10
24.931250
 20
121.030098
 11
24.931250
 21
122.469498
  0
LINE
  8
0
  6
CONTINUOUS
 10
30.431250
 20
121.730202
 11
24.931250
 21
121.730202
  0
ARC
  8
0
  6
CONTINUOUS
 10
27.681250
 20
116.730202
 40
7.000000
 50
73.042000
 51
106.956497
  0
ARC
  8
0
  6
CONTINUOUS
 10
25.931250
 20
122.469498
 40
1.000000
 50
106.956902
 51
180.000000
  0
ARC
  8
0
  6
CONTINUOUS
 10
29.431250
 20
122.469498
 40
1.000000
 50
0.000000
 51
73.041801
  0
ARC
  8
0
  6
CONTINUOUS
 10
30.681250
 20
121.530296
 40
0.500000
 50
-90.000000
 51
0.000000
  0
ARC
  8
0
  6
CONTINUOUS
 10
25.181250
 20
120.530296
 40
0.500000
 50
90.000000
 51
180.000000
  0
ARC
  8
0
  6
CONTINUOUS
 10
31.681250
 20
123.902008
 40
0.500000
 50
91.837456
 51
180.000000
  0
LINE
  8
0
  6
CONTINUOUS
 10
24.681320
 20
100.122635
 11
24.681320
 21
104.029999
  0
LINE
  8
0
  6
CONTINUOUS
 10
32.149235
 20
14.427619
 11
57.181252
 21
14.030000
  0
ARC
  8
0
  6
CONTINUOUS
 10
43.681252
 20
14.765720
 40
0.500000
 50
180.000000
 51
269.000000
  0
LINE
  8
0
  6
CONTINUOUS
 10
30.924265
 20
14.753358
 11
32.181000
 21
14.419173
  0
ARC
  8
0
  6
CONTINUOUS
 10
31.181250
 20
15.719773
 40
1.000000
 50
180.000000
 51
255.108749
  0
LINE
  8
0
  6
CONTINUOUS
 10
32.181000
 20
23.529591
 11
43.181252
 21
23.529591
  0
LINE
  8
0
  6
CONTINUOUS
 10
30.924265
 20
23.863775
 11
32.181000
 21
23.529591
  0
ARC
  8
0
  6
CONTINUOUS
 10
31.181250
 20
24.830191
 40
1.000000
 50
180.000000
 51
255.108749
  0
LINE
  8
0
  6
CONTINUOUS
 10
32.181000
 20
94.530411
 11
43.181252
 21
94.530411
  0
LINE
  8
0
  6
CONTINUOUS
 10
30.924265
 20
94.196228
 11
32.181000
 21
94.530411
  0
ARC
  8
0
  6
CONTINUOUS
 10
31.181250
 20
93.229813
 40
1.000000
 50
104.891251
 51
180.000000
  0
LINE
  8
0
  6
CONTINUOUS
 10
29.207426
 20
98.055801
 11
26.628965
 21
98.123322
  0
ARC
  8
0
  6
CONTINUOUS
 10
26.681320
 20
100.122635
 40
2.000000
 50
180.000000
 51
268.500000
  0
LINE
  8
0
  6
CONTINUOUS
 10
2.984432
 20
97.567825
 11
26.221119
 21
98.176300
  0
ARC
  8
0
  6
CONTINUOUS
 10
29.181250
 20
97.056145
 40
1.000000
 50
0.000000
 51
88.499985
  0
LINE
  8
0
  6
CONTINUOUS
 10
1.423246
 20
97.274529
 11
0.504443
 21
96.944092
  0
ARC
  8
0
  6
CONTINUOUS
 10
1.181272
 20
95.062103
 40
2.000000
 50
109.780319
 51
180.000000
  0
LINE
  8
0
  6
CONTINUOUS
 10
26.668161
 20
14.871994
 11
30.181250
 21
14.780000
  0
LINE
  8
0
  6
CONTINUOUS
 10
2.984432
 20
20.783175
 11
30.181250
 21
20.070999
  0
LINE
  8
0
  6
CONTINUOUS
 10
1.423246
 20
21.076473
 11
0.504443
 21
21.406906
  0
ARC
  8
0
  6
CONTINUOUS
 10
1.181272
 20
23.288900
 40
2.000000
 50
180.000000
 51
250.219681
  0
LINE
  8
0
  6
CONTINUOUS
 10
11.645480
 20
120.680298
 11
10.909680
 21
117.845200
  0
LINE
  8
0
  6
CONTINUOUS
 10
10.909680
 20
117.845200
 11
11.721780
 21
115.370201
  0
LINE
  8
0
  6
CONTINUOUS
 10
11.721780
 20
115.370201
 11
10.793680
 21
112.980301
  0
ARC
  8
0
  6
CONTINUOUS
 10
3.115316
 20
92.569542
 40
5.000000
 50
91.500000
 51
109.780281
  0
ARC
  8
0
  6
CONTINUOUS
 10
3.115316
 20
25.781462
 40
5.000000
 50
250.219727
 51
268.500000
  0
LINE
  8
0
  6
CONTINUOUS
 10
42.181252
 20
95.530403
 11
42.181252
 21
102.530403
  0
LINE
  8
0
  6
CONTINUOUS
 10
43.181252
 20
95.530403
 11
41.202240
 21
95.530403
  0
LINE
  8
0
  6
CONTINUOUS
 10
43.181252
 20
102.530403
 11
41.202240
 21
102.530403
  0
ARC
  8
0
  6
CONTINUOUS
 10
48.581280
 20
99.030403
 40
8.999999
 50
163.398987
 51
196.601517
  0
ARC
  8
0
  6
CONTINUOUS
 10
41.202240
 20
96.830421
 40
1.300000
 50
196.601578
 51
270.000000
  0
ARC
  8
0
  6
CONTINUOUS
 10
41.202240
 20
101.230415
 40
1.300000
 50
90.000000
 51
163.399094
  0
LINE
  8
0
  6
CONTINUOUS
 10
42.181252
 20
15.529590
 11
42.181252
 21
22.529591
  0
LINE
  8
0
  6
CONTINUOUS
 10
43.181252
 20
15.529590
 11
41.202240
 21
15.529590
  0
LINE
  8
0
  6
CONTINUOUS
 10
43.181252
 20
22.529591
 11
41.202240
 21
22.529591
  0
ARC
  8
0
  6
CONTINUOUS
 10
48.581280
 20
19.029591
 40
8.999999
 50
163.398987
 51
196.601517
  0
ARC
  8
0
  6
CONTINUOUS
 10
41.202240
 20
16.829609
 40
1.300000
 50
196.601578
 51
270.000000
  0
ARC
  8
0
  6
CONTINUOUS
 10
41.202240
 20
21.229603
 40
1.300000
 50
90.000000
 51
163.399094
  0
ARC
  8
0
  6
CONTINUOUS
 10
26.681250
 20
15.371823
 40
0.500000
 50
180.000000
 51
268.500000
  0
LINE
  8
0
  6
CONTINUOUS
 10
26.181250
 20
82.378815
 11
-0.818735
 21
81.671799
  0
LINE
  8
0
  6
CONTINUOUS
 10
26.181250
 20
76.431183
 11
-0.818735
 21
77.138199
  0
LINE
  8
0
  6
CONTINUOUS
 10
56.681252
 20
263.418060
 11
56.681252
 21
253.650681
  0
LINE
  8
0
  6
CONTINUOUS
 10
57.181252
 20
213.534378
 11
57.181252
 21
303.534363
  0
LINE
  8
0
  6
CONTINUOUS
 10
30.181250
 20
301.804077
 11
30.181250
 21
281.534363
  0
LINE
  8
0
  6
CONTINUOUS
 10
30.181250
 20
215.264679
 11
30.181250
 21
235.534378
  0
LINE
  8
0
  6
CONTINUOUS
 10
57.181252
 20
287.534363
 11
43.668152
 21
287.180481
  0
LINE
  8
0
  6
CONTINUOUS
 10
43.668152
 20
229.888275
 11
57.181252
 21
229.534378
  0
LINE
  8
0
  6
CONTINUOUS
 10
22.681250
 20
263.418060
 11
22.681250
 21
253.650681
  0
LINE
  8
0
  6
CONTINUOUS
 10
43.181252
 20
230.388168
 11
43.181252
 21
235.534378
  0
ARC
  8
0
  6
CONTINUOUS
 10
43.681252
 20
230.388168
 40
0.500000
 50
180.000000
 51
268.496399
  0
LINE
  8
0
  6
CONTINUOUS
 10
43.181252
 20
286.680573
 11
43.181252
 21
281.534363
  0
ARC
  8
0
  6
CONTINUOUS
 10
43.681252
 20
286.680573
 40
0.500000
 50
91.503601
 51
180.000000
  0
LINE
  8
0
  6
CONTINUOUS
 10
43.181252
 20
230.884369
 11
30.181250
 21
231.224869
  0
LINE
  8
0
  6
CONTINUOUS
 10
43.181252
 20
286.184387
 11
30.181250
 21
285.843872
  0
ARC
  8
0
  6
CONTINUOUS
 10
52.681252
 20
237.551880
 40
2.000000
 50
-90.500061
 51
0.000000
  0
LINE
  8
0
  6
CONTINUOUS
 10
32.146038
 20
213.971420
 11
57.181252
 21
213.534378
  0
LINE
  8
0
  6
CONTINUOUS
 10
30.922850
 20
214.298569
 11
32.146038
 21
213.971420
  0
ARC
  8
0
  6
CONTINUOUS
 10
31.181250
 20
215.264679
 40
1.000000
 50
180.000000
 51
255.023895
  0
LINE
  8
0
  6
CONTINUOUS
 10
32.146049
 20
303.097351
 11
57.181252
 21
303.534363
  0
LINE
  8
0
  6
CONTINUOUS
 10
30.922850
 20
302.770081
 11
32.146049
 21
303.097351
  0
ARC
  8
0
  6
CONTINUOUS
 10
31.181250
 20
301.804077
 40
1.000000
 50
104.976097
 51
180.000000
  0
LINE
  8
0
  6
CONTINUOUS
 10
24.681150
 20
237.534378
 11
24.681150
 21
279.534363
  0
LINE
  8
0
  6
CENTER
 10
39.681252
 20
290.344360
 11
39.681252
 21
226.809372
  0
LINE
  8
0
  6
CONTINUOUS
 10
54.681252
 20
279.534363
 11
54.681252
 21
237.534378
  0
LINE
  8
0
  6
CONTINUOUS
 10
56.681252
 20
263.534363
 11
56.681252
 21
253.534378
  0
LINE
  8
0
  6
CONTINUOUS
 10
22.681250
 20
263.534363
 11
22.681250
 21
253.534378
  0
ARC
  8
0
  6
CONTINUOUS
 10
27.681250
 20
238.534378
 40
3.500000
 50
0.000000
 51
90.000000
  0
LINE
  8
0
  6
CONTINUOUS
 10
25.681150
 20
242.034378
 11
27.681250
 21
242.034378
  0
LINE
  8
0
  6
CONTINUOUS
 10
31.181250
 20
236.534378
 11
31.181250
 21
238.534378
  0
ARC
  8
0
  6
CONTINUOUS
 10
25.681150
 20
243.034378
 40
1.000000
 50
180.000000
 51
270.000000
  0
ARC
  8
0
  6
CONTINUOUS
 10
51.681252
 20
238.534378
 40
3.500000
 50
90.000000
 51
180.000000
  0
LINE
  8
0
  6
CONTINUOUS
 10
48.181252
 20
236.534378
 11
48.181252
 21
238.534378
  0
LINE
  8
0
  6
CONTINUOUS
 10
53.681351
 20
242.034378
 11
51.681252
 21
242.034378
  0
ARC
  8
0
  6
CONTINUOUS
 10
53.681351
 20
243.034378
 40
1.000000
 50
-90.000000
 51
0.000000
  0
LINE
  8
0
  6
CONTINUOUS
 10
52.681252
 20
235.534378
 11
26.681150
 21
235.534378
  0
ARC
  8
0
  6
CONTINUOUS
 10
47.181252
 20
236.534378
 40
1.000000
 50
-90.000000
 51
0.000000
  0
ARC
  8
0
  6
CONTINUOUS
 10
32.181252
 20
236.534378
 40
1.000000
 50
180.000000
 51
270.000000
  0
ARC
  8
0
  6
CONTINUOUS
 10
26.681150
 20
237.534378
 40
2.000000
 50
180.000000
 51
270.000000
  0
ARC
  8
0
  6
CONTINUOUS
 10
52.681252
 20
237.534378
 40
2.000000
 50
-90.000000
 51
0.000000
  0
ARC
  8
0
  6
CONTINUOUS
 10
27.681250
 20
278.534363
 40
3.500000
 50
-90.000000
 51
0.000000
  0
LINE
  8
0
  6
CONTINUOUS
 10
25.681150
 20
275.034363
 11
27.681250
 21
275.034363
  0
LINE
  8
0
  6
CONTINUOUS
 10
31.181250
 20
280.534363
 11
31.181250
 21
278.534363
  0
ARC
  8
0
  6
CONTINUOUS
 10
25.681150
 20
274.034363
 40
1.000000
 50
90.000000
 51
180.000000
  0
ARC
  8
0
  6
CONTINUOUS
 10
51.681252
 20
278.534363
 40
3.500000
 50
180.000000
 51
270.000000
  0
LINE
  8
0
  6
CONTINUOUS
 10
48.181252
 20
280.534363
 11
48.181252
 21
278.534363
  0
LINE
  8
0
  6
CONTINUOUS
 10
53.681351
 20
275.034363
 11
51.681252
 21
275.034363
  0
ARC
  8
0
  6
CONTINUOUS
 10
53.681351
 20
274.034363
 40
1.000000
 50
0.000000
 51
90.000000
  0
LINE
  8
0
  6
CONTINUOUS
 10
52.681252
 20
281.534363
 11
26.681150
 21
281.534363
  0
ARC
  8
0
  6
CONTINUOUS
 10
47.181252
 20
280.534363
 40
1.000000
 50
0.000000
 51
90.000000
  0
ARC
  8
0
  6
CONTINUOUS
 10
32.181252
 20
280.534363
 40
1.000000
 50
90.000000
 51
180.000000
  0
ARC
  8
0
  6
CONTINUOUS
 10
26.681150
 20
279.534363
 40
2.000000
 50
90.000000
 51
180.000000
  0
ARC
  8
0
  6
CONTINUOUS
 10
52.681252
 20
279.534363
 40
2.000000
 50
0.000000
 51
90.000000
  0
LINE
  8
0
  6
CONTINUOUS
 10
24.181250
 20
264.534363
 11
23.681250
 21
264.534363
  0
ARC
  8
0
  6
CONTINUOUS
 10
23.681250
 20
263.534363
 40
1.000000
 50
90.000000
 51
180.000000
  0
ARC
  8
0
  6
CONTINUOUS
 10
24.181250
 20
265.034363
 40
0.500000
 50
-90.000000
 51
0.000000
  0
LINE
  8
0
  6
CONTINUOUS
 10
24.181250
 20
252.534378
 11
23.681250
 21
252.534378
  0
ARC
  8
0
  6
CONTINUOUS
 10
23.681250
 20
253.534378
 40
1.000000
 50
180.000000
 51
270.000000
  0
ARC
  8
0
  6
CONTINUOUS
 10
24.181250
 20
252.034378
 40
0.500000
 50
0.000000
 51
90.000000
  0
LINE
  8
0
  6
CONTINUOUS
 10
55.181252
 20
264.534363
 11
55.681252
 21
264.534363
  0
ARC
  8
0
  6
CONTINUOUS
 10
55.681252
 20
263.534363
 40
1.000000
 50
0.000000
 51
90.000000
  0
ARC
  8
0
  6
CONTINUOUS
 10
55.181252
 20
265.034363
 40
0.500000
 50
180.000000
 51
270.000000
  0
LINE
  8
0
  6
CONTINUOUS
 10
55.181252
 20
252.534378
 11
55.681252
 21
252.534378
  0
ARC
  8
0
  6
CONTINUOUS
 10
55.681252
 20
253.534378
 40
1.000000
 50
-90.000000
 51
0.000000
  0
ARC
  8
0
  6
CONTINUOUS
 10
55.181252
 20
252.034378
 40
0.500000
 50
90.000000
 51
180.000000
  0
LINE
  8
0
  6
CONTINUOUS
 10
29.431250
 20
238.934372
 11
29.431250
 21
238.134354
  0
LINE
  8
0
  6
CONTINUOUS
 10
27.281225
 20
240.284378
 11
28.081244
 21
240.284378
  0
LINE
  8
0
  6
CONTINUOUS
 10
27.281225
 20
236.784378
 11
28.081244
 21
236.784378
  0
LINE
  8
0
  6
CONTINUOUS
 10
25.931250
 20
238.934372
 11
25.931250
 21
238.134354
  0
CIRCLE
  8
0
  6
CONTINUOUS
 10
27.681250
 20
238.534378
 40
2.750000
  0
ARC
  8
0
  6
CONTINUOUS
 10
25.931250
 20
240.284378
 40
1.350000
 50
-90.000000
 51
0.000000
  0
ARC
  8
0
  6
CONTINUOUS
 10
25.931250
 20
236.784378
 40
1.350000
 50
0.000000
 51
90.000000
  0
ARC
  8
0
  6
CONTINUOUS
 10
29.431250
 20
240.284378
 40
1.350000
 50
180.000000
 51
270.000000
  0
ARC
  8
0
  6
CONTINUOUS
 10
29.431250
 20
236.784378
 40
1.350000
 50
90.000000
 51
180.000000
  0
LINE
  8
0
  6
CONTINUOUS
 10
53.431252
 20
238.934372
 11
53.431252
 21
238.134354
  0
LINE
  8
0
  6
CONTINUOUS
 10
51.281227
 20
240.284378
 11
52.081245
 21
240.284378
  0
LINE
  8
0
  6
CONTINUOUS
 10
51.281227
 20
236.784378
 11
52.081245
 21
236.784378
  0
LINE
  8
0
  6
CONTINUOUS
 10
49.931252
 20
238.934372
 11
49.931252
 21
238.134354
  0
CIRCLE
  8
0
  6
CONTINUOUS
 10
51.681252
 20
238.534378
 40
2.750000
  0
ARC
  8
0
  6
CONTINUOUS
 10
49.931252
 20
240.284378
 40
1.350000
 50
-90.000000
 51
0.000000
  0
ARC
  8
0
  6
CONTINUOUS
 10
49.931252
 20
236.784378
 40
1.350000
 50
0.000000
 51
90.000000
  0
ARC
  8
0
  6
CONTINUOUS
 10
53.431252
 20
240.284378
 40
1.350000
 50
180.000000
 51
270.000000
  0
ARC
  8
0
  6
CONTINUOUS
 10
53.431252
 20
236.784378
 40
1.350000
 50
90.000000
 51
180.000000
  0
LINE
  8
0
  6
CONTINUOUS
 10
53.431252
 20
278.934357
 11
53.431252
 21
278.134338
  0
LINE
  8
0
  6
CONTINUOUS
 10
51.281227
 20
280.284363
 11
52.081245
 21
280.284363
  0
LINE
  8
0
  6
CONTINUOUS
 10
51.281227
 20
276.784363
 11
52.081245
 21
276.784363
  0
LINE
  8
0
  6
CONTINUOUS
 10
49.931252
 20
278.934357
 11
49.931252
 21
278.134338
  0
CIRCLE
  8
0
  6
CONTINUOUS
 10
51.681252
 20
278.534363
 40
2.750000
  0
ARC
  8
0
  6
CONTINUOUS
 10
49.931252
 20
280.284363
 40
1.350000
 50
-90.000000
 51
0.000000
  0
ARC
  8
0
  6
CONTINUOUS
 10
49.931252
 20
276.784363
 40
1.350000
 50
0.000000
 51
90.000000
  0
ARC
  8
0
  6
CONTINUOUS
 10
53.431252
 20
280.284363
 40
1.350000
 50
180.000000
 51
270.000000
  0
ARC
  8
0
  6
CONTINUOUS
 10
53.431252
 20
276.784363
 40
1.350000
 50
90.000000
 51
180.000000
  0
LINE
  8
0
  6
CONTINUOUS
 10
29.431250
 20
278.934357
 11
29.431250
 21
278.134338
  0
LINE
  8
0
  6
CONTINUOUS
 10
27.281225
 20
280.284363
 11
28.081244
 21
280.284363
  0
LINE
  8
0
  6
CONTINUOUS
 10
27.281225
 20
276.784363
 11
28.081244
 21
276.784363
  0
LINE
  8
0
  6
CONTINUOUS
 10
25.931250
 20
278.934357
 11
25.931250
 21
278.134338
  0
CIRCLE
  8
0
  6
CONTINUOUS
 10
27.681250
 20
278.534363
 40
2.750000
  0
ARC
  8
0
  6
CONTINUOUS
 10
25.931250
 20
280.284363
 40
1.350000
 50
-90.000000
 51
0.000000
  0
ARC
  8
0
  6
CONTINUOUS
 10
25.931250
 20
276.784363
 40
1.350000
 50
0.000000
 51
90.000000
  0
ARC
  8
0
  6
CONTINUOUS
 10
29.431250
 20
280.284363
 40
1.350000
 50
180.000000
 51
270.000000
  0
ARC
  8
0
  6
CONTINUOUS
 10
29.431250
 20
276.784363
 40
1.350000
 50
90.000000
 51
180.000000
  0
LINE
  8
0
  6
CONTINUOUS
 10
7.532570
 20
254.684372
 11
22.681370
 21
254.684372
  0
LINE
  8
0
  6
CONTINUOUS
 10
8.384370
 20
262.384369
 11
7.648570
 21
259.549286
  0
LINE
  8
0
  6
CONTINUOUS
 10
7.648570
 20
259.549286
 11
8.460670
 21
257.074280
  0
LINE
  8
0
  6
CONTINUOUS
 10
8.460670
 20
257.074280
 11
7.532570
 21
254.684372
  0
LINE
  8
0
  6
CONTINUOUS
 10
8.384370
 20
262.384369
 11
22.681370
 21
262.384369
  0
LINE
  8
0
  6
CONTINUOUS
 10
42.181252
 20
281.534363
 11
42.181252
 21
286.034363
  0
LINE
  8
0
  6
CONTINUOUS
 10
43.181252
 20
286.034363
 11
41.202240
 21
286.034363
  0
ARC
  8
0
  6
CONTINUOUS
 10
48.581280
 20
282.534363
 40
8.999999
 50
163.398987
 51
186.379364
  0
ARC
  8
0
  6
CONTINUOUS
 10
41.202240
 20
284.734375
 40
1.300000
 50
90.000000
 51
163.399094
  0
LINE
  8
0
  6
CONTINUOUS
 10
42.181252
 20
235.534378
 11
42.181252
 21
231.034378
  0
LINE
  8
0
  6
CONTINUOUS
 10
43.181252
 20
231.034378
 11
41.202240
 21
231.034378
  0
ARC
  8
0
  6
CONTINUOUS
 10
48.581280
 20
234.534378
 40
8.999999
 50
173.620636
 51
196.601013
  0
ARC
  8
0
  6
CONTINUOUS
 10
41.202240
 20
232.334366
 40
1.300000
 50
196.600906
 51
270.000000
  0
LINE
  8
0
  6
CONTINUOUS
 10
2.925348
 20
297.070648
 11
30.181250
 21
297.784363
  0
LINE
  8
0
  6
CONTINUOUS
 10
-0.818750
 20
294.609650
 11
-0.818750
 21
222.459106
  0
LINE
  8
0
  6
CONTINUOUS
 10
1.475094
 20
296.815796
 11
0.548794
 21
296.507019
  0
ARC
  8
0
  6
CONTINUOUS
 10
1.181250
 20
294.609650
 40
2.000000
 50
108.434952
 51
180.000000
  0
ARC
  8
0
  6
CONTINUOUS
 10
3.056233
 20
292.072357
 40
5.000000
 50
91.500000
 51
108.434952
  0
LINE
  8
0
  6
CONTINUOUS
 10
26.668161
 20
219.381973
 11
30.181250
 21
219.289978
  0
LINE
  8
0
  6
CONTINUOUS
 10
26.181250
 20
219.881790
 11
26.181250
 21
229.004501
  0
LINE
  8
0
  6
CONTINUOUS
 10
2.925348
 20
219.998093
 11
30.181250
 21
219.284378
  0
LINE
  8
0
  6
CONTINUOUS
 10
1.475094
 20
220.252960
 11
0.548794
 21
220.561737
  0
ARC
  8
0
  6
CONTINUOUS
 10
1.181250
 20
222.459106
 40
2.000000
 50
180.000000
 51
251.565048
  0
ARC
  8
0
  6
CONTINUOUS
 10
3.056233
 20
224.996384
 40
5.000000
 50
251.565048
 51
268.500000
  0
LINE
  8
0
  6
CONTINUOUS
 10
26.181250
 20
220.493973
 11
24.742041
 21
220.493973
  0
LINE
  8
0
  6
CONTINUOUS
 10
26.181250
 20
225.993973
 11
24.742041
 21
225.993973
  0
LINE
  8
0
  6
CONTINUOUS
 10
25.481298
 20
220.493973
 11
25.481298
 21
225.993973
  0
ARC
  8
0
  6
CONTINUOUS
 10
30.481298
 20
223.243973
 40
7.000000
 50
163.043503
 51
196.957993
  0
ARC
  8
0
  6
CONTINUOUS
 10
24.742041
 20
224.993973
 40
1.000000
 50
90.000000
 51
163.043106
  0
ARC
  8
0
  6
CONTINUOUS
 10
24.742041
 20
221.493973
 40
1.000000
 50
196.958099
 51
270.000000
  0
LINE
  8
0
  6
CONTINUOUS
 10
26.181250
 20
229.004501
 11
30.181250
 21
229.004501
  0
LINE
  8
0
  6
CONTINUOUS
 10
-0.809498
 20
227.213516
 11
-0.818750
 21
227.213760
  0
ARC
  8
0
  6
CONTINUOUS
 10
26.681250
 20
219.881790
 40
0.500000
 50
180.000000
 51
268.500000
  0
LINE
  8
0
  6
CONTINUOUS
 10
26.668161
 20
297.686768
 11
30.181250
 21
297.778778
  0
LINE
  8
0
  6
CONTINUOUS
 10
26.181250
 20
297.186951
 11
26.181250
 21
288.064240
  0
LINE
  8
0
  6
CONTINUOUS
 10
26.181250
 20
296.574768
 11
24.742041
 21
296.574768
  0
LINE
  8
0
  6
CONTINUOUS
 10
26.181250
 20
291.074768
 11
24.742041
 21
291.074768
  0
LINE
  8
0
  6
CONTINUOUS
 10
25.481298
 20
296.574768
 11
25.481298
 21
291.074768
  0
ARC
  8
0
  6
CONTINUOUS
 10
30.481298
 20
293.824768
 40
7.000000
 50
163.042007
 51
196.956497
  0
ARC
  8
0
  6
CONTINUOUS
 10
24.742041
 20
292.074768
 40
1.000000
 50
196.956894
 51
270.000000
  0
ARC
  8
0
  6
CONTINUOUS
 10
24.742041
 20
295.574768
 40
1.000000
 50
90.000000
 51
163.041901
  0
LINE
  8
0
  6
CONTINUOUS
 10
26.181250
 20
288.064240
 11
30.181250
 21
288.064240
  0
ARC
  8
0
  6
CONTINUOUS
 10
26.681250
 20
297.186951
 40
0.500000
 50
91.500000
 51
180.000000
  0
LINE
  8
0
  6
CONTINUOUS
 10
23.487820
 20
222.941910
 11
-0.818750
 21
223.578400
  0
LINE
  8
0
  6
CONTINUOUS
 10
26.181250
 20
226.852554
 11
-0.818750
 21
226.145523
  0
LINE
  8
0
  6
CONTINUOUS
 10
23.487820
 20
294.126831
 11
-0.818750
 21
293.490356
  0
LINE
  8
0
  6
CONTINUOUS
 10
26.181250
 20
290.216187
 11
-0.818750
 21
290.923218
  0
TEXT
  8
0
 10
-10.000000
 20
2.000000
 40
4.000000
 41
1.000000
  1
HLV-18R-10~240-T60
 50
0.000000
  0
ENDSEC
  0
EOF
