  0
SECTION
  2
HEADER
  9
$CLAYER
  8
1
  9
$LTSCALE
 40
3.0
  0
ENDSEC
  0
SECTION
  2
TABLES
  0
TABLE
  2
LTYPE
 70
     4
  0
LTYPE
  2
CONTINUOUS
  3
solid line
 70
    64
 72
    65
 73
     0
 40
0.0
  0
LTYPE
  2
DASHED
  3
__ __ __ __ __ __ __ __ __ __ __ __ __ __ __
 70
    64
 72
    65
 73
     2
 40
0.75
 49
0.5
 49
-0.25
  0
LTYPE
  2
CENTER
  3
____ _ ____ _ ____ _ ____ _ ____ _ ____ _ ____
 70
    64
 72
    65
 73
     4
 40
2.0
 49
1.25
 49
-0.25
 49
0.25
 49
-0.25
  0
LTYPE
  2
PHANTOM
  3
_____ _ _ _____ _ _ _____ _ _ _____ _ _ ____
 70
    64
 72
    65
 73
     6
 40
2.5
 49
1.25
 49
-0.25
 49
0.25
 49
-0.25
 49
0.25
 49
-0.25
  0
ENDTAB
  0
TABLE
  2
LAYER
 70
     1
  0
LAYER
  2
0
 70
    64
 62
     7
  6
CONTINUOUS
  0
ENDTAB
  0
TABLE
  2
STYLE
 70
     1
  0
STYLE
  2
STANDARD
 70
     0
 40
0.000000
 41
1.000000
 50
0.000000
 71
     0
 42
3.000000
  3
txt
  4
BIGFONT
  0
ENDTAB
  0
ENDSEC
  0
SECTION
  2
BLOCKS
  0
ENDSEC
  0
SECTION
  2
ENTITIES
  0
LINE
  8
0
  6
CENTER
 10
-3.926875
 20
54.389999
 11
159.587006
 21
54.389999
  0
LINE
  8
0
  6
CONTINUOUS
 10
237.297501
 20
12.090000
 11
237.297501
 21
5.090000
  0
LINE
  8
0
  6
CONTINUOUS
 10
63.797489
 20
9.390000
 11
136.297501
 21
9.390000
  0
LINE
  8
0
  6
CONTINUOUS
 10
63.797489
 20
99.389999
 11
143.139999
 21
99.389999
  0
LINE
  8
0
  6
CENTER
 10
186.797501
 20
128.077499
 11
186.797501
 21
-2.129100
  0
LINE
  8
0
  6
CENTER
 10
151.284805
 20
80.089996
 11
221.719223
 21
80.089996
  0
LINE
  8
0
  6
CONTINUOUS
 10
136.297501
 20
5.090000
 11
237.297501
 21
5.090000
  0
LINE
  8
0
  6
CONTINUOUS
 10
171.376404
 20
118.089996
 11
202.218597
 21
118.089996
  0
LINE
  8
0
  6
CONTINUOUS
 10
138.297501
 20
14.090000
 11
235.297501
 21
14.090000
  0
LINE
  8
0
  6
CENTER
 10
224.797501
 20
19.577499
 11
224.797501
 21
-1.672500
  0
LINE
  8
0
  6
CENTER
 10
148.797501
 20
19.827499
 11
148.797501
 21
-2.172500
  0
LINE
  8
0
  6
CONTINUOUS
 10
235.168900
 20
96.083183
 11
205.089996
 21
117.183289
  0
LINE
  8
0
  6
CONTINUOUS
 10
138.426102
 20
96.083183
 11
168.505005
 21
117.183281
  0
ARC
  8
0
  6
CONTINUOUS
 10
202.218704
 20
113.089989
 40
5.000000
 50
54.950878
 51
90.000000
  0
ARC
  8
0
  6
CONTINUOUS
 10
171.376404
 20
113.089996
 40
5.000000
 50
90.000000
 51
125.049698
  0
ARC
  8
0
  6
CONTINUOUS
 10
141.297501
 20
91.989929
 40
5.000000
 50
125.049797
 51
180.000000
  0
ARC
  8
0
  6
CONTINUOUS
 10
232.297501
 20
91.989883
 40
5.000000
 50
0.000000
 51
54.950901
  0
LINE
  8
0
  6
CONTINUOUS
 10
237.297501
 20
12.090000
 11
237.297501
 21
91.989899
  0
ARC
  8
0
  6
CONTINUOUS
 10
235.297501
 20
12.089990
 40
2.000000
 50
0.000000
 51
90.000000
  0
LINE
  8
0
  6
CONTINUOUS
 10
136.297501
 20
91.989929
 11
136.297501
 21
91.989899
  0
ARC
  8
0
  6
CONTINUOUS
 10
138.297501
 20
12.090000
 40
2.000000
 50
90.000000
 51
180.000000
  0
LINE
  8
0
  6
DASHED
 10
229.047501
 20
14.090000
 11
229.047501
 21
5.090000
  0
LINE
  8
0
  6
DASHED
 10
220.547501
 20
14.090000
 11
220.547501
 21
5.090000
  0
LINE
  8
0
  6
DASHED
 10
153.047501
 20
14.090000
 11
153.047501
 21
5.090000
  0
LINE
  8
0
  6
DASHED
 10
144.547501
 20
14.090000
 11
144.547501
 21
5.090000
  0
CIRCLE
  8
0
  6
CONTINUOUS
 10
186.797501
 20
80.089996
 40
23.500000
  0
LINE
  8
0
  6
CONTINUOUS
 10
138.797501
 20
80.782188
 11
138.797501
 21
49.397484
  0
LINE
  8
0
  6
CONTINUOUS
 10
234.797501
 20
80.782356
 11
234.797501
 21
49.397648
  0
ARC
  8
0
  6
CONTINUOUS
 10
186.797501
 20
65.089996
 40
50.500000
 50
198.103806
 51
341.896210
  0
LINE
  8
0
  6
CONTINUOUS
 10
136.297501
 20
91.989906
 11
136.297394
 21
5.090000
  0
ARC
  8
0
  6
CONTINUOUS
 10
186.797501
 20
65.089996
 40
50.500000
 50
18.103790
 51
161.896194
  0
LINE
  8
0
  6
CONTINUOUS
 10
63.797489
 20
88.799301
 11
134.680405
 21
88.799301
  0
LINE
  8
0
  6
CONTINUOUS
 10
63.797489
 20
19.980700
 11
134.680405
 21
19.980700
  0
LINE
  8
0
  6
CONTINUOUS
 10
180.422501
 20
42.643219
 11
180.422501
 21
37.090000
  0
LINE
  8
0
  6
CONTINUOUS
 10
183.610001
 20
44.660313
 11
183.610001
 21
46.652500
  0
LINE
  8
0
  6
CONTINUOUS
 10
189.985001
 20
44.660313
 11
189.985001
 21
46.652500
  0
LINE
  8
0
  6
CONTINUOUS
 10
186.174896
 20
45.482090
 11
186.174896
 21
38.135899
  0
LINE
  8
0
  6
CONTINUOUS
 10
187.370300
 20
45.482090
 11
187.370300
 21
38.135899
  0
LINE
  8
0
  6
CONTINUOUS
 10
193.645599
 20
45.482090
 11
193.645599
 21
38.086090
  0
LINE
  8
0
  6
CONTINUOUS
 10
194.741302
 20
41.559971
 11
194.741302
 21
38.086090
  0
LINE
  8
0
  6
CONTINUOUS
 10
178.910004
 20
45.382481
 11
175.838104
 21
45.382481
  0
LINE
  8
0
  6
CONTINUOUS
 10
175.838104
 20
45.382481
 11
175.118301
 21
44.489986
  0
LINE
  8
0
  6
CONTINUOUS
 10
175.204895
 20
46.652500
 11
174.047501
 21
45.170506
  0
LINE
  8
0
  6
CONTINUOUS
 10
175.118301
 20
38.980919
 11
175.849594
 21
38.210609
  0
LINE
  8
0
  6
CONTINUOUS
 10
174.047501
 20
38.330860
 11
175.277298
 21
37.090000
  0
LINE
  8
0
  6
CONTINUOUS
 10
174.047501
 20
45.170506
 11
174.047501
 21
38.330860
  0
LINE
  8
0
  6
CONTINUOUS
 10
175.118301
 20
44.489986
 11
175.118301
 21
38.980919
  0
LINE
  8
0
  6
CONTINUOUS
 10
179.501099
 20
44.811039
 11
178.897903
 21
45.382481
  0
LINE
  8
0
  6
CONTINUOUS
 10
179.491501
 20
46.652500
 11
180.422501
 21
45.619358
  0
LINE
  8
0
  6
CONTINUOUS
 10
179.501099
 20
44.660313
 11
180.422501
 21
44.660313
  0
LINE
  8
0
  6
CONTINUOUS
 10
175.204895
 20
46.652500
 11
179.491501
 21
46.652500
  0
LINE
  8
0
  6
CONTINUOUS
 10
179.501099
 20
41.597321
 11
177.832703
 21
41.597321
  0
LINE
  8
0
  6
CONTINUOUS
 10
179.501099
 20
40.601231
 11
179.501099
 21
41.398109
  0
LINE
  8
0
  6
CONTINUOUS
 10
177.508896
 20
38.210609
 11
175.849594
 21
38.210609
  0
ARC
  8
0
  6
CONTINUOUS
 10
177.508896
 20
40.202789
 40
1.992187
 50
-89.999786
 51
0.000109
  0
LINE
  8
0
  6
CONTINUOUS
 10
179.501099
 20
37.852268
 11
179.501099
 21
37.090000
  0
LINE
  8
0
  6
CONTINUOUS
 10
180.422501
 20
45.619358
 11
180.422501
 21
44.660313
  0
LINE
  8
0
  6
CONTINUOUS
 10
179.501099
 20
41.597321
 11
179.501099
 21
40.202789
  0
LINE
  8
0
  6
CONTINUOUS
 10
177.832703
 20
42.643219
 11
177.832703
 21
41.597321
  0
LINE
  8
0
  6
CONTINUOUS
 10
179.501099
 20
37.090000
 11
180.422501
 21
37.090000
  0
LINE
  8
0
  6
CONTINUOUS
 10
179.501099
 20
37.852268
 11
178.592606
 21
37.090000
  0
LINE
  8
0
  6
CONTINUOUS
 10
187.370300
 20
38.135899
 11
187.768707
 21
38.135899
  0
LINE
  8
0
  6
CONTINUOUS
 10
185.701797
 20
38.135899
 11
185.701797
 21
37.090000
  0
LINE
  8
0
  6
CONTINUOUS
 10
187.768707
 20
38.135899
 11
187.768707
 21
37.090000
  0
LINE
  8
0
  6
CONTINUOUS
 10
189.320007
 20
44.660313
 11
189.985001
 21
44.660313
  0
LINE
  8
0
  6
CONTINUOUS
 10
183.610001
 20
44.660313
 11
184.317596
 21
44.660313
  0
LINE
  8
0
  6
CONTINUOUS
 10
183.610001
 20
46.652500
 11
189.985001
 21
46.652500
  0
LINE
  8
0
  6
CONTINUOUS
 10
185.701797
 20
37.090000
 11
187.768707
 21
37.090000
  0
LINE
  8
0
  6
CONTINUOUS
 10
185.701797
 20
38.135899
 11
186.174896
 21
38.135899
  0
ARC
  8
0
  6
CONTINUOUS
 10
196.994995
 20
44.100010
 40
2.552490
 50
-73.981873
 51
90.003510
  0
ARC
  8
0
  6
CONTINUOUS
 10
196.994995
 20
44.100010
 40
1.557193
 50
-82.585274
 51
62.411850
  0
LINE
  8
0
  6
CONTINUOUS
 10
193.172501
 20
46.652500
 11
196.994995
 21
46.652500
  0
LINE
  8
0
  6
CONTINUOUS
 10
193.172501
 20
46.652500
 11
193.172501
 21
45.482090
  0
LINE
  8
0
  6
CONTINUOUS
 10
194.741302
 20
45.482090
 11
194.741302
 21
42.555840
  0
LINE
  8
0
  6
CONTINUOUS
 10
197.699295
 20
41.646622
 11
199.279205
 21
38.086090
  0
LINE
  8
0
  6
CONTINUOUS
 10
196.781799
 20
41.559971
 11
198.276901
 21
38.086090
  0
LINE
  8
0
  6
CONTINUOUS
 10
193.172501
 20
38.086090
 11
193.645599
 21
38.086090
  0
LINE
  8
0
  6
CONTINUOUS
 10
194.741302
 20
38.086090
 11
195.177094
 21
38.086090
  0
LINE
  8
0
  6
CONTINUOUS
 10
195.177094
 20
37.090000
 11
193.172501
 21
37.090000
  0
LINE
  8
0
  6
CONTINUOUS
 10
198.078293
 20
38.086090
 11
198.276901
 21
38.086090
  0
LINE
  8
0
  6
CONTINUOUS
 10
199.279205
 20
38.086090
 11
199.547501
 21
38.086090
  0
LINE
  8
0
  6
CONTINUOUS
 10
198.078293
 20
37.090000
 11
199.547501
 21
37.090000
  0
LINE
  8
0
  6
CONTINUOUS
 10
199.547501
 20
38.086090
 11
199.547501
 21
37.090000
  0
LINE
  8
0
  6
CONTINUOUS
 10
198.078293
 20
38.086090
 11
198.078293
 21
37.090000
  0
LINE
  8
0
  6
CONTINUOUS
 10
195.177094
 20
38.086090
 11
195.177094
 21
37.090000
  0
LINE
  8
0
  6
CONTINUOUS
 10
193.172501
 20
38.086090
 11
193.172501
 21
37.090000
  0
LINE
  8
0
  6
CONTINUOUS
 10
184.660004
 20
45.482090
 11
184.317596
 21
44.660313
  0
LINE
  8
0
  6
CONTINUOUS
 10
189.031296
 20
45.482090
 11
189.320007
 21
44.660313
  0
LINE
  8
0
  6
CONTINUOUS
 10
187.370300
 20
45.482090
 11
189.031296
 21
45.482090
  0
LINE
  8
0
  6
CONTINUOUS
 10
186.174896
 20
45.482090
 11
184.660004
 21
45.482090
  0
LINE
  8
0
  6
CONTINUOUS
 10
193.172501
 20
45.482090
 11
193.645599
 21
45.482090
  0
LINE
  8
0
  6
CONTINUOUS
 10
194.741302
 20
45.482090
 11
197.716202
 21
45.480152
  0
LINE
  8
0
  6
CONTINUOUS
 10
179.501099
 20
44.811039
 11
179.501099
 21
44.660313
  0
LINE
  8
0
  6
CONTINUOUS
 10
175.277298
 20
37.090000
 11
178.592606
 21
37.090000
  0
LINE
  8
0
  6
CONTINUOUS
 10
194.741302
 20
42.555840
 11
197.195999
 21
42.555840
  0
LINE
  8
0
  6
CONTINUOUS
 10
194.741302
 20
41.559971
 11
196.781799
 21
41.559971
  0
LINE
  8
0
  6
CONTINUOUS
 10
177.832703
 20
42.643219
 11
180.422501
 21
42.643219
  0
LINE
  8
0
  6
CONTINUOUS
 10
192.297501
 20
77.090019
 11
192.297501
 21
83.090019
  0
LINE
  8
0
  6
CONTINUOUS
 10
198.297501
 20
77.090042
 11
198.297501
 21
83.090042
  0
LINE
  8
0
  6
CONTINUOUS
 10
198.297501
 20
77.090042
 11
192.297501
 21
77.090019
  0
LINE
  8
0
  6
CONTINUOUS
 10
198.297501
 20
83.090042
 11
192.297501
 21
83.090019
  0
ARC
  8
0
  6
CONTINUOUS
 10
186.797501
 20
80.089996
 40
9.000000
 50
19.471210
 51
340.528809
  0
LINE
  8
0
  6
CENTER
 10
186.797501
 20
334.771881
 11
186.797501
 21
173.601257
  0
LINE
  8
0
  6
CENTER
 10
224.797501
 20
310.403748
 11
224.797501
 21
291.641235
  0
LINE
  8
0
  6
CENTER
 10
-4.501250
 20
253.894379
 11
250.938751
 21
253.894379
  0
LINE
  8
0
  6
CONTINUOUS
 10
236.456604
 20
302.068909
 11
237.297501
 21
253.894379
  0
LINE
  8
0
  6
CONTINUOUS
 10
226.458130
 20
311.894379
 11
198.297501
 21
311.894379
  0
LINE
  8
0
  6
CONTINUOUS
 10
138.297501
 20
290.894379
 11
234.686264
 21
290.894379
  0
ARC
  8
0
  6
CONTINUOUS
 10
226.458130
 20
301.894379
 40
10.000000
 50
1.000000
 51
90.000000
  0
ARC
  8
0
  6
CONTINUOUS
 10
234.686264
 20
288.894379
 40
2.000000
 50
1.000000
 51
90.000000
  0
LINE
  8
0
  6
CENTER
 10
215.202194
 20
301.894379
 11
235.544693
 21
301.894379
  0
CIRCLE
  8
0
  6
CONTINUOUS
 10
224.797501
 20
301.894379
 40
4.250000
  0
LINE
  8
0
  6
CENTER
 10
148.797501
 20
310.601257
 11
148.797501
 21
291.641235
  0
LINE
  8
0
  6
CONTINUOUS
 10
137.138382
 20
302.068909
 11
136.952408
 21
291.414276
  0
ARC
  8
0
  6
CONTINUOUS
 10
147.136871
 20
301.894379
 40
10.000000
 50
90.000000
 51
179.000000
  0
ARC
  8
0
  6
CONTINUOUS
 10
138.908737
 20
288.894379
 40
2.000000
 50
90.000000
 51
179.000000
  0
LINE
  8
0
  6
CENTER
 10
158.124695
 20
301.894379
 11
138.572189
 21
301.894379
  0
CIRCLE
  8
0
  6
CONTINUOUS
 10
148.797501
 20
301.894379
 40
4.250000
  0
LINE
  8
0
  6
CONTINUOUS
 10
136.297501
 20
292.894379
 11
136.297501
 21
296.894379
  0
LINE
  8
0
  6
CONTINUOUS
 10
134.297501
 20
298.894379
 11
63.797501
 21
298.894379
  0
ARC
  8
0
  6
CONTINUOUS
 10
134.297501
 20
296.894379
 40
2.000000
 50
0.000000
 51
90.000000
  0
ARC
  8
0
  6
CONTINUOUS
 10
138.297501
 20
292.894379
 40
2.000000
 50
180.000000
 51
270.000000
  0
LINE
  8
0
  6
CONTINUOUS
 10
136.909042
 20
288.929291
 11
136.803696
 21
282.894379
  0
LINE
  8
0
  6
CONTINUOUS
 10
63.797501
 20
282.894379
 11
143.140045
 21
282.894379
  0
LINE
  8
0
  6
CONTINUOUS
 10
63.797501
 20
224.894379
 11
143.140045
 21
224.894379
  0
LINE
  8
0
  6
CONTINUOUS
 10
134.297501
 20
208.894379
 11
63.797501
 21
208.894379
  0
ARC
  8
0
  6
CONTINUOUS
 10
134.297501
 20
210.894379
 40
2.000000
 50
-90.000000
 51
0.000000
  0
LINE
  8
0
  6
CENTER
 10
224.797501
 20
197.038757
 11
224.797501
 21
216.097504
  0
LINE
  8
0
  6
CONTINUOUS
 10
236.456604
 20
205.719849
 11
237.297501
 21
253.894379
  0
LINE
  8
0
  6
CONTINUOUS
 10
226.458130
 20
195.894379
 11
198.297501
 21
195.894379
  0
LINE
  8
0
  6
CONTINUOUS
 10
138.297501
 20
216.894379
 11
234.686264
 21
216.894379
  0
ARC
  8
0
  6
CONTINUOUS
 10
226.458130
 20
205.894379
 40
10.000000
 50
-90.000000
 51
-1.000000
  0
ARC
  8
0
  6
CONTINUOUS
 10
234.686264
 20
218.894379
 40
2.000000
 50
-90.000000
 51
-1.000000
  0
LINE
  8
0
  6
CENTER
 10
215.695938
 20
205.894379
 11
235.742188
 21
205.894379
  0
CIRCLE
  8
0
  6
CONTINUOUS
 10
224.797501
 20
205.894379
 40
4.250000
  0
LINE
  8
0
  6
CENTER
 10
148.797501
 20
196.544998
 11
148.797501
 21
215.899994
  0
LINE
  8
0
  6
CONTINUOUS
 10
137.138382
 20
205.719849
 11
136.952408
 21
216.374496
  0
ARC
  8
0
  6
CONTINUOUS
 10
147.136871
 20
205.894379
 40
10.000000
 50
-179.000000
 51
-90.000000
  0
ARC
  8
0
  6
CONTINUOUS
 10
138.908737
 20
218.894379
 40
2.000000
 50
-179.000000
 51
-90.000000
  0
LINE
  8
0
  6
CENTER
 10
158.618439
 20
205.894379
 11
138.374695
 21
205.894379
  0
CIRCLE
  8
0
  6
CONTINUOUS
 10
148.797501
 20
205.894379
 40
4.250000
  0
LINE
  8
0
  6
CONTINUOUS
 10
136.297501
 20
214.894379
 11
136.297501
 21
210.894379
  0
ARC
  8
0
  6
CONTINUOUS
 10
138.297501
 20
214.894379
 40
2.000000
 50
-270.000000
 51
-180.000000
  0
LINE
  8
0
  6
CONTINUOUS
 10
136.909042
 20
218.859467
 11
136.803696
 21
224.894379
  0
LINE
  8
0
  6
CONTINUOUS
 10
169.797501
 20
285.894379
 11
169.797501
 21
221.894379
  0
LINE
  8
0
  6
CONTINUOUS
 10
203.797501
 20
285.894379
 11
203.797501
 21
221.894379
  0
LINE
  8
0
  6
CONTINUOUS
 10
143.140045
 20
280.894379
 11
143.140045
 21
226.894379
  0
LINE
  8
0
  6
CONTINUOUS
 10
209.297501
 20
295.894379
 11
164.297501
 21
295.894379
  0
LINE
  8
0
  6
CONTINUOUS
 10
163.297501
 20
294.894379
 11
163.297501
 21
292.894379
  0
LINE
  8
0
  6
CONTINUOUS
 10
210.297501
 20
294.894379
 11
210.297501
 21
292.894379
  0
ARC
  8
0
  6
CONTINUOUS
 10
161.297501
 20
292.894379
 40
2.000000
 50
-90.000000
 51
0.000000
  0
ARC
  8
0
  6
CONTINUOUS
 10
212.297501
 20
292.894379
 40
2.000000
 50
180.000000
 51
270.000000
  0
ARC
  8
0
  6
CONTINUOUS
 10
164.297516
 20
294.894379
 40
1.000000
 50
90.000000
 51
180.000000
  0
ARC
  8
0
  6
CONTINUOUS
 10
209.297501
 20
294.894379
 40
1.000000
 50
0.000000
 51
90.000000
  0
LINE
  8
0
  6
CONTINUOUS
 10
198.297501
 20
327.894379
 11
177.797501
 21
327.894379
  0
LINE
  8
0
  6
CONTINUOUS
 10
177.797501
 20
297.894379
 11
177.797501
 21
327.894379
  0
LINE
  8
0
  6
CONTINUOUS
 10
195.797501
 20
297.894379
 11
195.797501
 21
303.894379
  0
LINE
  8
0
  6
CONTINUOUS
 10
176.797501
 20
297.894379
 11
196.797501
 21
297.894379
  0
LINE
  8
0
  6
CONTINUOUS
 10
176.797501
 20
295.894379
 11
176.797501
 21
297.894379
  0
LINE
  8
0
  6
CONTINUOUS
 10
196.797501
 20
295.894379
 11
196.797501
 21
297.894379
  0
LINE
  8
0
  6
CONTINUOUS
 10
198.297501
 20
327.894379
 11
198.297501
 21
303.894379
  0
LINE
  8
0
  6
CONTINUOUS
 10
198.297501
 20
303.894379
 11
195.282501
 21
303.894379
  0
LINE
  8
0
  6
CONTINUOUS
 10
195.282501
 20
327.894379
 11
195.282501
 21
303.894379
  0
LINE
  8
0
  6
CONTINUOUS
 10
177.797501
 20
311.894379
 11
147.136871
 21
311.894379
  0
LINE
  8
0
  6
CONTINUOUS
 10
209.297501
 20
211.894379
 11
164.297501
 21
211.894379
  0
LINE
  8
0
  6
CONTINUOUS
 10
163.297501
 20
212.894379
 11
163.297501
 21
214.894379
  0
LINE
  8
0
  6
CONTINUOUS
 10
210.297501
 20
212.894379
 11
210.297501
 21
214.894379
  0
ARC
  8
0
  6
CONTINUOUS
 10
161.297501
 20
214.894379
 40
2.000000
 50
0.000000
 51
90.000000
  0
ARC
  8
0
  6
CONTINUOUS
 10
212.297501
 20
214.894379
 40
2.000000
 50
-270.000000
 51
-180.000000
  0
ARC
  8
0
  6
CONTINUOUS
 10
164.297516
 20
212.894379
 40
1.000000
 50
-180.000000
 51
-90.000000
  0
ARC
  8
0
  6
CONTINUOUS
 10
209.297501
 20
212.894379
 40
1.000000
 50
-90.000000
 51
0.000000
  0
LINE
  8
0
  6
CONTINUOUS
 10
198.297501
 20
179.894379
 11
177.797501
 21
179.894379
  0
LINE
  8
0
  6
CONTINUOUS
 10
177.797501
 20
209.894379
 11
177.797501
 21
179.894379
  0
LINE
  8
0
  6
CONTINUOUS
 10
195.797501
 20
209.894379
 11
195.797501
 21
203.894379
  0
LINE
  8
0
  6
CONTINUOUS
 10
176.797501
 20
209.894379
 11
196.797501
 21
209.894379
  0
LINE
  8
0
  6
CONTINUOUS
 10
176.797501
 20
211.894379
 11
176.797501
 21
209.894379
  0
LINE
  8
0
  6
CONTINUOUS
 10
196.797501
 20
211.894379
 11
196.797501
 21
209.894379
  0
LINE
  8
0
  6
CONTINUOUS
 10
198.297501
 20
179.894379
 11
198.297501
 21
203.894379
  0
LINE
  8
0
  6
CONTINUOUS
 10
198.297501
 20
203.894379
 11
195.282501
 21
203.894379
  0
LINE
  8
0
  6
CONTINUOUS
 10
195.282501
 20
179.894379
 11
195.282501
 21
203.894379
  0
LINE
  8
0
  6
CONTINUOUS
 10
177.797501
 20
195.894379
 11
147.136871
 21
195.894379
  0
LINE
  8
0
  6
CENTER
 10
376.797485
 20
-1.696690
 11
376.797485
 21
127.046249
  0
LINE
  8
0
  6
CENTER
 10
321.547485
 20
54.389999
 11
428.797485
 21
54.389999
  0
LINE
  8
0
  6
CONTINUOUS
 10
434.797485
 20
12.090000
 11
434.797485
 21
5.090000
  0
LINE
  8
0
  6
CONTINUOUS
 10
318.797485
 20
12.090000
 11
318.797485
 21
5.090000
  0
LINE
  8
0
  6
CENTER
 10
293.547485
 20
80.089996
 11
458.047485
 21
80.089996
  0
LINE
  8
0
  6
CONTINUOUS
 10
318.797485
 20
5.090000
 11
434.797485
 21
5.090000
  0
LINE
  8
0
  6
CONTINUOUS
 10
416.797485
 20
14.090000
 11
432.797485
 21
14.090000
  0
LINE
  8
0
  6
CONTINUOUS
 10
339.797485
 20
17.090000
 11
339.797485
 21
115.478630
  0
LINE
  8
0
  6
CONTINUOUS
 10
413.797485
 20
17.090000
 11
413.797485
 21
115.478760
  0
LINE
  8
0
  6
CONTINUOUS
 10
418.797485
 20
57.589996
 11
418.797485
 21
102.589996
  0
LINE
  8
0
  6
CONTINUOUS
 10
417.797485
 20
103.589996
 11
415.797485
 21
103.589996
  0
LINE
  8
0
  6
CONTINUOUS
 10
417.797485
 20
56.589996
 11
415.797485
 21
56.589996
  0
LINE
  8
0
  6
CONTINUOUS
 10
376.797485
 20
118.089996
 11
411.832397
 21
117.478470
  0
LINE
  8
0
  6
CONTINUOUS
 10
341.762604
 20
117.478333
 11
376.797485
 21
118.089996
  0
ARC
  8
0
  6
CONTINUOUS
 10
415.797485
 20
105.589996
 40
2.000000
 50
180.000000
 51
270.000000
  0
ARC
  8
0
  6
CONTINUOUS
 10
411.797485
 20
115.478760
 40
2.000000
 50
0.000000
 51
89.000137
  0
ARC
  8
0
  6
CONTINUOUS
 10
341.797485
 20
115.478638
 40
2.000000
 50
91.000641
 51
180.000000
  0
ARC
  8
0
  6
CONTINUOUS
 10
415.797485
 20
54.590008
 40
2.000000
 50
90.000000
 51
180.000000
  0
ARC
  8
0
  6
CONTINUOUS
 10
417.797485
 20
102.589989
 40
1.000000
 50
0.000000
 51
90.000000
  0
ARC
  8
0
  6
CONTINUOUS
 10
417.797485
 20
57.589996
 40
1.000000
 50
-90.000000
 51
0.000000
  0
LINE
  8
0
  6
CONTINUOUS
 10
341.047485
 20
94.589996
 11
412.797485
 21
94.589996
  0
ARC
  8
0
  6
CONTINUOUS
 10
432.797485
 20
12.089990
 40
2.000000
 50
0.000000
 51
90.000000
  0
ARC
  8
0
  6
CONTINUOUS
 10
320.797485
 20
12.090010
 40
2.000000
 50
90.000000
 51
180.000000
  0
LINE
  8
0
  6
CENTER
 10
424.797485
 20
18.046249
 11
424.797485
 21
0.796250
  0
LINE
  8
0
  6
CENTER
 10
328.797485
 20
18.046249
 11
328.797485
 21
0.046250
  0
LINE
  8
0
  6
DASHED
 10
333.047485
 20
14.090000
 11
333.047485
 21
5.090000
  0
LINE
  8
0
  6
DASHED
 10
324.547485
 20
14.090000
 11
324.547485
 21
5.090000
  0
LINE
  8
0
  6
DASHED
 10
429.047485
 20
14.090000
 11
429.047485
 21
5.090000
  0
LINE
  8
0
  6
DASHED
 10
420.547485
 20
14.090000
 11
420.547485
 21
5.090000
  0
ARC
  8
0
  6
CONTINUOUS
 10
376.797485
 20
54.389999
 40
45.000000
 50
159.580627
 51
214.692123
  0
ARC
  8
0
  6
CONTINUOUS
 10
376.797485
 20
54.389999
 40
45.000000
 50
-34.692108
 51
20.437799
  0
LINE
  8
0
  6
CONTINUOUS
 10
334.797485
 20
57.589996
 11
334.797485
 21
102.589996
  0
LINE
  8
0
  6
CONTINUOUS
 10
335.797485
 20
103.589996
 11
337.797485
 21
103.589996
  0
LINE
  8
0
  6
CONTINUOUS
 10
335.797485
 20
56.589996
 11
337.797485
 21
56.589996
  0
ARC
  8
0
  6
CONTINUOUS
 10
337.797485
 20
105.589996
 40
2.000000
 50
-90.000000
 51
0.000000
  0
ARC
  8
0
  6
CONTINUOUS
 10
337.797485
 20
54.590008
 40
2.000000
 50
0.000000
 51
90.000000
  0
ARC
  8
0
  6
CONTINUOUS
 10
335.797485
 20
102.589989
 40
1.000000
 50
90.000000
 51
180.000000
  0
ARC
  8
0
  6
CONTINUOUS
 10
335.797485
 20
57.589996
 40
1.000000
 50
180.000000
 51
270.000000
  0
LINE
  8
0
  6
CONTINUOUS
 10
336.797485
 20
14.090000
 11
320.797485
 21
14.090000
  0
ARC
  8
0
  6
CONTINUOUS
 10
336.797485
 20
17.090000
 40
3.000000
 50
-90.000000
 51
0.000000
  0
ARC
  8
0
  6
CONTINUOUS
 10
416.797485
 20
17.090000
 40
3.000000
 50
180.000000
 51
270.000000
  0
LINE
  8
0
  6
CONTINUOUS
 10
302.797485
 20
71.089996
 11
302.797485
 21
89.089996
  0
LINE
  8
0
  6
CONTINUOUS
 10
332.797485
 20
89.089996
 11
302.797485
 21
89.089996
  0
LINE
  8
0
  6
CONTINUOUS
 10
332.797485
 20
71.089996
 11
302.797485
 21
71.089996
  0
LINE
  8
0
  6
CONTINUOUS
 10
332.797485
 20
90.089996
 11
332.797485
 21
70.089996
  0
LINE
  8
0
  6
CONTINUOUS
 10
334.797485
 20
90.089996
 11
332.797485
 21
90.089996
  0
LINE
  8
0
  6
CONTINUOUS
 10
334.797485
 20
70.089996
 11
332.797485
 21
70.089996
  0
ARC
  8
0
  6
CONTINUOUS
 10
326.797485
 20
80.089996
 40
3.000000
 50
-90.000000
 51
90.000000
  0
LINE
  8
0
  6
CONTINUOUS
 10
326.797485
 20
83.089996
 11
302.797485
 21
83.089996
  0
LINE
  8
0
  6
CONTINUOUS
 10
326.797394
 20
77.089996
 11
302.797485
 21
77.089996
  0
LINE
  8
0
  6
CONTINUOUS
 10
450.797485
 20
71.089996
 11
450.797485
 21
89.089996
  0
LINE
  8
0
  6
CONTINUOUS
 10
420.797485
 20
89.089996
 11
450.797485
 21
89.089996
  0
LINE
  8
0
  6
CONTINUOUS
 10
420.797485
 20
71.089996
 11
450.797485
 21
71.089996
  0
LINE
  8
0
  6
CONTINUOUS
 10
420.797485
 20
90.089996
 11
420.797485
 21
70.089996
  0
LINE
  8
0
  6
CONTINUOUS
 10
418.797485
 20
90.089996
 11
420.797485
 21
90.089996
  0
LINE
  8
0
  6
CONTINUOUS
 10
418.797485
 20
70.089996
 11
420.797485
 21
70.089996
  0
ARC
  8
0
  6
CONTINUOUS
 10
426.797485
 20
80.089996
 40
3.000000
 50
90.000000
 51
270.000000
  0
LINE
  8
0
  6
CONTINUOUS
 10
426.797485
 20
83.089996
 11
450.797485
 21
83.089996
  0
LINE
  8
0
  6
CONTINUOUS
 10
426.797485
 20
77.089996
 11
450.797485
 21
77.089996
  0
LINE
  8
0
  6
DASHED
 10
350.797485
 20
9.390000
 11
402.797485
 21
9.390000
  0
ARC
  8
0
  6
DASHED
 10
402.797485
 20
12.390000
 40
3.000000
 50
-90.000000
 51
0.000000
  0
ARC
  8
0
  6
DASHED
 10
350.797485
 20
12.390000
 40
3.000000
 50
208.811234
 51
270.000000
  0
LINE
  8
0
  6
DASHED
 10
403.832397
 20
98.919800
 11
376.797485
 21
99.391693
  0
ARC
  8
0
  6
DASHED
 10
403.797485
 20
96.920097
 40
2.000000
 50
0.000000
 51
89.000191
  0
LINE
  8
0
  6
DASHED
 10
405.797485
 20
96.920113
 11
405.797485
 21
90.167091
  0
LINE
  8
0
  6
DASHED
 10
349.762604
 20
98.919800
 11
376.797485
 21
99.391693
  0
ARC
  8
0
  6
DASHED
 10
349.797485
 20
96.920097
 40
2.000000
 50
90.999809
 51
180.000000
  0
LINE
  8
0
  6
DASHED
 10
347.797485
 20
96.920113
 11
347.797485
 21
90.167091
  0
LINE
  8
0
  6
DASHED
 10
347.797485
 20
12.390000
 11
347.797485
 21
18.612911
  0
ARC
  8
0
  6
DASHED
 10
350.797485
 20
12.390000
 40
3.000000
 50
180.000000
 51
208.811234
  0
LINE
  8
0
  6
DASHED
 10
405.797485
 20
12.390000
 11
405.797485
 21
18.612911
  0
ARC
  8
0
  6
DASHED
 10
376.797485
 20
54.389999
 40
45.000000
 50
-48.189686
 51
-34.692131
  0
ARC
  8
0
  6
DASHED
 10
408.797485
 20
90.167091
 40
3.000000
 50
180.000000
 51
228.189682
  0
ARC
  8
0
  6
DASHED
 10
344.797485
 20
90.167091
 40
3.000000
 50
-48.189686
 51
0.000000
  0
ARC
  8
0
  6
DASHED
 10
344.797485
 20
18.612911
 40
3.000000
 50
0.000000
 51
48.189686
  0
ARC
  8
0
  6
DASHED
 10
408.797485
 20
18.612911
 40
3.000000
 50
131.810318
 51
180.000000
  0
ARC
  8
0
  6
DASHED
 10
376.797485
 20
54.389999
 40
45.000000
 50
20.419371
 51
48.189686
  0
ARC
  8
0
  6
DASHED
 10
376.797485
 20
54.389999
 40
45.000000
 50
214.692123
 51
228.189682
  0
ARC
  8
0
  6
DASHED
 10
376.797485
 20
54.389999
 40
45.000000
 50
131.810318
 51
159.580627
  0
LINE
  8
0
  6
DASHED
 10
399.797485
 20
111.390297
 11
399.797485
 21
98.988533
  0
LINE
  8
0
  6
DASHED
 10
353.797485
 20
111.390297
 11
353.797485
 21
98.988533
  0
LINE
  8
0
  6
DASHED
 10
399.297485
 20
111.390297
 11
399.297485
 21
112.390297
  0
LINE
  8
0
  6
DASHED
 10
354.297485
 20
111.390297
 11
354.297485
 21
112.390297
  0
LINE
  8
0
  6
CONTINUOUS
 10
353.797485
 20
118.373703
 11
353.797485
 21
117.688446
  0
LINE
  8
0
  6
CONTINUOUS
 10
399.797485
 20
118.373703
 11
399.797485
 21
117.688538
  0
ARC
  8
0
  6
CONTINUOUS
 10
396.797485
 20
112.090202
 40
7.000000
 50
73.041977
 51
106.956497
  0
ARC
  8
0
  6
CONTINUOUS
 10
395.047485
 20
117.829498
 40
1.000000
 50
106.956902
 51
180.000000
  0
ARC
  8
0
  6
CONTINUOUS
 10
398.547485
 20
117.829498
 40
1.000000
 50
0.000000
 51
73.041847
  0
LINE
  8
0
  6
CONTINUOUS
 10
393.297485
 20
118.876747
 11
393.297485
 21
117.801994
  0
ARC
  8
0
  6
CONTINUOUS
 10
376.797485
 20
-130.109695
 40
250.000000
 50
84.826019
 51
95.173981
  0
ARC
  8
0
  6
CONTINUOUS
 10
399.297485
 20
118.373703
 40
0.500000
 50
0.000000
 51
84.826019
  0
ARC
  8
0
  6
CONTINUOUS
 10
392.797485
 20
118.876747
 40
0.500000
 50
0.000000
 51
86.323196
  0
ARC
  8
0
  6
CONTINUOUS
 10
356.797485
 20
112.090202
 40
7.000000
 50
73.043503
 51
106.958023
  0
ARC
  8
0
  6
CONTINUOUS
 10
358.547485
 20
117.829498
 40
1.000000
 50
0.000000
 51
73.043098
  0
ARC
  8
0
  6
CONTINUOUS
 10
355.047485
 20
117.829498
 40
1.000000
 50
106.958153
 51
180.000000
  0
LINE
  8
0
  6
CONTINUOUS
 10
360.297485
 20
118.876747
 11
360.297485
 21
117.801926
  0
ARC
  8
0
  6
CONTINUOUS
 10
354.297485
 20
118.373703
 40
0.500000
 50
95.173981
 51
180.000000
  0
ARC
  8
0
  6
CONTINUOUS
 10
360.797485
 20
118.876747
 40
0.500000
 50
93.676804
 51
180.000000
  0
LINE
  8
0
  6
DASHED
 10
399.297485
 20
112.390297
 11
399.797485
 21
112.390297
  0
LINE
  8
0
  6
DASHED
 10
399.297485
 20
111.390297
 11
399.797485
 21
111.390297
  0
LINE
  8
0
  6
DASHED
 10
354.297485
 20
112.390297
 11
353.797485
 21
112.390297
  0
LINE
  8
0
  6
DASHED
 10
354.297485
 20
111.390297
 11
353.797485
 21
111.390297
  0
LINE
  8
0
  6
DASHED
 10
399.797485
 20
117.688538
 11
399.797485
 21
112.390297
  0
LINE
  8
0
  6
CONTINUOUS
 10
399.547485
 20
117.692902
 11
399.547485
 21
117.829498
  0
LINE
  8
0
  6
CONTINUOUS
 10
394.047485
 20
117.788902
 11
394.047485
 21
117.829498
  0
LINE
  8
0
  6
CONTINUOUS
 10
359.547485
 20
117.788834
 11
359.547485
 21
117.829498
  0
LINE
  8
0
  6
CONTINUOUS
 10
354.047485
 20
117.692810
 11
354.047485
 21
117.829498
  0
LINE
  8
0
  6
DASHED
 10
353.797485
 20
117.688446
 11
353.797485
 21
112.390297
  0
LINE
  8
0
  6
CONTINUOUS
 10
326.797485
 20
83.089996
 11
326.797485
 21
77.089996
  0
LINE
  8
0
  6
CONTINUOUS
 10
426.797485
 20
83.089996
 11
426.797485
 21
77.089996
  0
LINE
  8
0
  6
CONTINUOUS
 10
32.797501
 20
10.731823
 11
32.797501
 21
15.509558
  0
LINE
  8
0
  6
CONTINUOUS
 10
32.797501
 20
10.890020
 11
31.358290
 21
10.890020
  0
LINE
  8
0
  6
CONTINUOUS
 10
32.097549
 20
10.890020
 11
32.097549
 21
15.527887
  0
ARC
  8
0
  6
CONTINUOUS
 10
37.097549
 20
13.640020
 40
7.000000
 50
163.968933
 51
196.957993
  0
ARC
  8
0
  6
CONTINUOUS
 10
31.358290
 20
11.890020
 40
1.000000
 50
196.958099
 51
270.000000
  0
LINE
  8
0
  6
CONTINUOUS
 10
5.797521
 20
90.422096
 11
5.797500
 21
54.389999
  0
LINE
  8
0
  6
CONTINUOUS
 10
5.797520
 20
18.648899
 11
5.797500
 21
54.389999
  0
LINE
  8
0
  6
CONTINUOUS
 10
32.797501
 20
66.653557
 11
32.797501
 21
78.764999
  0
LINE
  8
0
  6
CONTINUOUS
 10
32.797501
 20
72.014999
 11
31.358290
 21
72.014999
  0
LINE
  8
0
  6
CONTINUOUS
 10
32.797501
 20
77.514999
 11
31.358290
 21
77.514999
  0
LINE
  8
0
  6
CONTINUOUS
 10
32.097549
 20
72.014999
 11
32.097549
 21
77.514999
  0
ARC
  8
0
  6
CONTINUOUS
 10
37.097549
 20
74.764999
 40
7.000000
 50
163.043503
 51
196.957993
  0
ARC
  8
0
  6
CONTINUOUS
 10
31.358290
 20
76.514999
 40
1.000000
 50
90.000000
 51
163.043106
  0
ARC
  8
0
  6
CONTINUOUS
 10
31.358290
 20
73.014999
 40
1.000000
 50
196.958099
 51
270.000000
  0
LINE
  8
0
  6
CONTINUOUS
 10
32.797501
 20
66.653557
 11
36.797501
 21
66.653557
  0
LINE
  8
0
  6
CONTINUOUS
 10
32.797501
 20
78.764999
 11
36.797501
 21
78.764999
  0
LINE
  8
0
  6
CONTINUOUS
 10
63.797501
 20
9.390000
 11
63.797501
 21
99.389999
  0
LINE
  8
0
  6
CONTINUOUS
 10
49.797501
 20
10.125720
 11
49.797501
 21
19.980709
  0
LINE
  8
0
  6
CONTINUOUS
 10
36.797501
 20
92.416145
 11
36.797501
 21
10.140000
  0
LINE
  8
0
  6
CENTER
 10
46.297501
 20
101.328278
 11
46.297501
 21
122.590782
  0
ARC
  8
0
  6
CONTINUOUS
 10
62.297501
 20
100.389999
 40
1.000000
 50
180.000000
 51
270.000000
  0
LINE
  8
0
  6
CONTINUOUS
 10
63.797501
 20
19.980709
 11
49.797501
 21
19.980709
  0
LINE
  8
0
  6
CONTINUOUS
 10
49.797501
 20
98.889999
 11
49.797501
 21
88.889999
  0
LINE
  8
0
  6
CONTINUOUS
 10
63.797501
 20
88.799301
 11
49.797501
 21
88.799301
  0
LINE
  8
0
  6
CONTINUOUS
 10
63.797501
 20
99.389999
 11
31.297569
 21
99.389999
  0
ARC
  8
0
  6
CONTINUOUS
 10
50.297501
 20
98.889999
 40
0.500000
 50
90.000000
 51
180.000000
  0
LINE
  8
0
  6
CONTINUOUS
 10
31.297846
 20
111.390236
 11
31.297548
 21
99.392746
  0
LINE
  8
0
  6
CONTINUOUS
 10
61.297501
 20
111.390297
 11
61.297501
 21
100.389999
  0
LINE
  8
0
  6
CONTINUOUS
 10
61.297501
 20
112.390297
 11
61.297501
 21
118.968597
  0
LINE
  8
0
  6
CONTINUOUS
 10
17.409929
 20
108.340302
 11
29.297501
 21
108.340302
  0
LINE
  8
0
  6
CONTINUOUS
 10
31.297300
 20
112.390297
 11
31.297300
 21
118.968597
  0
LINE
  8
0
  6
CONTINUOUS
 10
63.297501
 20
116.890297
 11
63.297501
 21
112.390297
  0
LINE
  8
0
  6
CONTINUOUS
 10
29.297501
 20
112.390297
 11
63.297501
 21
112.390297
  0
LINE
  8
0
  6
CONTINUOUS
 10
29.297501
 20
111.390297
 11
63.297501
 21
111.390297
  0
LINE
  8
0
  6
CONTINUOUS
 10
29.297501
 20
116.890297
 11
29.297501
 21
116.140297
  0
LINE
  8
0
  6
CONTINUOUS
 10
29.297501
 20
116.140297
 11
29.297501
 21
112.390297
  0
LINE
  8
0
  6
CONTINUOUS
 10
18.261730
 20
116.040298
 11
29.297501
 21
116.040298
  0
ARC
  8
0
  6
CONTINUOUS
 10
46.297501
 20
-130.109695
 40
250.000000
 50
86.668304
 51
93.331696
  0
LINE
  8
0
  6
CONTINUOUS
 10
61.797501
 20
117.890297
 11
62.297501
 21
117.890297
  0
ARC
  8
0
  6
CONTINUOUS
 10
62.297501
 20
116.890297
 40
1.000000
 50
0.000000
 51
90.000000
  0
ARC
  8
0
  6
CONTINUOUS
 10
61.797501
 20
118.390297
 40
0.500000
 50
180.000000
 51
270.000000
  0
LINE
  8
0
  6
CONTINUOUS
 10
61.797501
 20
105.890297
 11
62.297501
 21
105.890297
  0
ARC
  8
0
  6
CONTINUOUS
 10
62.297501
 20
106.890297
 40
1.000000
 50
-90.000000
 51
0.000000
  0
ARC
  8
0
  6
CONTINUOUS
 10
61.797501
 20
105.390297
 40
0.500000
 50
90.000000
 51
180.000000
  0
LINE
  8
0
  6
CONTINUOUS
 10
30.797501
 20
117.890297
 11
30.297501
 21
117.890297
  0
ARC
  8
0
  6
CONTINUOUS
 10
30.297501
 20
116.890297
 40
1.000000
 50
90.000000
 51
180.000000
  0
ARC
  8
0
  6
CONTINUOUS
 10
30.797501
 20
118.390297
 40
0.500000
 50
-90.000000
 51
0.000000
  0
LINE
  8
0
  6
CONTINUOUS
 10
30.797501
 20
105.890297
 11
30.297501
 21
105.890297
  0
ARC
  8
0
  6
CONTINUOUS
 10
30.297501
 20
106.890297
 40
1.000000
 50
180.000000
 51
270.000000
  0
ARC
  8
0
  6
CONTINUOUS
 10
30.797501
 20
105.390297
 40
0.500000
 50
0.000000
 51
90.000000
  0
LINE
  8
0
  6
CONTINUOUS
 10
62.797501
 20
112.390297
 11
62.797501
 21
111.390297
  0
LINE
  8
0
  6
CONTINUOUS
 10
63.297501
 20
111.390297
 11
63.297501
 21
106.890297
  0
ARC
  8
0
  6
CONTINUOUS
 10
60.797501
 20
118.968597
 40
0.500000
 50
0.000000
 51
86.668304
  0
LINE
  8
0
  6
CONTINUOUS
 10
29.297501
 20
111.390297
 11
29.297501
 21
106.890297
  0
LINE
  8
0
  6
CONTINUOUS
 10
31.797846
 20
112.390297
 11
31.797846
 21
111.390236
  0
LINE
  8
0
  6
CONTINUOUS
 10
55.297501
 20
116.390297
 11
61.047501
 21
116.390297
  0
LINE
  8
0
  6
CENTER
 10
58.297501
 20
119.987465
 11
58.297501
 21
114.702309
  0
LINE
  8
0
  6
CONTINUOUS
 10
54.797501
 20
116.890297
 11
54.797501
 21
119.262009
  0
LINE
  8
0
  6
CONTINUOUS
 10
55.547501
 20
116.390297
 11
55.547501
 21
117.829498
  0
LINE
  8
0
  6
CONTINUOUS
 10
61.047501
 20
116.390099
 11
61.047501
 21
117.829498
  0
LINE
  8
0
  6
CONTINUOUS
 10
55.547501
 20
117.090202
 11
61.047501
 21
117.090202
  0
ARC
  8
0
  6
CONTINUOUS
 10
58.297501
 20
112.090202
 40
7.000000
 50
73.043503
 51
106.958000
  0
ARC
  8
0
  6
CONTINUOUS
 10
60.047501
 20
117.829498
 40
1.000000
 50
0.000000
 51
73.043098
  0
ARC
  8
0
  6
CONTINUOUS
 10
56.547501
 20
117.829498
 40
1.000000
 50
106.958199
 51
180.000000
  0
ARC
  8
0
  6
CONTINUOUS
 10
55.297501
 20
116.890297
 40
0.500000
 50
180.000000
 51
270.000000
  0
ARC
  8
0
  6
CONTINUOUS
 10
60.797501
 20
115.890297
 40
0.500000
 50
0.000000
 51
90.000000
  0
ARC
  8
0
  6
CONTINUOUS
 10
54.297501
 20
119.262009
 40
0.500000
 50
0.000000
 51
88.162544
  0
ARC
  8
0
  6
CONTINUOUS
 10
31.797501
 20
118.968597
 40
0.500000
 50
93.331696
 51
180.000000
  0
LINE
  8
0
  6
CONTINUOUS
 10
37.297501
 20
116.390297
 11
31.547501
 21
116.390297
  0
LINE
  8
0
  6
CENTER
 10
34.297501
 20
119.987465
 11
34.297501
 21
114.702309
  0
LINE
  8
0
  6
CONTINUOUS
 10
37.797501
 20
116.890297
 11
37.797501
 21
119.262009
  0
LINE
  8
0
  6
CONTINUOUS
 10
37.047501
 20
116.390297
 11
37.047501
 21
117.829498
  0
LINE
  8
0
  6
CONTINUOUS
 10
31.547501
 20
116.390099
 11
31.547501
 21
117.829498
  0
LINE
  8
0
  6
CONTINUOUS
 10
37.047501
 20
117.090202
 11
31.547501
 21
117.090202
  0
ARC
  8
0
  6
CONTINUOUS
 10
34.297501
 20
112.090202
 40
7.000000
 50
73.042000
 51
106.956497
  0
ARC
  8
0
  6
CONTINUOUS
 10
32.547501
 20
117.829498
 40
1.000000
 50
106.956902
 51
180.000000
  0
ARC
  8
0
  6
CONTINUOUS
 10
36.047501
 20
117.829498
 40
1.000000
 50
0.000000
 51
73.041801
  0
ARC
  8
0
  6
CONTINUOUS
 10
37.297501
 20
116.890297
 40
0.500000
 50
-90.000000
 51
0.000000
  0
ARC
  8
0
  6
CONTINUOUS
 10
31.797501
 20
115.890297
 40
0.500000
 50
90.000000
 51
180.000000
  0
ARC
  8
0
  6
CONTINUOUS
 10
38.297501
 20
119.262009
 40
0.500000
 50
91.837456
 51
180.000000
  0
LINE
  8
0
  6
CONTINUOUS
 10
31.297569
 20
95.482635
 11
31.297569
 21
99.389999
  0
LINE
  8
0
  6
CONTINUOUS
 10
38.765484
 20
9.787619
 11
63.797501
 21
9.390000
  0
ARC
  8
0
  6
CONTINUOUS
 10
50.297501
 20
10.125720
 40
0.500000
 50
180.000000
 51
269.000000
  0
LINE
  8
0
  6
CONTINUOUS
 10
37.540516
 20
10.113358
 11
38.797249
 21
9.779173
  0
ARC
  8
0
  6
CONTINUOUS
 10
37.797501
 20
11.079773
 40
1.000000
 50
180.000000
 51
255.108749
  0
LINE
  8
0
  6
CONTINUOUS
 10
38.797249
 20
18.889589
 11
49.797501
 21
18.889589
  0
LINE
  8
0
  6
CONTINUOUS
 10
37.540516
 20
19.223776
 11
38.797249
 21
18.889589
  0
ARC
  8
0
  6
CONTINUOUS
 10
37.797501
 20
20.190191
 40
1.000000
 50
180.000000
 51
255.108749
  0
LINE
  8
0
  6
CONTINUOUS
 10
38.797249
 20
89.890411
 11
49.797501
 21
89.890411
  0
LINE
  8
0
  6
CONTINUOUS
 10
37.540516
 20
89.556229
 11
38.797249
 21
89.890411
  0
ARC
  8
0
  6
CONTINUOUS
 10
37.797501
 20
88.589806
 40
1.000000
 50
104.891251
 51
180.000000
  0
LINE
  8
0
  6
CONTINUOUS
 10
35.823677
 20
93.415802
 11
33.245216
 21
93.483322
  0
ARC
  8
0
  6
CONTINUOUS
 10
33.297569
 20
95.482635
 40
2.000000
 50
180.000000
 51
268.500000
  0
LINE
  8
0
  6
CONTINUOUS
 10
9.600682
 20
92.927826
 11
32.837368
 21
93.536301
  0
ARC
  8
0
  6
CONTINUOUS
 10
35.797501
 20
92.416145
 40
1.000000
 50
0.000000
 51
88.499985
  0
LINE
  8
0
  6
CONTINUOUS
 10
8.039496
 20
92.634529
 11
7.120693
 21
92.304092
  0
ARC
  8
0
  6
CONTINUOUS
 10
7.797522
 20
90.422096
 40
2.000000
 50
109.780319
 51
180.000000
  0
LINE
  8
0
  6
CONTINUOUS
 10
33.284412
 20
10.231994
 11
36.797501
 21
10.140000
  0
LINE
  8
0
  6
CONTINUOUS
 10
9.600682
 20
16.143173
 11
36.797501
 21
15.431000
  0
LINE
  8
0
  6
CONTINUOUS
 10
8.039496
 20
16.436474
 11
7.120693
 21
16.766907
  0
ARC
  8
0
  6
CONTINUOUS
 10
7.797522
 20
18.648899
 40
2.000000
 50
180.000000
 51
250.219681
  0
LINE
  8
0
  6
CONTINUOUS
 10
18.261730
 20
116.040298
 11
17.525930
 21
113.205200
  0
LINE
  8
0
  6
CONTINUOUS
 10
17.525930
 20
113.205200
 11
18.338030
 21
110.730202
  0
LINE
  8
0
  6
CONTINUOUS
 10
18.338030
 20
110.730202
 11
17.409929
 21
108.340302
  0
ARC
  8
0
  6
CONTINUOUS
 10
9.731566
 20
87.929543
 40
5.000000
 50
91.500000
 51
109.780281
  0
ARC
  8
0
  6
CONTINUOUS
 10
9.731566
 20
21.141460
 40
5.000000
 50
250.219727
 51
268.500000
  0
LINE
  8
0
  6
CONTINUOUS
 10
48.797501
 20
90.890404
 11
48.797501
 21
97.890404
  0
LINE
  8
0
  6
CONTINUOUS
 10
49.797501
 20
90.890404
 11
47.818489
 21
90.890404
  0
LINE
  8
0
  6
CONTINUOUS
 10
49.797501
 20
97.890404
 11
47.818489
 21
97.890404
  0
ARC
  8
0
  6
CONTINUOUS
 10
55.197529
 20
94.390404
 40
8.999999
 50
163.398987
 51
196.601517
  0
ARC
  8
0
  6
CONTINUOUS
 10
47.818489
 20
92.190414
 40
1.300000
 50
196.601578
 51
270.000000
  0
ARC
  8
0
  6
CONTINUOUS
 10
47.818489
 20
96.590408
 40
1.300000
 50
90.000000
 51
163.399094
  0
LINE
  8
0
  6
CONTINUOUS
 10
48.797501
 20
10.889590
 11
48.797501
 21
17.889589
  0
LINE
  8
0
  6
CONTINUOUS
 10
49.797501
 20
10.889590
 11
47.818489
 21
10.889590
  0
LINE
  8
0
  6
CONTINUOUS
 10
49.797501
 20
17.889589
 11
47.818489
 21
17.889589
  0
ARC
  8
0
  6
CONTINUOUS
 10
55.197529
 20
14.389590
 40
8.999999
 50
163.398987
 51
196.601517
  0
ARC
  8
0
  6
CONTINUOUS
 10
47.818489
 20
12.189608
 40
1.300000
 50
196.601578
 51
270.000000
  0
ARC
  8
0
  6
CONTINUOUS
 10
47.818489
 20
16.589602
 40
1.300000
 50
90.000000
 51
163.399094
  0
ARC
  8
0
  6
CONTINUOUS
 10
33.297501
 20
10.731823
 40
0.500000
 50
180.000000
 51
268.500000
  0
LINE
  8
0
  6
CONTINUOUS
 10
32.797501
 20
77.738815
 11
5.797515
 21
77.031799
  0
LINE
  8
0
  6
CONTINUOUS
 10
32.797501
 20
71.791183
 11
5.797515
 21
72.498199
  0
LINE
  8
0
  6
CONTINUOUS
 10
63.297501
 20
258.778076
 11
63.297501
 21
249.010681
  0
LINE
  8
0
  6
CONTINUOUS
 10
63.797501
 20
208.894379
 11
63.797501
 21
298.894379
  0
LINE
  8
0
  6
CONTINUOUS
 10
36.797501
 20
297.164062
 11
36.797501
 21
276.894379
  0
LINE
  8
0
  6
CONTINUOUS
 10
36.797501
 20
210.624680
 11
36.797501
 21
230.894379
  0
LINE
  8
0
  6
CONTINUOUS
 10
63.797501
 20
282.894379
 11
50.284401
 21
282.540466
  0
LINE
  8
0
  6
CONTINUOUS
 10
50.284401
 20
225.248276
 11
63.797501
 21
224.894379
  0
LINE
  8
0
  6
CONTINUOUS
 10
29.297501
 20
258.778076
 11
29.297501
 21
249.010681
  0
LINE
  8
0
  6
CONTINUOUS
 10
49.797501
 20
225.748169
 11
49.797501
 21
230.894379
  0
ARC
  8
0
  6
CONTINUOUS
 10
50.297501
 20
225.748169
 40
0.500000
 50
180.000000
 51
268.496399
  0
LINE
  8
0
  6
CONTINUOUS
 10
49.797501
 20
282.040588
 11
49.797501
 21
276.894379
  0
ARC
  8
0
  6
CONTINUOUS
 10
50.297501
 20
282.040588
 40
0.500000
 50
91.503601
 51
180.000000
  0
LINE
  8
0
  6
CONTINUOUS
 10
49.797501
 20
226.244370
 11
36.797501
 21
226.584869
  0
LINE
  8
0
  6
CONTINUOUS
 10
49.797501
 20
281.544373
 11
36.797501
 21
281.203888
  0
ARC
  8
0
  6
CONTINUOUS
 10
59.297501
 20
232.911880
 40
2.000000
 50
-90.500061
 51
0.000000
  0
LINE
  8
0
  6
CONTINUOUS
 10
38.762287
 20
209.331406
 11
63.797501
 21
208.894379
  0
LINE
  8
0
  6
CONTINUOUS
 10
37.539101
 20
209.658569
 11
38.762287
 21
209.331406
  0
ARC
  8
0
  6
CONTINUOUS
 10
37.797501
 20
210.624680
 40
1.000000
 50
180.000000
 51
255.023895
  0
LINE
  8
0
  6
CONTINUOUS
 10
38.762299
 20
298.457336
 11
63.797501
 21
298.894379
  0
LINE
  8
0
  6
CONTINUOUS
 10
37.539101
 20
298.130066
 11
38.762299
 21
298.457336
  0
ARC
  8
0
  6
CONTINUOUS
 10
37.797501
 20
297.164062
 40
1.000000
 50
104.976097
 51
180.000000
  0
LINE
  8
0
  6
CONTINUOUS
 10
31.297400
 20
232.894379
 11
31.297400
 21
274.894379
  0
LINE
  8
0
  6
CENTER
 10
46.297501
 20
285.704376
 11
46.297501
 21
222.169373
  0
LINE
  8
0
  6
CONTINUOUS
 10
61.297501
 20
274.894379
 11
61.297501
 21
232.894379
  0
LINE
  8
0
  6
CONTINUOUS
 10
63.297501
 20
258.894379
 11
63.297501
 21
248.894379
  0
LINE
  8
0
  6
CONTINUOUS
 10
29.297501
 20
258.894379
 11
29.297501
 21
248.894379
  0
ARC
  8
0
  6
CONTINUOUS
 10
34.297501
 20
233.894379
 40
3.500000
 50
0.000000
 51
90.000000
  0
LINE
  8
0
  6
CONTINUOUS
 10
32.297401
 20
237.394379
 11
34.297501
 21
237.394379
  0
LINE
  8
0
  6
CONTINUOUS
 10
37.797501
 20
231.894379
 11
37.797501
 21
233.894379
  0
ARC
  8
0
  6
CONTINUOUS
 10
32.297401
 20
238.394379
 40
1.000000
 50
180.000000
 51
270.000000
  0
ARC
  8
0
  6
CONTINUOUS
 10
58.297501
 20
233.894379
 40
3.500000
 50
90.000000
 51
180.000000
  0
LINE
  8
0
  6
CONTINUOUS
 10
54.797501
 20
231.894379
 11
54.797501
 21
233.894379
  0
LINE
  8
0
  6
CONTINUOUS
 10
60.297600
 20
237.394379
 11
58.297501
 21
237.394379
  0
ARC
  8
0
  6
CONTINUOUS
 10
60.297600
 20
238.394379
 40
1.000000
 50
-90.000000
 51
0.000000
  0
LINE
  8
0
  6
CONTINUOUS
 10
59.297501
 20
230.894379
 11
33.297401
 21
230.894379
  0
ARC
  8
0
  6
CONTINUOUS
 10
53.797501
 20
231.894379
 40
1.000000
 50
-90.000000
 51
0.000000
  0
ARC
  8
0
  6
CONTINUOUS
 10
38.797501
 20
231.894379
 40
1.000000
 50
180.000000
 51
270.000000
  0
ARC
  8
0
  6
CONTINUOUS
 10
33.297401
 20
232.894379
 40
2.000000
 50
180.000000
 51
270.000000
  0
ARC
  8
0
  6
CONTINUOUS
 10
59.297501
 20
232.894379
 40
2.000000
 50
-90.000000
 51
0.000000
  0
ARC
  8
0
  6
CONTINUOUS
 10
34.297501
 20
273.894379
 40
3.500000
 50
-90.000000
 51
0.000000
  0
LINE
  8
0
  6
CONTINUOUS
 10
32.297401
 20
270.394379
 11
34.297501
 21
270.394379
  0
LINE
  8
0
  6
CONTINUOUS
 10
37.797501
 20
275.894379
 11
37.797501
 21
273.894379
  0
ARC
  8
0
  6
CONTINUOUS
 10
32.297401
 20
269.394379
 40
1.000000
 50
90.000000
 51
180.000000
  0
ARC
  8
0
  6
CONTINUOUS
 10
58.297501
 20
273.894379
 40
3.500000
 50
180.000000
 51
270.000000
  0
LINE
  8
0
  6
CONTINUOUS
 10
54.797501
 20
275.894379
 11
54.797501
 21
273.894379
  0
LINE
  8
0
  6
CONTINUOUS
 10
60.297600
 20
270.394379
 11
58.297501
 21
270.394379
  0
ARC
  8
0
  6
CONTINUOUS
 10
60.297600
 20
269.394379
 40
1.000000
 50
0.000000
 51
90.000000
  0
LINE
  8
0
  6
CONTINUOUS
 10
59.297501
 20
276.894379
 11
33.297401
 21
276.894379
  0
ARC
  8
0
  6
CONTINUOUS
 10
53.797501
 20
275.894379
 40
1.000000
 50
0.000000
 51
90.000000
  0
ARC
  8
0
  6
CONTINUOUS
 10
38.797501
 20
275.894379
 40
1.000000
 50
90.000000
 51
180.000000
  0
ARC
  8
0
  6
CONTINUOUS
 10
33.297401
 20
274.894379
 40
2.000000
 50
90.000000
 51
180.000000
  0
ARC
  8
0
  6
CONTINUOUS
 10
59.297501
 20
274.894379
 40
2.000000
 50
0.000000
 51
90.000000
  0
LINE
  8
0
  6
CONTINUOUS
 10
30.797501
 20
259.894379
 11
30.297501
 21
259.894379
  0
ARC
  8
0
  6
CONTINUOUS
 10
30.297501
 20
258.894379
 40
1.000000
 50
90.000000
 51
180.000000
  0
ARC
  8
0
  6
CONTINUOUS
 10
30.797501
 20
260.394379
 40
0.500000
 50
-90.000000
 51
0.000000
  0
LINE
  8
0
  6
CONTINUOUS
 10
30.797501
 20
247.894379
 11
30.297501
 21
247.894379
  0
ARC
  8
0
  6
CONTINUOUS
 10
30.297501
 20
248.894379
 40
1.000000
 50
180.000000
 51
270.000000
  0
ARC
  8
0
  6
CONTINUOUS
 10
30.797501
 20
247.394379
 40
0.500000
 50
0.000000
 51
90.000000
  0
LINE
  8
0
  6
CONTINUOUS
 10
61.797501
 20
259.894379
 11
62.297501
 21
259.894379
  0
ARC
  8
0
  6
CONTINUOUS
 10
62.297501
 20
258.894379
 40
1.000000
 50
0.000000
 51
90.000000
  0
ARC
  8
0
  6
CONTINUOUS
 10
61.797501
 20
260.394379
 40
0.500000
 50
180.000000
 51
270.000000
  0
LINE
  8
0
  6
CONTINUOUS
 10
61.797501
 20
247.894379
 11
62.297501
 21
247.894379
  0
ARC
  8
0
  6
CONTINUOUS
 10
62.297501
 20
248.894379
 40
1.000000
 50
-90.000000
 51
0.000000
  0
ARC
  8
0
  6
CONTINUOUS
 10
61.797501
 20
247.394379
 40
0.500000
 50
90.000000
 51
180.000000
  0
LINE
  8
0
  6
CONTINUOUS
 10
36.047501
 20
234.294373
 11
36.047501
 21
233.494354
  0
LINE
  8
0
  6
CONTINUOUS
 10
33.897476
 20
235.644379
 11
34.697495
 21
235.644379
  0
LINE
  8
0
  6
CONTINUOUS
 10
33.897476
 20
232.144379
 11
34.697495
 21
232.144379
  0
LINE
  8
0
  6
CONTINUOUS
 10
32.547501
 20
234.294373
 11
32.547501
 21
233.494354
  0
CIRCLE
  8
0
  6
CONTINUOUS
 10
34.297501
 20
233.894379
 40
2.750000
  0
ARC
  8
0
  6
CONTINUOUS
 10
32.547501
 20
235.644379
 40
1.350000
 50
-90.000000
 51
0.000000
  0
ARC
  8
0
  6
CONTINUOUS
 10
32.547501
 20
232.144379
 40
1.350000
 50
0.000000
 51
90.000000
  0
ARC
  8
0
  6
CONTINUOUS
 10
36.047501
 20
235.644379
 40
1.350000
 50
180.000000
 51
270.000000
  0
ARC
  8
0
  6
CONTINUOUS
 10
36.047501
 20
232.144379
 40
1.350000
 50
90.000000
 51
180.000000
  0
LINE
  8
0
  6
CONTINUOUS
 10
60.047501
 20
234.294373
 11
60.047501
 21
233.494354
  0
LINE
  8
0
  6
CONTINUOUS
 10
57.897476
 20
235.644379
 11
58.697495
 21
235.644379
  0
LINE
  8
0
  6
CONTINUOUS
 10
57.897476
 20
232.144379
 11
58.697495
 21
232.144379
  0
LINE
  8
0
  6
CONTINUOUS
 10
56.547501
 20
234.294373
 11
56.547501
 21
233.494354
  0
CIRCLE
  8
0
  6
CONTINUOUS
 10
58.297501
 20
233.894379
 40
2.750000
  0
ARC
  8
0
  6
CONTINUOUS
 10
56.547501
 20
235.644379
 40
1.350000
 50
-90.000000
 51
0.000000
  0
ARC
  8
0
  6
CONTINUOUS
 10
56.547501
 20
232.144379
 40
1.350000
 50
0.000000
 51
90.000000
  0
ARC
  8
0
  6
CONTINUOUS
 10
60.047501
 20
235.644379
 40
1.350000
 50
180.000000
 51
270.000000
  0
ARC
  8
0
  6
CONTINUOUS
 10
60.047501
 20
232.144379
 40
1.350000
 50
90.000000
 51
180.000000
  0
LINE
  8
0
  6
CONTINUOUS
 10
60.047501
 20
274.294373
 11
60.047501
 21
273.494354
  0
LINE
  8
0
  6
CONTINUOUS
 10
57.897476
 20
275.644379
 11
58.697495
 21
275.644379
  0
LINE
  8
0
  6
CONTINUOUS
 10
57.897476
 20
272.144379
 11
58.697495
 21
272.144379
  0
LINE
  8
0
  6
CONTINUOUS
 10
56.547501
 20
274.294373
 11
56.547501
 21
273.494354
  0
CIRCLE
  8
0
  6
CONTINUOUS
 10
58.297501
 20
273.894379
 40
2.750000
  0
ARC
  8
0
  6
CONTINUOUS
 10
56.547501
 20
275.644379
 40
1.350000
 50
-90.000000
 51
0.000000
  0
ARC
  8
0
  6
CONTINUOUS
 10
56.547501
 20
272.144379
 40
1.350000
 50
0.000000
 51
90.000000
  0
ARC
  8
0
  6
CONTINUOUS
 10
60.047501
 20
275.644379
 40
1.350000
 50
180.000000
 51
270.000000
  0
ARC
  8
0
  6
CONTINUOUS
 10
60.047501
 20
272.144379
 40
1.350000
 50
90.000000
 51
180.000000
  0
LINE
  8
0
  6
CONTINUOUS
 10
36.047501
 20
274.294373
 11
36.047501
 21
273.494354
  0
LINE
  8
0
  6
CONTINUOUS
 10
33.897476
 20
275.644379
 11
34.697495
 21
275.644379
  0
LINE
  8
0
  6
CONTINUOUS
 10
33.897476
 20
272.144379
 11
34.697495
 21
272.144379
  0
LINE
  8
0
  6
CONTINUOUS
 10
32.547501
 20
274.294373
 11
32.547501
 21
273.494354
  0
CIRCLE
  8
0
  6
CONTINUOUS
 10
34.297501
 20
273.894379
 40
2.750000
  0
ARC
  8
0
  6
CONTINUOUS
 10
32.547501
 20
275.644379
 40
1.350000
 50
-90.000000
 51
0.000000
  0
ARC
  8
0
  6
CONTINUOUS
 10
32.547501
 20
272.144379
 40
1.350000
 50
0.000000
 51
90.000000
  0
ARC
  8
0
  6
CONTINUOUS
 10
36.047501
 20
275.644379
 40
1.350000
 50
180.000000
 51
270.000000
  0
ARC
  8
0
  6
CONTINUOUS
 10
36.047501
 20
272.144379
 40
1.350000
 50
90.000000
 51
180.000000
  0
LINE
  8
0
  6
CONTINUOUS
 10
14.148820
 20
250.044373
 11
29.297621
 21
250.044373
  0
LINE
  8
0
  6
CONTINUOUS
 10
15.000620
 20
257.744385
 11
14.264820
 21
254.909271
  0
LINE
  8
0
  6
CONTINUOUS
 10
14.264820
 20
254.909271
 11
15.076920
 21
252.434280
  0
LINE
  8
0
  6
CONTINUOUS
 10
15.076920
 20
252.434280
 11
14.148820
 21
250.044373
  0
LINE
  8
0
  6
CONTINUOUS
 10
15.000620
 20
257.744385
 11
29.297621
 21
257.744385
  0
LINE
  8
0
  6
CONTINUOUS
 10
48.797501
 20
276.894379
 11
48.797501
 21
281.394379
  0
LINE
  8
0
  6
CONTINUOUS
 10
49.797501
 20
281.394379
 11
47.818489
 21
281.394379
  0
ARC
  8
0
  6
CONTINUOUS
 10
55.197529
 20
277.894379
 40
8.999999
 50
163.398987
 51
186.379364
  0
ARC
  8
0
  6
CONTINUOUS
 10
47.818489
 20
280.094391
 40
1.300000
 50
90.000000
 51
163.399094
  0
LINE
  8
0
  6
CONTINUOUS
 10
48.797501
 20
230.894379
 11
48.797501
 21
226.394379
  0
LINE
  8
0
  6
CONTINUOUS
 10
49.797501
 20
226.394379
 11
47.818489
 21
226.394379
  0
ARC
  8
0
  6
CONTINUOUS
 10
55.197529
 20
229.894379
 40
8.999999
 50
173.620636
 51
196.601013
  0
ARC
  8
0
  6
CONTINUOUS
 10
47.818489
 20
227.694366
 40
1.300000
 50
196.600906
 51
270.000000
  0
LINE
  8
0
  6
CONTINUOUS
 10
9.541598
 20
292.430664
 11
36.797501
 21
293.144379
  0
LINE
  8
0
  6
CONTINUOUS
 10
5.797500
 20
289.969666
 11
5.797500
 21
217.819092
  0
LINE
  8
0
  6
CONTINUOUS
 10
8.091344
 20
292.175781
 11
7.165044
 21
291.867004
  0
ARC
  8
0
  6
CONTINUOUS
 10
7.797500
 20
289.969666
 40
2.000000
 50
108.434952
 51
180.000000
  0
ARC
  8
0
  6
CONTINUOUS
 10
9.672483
 20
287.432373
 40
5.000000
 50
91.500000
 51
108.434952
  0
LINE
  8
0
  6
CONTINUOUS
 10
33.284412
 20
214.741974
 11
36.797501
 21
214.649979
  0
LINE
  8
0
  6
CONTINUOUS
 10
32.797501
 20
215.241791
 11
32.797501
 21
224.364502
  0
LINE
  8
0
  6
CONTINUOUS
 10
9.541598
 20
215.358093
 11
36.797501
 21
214.644379
  0
LINE
  8
0
  6
CONTINUOUS
 10
8.091344
 20
215.612961
 11
7.165044
 21
215.921738
  0
ARC
  8
0
  6
CONTINUOUS
 10
7.797500
 20
217.819092
 40
2.000000
 50
180.000000
 51
251.565048
  0
ARC
  8
0
  6
CONTINUOUS
 10
9.672483
 20
220.356384
 40
5.000000
 50
251.565048
 51
268.500000
  0
LINE
  8
0
  6
CONTINUOUS
 10
32.797501
 20
215.853973
 11
31.358290
 21
215.853973
  0
LINE
  8
0
  6
CONTINUOUS
 10
32.797501
 20
221.353973
 11
31.358290
 21
221.353973
  0
LINE
  8
0
  6
CONTINUOUS
 10
32.097549
 20
215.853973
 11
32.097549
 21
221.353973
  0
ARC
  8
0
  6
CONTINUOUS
 10
37.097549
 20
218.603973
 40
7.000000
 50
163.043503
 51
196.957993
  0
ARC
  8
0
  6
CONTINUOUS
 10
31.358290
 20
220.353973
 40
1.000000
 50
90.000000
 51
163.043106
  0
ARC
  8
0
  6
CONTINUOUS
 10
31.358290
 20
216.853973
 40
1.000000
 50
196.958099
 51
270.000000
  0
LINE
  8
0
  6
CONTINUOUS
 10
32.797501
 20
224.364502
 11
36.797501
 21
224.364502
  0
LINE
  8
0
  6
CONTINUOUS
 10
5.806752
 20
222.573517
 11
5.797500
 21
222.573761
  0
ARC
  8
0
  6
CONTINUOUS
 10
33.297501
 20
215.241791
 40
0.500000
 50
180.000000
 51
268.500000
  0
LINE
  8
0
  6
CONTINUOUS
 10
33.284412
 20
293.046783
 11
36.797501
 21
293.138763
  0
LINE
  8
0
  6
CONTINUOUS
 10
32.797501
 20
292.546967
 11
32.797501
 21
283.424255
  0
LINE
  8
0
  6
CONTINUOUS
 10
32.797501
 20
291.934784
 11
31.358290
 21
291.934784
  0
LINE
  8
0
  6
CONTINUOUS
 10
32.797501
 20
286.434784
 11
31.358290
 21
286.434784
  0
LINE
  8
0
  6
CONTINUOUS
 10
32.097549
 20
291.934784
 11
32.097549
 21
286.434784
  0
ARC
  8
0
  6
CONTINUOUS
 10
37.097549
 20
289.184784
 40
7.000000
 50
163.042007
 51
196.956497
  0
ARC
  8
0
  6
CONTINUOUS
 10
31.358290
 20
287.434784
 40
1.000000
 50
196.956894
 51
270.000000
  0
ARC
  8
0
  6
CONTINUOUS
 10
31.358290
 20
290.934784
 40
1.000000
 50
90.000000
 51
163.041901
  0
LINE
  8
0
  6
CONTINUOUS
 10
32.797501
 20
283.424255
 11
36.797501
 21
283.424255
  0
ARC
  8
0
  6
CONTINUOUS
 10
33.297501
 20
292.546967
 40
0.500000
 50
91.500000
 51
180.000000
  0
LINE
  8
0
  6
CONTINUOUS
 10
30.104069
 20
218.301910
 11
5.797500
 21
218.938400
  0
LINE
  8
0
  6
CONTINUOUS
 10
32.797501
 20
222.212555
 11
5.797500
 21
221.505524
  0
LINE
  8
0
  6
CONTINUOUS
 10
30.104069
 20
289.486847
 11
5.797500
 21
288.850342
  0
LINE
  8
0
  6
CONTINUOUS
 10
32.797501
 20
285.576202
 11
5.797500
 21
286.283234
  0
TEXT
  8
0
 10
-4.000000
 20
-2.000000
 40
4.000000
 41
1.000000
  1
HLV-18T-10~240-T90
 50
0.000000
  0
ENDSEC
  0
EOF
