  0
SECTION
  2
HEADER
  9
$ACADVER
  1
AC1015
  9
$ACADMAINTVER
 70
    20
  9
$DWGCODEPAGE
  3
ANSI_932
  9
$INSBASE
 10
0.0
 20
0.0
 30
0.0
  9
$EXTMIN
 10
30.9050682824
 20
24.3371406633
 30
0.0
  9
$EXTMAX
 10
550.2570616491
 20
410.0964961346
 30
0.0
  9
$LIMMIN
 10
0.0
 20
0.0
  9
$LIMMAX
 10
297.0
 20
210.0
  9
$ORTHOMODE
 70
     0
  9
$REGENMODE
 70
     1
  9
$FILLMODE
 70
     1
  9
$QTEXTMODE
 70
     0
  9
$MIRRTEXT
 70
     0
  9
$LTSCALE
 40
2.0
  9
$ATTMODE
 70
     1
  9
$TEXTSIZE
 40
2.0
  9
$TRACEWID
 40
1.0
  9
$TEXTSTYLE
  7
STANDARD
  9
$CLAYER
  8
0
  9
$CELTYPE
  6
BYLAYER
  9
$CECOLOR
 62
   256
  9
$CELTSCALE
 40
1.0
  9
$DISPSILH
 70
     0
  9
$DIMSCALE
 40
2.0
  9
$DIMASZ
 40
1.8
  9
$DIMEXO
 40
0.625
  9
$DIMDLI
 40
3.75
  9
$DIMRND
 40
0.0
  9
$DIMDLE
 40
0.0
  9
$DIMEXE
 40
0.8
  9
$DIMTP
 40
0.0
  9
$DIMTM
 40
0.0
  9
$DIMTXT
 40
1.8
  9
$DIMCEN
 40
2.5
  9
$DIMTSZ
 40
0.0
  9
$DIMTOL
 70
     0
  9
$DIMLIM
 70
     0
  9
$DIMTIH
 70
     0
  9
$DIMTOH
 70
     0
  9
$DIMSE1
 70
     0
  9
$DIMSE2
 70
     0
  9
$DIMTAD
 70
     1
  9
$DIMZIN
 70
     8
  9
$DIMBLK
  1

  9
$DIMASO
 70
     1
  9
$DIMSHO
 70
     1
  9
$DIMPOST
  1

  9
$DIMAPOST
  1

  9
$DIMALT
 70
     0
  9
$DIMALTD
 70
     4
  9
$DIMALTF
 40
0.0394
  9
$DIMLFAC
 40
1.0
  9
$DIMTOFL
 70
     1
  9
$DIMTVP
 40
0.0
  9
$DIMTIX
 70
     0
  9
$DIMSOXD
 70
     0
  9
$DIMSAH
 70
     0
  9
$DIMBLK1
  1

  9
$DIMBLK2
  1

  9
$DIMSTYLE
  2
STANDARD
  9
$DIMCLRD
 70
     0
  9
$DIMCLRE
 70
     0
  9
$DIMCLRT
 70
     0
  9
$DIMTFAC
 40
1.0
  9
$DIMGAP
 40
0.75
  9
$DIMJUST
 70
     0
  9
$DIMSD1
 70
     0
  9
$DIMSD2
 70
     0
  9
$DIMTOLJ
 70
     1
  9
$DIMTZIN
 70
     0
  9
$DIMALTZ
 70
     0
  9
$DIMALTTZ
 70
     0
  9
$DIMUPT
 70
     0
  9
$DIMDEC
 70
     2
  9
$DIMTDEC
 70
     2
  9
$DIMALTU
 70
     8
  9
$DIMALTTD
 70
     4
  9
$DIMTXSTY
  7
STANDARD
  9
$DIMAUNIT
 70
     0
  9
$DIMADEC
 70
     2
  9
$DIMALTRND
 40
0.0
  9
$DIMAZIN
 70
     0
  9
$DIMDSEP
 70
    46
  9
$DIMATFIT
 70
     3
  9
$DIMFRAC
 70
     0
  9
$DIMLDRBLK
  1

  9
$DIMLUNIT
 70
     6
  9
$DIMLWD
 70
    -2
  9
$DIMLWE
 70
    -2
  9
$DIMTMOVE
 70
     0
  9
$LUNITS
 70
     2
  9
$LUPREC
 70
     3
  9
$SKETCHINC
 40
1.0
  9
$FILLETRAD
 40
10.0
  9
$AUNITS
 70
     0
  9
$AUPREC
 70
     2
  9
$MENU
  1
.
  9
$ELEVATION
 40
0.0
  9
$PELEVATION
 40
0.0
  9
$THICKNESS
 40
0.0
  9
$LIMCHECK
 70
     0
  9
$CHAMFERA
 40
0.0
  9
$CHAMFERB
 40
0.0
  9
$CHAMFERC
 40
20.0
  9
$CHAMFERD
 40
0.0
  9
$SKPOLY
 70
     0
  9
$TDCREATE
 40
2453759.648634259
  9
$TDUCREATE
 40
2453759.273635880
  9
$TDUPDATE
 40
2460516.514131945
  9
$TDUUPDATE
 40
2460516.139131945
  9
$TDINDWG
 40
0.1085754861
  9
$TDUSRTIMER
 40
0.1085753125
  9
$USRTIMER
 70
     1
  9
$ANGBASE
 50
0.0
  9
$ANGDIR
 70
     0
  9
$PDMODE
 70
     0
  9
$PDSIZE
 40
-10.0
  9
$PLINEWID
 40
0.0
  9
$SPLFRAME
 70
     0
  9
$SPLINETYPE
 70
     6
  9
$SPLINESEGS
 70
     8
  9
$HANDSEED
  5
19E2
  9
$SURFTAB1
 70
     6
  9
$SURFTAB2
 70
     6
  9
$SURFTYPE
 70
     6
  9
$SURFU
 70
     6
  9
$SURFV
 70
     6
  9
$UCSBASE
  2

  9
$UCSNAME
  2

  9
$UCSORG
 10
0.0
 20
0.0
 30
0.0
  9
$UCSXDIR
 10
1.0
 20
0.0
 30
0.0
  9
$UCSYDIR
 10
0.0
 20
1.0
 30
0.0
  9
$UCSORTHOREF
  2

  9
$UCSORTHOVIEW
 70
     0
  9
$UCSORGTOP
 10
0.0
 20
0.0
 30
0.0
  9
$UCSORGBOTTOM
 10
0.0
 20
0.0
 30
0.0
  9
$UCSORGLEFT
 10
0.0
 20
0.0
 30
0.0
  9
$UCSORGRIGHT
 10
0.0
 20
0.0
 30
0.0
  9
$UCSORGFRONT
 10
0.0
 20
0.0
 30
0.0
  9
$UCSORGBACK
 10
0.0
 20
0.0
 30
0.0
  9
$PUCSBASE
  2

  9
$PUCSNAME
  2

  9
$PUCSORG
 10
0.0
 20
0.0
 30
0.0
  9
$PUCSXDIR
 10
1.0
 20
0.0
 30
0.0
  9
$PUCSYDIR
 10
0.0
 20
1.0
 30
0.0
  9
$PUCSORTHOREF
  2

  9
$PUCSORTHOVIEW
 70
     0
  9
$PUCSORGTOP
 10
0.0
 20
0.0
 30
0.0
  9
$PUCSORGBOTTOM
 10
0.0
 20
0.0
 30
0.0
  9
$PUCSORGLEFT
 10
0.0
 20
0.0
 30
0.0
  9
$PUCSORGRIGHT
 10
0.0
 20
0.0
 30
0.0
  9
$PUCSORGFRONT
 10
0.0
 20
0.0
 30
0.0
  9
$PUCSORGBACK
 10
0.0
 20
0.0
 30
0.0
  9
$USERI1
 70
     0
  9
$USERI2
 70
     0
  9
$USERI3
 70
     0
  9
$USERI4
 70
     0
  9
$USERI5
 70
     0
  9
$USERR1
 40
0.0
  9
$USERR2
 40
0.0
  9
$USERR3
 40
0.0
  9
$USERR4
 40
0.0
  9
$USERR5
 40
0.0
  9
$WORLDVIEW
 70
     1
  9
$SHADEDGE
 70
     3
  9
$SHADEDIF
 70
    70
  9
$TILEMODE
 70
     1
  9
$MAXACTVP
 70
    48
  9
$PINSBASE
 10
0.0
 20
0.0
 30
0.0
  9
$PLIMCHECK
 70
     0
  9
$PEXTMIN
 10
0.0
 20
0.0
 30
0.0
  9
$PEXTMAX
 10
0.0
 20
0.0
 30
0.0
  9
$PLIMMIN
 10
0.0
 20
0.0
  9
$PLIMMAX
 10
12.0
 20
9.0
  9
$UNITMODE
 70
     0
  9
$VISRETAIN
 70
     1
  9
$PLINEGEN
 70
     0
  9
$PSLTSCALE
 70
     1
  9
$TREEDEPTH
 70
  3020
  9
$CMLSTYLE
  2
STANDARD
  9
$CMLJUST
 70
     0
  9
$CMLSCALE
 40
1.0
  9
$PROXYGRAPHICS
 70
     1
  9
$MEASUREMENT
 70
     0
  9
$CELWEIGHT
370
    -1
  9
$ENDCAPS
280
     0
  9
$JOINSTYLE
280
     0
  9
$LWDISPLAY
290
     0
  9
$INSUNITS
 70
     0
  9
$HYPERLINKBASE
  1

  9
$STYLESHEET
  1
SEKKEI.CTB
  9
$XEDIT
290
     1
  9
$CEPSNTYPE
380
     0
  9
$PSTYLEMODE
290
     1
  9
$FINGERPRINTGUID
  2
{6385560B-F4B1-4644-A7C2-A3E32AC3D232}
  9
$VERSIONGUID
  2
{5161A871-EA07-3341-9E9E-EEEEAC76FC06}
  9
$EXTNAMES
290
     1
  9
$PSVPSCALE
 40
0.0
  9
$OLESTARTUP
290
     0
  0
ENDSEC
  0
SECTION
  2
CLASSES
  0
CLASS
  1
DICTIONARYVAR
  2
AcDbDictionaryVar
  3
ObjectDBX Classes
 90
        0
280
     0
281
     0
  0
CLASS
  1
ACDBDICTIONARYWDFLT
  2
AcDbDictionaryWithDefault
  3
ObjectDBX Classes
 90
        0
280
     0
281
     0
  0
CLASS
  1
MATERIAL
  2
AcDbMaterial
  3
ObjectDBX Classes
 90
     1153
280
     0
281
     0
  0
CLASS
  1
VISUALSTYLE
  2
AcDbVisualStyle
  3
ObjectDBX Classes
 90
     4095
280
     0
281
     0
  0
CLASS
  1
TABLESTYLE
  2
AcDbTableStyle
  3
ObjectDBX Classes
 90
     4095
280
     0
281
     0
  0
CLASS
  1
SCALE
  2
AcDbScale
  3
ObjectDBX Classes
 90
     1153
280
     0
281
     0
  0
CLASS
  1
MLEADERSTYLE
  2
AcDbMLeaderStyle
  3
ACDB_MLEADERSTYLE_CLASS
 90
     4095
280
     0
281
     0
  0
CLASS
  1
CELLSTYLEMAP
  2
AcDbCellStyleMap
  3
ObjectDBX Classes
 90
     1152
280
     0
281
     0
  0
CLASS
  1
ACDBPLACEHOLDER
  2
AcDbPlaceHolder
  3
ObjectDBX Classes
 90
        0
280
     0
281
     0
  0
CLASS
  1
LAYOUT
  2
AcDbLayout
  3
ObjectDBX Classes
 90
        0
280
     0
281
     0
  0
CLASS
  1
ACDBSECTIONVIEWSTYLE
  2
AcDbSectionViewStyle
  3
ObjectDBX Classes
 90
     1025
280
     0
281
     0
  0
CLASS
  1
ACDBDETAILVIEWSTYLE
  2
AcDbDetailViewStyle
  3
ObjectDBX Classes
 90
     1025
280
     0
281
     0
  0
CLASS
  1
SORTENTSTABLE
  2
AcDbSortentsTable
  3
ObjectDBX Classes
 90
        0
280
     0
281
     0
  0
ENDSEC
  0
SECTION
  2
TABLES
  0
TABLE
  2
VPORT
  5
6E
102
{ACAD_XDICTIONARY
360
16AE
102
}
330
0
100
AcDbSymbolTable
 70
     1
  0
VPORT
  5
162E
330
6E
100
AcDbSymbolTableRecord
100
AcDbViewportTableRecord
  2
*Active
 70
     0
 10
0.0
 20
0.0
 11
1.0
 21
1.0
 12
323.3091376358
 22
224.4123349335
 13
0.0
 23
0.0
 14
10.0
 24
10.0
 15
10.0
 25
10.0
 16
0.0
 26
0.0
 36
1.0
 17
0.0
 27
0.0
 37
0.0
 40
388.5827208444
 41
2.2984693878
 42
50.0
 43
0.0
 44
0.0
 50
0.0
 51
0.0
 71
     0
 72
   100
 73
     1
 74
     3
 75
     0
 76
     0
 77
     0
 78
     0
281
     0
 65
     1
110
0.0
120
0.0
130
0.0
111
1.0
121
0.0
131
0.0
112
0.0
122
1.0
132
0.0
 79
     0
146
0.0
1001
ACAD_NAV_VCDISPLAY
1070
     3
  0
ENDTAB
  0
TABLE
  2
LTYPE
  5
69
330
0
100
AcDbSymbolTable
 70
     4
  0
LTYPE
  5
6A
330
69
100
AcDbSymbolTableRecord
100
AcDbLinetypeTableRecord
  2
BYBLOCK
 70
     0
  3

 72
    65
 73
     0
 40
0.0
  0
LTYPE
  5
6B
330
69
100
AcDbSymbolTableRecord
100
AcDbLinetypeTableRecord
  2
BYLAYER
 70
     0
  3

 72
    65
 73
     0
 40
0.0
  0
LTYPE
  5
8
330
69
100
AcDbSymbolTableRecord
100
AcDbLinetypeTableRecord
  2
CONTINUOUS
 70
     0
  3
Solid line
 72
    65
 73
     0
 40
0.0
  0
LTYPE
  5
27C
330
69
100
AcDbSymbolTableRecord
100
AcDbLinetypeTableRecord
  2
sekkei(A2)
 70
     0
  3
center(A2)  ____ _ ____ _ ____ _ ____ _ ____ _ 
 72
    65
 73
     4
 40
14.2875
 49
9.525
 74
     0
 49
-1.5875
 74
     0
 49
1.5875
 74
     0
 49
-1.5875
 74
     0
  0
LTYPE
  5
2B4
330
69
100
AcDbSymbolTableRecord
100
AcDbLinetypeTableRecord
  2
HIDDEN2
 70
     0
  3
Hidden (.5x) _ _ _ _ _ _ _ _ _ _ _ _ _ _ _ _ _
 72
    65
 73
     2
 40
4.7625
 49
3.175
 74
     0
 49
-1.5875
 74
     0
  0
LTYPE
  5
48F
330
69
100
AcDbSymbolTableRecord
100
AcDbLinetypeTableRecord
  2
sekkei_H
 70
     0
  3
Hidden-S _ _ _ _ _ _ _ _ _ _ _ _ _ _ _ _ _
 72
    65
 73
     2
 40
2.38125
 49
1.5875
 74
     0
 49
-0.79375
 74
     0
  0
ENDTAB
  0
TABLE
  2
LAYER
  5
66
102
{ACAD_XDICTIONARY
360
1809
102
}
330
0
100
AcDbSymbolTable
 70
     9
  0
LAYER
  5
5E
102
{ACAD_XDICTIONARY
360
1684
102
}
330
66
100
AcDbSymbolTableRecord
100
AcDbLayerTableRecord
  2
0
 70
     0
 62
     7
  6
CONTINUOUS
370
    -3
390
5
  0
LAYER
  5
3E
102
{ACAD_XDICTIONARY
360
1686
102
}
330
66
100
AcDbSymbolTableRecord
100
AcDbLayerTableRecord
  2
CENTER
 70
     0
 62
     3
  6
sekkei(A2)
370
    -3
390
5
  0
LAYER
  5
135
330
66
100
AcDbSymbolTableRecord
100
AcDbLayerTableRecord
  2
DEFPOINTS
 70
     0
 62
     7
  6
CONTINUOUS
290
     0
370
    -3
390
5
  0
LAYER
  5
2B5
102
{ACAD_XDICTIONARY
360
168C
102
}
330
66
100
AcDbSymbolTableRecord
100
AcDbLayerTableRecord
  2
HIDS
 70
     0
 62
     1
  6
HIDDEN2
370
    -3
390
5
  0
LAYER
  5
2BA
102
{ACAD_XDICTIONARY
360
168E
102
}
330
66
100
AcDbSymbolTableRecord
100
AcDbLayerTableRecord
  2
HOJO
 70
     0
 62
     4
  6
CONTINUOUS
370
    -3
390
5
  0
LAYER
  5
3FA
102
{ACAD_XDICTIONARY
360
1692
102
}
330
66
100
AcDbSymbolTableRecord
100
AcDbLayerTableRecord
  2
TITLE
 70
     0
 62
     4
  6
CONTINUOUS
290
     0
370
    -3
390
5
  0
ENDTAB
  0
TABLE
  2
STYLE
  5
67
330
0
100
AcDbSymbolTable
 70
     1
  0
STYLE
  5
16
330
67
100
AcDbSymbolTableRecord
100
AcDbTextStyleTableRecord
  2
STANDARD
 70
     0
 40
0.0
 41
1.0
 50
0.0
 71
     0
 42
2.0
  3
simplex.shx
  4
extfont.shx
  0
ENDTAB
  0
TABLE
  2
VIEW
  5
6C
330
0
100
AcDbSymbolTable
 70
     0
  0
ENDTAB
  0
TABLE
  2
UCS
  5
6D
330
0
100
AcDbSymbolTable
 70
     0
  0
ENDTAB
  0
TABLE
  2
APPID
  5
70
330
0
100
AcDbSymbolTable
 70
     4
  0
APPID
  5
71
330
70
100
AcDbSymbolTableRecord
100
AcDbRegAppTableRecord
  2
ACAD
 70
     0
  0
APPID
  5
1681
330
70
100
AcDbSymbolTableRecord
100
AcDbRegAppTableRecord
  2
ACAD_MLEADERVER
 70
     0
  0
APPID
  5
1719
330
70
100
AcDbSymbolTableRecord
100
AcDbRegAppTableRecord
  2
ACAD_NAV_VCDISPLAY
 70
     0
  0
APPID
  5
18F5
330
70
100
AcDbSymbolTableRecord
100
AcDbRegAppTableRecord
  2
ACAD_EXEMPT_FROM_CAD_STANDARDS
 70
     0
  0
ENDTAB
  0
TABLE
  2
DIMSTYLE
  5
72
330
0
100
AcDbSymbolTable
 70
     1
100
AcDbDimStyleTable
 71
     1
340
73
  0
DIMSTYLE
105
73
102
{ACAD_REACTORS
330
8A6
330
980
102
}
330
72
100
AcDbSymbolTableRecord
100
AcDbDimStyleTableRecord
  2
STANDARD
 70
     0
 40
2.0
 41
1.8
 42
0.625
 43
3.75
 44
0.8
 73
     0
 74
     0
 77
     1
 78
     8
140
1.8
141
2.5
143
0.0394
147
0.75
171
     4
172
     1
179
     2
271
     2
272
     2
273
     8
274
     4
277
     6
340
16
  0
ENDTAB
  0
TABLE
  2
BLOCK_RECORD
  5
1
330
0
100
AcDbSymbolTable
 70
    59
  0
BLOCK_RECORD
  5
2
330
1
100
AcDbSymbolTableRecord
100
AcDbBlockTableRecord
  2
*MODEL_SPACE
340
60
  0
BLOCK_RECORD
  5
1989
330
1
100
AcDbSymbolTableRecord
100
AcDbBlockTableRecord
  2
*Paper_Space
340
198A
  0
BLOCK_RECORD
  5
4AC
330
1
100
AcDbSymbolTableRecord
100
AcDbBlockTableRecord
  2
黒丸矢印1
340
0
  0
BLOCK_RECORD
  5
AF0
330
1
100
AcDbSymbolTableRecord
100
AcDbBlockTableRecord
  2
*D3
340
0
  0
BLOCK_RECORD
  5
AFA
330
1
100
AcDbSymbolTableRecord
100
AcDbBlockTableRecord
  2
*D4
340
0
  0
BLOCK_RECORD
  5
B06
330
1
100
AcDbSymbolTableRecord
100
AcDbBlockTableRecord
  2
*D5
340
0
  0
BLOCK_RECORD
  5
B12
330
1
100
AcDbSymbolTableRecord
100
AcDbBlockTableRecord
  2
*D6
340
0
  0
BLOCK_RECORD
  5
B1E
330
1
100
AcDbSymbolTableRecord
100
AcDbBlockTableRecord
  2
*D7
340
0
  0
BLOCK_RECORD
  5
B2A
330
1
100
AcDbSymbolTableRecord
100
AcDbBlockTableRecord
  2
*D8
340
0
  0
BLOCK_RECORD
  5
B36
330
1
100
AcDbSymbolTableRecord
100
AcDbBlockTableRecord
  2
*D9
340
0
  0
BLOCK_RECORD
  5
B42
330
1
100
AcDbSymbolTableRecord
100
AcDbBlockTableRecord
  2
*D10
340
0
  0
BLOCK_RECORD
  5
B4E
330
1
100
AcDbSymbolTableRecord
100
AcDbBlockTableRecord
  2
*D11
340
0
  0
BLOCK_RECORD
  5
B5A
330
1
100
AcDbSymbolTableRecord
100
AcDbBlockTableRecord
  2
*D12
340
0
  0
BLOCK_RECORD
  5
B66
330
1
100
AcDbSymbolTableRecord
100
AcDbBlockTableRecord
  2
*D13
340
0
  0
BLOCK_RECORD
  5
B72
330
1
100
AcDbSymbolTableRecord
100
AcDbBlockTableRecord
  2
*D14
340
0
  0
BLOCK_RECORD
  5
B7E
330
1
100
AcDbSymbolTableRecord
100
AcDbBlockTableRecord
  2
*D15
340
0
  0
BLOCK_RECORD
  5
B8A
330
1
100
AcDbSymbolTableRecord
100
AcDbBlockTableRecord
  2
*D16
340
0
  0
BLOCK_RECORD
  5
B96
330
1
100
AcDbSymbolTableRecord
100
AcDbBlockTableRecord
  2
*D17
340
0
  0
BLOCK_RECORD
  5
BA2
330
1
100
AcDbSymbolTableRecord
100
AcDbBlockTableRecord
  2
*D18
340
0
  0
BLOCK_RECORD
  5
BAE
330
1
100
AcDbSymbolTableRecord
100
AcDbBlockTableRecord
  2
*D19
340
0
  0
BLOCK_RECORD
  5
BBA
330
1
100
AcDbSymbolTableRecord
100
AcDbBlockTableRecord
  2
*D20
340
0
  0
BLOCK_RECORD
  5
BC6
330
1
100
AcDbSymbolTableRecord
100
AcDbBlockTableRecord
  2
*D21
340
0
  0
BLOCK_RECORD
  5
BD2
330
1
100
AcDbSymbolTableRecord
100
AcDbBlockTableRecord
  2
*D22
340
0
  0
BLOCK_RECORD
  5
BDE
330
1
100
AcDbSymbolTableRecord
100
AcDbBlockTableRecord
  2
*D23
340
0
  0
BLOCK_RECORD
  5
BEB
330
1
100
AcDbSymbolTableRecord
100
AcDbBlockTableRecord
  2
*D24
340
0
  0
BLOCK_RECORD
  5
BF7
330
1
100
AcDbSymbolTableRecord
100
AcDbBlockTableRecord
  2
*D25
340
0
  0
BLOCK_RECORD
  5
C03
330
1
100
AcDbSymbolTableRecord
100
AcDbBlockTableRecord
  2
*D26
340
0
  0
BLOCK_RECORD
  5
C0F
330
1
100
AcDbSymbolTableRecord
100
AcDbBlockTableRecord
  2
*D27
340
0
  0
BLOCK_RECORD
  5
C1B
330
1
100
AcDbSymbolTableRecord
100
AcDbBlockTableRecord
  2
*D28
340
0
  0
BLOCK_RECORD
  5
C27
330
1
100
AcDbSymbolTableRecord
100
AcDbBlockTableRecord
  2
*D29
340
0
  0
BLOCK_RECORD
  5
C33
330
1
100
AcDbSymbolTableRecord
100
AcDbBlockTableRecord
  2
*D30
340
0
  0
BLOCK_RECORD
  5
C40
330
1
100
AcDbSymbolTableRecord
100
AcDbBlockTableRecord
  2
*D31
340
0
  0
BLOCK_RECORD
  5
1481
330
1
100
AcDbSymbolTableRecord
100
AcDbBlockTableRecord
  2
*D32
340
0
  0
BLOCK_RECORD
  5
177A
102
{ACAD_XDICTIONARY
360
177B
102
}
330
1
100
AcDbSymbolTableRecord
100
AcDbBlockTableRecord
  2
A$C57c306b1
340
0
102
{BLKREFS
331
1804
331
1805
331
1806
331
1807
102
}
  0
BLOCK_RECORD
  5
1791
330
1
100
AcDbSymbolTableRecord
100
AcDbBlockTableRecord
  2
A$C0e0b3c3a
340
0
102
{BLKREFS
331
1810
102
}
  0
BLOCK_RECORD
  5
1811
330
1
100
AcDbSymbolTableRecord
100
AcDbBlockTableRecord
  2
A$Ccaa00782
340
0
102
{BLKREFS
331
1896
102
}
  0
ENDTAB
  0
ENDSEC
  0
SECTION
  2
BLOCKS
  0
BLOCK
  5
5D
330
2
100
AcDbEntity
  8
0
100
AcDbBlockBegin
  2
*MODEL_SPACE
 70
     0
 10
0.0
 20
0.0
 30
0.0
  3
*MODEL_SPACE
  1

  0
ENDBLK
  5
5F
330
2
100
AcDbEntity
  8
0
100
AcDbBlockEnd
  0
BLOCK
  5
198B
330
1989
100
AcDbEntity
 67
     1
  8
0
100
AcDbBlockBegin
  2
*Paper_Space
 70
     0
 10
0.0
 20
0.0
 30
0.0
  3
*Paper_Space
  1

  0
ENDBLK
  5
198C
330
1989
100
AcDbEntity
 67
     1
  8
0
100
AcDbBlockEnd
  0
BLOCK
  5
4B0
330
4AC
100
AcDbEntity
  8
0
100
AcDbBlockBegin
  2
黒丸矢印1
 70
     0
 10
0.0
 20
0.0
 30
0.0
  3
黒丸矢印1
  1

  0
HATCH
  5
4AD
330
4AC
100
AcDbEntity
  8
0
100
AcDbHatch
 10
0.0
 20
0.0
 30
0.0
210
0.0
220
0.0
230
1.0
  2
SOLID
 70
     1
 71
     1
 91
        1
 92
        7
 72
     1
 73
     1
 93
        2
 10
-0.25
 20
0.0
 42
1.0
 10
0.25
 20
0.0
 42
1.0
 97
        1
330
4AE
 75
     0
 76
     1
 47
0.0031599728
 98
        1
 10
-0.0919668375711354
 20
0.0618998464179867
  0
CIRCLE
  5
4AE
102
{ACAD_REACTORS
330
4AD
102
}
330
4AC
100
AcDbEntity
  8
0
100
AcDbCircle
 10
0.0
 20
0.0
 30
0.0
 40
0.25
  0
LINE
  5
4AF
330
4AC
100
AcDbEntity
  8
0
100
AcDbLine
 10
0.0
 20
0.0
 30
0.0
 11
-1.0
 21
0.0
 31
0.0
  0
ENDBLK
  5
4B1
330
4AC
100
AcDbEntity
  8
0
100
AcDbBlockEnd
  0
BLOCK
  5
AF8
330
AF0
100
AcDbEntity
  8
0
100
AcDbBlockBegin
  2
*D3
 70
     1
 10
0.0
 20
0.0
 30
0.0
  3
*D3
  1

  0
POINT
  5
1320
330
AF0
100
AcDbEntity
  8
DEFPOINTS
 62
     0
100
AcDbPoint
 10
111.4008090066
 20
142.6493130992
 30
0.0
  0
POINT
  5
1321
330
AF0
100
AcDbEntity
  8
DEFPOINTS
 62
     0
100
AcDbPoint
 10
111.5185460066
 20
65.6523940478
 30
0.0
  0
POINT
  5
1322
330
AF0
100
AcDbEntity
  8
DEFPOINTS
 62
     0
100
AcDbPoint
 10
63.4309357649
 20
65.6523940478
 30
0.0
  0
ENDBLK
  5
AF9
330
AF0
100
AcDbEntity
  8
0
100
AcDbBlockEnd
  0
BLOCK
  5
B04
330
AFA
100
AcDbEntity
  8
0
100
AcDbBlockBegin
  2
*D4
 70
     1
 10
0.0
 20
0.0
 30
0.0
  3
*D4
  1

  0
POINT
  5
1319
330
AFA
100
AcDbEntity
  8
DEFPOINTS
 62
     0
100
AcDbPoint
 10
121.0185363489
 20
169.6526920992
 30
0.0
  0
POINT
  5
131A
330
AFA
100
AcDbEntity
  8
DEFPOINTS
 62
     0
100
AcDbPoint
 10
73.5185460066
 20
104.1523950992
 30
0.0
  0
POINT
  5
131B
330
AFA
100
AcDbEntity
  8
DEFPOINTS
 62
     0
100
AcDbPoint
 10
51.4413439295
 20
104.1523950992
 30
0.0
  0
ENDBLK
  5
B05
330
AFA
100
AcDbEntity
  8
0
100
AcDbBlockEnd
  0
BLOCK
  5
B10
330
B06
100
AcDbEntity
  8
0
100
AcDbBlockBegin
  2
*D5
 70
     1
 10
0.0
 20
0.0
 30
0.0
  3
*D5
  1

  0
POINT
  5
1329
330
B06
100
AcDbEntity
  8
DEFPOINTS
 62
     0
100
AcDbPoint
 10
104.0185343489
 20
166.6526920992
 30
0.0
  0
POINT
  5
132A
330
B06
100
AcDbEntity
  8
DEFPOINTS
 62
     0
100
AcDbPoint
 10
80.5185770066
 20
139.4345031195
 30
0.0
  0
POINT
  5
132B
330
B06
100
AcDbEntity
  8
DEFPOINTS
 62
     0
100
AcDbPoint
 10
80.5185770066
 20
189.0108791
 30
0.0
  0
ENDBLK
  5
B11
330
B06
100
AcDbEntity
  8
0
100
AcDbBlockEnd
  0
BLOCK
  5
B1C
330
B12
100
AcDbEntity
  8
0
100
AcDbBlockBegin
  2
*D6
 70
     1
 10
0.0
 20
0.0
 30
0.0
  3
*D6
  1

  0
POINT
  5
12E1
330
B12
100
AcDbEntity
  8
DEFPOINTS
 62
     0
100
AcDbPoint
 10
312.0185283489
 20
141.7522940992
 30
0.0
  0
POINT
  5
12E2
330
B12
100
AcDbEntity
  8
DEFPOINTS
 62
     0
100
AcDbPoint
 10
80.5185770066
 20
139.4345031195
 30
0.0
  0
POINT
  5
12E3
330
B12
100
AcDbEntity
  8
DEFPOINTS
 62
     0
100
AcDbPoint
 10
80.5185770066
 20
212.9703986893
 30
0.0
  0
ENDBLK
  5
B1D
330
B12
100
AcDbEntity
  8
0
100
AcDbBlockEnd
  0
BLOCK
  5
B28
330
B1E
100
AcDbEntity
  8
0
100
AcDbBlockBegin
  2
*D7
 70
     1
 10
0.0
 20
0.0
 30
0.0
  3
*D7
  1

  0
POINT
  5
1307
330
B1E
100
AcDbEntity
  8
DEFPOINTS
 62
     0
100
AcDbPoint
 10
261.5185283489
 20
174.8523990992
 30
0.0
  0
POINT
  5
1308
330
B1E
100
AcDbEntity
  8
DEFPOINTS
 62
     0
100
AcDbPoint
 10
80.5185770066
 20
139.4345031195
 30
0.0
  0
POINT
  5
1309
330
B1E
100
AcDbEntity
  8
DEFPOINTS
 62
     0
100
AcDbPoint
 10
80.5185770066
 20
201.0362153303
 30
0.0
  0
ENDBLK
  5
B29
330
B1E
100
AcDbEntity
  8
0
100
AcDbBlockEnd
  0
BLOCK
  5
B34
330
B2A
100
AcDbEntity
  8
0
100
AcDbBlockBegin
  2
*D8
 70
     1
 10
0.0
 20
0.0
 30
0.0
  3
*D8
  1

  0
POINT
  5
1422
330
B2A
100
AcDbEntity
  8
DEFPOINTS
 62
     0
100
AcDbPoint
 10
418.3940647104
 20
139.8524070992
 30
0.0
  0
POINT
  5
1423
330
B2A
100
AcDbEntity
  8
DEFPOINTS
 62
     0
100
AcDbPoint
 10
388.3940647104
 20
138.8524070992
 30
0.0
  0
POINT
  5
1424
330
B2A
100
AcDbEntity
  8
DEFPOINTS
 62
     0
100
AcDbPoint
 10
388.3940647104
 20
189.0743239902
 30
0.0
  0
ENDBLK
  5
B35
330
B2A
100
AcDbEntity
  8
0
100
AcDbBlockEnd
  0
BLOCK
  5
B40
330
B36
100
AcDbEntity
  8
0
100
AcDbBlockBegin
  2
*D9
 70
     1
 10
0.0
 20
0.0
 30
0.0
  3
*D9
  1

  0
POINT
  5
1405
330
B36
100
AcDbEntity
  8
DEFPOINTS
 62
     0
100
AcDbPoint
 10
414.3940647104
 20
51.3524030992
 30
0.0
  0
POINT
  5
1406
330
B36
100
AcDbEntity
  8
DEFPOINTS
 62
     0
100
AcDbPoint
 10
388.3940647104
 20
120.8524070992
 30
0.0
  0
POINT
  5
1407
330
B36
100
AcDbEntity
  8
DEFPOINTS
 62
     0
100
AcDbPoint
 10
388.3940647104
 20
37.9473211863
 30
0.0
  0
ENDBLK
  5
B41
330
B36
100
AcDbEntity
  8
0
100
AcDbBlockEnd
  0
BLOCK
  5
B4C
330
B42
100
AcDbEntity
  8
0
100
AcDbBlockBegin
  2
*D10
 70
     1
 10
0.0
 20
0.0
 30
0.0
  3
*D10
  1

  0
POINT
  5
13D8
330
B42
100
AcDbEntity
  8
DEFPOINTS
 62
     0
100
AcDbPoint
 10
536.3940647104
 20
138.8523990992
 30
0.0
  0
POINT
  5
13D9
330
B42
100
AcDbEntity
  8
DEFPOINTS
 62
     0
100
AcDbPoint
 10
388.3940647104
 20
138.8524070992
 30
0.0
  0
POINT
  5
13DA
330
B42
100
AcDbEntity
  8
DEFPOINTS
 62
     0
100
AcDbPoint
 10
388.3940647104
 20
212.9703986893
 30
0.0
  0
ENDBLK
  5
B4D
330
B42
100
AcDbEntity
  8
0
100
AcDbBlockEnd
  0
BLOCK
  5
B58
330
B4E
100
AcDbEntity
  8
0
100
AcDbBlockBegin
  2
*D11
 70
     1
 10
0.0
 20
0.0
 30
0.0
  3
*D11
  1

  0
POINT
  5
13EA
330
B4E
100
AcDbEntity
  8
DEFPOINTS
 62
     0
100
AcDbPoint
 10
404.3940667104
 20
54.8524030992
 30
0.0
  0
POINT
  5
13EB
330
B4E
100
AcDbEntity
  8
DEFPOINTS
 62
     0
100
AcDbPoint
 10
520.3940647104
 20
54.8524030992
 30
0.0
  0
POINT
  5
13EC
330
B4E
100
AcDbEntity
  8
DEFPOINTS
 62
     0
100
AcDbPoint
 10
520.3940647104
 20
25.9371496633
 30
0.0
  0
ENDBLK
  5
B59
330
B4E
100
AcDbEntity
  8
0
100
AcDbBlockEnd
  0
BLOCK
  5
B64
330
B5A
100
AcDbEntity
  8
0
100
AcDbBlockBegin
  2
*D12
 70
     1
 10
0.0
 20
0.0
 30
0.0
  3
*D12
  1

  0
POINT
  5
13FC
330
B5A
100
AcDbEntity
  8
DEFPOINTS
 62
     0
100
AcDbPoint
 10
462.3940647104
 20
176.6527000992
 30
0.0
  0
POINT
  5
13FD
330
B5A
100
AcDbEntity
  8
DEFPOINTS
 62
     0
100
AcDbPoint
 10
388.3940647104
 20
138.8524070992
 30
0.0
  0
POINT
  5
13FE
330
B5A
100
AcDbEntity
  8
DEFPOINTS
 62
     0
100
AcDbPoint
 10
388.3940647104
 20
200.8982396703
 30
0.0
  0
ENDBLK
  5
B65
330
B5A
100
AcDbEntity
  8
0
100
AcDbBlockEnd
  0
BLOCK
  5
B70
330
B66
100
AcDbEntity
  8
0
100
AcDbBlockBegin
  2
*D13
 70
     1
 10
0.0
 20
0.0
 30
0.0
  3
*D13
  1

  0
POINT
  5
12FE
330
B66
100
AcDbEntity
  8
DEFPOINTS
 62
     0
100
AcDbPoint
 10
223.5185283489
 20
51.3523960992
 30
0.0
  0
POINT
  5
12FF
330
B66
100
AcDbEntity
  8
DEFPOINTS
 62
     0
100
AcDbPoint
 10
299.5185283489
 20
51.3523960992
 30
0.0
  0
POINT
  5
1300
330
B66
100
AcDbEntity
  8
DEFPOINTS
 62
     0
100
AcDbPoint
 10
299.5185283489
 20
37.9473121863
 30
0.0
  0
ENDBLK
  5
B71
330
B66
100
AcDbEntity
  8
0
100
AcDbBlockEnd
  0
BLOCK
  5
B7C
330
B72
100
AcDbEntity
  8
0
100
AcDbBlockBegin
  2
*D14
 70
     1
 10
0.0
 20
0.0
 30
0.0
  3
*D14
  1

  0
POINT
  5
12D8
330
B72
100
AcDbEntity
  8
DEFPOINTS
 62
     0
100
AcDbPoint
 10
211.0185283489
 20
54.8523960992
 30
0.0
  0
POINT
  5
12D9
330
B72
100
AcDbEntity
  8
DEFPOINTS
 62
     0
100
AcDbPoint
 10
312.0185283489
 20
54.8523960992
 30
0.0
  0
POINT
  5
12DA
330
B72
100
AcDbEntity
  8
DEFPOINTS
 62
     0
100
AcDbPoint
 10
312.0185283489
 20
25.9371406633
 30
0.0
  0
ENDBLK
  5
B7D
330
B72
100
AcDbEntity
  8
0
100
AcDbBlockEnd
  0
BLOCK
  5
B88
330
B7E
100
AcDbEntity
  8
0
100
AcDbBlockBegin
  2
*D15
 70
     1
 10
0.0
 20
0.0
 30
0.0
  3
*D15
  1

  0
POINT
  5
133B
330
B7E
100
AcDbEntity
  8
DEFPOINTS
 62
     0
100
AcDbPoint
 10
231.0185283489
 20
129.8523990992
 30
0.0
  0
POINT
  5
133C
330
B7E
100
AcDbEntity
  8
DEFPOINTS
 62
     0
100
AcDbPoint
 10
234.3080333489
 20
104.1523950992
 30
0.0
  0
POINT
  5
133D
330
B7E
100
AcDbEntity
  8
DEFPOINTS
 62
     0
100
AcDbPoint
 10
226.7588963743
 20
104.1523950992
 30
0.0
  0
ENDBLK
  5
B89
330
B7E
100
AcDbEntity
  8
0
100
AcDbBlockEnd
  0
BLOCK
  5
B94
330
B8A
100
AcDbEntity
  8
0
100
AcDbBlockBegin
  2
*D16
 70
     1
 10
0.0
 20
0.0
 30
0.0
  3
*D16
  1

  0
POINT
  5
1332
330
B8A
100
AcDbEntity
  8
DEFPOINTS
 62
     0
100
AcDbPoint
 10
160.9823577983
 20
149.1523950992
 30
0.0
  0
POINT
  5
1333
330
B8A
100
AcDbEntity
  8
DEFPOINTS
 62
     0
100
AcDbPoint
 10
160.9823577983
 20
59.1523960992
 30
0.0
  0
POINT
  5
1334
330
B8A
100
AcDbEntity
  8
DEFPOINTS
 62
     0
100
AcDbPoint
 10
160.7675571479
 20
59.1523960992
 30
0.0
  0
ENDBLK
  5
B95
330
B8A
100
AcDbEntity
  8
0
100
AcDbBlockEnd
  0
BLOCK
  5
BA0
330
B96
100
AcDbEntity
  8
0
100
AcDbBlockBegin
  2
*D17
 70
     1
 10
0.0
 20
0.0
 30
0.0
  3
*D17
  1

  0
POINT
  5
1310
330
B96
100
AcDbEntity
  8
DEFPOINTS
 62
     0
100
AcDbPoint
 10
104.0185343489
 20
166.6526920992
 30
0.0
  0
POINT
  5
1311
330
B96
100
AcDbEntity
  8
DEFPOINTS
 62
     0
100
AcDbPoint
 10
138.0185363489
 20
166.6526920992
 30
0.0
  0
POINT
  5
1312
330
B96
100
AcDbEntity
  8
DEFPOINTS
 62
     0
100
AcDbPoint
 10
138.0185363489
 20
189.0108791
 30
0.0
  0
ENDBLK
  5
BA1
330
B96
100
AcDbEntity
  8
0
100
AcDbBlockEnd
  0
BLOCK
  5
BAC
330
BA2
100
AcDbEntity
  8
0
100
AcDbBlockBegin
  2
*D18
 70
     1
 10
0.0
 20
0.0
 30
0.0
  3
*D18
  1

  0
POINT
  5
140E
330
BA2
100
AcDbEntity
  8
DEFPOINTS
 62
     0
100
AcDbPoint
 10
381.3940647104
 20
129.8524070992
 30
0.0
  0
POINT
  5
140F
330
BA2
100
AcDbEntity
  8
DEFPOINTS
 62
     0
100
AcDbPoint
 10
404.3940647104
 20
54.8524030992
 30
0.0
  0
POINT
  5
1410
330
BA2
100
AcDbEntity
  8
DEFPOINTS
 62
     0
100
AcDbPoint
 10
364.1838315964
 20
54.8524030992
 30
0.0
  0
ENDBLK
  5
BAD
330
BA2
100
AcDbEntity
  8
0
100
AcDbBlockEnd
  0
BLOCK
  5
BB8
330
BAE
100
AcDbEntity
  8
0
100
AcDbBlockBegin
  2
*D19
 70
     1
 10
0.0
 20
0.0
 30
0.0
  3
*D19
  1

  0
POINT
  5
12EA
330
BAE
100
AcDbEntity
  8
DEFPOINTS
 62
     0
100
AcDbPoint
 10
276.9396403489
 20
167.8523990992
 30
0.0
  0
POINT
  5
12EB
330
BAE
100
AcDbEntity
  8
DEFPOINTS
 62
     0
100
AcDbPoint
 10
312.0185283489
 20
54.8523960992
 30
0.0
  0
POINT
  5
12EC
330
BAE
100
AcDbEntity
  8
DEFPOINTS
 62
     0
100
AcDbPoint
 10
336.2619465903
 20
54.8523960992
 30
0.0
  0
ENDBLK
  5
BB9
330
BAE
100
AcDbEntity
  8
0
100
AcDbBlockEnd
  0
BLOCK
  5
BC4
330
BBA
100
AcDbEntity
  8
0
100
AcDbBlockBegin
  2
*D20
 70
     1
 10
0.0
 20
0.0
 30
0.0
  3
*D20
  1

  0
POINT
  5
12F5
330
BBA
100
AcDbEntity
  8
DEFPOINTS
 62
     0
100
AcDbPoint
 10
273.0185283489
 20
126.8524380992
 30
0.0
  0
POINT
  5
12F6
330
BBA
100
AcDbEntity
  8
DEFPOINTS
 62
     0
100
AcDbPoint
 10
273.0185283489
 20
132.8524380992
 30
0.0
  0
POINT
  5
12F7
330
BBA
100
AcDbEntity
  8
DEFPOINTS
 62
     0
100
AcDbPoint
 10
324.297702299
 20
132.8524380992
 30
0.0
  0
ENDBLK
  5
BC5
330
BBA
100
AcDbEntity
  8
0
100
AcDbBlockEnd
  0
BLOCK
  5
BD0
330
BC6
100
AcDbEntity
  8
0
100
AcDbBlockBegin
  2
*D21
 70
     1
 10
0.0
 20
0.0
 30
0.0
  3
*D21
  1

  0
POINT
  5
1419
330
BC6
100
AcDbEntity
  8
DEFPOINTS
 62
     0
100
AcDbPoint
 10
404.3940647104
 20
54.8524030992
 30
0.0
  0
POINT
  5
141A
330
BC6
100
AcDbEntity
  8
DEFPOINTS
 62
     0
100
AcDbPoint
 10
406.3940647104
 20
63.8524030992
 30
0.0
  0
POINT
  5
141B
330
BC6
100
AcDbEntity
  8
DEFPOINTS
 62
     0
100
AcDbPoint
 10
396.7659248633
 20
63.8524030992
 30
0.0
  0
ENDBLK
  5
BD1
330
BC6
100
AcDbEntity
  8
0
100
AcDbBlockEnd
  0
BLOCK
  5
BDC
330
BD2
100
AcDbEntity
  8
0
100
AcDbBlockBegin
  2
*D22
 70
     1
 10
0.0
 20
0.0
 30
0.0
  3
*D22
  1

  0
POINT
  5
12CF
330
BD2
100
AcDbEntity
  8
DEFPOINTS
 62
     0
100
AcDbPoint
 10
261.5185283489
 20
174.8523990992
 30
0.0
  0
POINT
  5
12D0
330
BD2
100
AcDbEntity
  8
DEFPOINTS
 62
     0
100
AcDbPoint
 10
312.0185283489
 20
141.7522940992
 30
0.0
  0
POINT
  5
12D1
330
BD2
100
AcDbEntity
  8
DEFPOINTS
 62
     0
100
AcDbPoint
 10
312.0185283489
 20
201.0362153303
 30
0.0
  0
ENDBLK
  5
BDD
330
BD2
100
AcDbEntity
  8
0
100
AcDbBlockEnd
  0
BLOCK
  5
BE9
330
BDE
100
AcDbEntity
  8
0
100
AcDbBlockBegin
  2
*D23
 70
     1
 10
0.0
 20
0.0
 30
0.0
  3
*D23
  1

  0
POINT
  5
1435
330
BDE
100
AcDbEntity
  8
DEFPOINTS
 62
     0
100
AcDbPoint
 10
388.3940647104
 20
120.8524070992
 30
0.0
  0
POINT
  5
1436
330
BDE
100
AcDbEntity
  8
DEFPOINTS
 62
     0
100
AcDbPoint
 10
388.3940647104
 20
138.8524070992
 30
0.0
  0
POINT
  5
1437
330
BDE
100
AcDbEntity
  8
DEFPOINTS
 62
     0
100
AcDbPoint
 10
376.1310677716
 20
138.8524070992
 30
0.0
  0
ENDBLK
  5
BEA
330
BDE
100
AcDbEntity
  8
0
100
AcDbBlockEnd
  0
BLOCK
  5
BF5
330
BEB
100
AcDbEntity
  8
0
100
AcDbBlockBegin
  2
*D24
 70
     1
 10
0.0
 20
0.0
 30
0.0
  3
*D24
  1

  0
POINT
  5
142B
330
BEB
100
AcDbEntity
  8
DEFPOINTS
 62
     0
100
AcDbPoint
 10
412.3940647104
 20
132.8524070992
 30
0.0
  0
POINT
  5
142C
330
BEB
100
AcDbEntity
  8
DEFPOINTS
 62
     0
100
AcDbPoint
 10
388.3940647104
 20
138.8524070992
 30
0.0
  0
POINT
  5
142D
330
BEB
100
AcDbEntity
  8
DEFPOINTS
 62
     0
100
AcDbPoint
 10
388.3940647104
 20
177.1106940403
 30
0.0
  0
ENDBLK
  5
BF6
330
BEB
100
AcDbEntity
  8
0
100
AcDbBlockEnd
  0
BLOCK
  5
C01
330
BF7
100
AcDbEntity
  8
0
100
AcDbBlockBegin
  2
*D25
 70
     1
 10
0.0
 20
0.0
 30
0.0
  3
*D25
  1

  0
POINT
  5
143E
330
BF7
100
AcDbEntity
  8
DEFPOINTS
 62
     0
100
AcDbPoint
 10
510.3940647104
 20
51.3524030992
 30
0.0
  0
POINT
  5
143F
330
BF7
100
AcDbEntity
  8
DEFPOINTS
 62
     0
100
AcDbPoint
 10
536.3940647104
 20
120.8524070992
 30
0.0
  0
POINT
  5
1440
330
BF7
100
AcDbEntity
  8
DEFPOINTS
 62
     0
100
AcDbPoint
 10
536.3940647104
 20
37.9473211863
 30
0.0
  0
ENDBLK
  5
C02
330
BF7
100
AcDbEntity
  8
0
100
AcDbBlockEnd
  0
BLOCK
  5
C0D
330
C03
100
AcDbEntity
  8
0
100
AcDbBlockBegin
  2
*D26
 70
     1
 10
0.0
 20
0.0
 30
0.0
  3
*D26
  1

  0
POINT
  5
13F3
330
C03
100
AcDbEntity
  8
DEFPOINTS
 62
     0
100
AcDbPoint
 10
414.3940657104
 20
51.3524030992
 30
0.0
  0
POINT
  5
13F4
330
C03
100
AcDbEntity
  8
DEFPOINTS
 62
     0
100
AcDbPoint
 10
510.3940647104
 20
51.3524030992
 30
0.0
  0
POINT
  5
13F5
330
C03
100
AcDbEntity
  8
DEFPOINTS
 62
     0
100
AcDbPoint
 10
510.3940647104
 20
37.9473211863
 30
0.0
  0
ENDBLK
  5
C0E
330
C03
100
AcDbEntity
  8
0
100
AcDbBlockEnd
  0
BLOCK
  5
C19
330
C0F
100
AcDbEntity
  8
0
100
AcDbBlockBegin
  2
*D27
 70
     1
 10
0.0
 20
0.0
 30
0.0
  3
*D27
  1

  0
POINT
  5
1463
330
C0F
100
AcDbEntity
  8
DEFPOINTS
 62
     0
100
AcDbPoint
 10
462.3940647104
 20
176.6527000992
 30
0.0
  0
POINT
  5
1464
330
C0F
100
AcDbEntity
  8
DEFPOINTS
 62
     0
100
AcDbPoint
 10
536.3940647104
 20
138.8523990992
 30
0.0
  0
POINT
  5
1465
330
C0F
100
AcDbEntity
  8
DEFPOINTS
 62
     0
100
AcDbPoint
 10
536.3940647104
 20
200.8982396703
 30
0.0
  0
ENDBLK
  5
C1A
330
C0F
100
AcDbEntity
  8
0
100
AcDbBlockEnd
  0
BLOCK
  5
C25
330
C1B
100
AcDbEntity
  8
0
100
AcDbBlockBegin
  2
*D28
 70
     1
 10
0.0
 20
0.0
 30
0.0
  3
*D28
  1

  0
POINT
  5
13E1
330
C1B
100
AcDbEntity
  8
DEFPOINTS
 62
     0
100
AcDbPoint
 10
439.3940647104
 20
168.1360990992
 30
0.0
  0
POINT
  5
13E2
330
C1B
100
AcDbEntity
  8
DEFPOINTS
 62
     0
100
AcDbPoint
 10
485.3940687104
 20
168.1360990992
 30
0.0
  0
POINT
  5
13E3
330
C1B
100
AcDbEntity
  8
DEFPOINTS
 62
     0
100
AcDbPoint
 10
485.3940687104
 20
189.0743239902
 30
0.0
  0
ENDBLK
  5
C26
330
C1B
100
AcDbEntity
  8
0
100
AcDbBlockEnd
  0
BLOCK
  5
C31
330
C27
100
AcDbEntity
  8
0
100
AcDbBlockBegin
  2
*D29
 70
     1
 10
0.0
 20
0.0
 30
0.0
  3
*D29
  1

  0
POINT
  5
1451
330
C27
100
AcDbEntity
  8
DEFPOINTS
 62
     0
100
AcDbPoint
 10
506.3940647104
 20
139.8524070992
 30
0.0
  0
POINT
  5
1452
330
C27
100
AcDbEntity
  8
DEFPOINTS
 62
     0
100
AcDbPoint
 10
536.3940647104
 20
138.8524070992
 30
0.0
  0
POINT
  5
1453
330
C27
100
AcDbEntity
  8
DEFPOINTS
 62
     0
100
AcDbPoint
 10
536.3940647104
 20
189.0743239902
 30
0.0
  0
ENDBLK
  5
C32
330
C27
100
AcDbEntity
  8
0
100
AcDbBlockEnd
  0
BLOCK
  5
C3E
330
C33
100
AcDbEntity
  8
0
100
AcDbBlockBegin
  2
*D30
 70
     1
 10
0.0
 20
0.0
 30
0.0
  3
*D30
  1

  0
POINT
  5
1448
330
C33
100
AcDbEntity
  8
DEFPOINTS
 62
     0
100
AcDbPoint
 10
536.3940647104
 20
120.8524070992
 30
0.0
  0
POINT
  5
1449
330
C33
100
AcDbEntity
  8
DEFPOINTS
 62
     0
100
AcDbPoint
 10
536.3940647104
 20
138.8524070992
 30
0.0
  0
POINT
  5
144A
330
C33
100
AcDbEntity
  8
DEFPOINTS
 62
     0
100
AcDbPoint
 10
548.6570616491
 20
138.8524070992
 30
0.0
  0
ENDBLK
  5
C3F
330
C33
100
AcDbEntity
  8
0
100
AcDbBlockEnd
  0
BLOCK
  5
C4A
330
C40
100
AcDbEntity
  8
0
100
AcDbBlockBegin
  2
*D31
 70
     1
 10
0.0
 20
0.0
 30
0.0
  3
*D31
  1

  0
POINT
  5
145A
330
C40
100
AcDbEntity
  8
DEFPOINTS
 62
     0
100
AcDbPoint
 10
512.3940647104
 20
132.8524070992
 30
0.0
  0
POINT
  5
145B
330
C40
100
AcDbEntity
  8
DEFPOINTS
 62
     0
100
AcDbPoint
 10
536.3940647104
 20
138.8524070992
 30
0.0
  0
POINT
  5
145C
330
C40
100
AcDbEntity
  8
DEFPOINTS
 62
     0
100
AcDbPoint
 10
536.3940647104
 20
177.1106940403
 30
0.0
  0
ENDBLK
  5
C4B
330
C40
100
AcDbEntity
  8
0
100
AcDbBlockEnd
  0
BLOCK
  5
148C
330
1481
100
AcDbEntity
  8
0
100
AcDbBlockBegin
  2
*D32
 70
     1
 10
0.0
 20
0.0
 30
0.0
  3
*D32
  1

  0
POINT
  5
1495
330
1481
100
AcDbEntity
  8
DEFPOINTS
 62
     0
100
AcDbPoint
 10
252.5185283489
 20
129.8523990992
 30
0.0
  0
POINT
  5
1496
330
1481
100
AcDbEntity
  8
DEFPOINTS
 62
     0
100
AcDbPoint
 10
273.0185283489
 20
132.8524380992
 30
0.0
  0
POINT
  5
1497
330
1481
100
AcDbEntity
  8
DEFPOINTS
 62
     0
100
AcDbPoint
 10
273.0185283489
 20
189.0108791
 30
0.0
  0
ENDBLK
  5
148D
330
1481
100
AcDbEntity
  8
0
100
AcDbBlockEnd
  0
BLOCK
  5
177D
330
177A
100
AcDbEntity
  8
0
100
AcDbBlockBegin
  2
A$C57c306b1
 70
     0
 10
0.0
 20
0.0
 30
0.0
  3
A$C57c306b1
  1

  0
ARC
  5
177E
330
177A
100
AcDbEntity
  8
0
100
AcDbCircle
 10
0.0
 20
1.56
 30
0.0
 40
0.3900000000000001
100
AcDbArc
 50
17.2352852571
 51
162.7647147429
  0
ARC
  5
177F
330
177A
100
AcDbEntity
  8
0
100
AcDbCircle
 10
-1.117462403
 20
1.9066666667
 30
0.0
 40
0.7800000000000002
100
AcDbArc
 50
300.3737861998
 51
342.7647147429
  0
ARC
  5
1780
330
177A
100
AcDbEntity
  8
0
100
AcDbCircle
 10
1.117462403
 20
1.9066666667
 30
0.0
 40
0.7800000000000002
100
AcDbArc
 50
197.2352852571
 51
239.6262138002
  0
ARC
  5
1781
330
177A
100
AcDbEntity
  8
0
100
AcDbCircle
 10
-1.3509996299
 20
0.78
 30
0.0
 40
0.3900000000000001
100
AcDbArc
 50
77.2352852571
 51
222.7647147429
  0
ARC
  5
1782
330
177A
100
AcDbEntity
  8
0
100
AcDbCircle
 10
-2.2099529714
 20
-0.0144174955
 30
0.0
 40
0.7800000000000002
100
AcDbArc
 50
0.3737861998
 51
42.7647147429
  0
ARC
  5
1783
330
177A
100
AcDbEntity
  8
0
100
AcDbCircle
 10
-1.0924905684
 20
1.9210841621
 30
0.0
 40
0.7800000000000002
100
AcDbArc
 50
257.2352852571
 51
299.6262138002
  0
ARC
  5
1784
330
177A
100
AcDbEntity
  8
0
100
AcDbCircle
 10
1.3509996299
 20
0.78
 30
0.0
 40
0.3900000000000001
100
AcDbArc
 50
317.2352852571
 51
102.7647147429
  0
ARC
  5
1785
330
177A
100
AcDbEntity
  8
0
100
AcDbCircle
 10
2.2099529714
 20
-0.0144174955
 30
0.0
 40
0.7800000000000002
100
AcDbArc
 50
137.2352852571
 51
179.6262138002
  0
ARC
  5
1786
330
177A
100
AcDbEntity
  8
0
100
AcDbCircle
 10
1.0924905684
 20
1.9210841621
 30
0.0
 40
0.7800000000000002
100
AcDbArc
 50
240.3737861998
 51
282.7647147429
  0
ARC
  5
1787
330
177A
100
AcDbEntity
  8
0
100
AcDbCircle
 10
0.0
 20
-1.56
 30
0.0
 40
0.3900000000000001
100
AcDbArc
 50
197.2352852571
 51
342.7647147429
  0
ARC
  5
1788
330
177A
100
AcDbEntity
  8
0
100
AcDbCircle
 10
-1.117462403
 20
-1.9066666667
 30
0.0
 40
0.7800000000000002
100
AcDbArc
 50
17.2352852571
 51
59.6262138002
  0
ARC
  5
1789
330
177A
100
AcDbEntity
  8
0
100
AcDbCircle
 10
1.117462403
 20
-1.9066666667
 30
0.0
 40
0.7800000000000002
100
AcDbArc
 50
120.3737861998
 51
162.7647147429
  0
ARC
  5
178A
330
177A
100
AcDbEntity
  8
0
100
AcDbCircle
 10
-1.3509996299
 20
-0.78
 30
0.0
 40
0.3900000000000001
100
AcDbArc
 50
137.2352852571
 51
282.7647147429
  0
ARC
  5
178B
330
177A
100
AcDbEntity
  8
0
100
AcDbCircle
 10
-2.2099529714
 20
0.0144174955
 30
0.0
 40
0.7800000000000002
100
AcDbArc
 50
317.2352852571
 51
359.6262138002
  0
ARC
  5
178C
330
177A
100
AcDbEntity
  8
0
100
AcDbCircle
 10
-1.0924905684
 20
-1.9210841621
 30
0.0
 40
0.7800000000000002
100
AcDbArc
 50
60.3737861998
 51
102.7647147429
  0
ARC
  5
178D
330
177A
100
AcDbEntity
  8
0
100
AcDbCircle
 10
1.3509996299
 20
-0.78
 30
0.0
 40
0.3900000000000001
100
AcDbArc
 50
257.2352852571
 51
42.7647147429
  0
ARC
  5
178E
330
177A
100
AcDbEntity
  8
0
100
AcDbCircle
 10
1.0924905684
 20
-1.9210841621
 30
0.0
 40
0.7800000000000002
100
AcDbArc
 50
77.2352852571
 51
119.6262138002
  0
ARC
  5
178F
330
177A
100
AcDbEntity
  8
0
100
AcDbCircle
 10
2.2099529714
 20
0.0144174955
 30
0.0
 40
0.7800000000000002
100
AcDbArc
 50
180.3737861998
 51
222.7647147429
  0
ENDBLK
  5
1790
330
177A
100
AcDbEntity
  8
0
100
AcDbBlockEnd
  0
BLOCK
  5
1792
330
1791
100
AcDbEntity
  8
0
100
AcDbBlockBegin
  2
A$C0e0b3c3a
 70
     0
 10
0.0
 20
0.0
 30
0.0
  3
A$C0e0b3c3a
  1

  0
LINE
  5
1793
330
1791
100
AcDbEntity
  8
0
100
AcDbLine
 10
-57.999999
 20
36.075272
 30
0.0
 11
-57.999999
 21
-36.075287
 31
0.0
  0
LINE
  5
1794
330
1791
100
AcDbEntity
  8
CENTER
100
AcDbLine
 10
-17.5
 20
31.767502
 30
0.0
 11
-17.5
 21
-31.767502
 31
0.0
  0
LINE
  5
1795
330
1791
100
AcDbEntity
  8
0
100
AcDbLine
 10
0.0
 20
-45.000007
 30
0.0
 11
0.0
 21
45.0
 31
0.0
  0
LINE
  5
1796
330
1791
100
AcDbEntity
  8
0
100
AcDbLine
 10
-30.999999
 20
-31.681823
 30
0.0
 11
-57.999999
 21
-32.388855
 31
0.0
  0
LINE
  5
1797
330
1791
100
AcDbEntity
  8
0
100
AcDbLine
 10
-33.693431
 20
-35.592468
 30
0.0
 11
-57.999999
 21
-34.955978
 31
0.0
  0
ARC
  5
1798
330
1791
100
AcDbEntity
  8
0
100
AcDbCircle
 10
-54.125018
 20
-33.537994
 30
0.0
 40
5.0
100
AcDbArc
 50
251.565048
 51
268.5
  0
ARC
  5
1799
330
1791
100
AcDbEntity
  8
0
100
AcDbCircle
 10
-55.999999
 20
-36.075287
 30
0.0
 40
2.0
100
AcDbArc
 50
180.0
 51
251.565048
  0
LINE
  5
179A
330
1791
100
AcDbEntity
  8
0
100
AcDbLine
 10
-55.706157
 20
-38.281418
 30
0.0
 11
-56.632457
 21
-37.972656
 31
0.0
  0
LINE
  5
179B
330
1791
100
AcDbEntity
  8
0
100
AcDbLine
 10
-57.990749
 20
-31.320861
 30
0.0
 11
-57.999999
 21
-31.320617
 31
0.0
  0
LINE
  5
179C
330
1791
100
AcDbEntity
  8
0
100
AcDbLine
 10
-25.035213
 20
-44.562973
 30
0.0
 11
0.0
 21
-45.000007
 31
0.0
  0
LINE
  5
179D
330
1791
100
AcDbEntity
  8
0
100
AcDbLine
 10
-14.0
 20
-27.650009
 30
0.0
 11
-26.999999
 21
-27.309509
 31
0.0
  0
LINE
  5
179E
330
1791
100
AcDbEntity
  8
0
100
AcDbLine
 10
-26.999999
 20
-43.269706
 30
0.0
 11
-26.999999
 21
-23.0
 31
0.0
  0
LINE
  5
179F
330
1791
100
AcDbEntity
  8
0
100
AcDbLine
 10
-26.258399
 20
-44.235809
 30
0.0
 11
-25.035213
 21
-44.562973
 31
0.0
  0
ARC
  5
17A0
330
1791
100
AcDbEntity
  8
0
100
AcDbCircle
 10
-25.999999
 20
-43.269706
 30
0.0
 40
1.0
100
AcDbArc
 50
180.0
 51
255.023895
  0
LINE
  5
17A1
330
1791
100
AcDbEntity
  8
0
100
AcDbLine
 10
-54.255901
 20
-38.536285
 30
0.0
 11
-26.999999
 21
-39.25
 31
0.0
  0
LINE
  5
17A2
330
1791
100
AcDbEntity
  8
0
100
AcDbLine
 10
-30.999999
 20
-38.652588
 30
0.0
 11
-30.999999
 21
-29.529876
 31
0.0
  0
LINE
  5
17A3
330
1791
100
AcDbEntity
  8
0
100
AcDbLine
 10
-30.513088
 20
-39.15242
 30
0.0
 11
-26.999999
 21
-39.2444
 31
0.0
  0
ARC
  5
17A4
330
1791
100
AcDbEntity
  8
0
100
AcDbCircle
 10
-26.699951
 20
-35.290405
 30
0.0
 40
7.0
100
AcDbArc
 50
163.043503
 51
196.957993
  0
LINE
  5
17A5
330
1791
100
AcDbEntity
  8
0
100
AcDbLine
 10
-31.699951
 20
-38.040405
 30
0.0
 11
-31.699951
 21
-32.540405
 31
0.0
  0
ARC
  5
17A6
330
1791
100
AcDbEntity
  8
0
100
AcDbCircle
 10
-30.499999
 20
-38.652588
 30
0.0
 40
0.5
100
AcDbArc
 50
180.0
 51
268.5
  0
ARC
  5
17A7
330
1791
100
AcDbEntity
  8
0
100
AcDbCircle
 10
-32.43921
 20
-37.040405
 30
0.0
 40
1.0
100
AcDbArc
 50
196.958099
 51
270.0
  0
LINE
  5
17A8
330
1791
100
AcDbEntity
  8
0
100
AcDbLine
 10
-30.999999
 20
-38.040405
 30
0.0
 11
-32.43921
 21
-38.040405
 31
0.0
  0
ARC
  5
17A9
330
1791
100
AcDbEntity
  8
0
100
AcDbCircle
 10
-32.43921
 20
-33.540405
 30
0.0
 40
1.0
100
AcDbArc
 50
90.0
 51
163.043106
  0
LINE
  5
17AA
330
1791
100
AcDbEntity
  8
0
100
AcDbLine
 10
-30.999999
 20
-32.540405
 30
0.0
 11
-32.43921
 21
-32.540405
 31
0.0
  0
LINE
  5
17AB
330
1791
100
AcDbEntity
  8
0
100
AcDbLine
 10
-30.999999
 20
-29.529876
 30
0.0
 11
-26.999999
 21
-29.529876
 31
0.0
  0
LINE
  5
17AC
330
1791
100
AcDbEntity
  8
0
100
AcDbLine
 10
-13.5131
 20
-28.646103
 30
0.0
 11
0.0
 21
-29.0
 31
0.0
  0
ARC
  5
17AD
330
1791
100
AcDbEntity
  8
0
100
AcDbCircle
 10
-13.5
 20
-28.146209
 30
0.0
 40
0.5
100
AcDbArc
 50
180.0
 51
268.496399
  0
ARC
  5
17AE
330
1791
100
AcDbEntity
  8
0
100
AcDbCircle
 10
-8.59997
 20
-24.0
 30
0.0
 40
8.999999
100
AcDbArc
 50
173.620636
 51
196.601013
  0
LINE
  5
17AF
330
1791
100
AcDbEntity
  8
0
100
AcDbLine
 10
-15.0
 20
-23.0
 30
0.0
 11
-15.0
 21
-27.5
 31
0.0
  0
LINE
  5
17B0
330
1791
100
AcDbEntity
  8
0
100
AcDbLine
 10
-14.0
 20
-28.146209
 30
0.0
 11
-14.0
 21
-23.0
 31
0.0
  0
ARC
  5
17B1
330
1791
100
AcDbEntity
  8
0
100
AcDbCircle
 10
-15.97901
 20
-26.200012
 30
0.0
 40
1.3
100
AcDbArc
 50
196.600906
 51
270.0
  0
LINE
  5
17B2
330
1791
100
AcDbEntity
  8
0
100
AcDbLine
 10
-14.0
 20
-27.5
 30
0.0
 11
-15.97901
 21
-27.5
 31
0.0
  0
LINE
  5
17B3
330
1791
100
AcDbEntity
  8
0
100
AcDbLine
 10
-30.999999
 20
31.681809
 30
0.0
 11
-57.999999
 21
32.38884
 31
0.0
  0
LINE
  5
17B4
330
1791
100
AcDbEntity
  8
0
100
AcDbLine
 10
-33.693431
 20
35.592453
 30
0.0
 11
-57.999999
 21
34.955963
 31
0.0
  0
ARC
  5
17B5
330
1791
100
AcDbEntity
  8
0
100
AcDbCircle
 10
-54.125018
 20
33.537979
 30
0.0
 40
5.0
100
AcDbArc
 50
91.5
 51
108.434952
  0
ARC
  5
17B6
330
1791
100
AcDbEntity
  8
0
100
AcDbCircle
 10
-55.999999
 20
36.075272
 30
0.0
 40
2.0
100
AcDbArc
 50
108.434952
 51
180.0
  0
LINE
  5
17B7
330
1791
100
AcDbEntity
  8
0
100
AcDbLine
 10
-55.706157
 20
38.281403
 30
0.0
 11
-56.632457
 21
37.972641
 31
0.0
  0
ARC
  5
17B8
330
1791
100
AcDbEntity
  8
0
100
AcDbCircle
 10
-15.97901
 20
26.200013
 30
0.0
 40
1.3
100
AcDbArc
 50
90.0
 51
163.399094
  0
LINE
  5
17B9
330
1791
100
AcDbEntity
  8
0
100
AcDbLine
 10
-14.0
 20
27.649994
 30
0.0
 11
-26.999999
 21
27.309494
 31
0.0
  0
LINE
  5
17BA
330
1791
100
AcDbEntity
  8
0
100
AcDbLine
 10
-14.0
 20
28.146195
 30
0.0
 11
-14.0
 21
23.0
 31
0.0
  0
LINE
  5
17BB
330
1791
100
AcDbEntity
  8
0
100
AcDbLine
 10
-26.999999
 20
43.269699
 30
0.0
 11
-26.999999
 21
23.0
 31
0.0
  0
ARC
  5
17BC
330
1791
100
AcDbEntity
  8
0
100
AcDbCircle
 10
-8.59997
 20
24.0
 30
0.0
 40
8.999999
100
AcDbArc
 50
163.398987
 51
186.379364
  0
LINE
  5
17BD
330
1791
100
AcDbEntity
  8
0
100
AcDbLine
 10
-14.0
 20
27.5
 30
0.0
 11
-15.97901
 21
27.5
 31
0.0
  0
LINE
  5
17BE
330
1791
100
AcDbEntity
  8
0
100
AcDbLine
 10
-15.0
 20
23.0
 30
0.0
 11
-15.0
 21
27.5
 31
0.0
  0
LINE
  5
17BF
330
1791
100
AcDbEntity
  8
0
100
AcDbLine
 10
-25.035201
 20
44.562958
 30
0.0
 11
0.0
 21
45.0
 31
0.0
  0
LINE
  5
17C0
330
1791
100
AcDbEntity
  8
0
100
AcDbLine
 10
-54.255901
 20
38.53627
 30
0.0
 11
-26.999999
 21
39.25
 31
0.0
  0
ARC
  5
17C1
330
1791
100
AcDbEntity
  8
0
100
AcDbCircle
 10
-30.499999
 20
38.652573
 30
0.0
 40
0.5
100
AcDbArc
 50
91.5
 51
180.0
  0
LINE
  5
17C2
330
1791
100
AcDbEntity
  8
0
100
AcDbLine
 10
-30.999999
 20
29.529862
 30
0.0
 11
-26.999999
 21
29.529862
 31
0.0
  0
ARC
  5
17C3
330
1791
100
AcDbEntity
  8
0
100
AcDbCircle
 10
-26.699951
 20
35.29039
 30
0.0
 40
7.0
100
AcDbArc
 50
163.042007
 51
196.956497
  0
LINE
  5
17C4
330
1791
100
AcDbEntity
  8
0
100
AcDbLine
 10
-31.699951
 20
38.04039
 30
0.0
 11
-31.699951
 21
32.54039
 31
0.0
  0
LINE
  5
17C5
330
1791
100
AcDbEntity
  8
0
100
AcDbLine
 10
-30.999999
 20
38.652573
 30
0.0
 11
-30.999999
 21
29.529862
 31
0.0
  0
ARC
  5
17C6
330
1791
100
AcDbEntity
  8
0
100
AcDbCircle
 10
-32.43921
 20
33.54039
 30
0.0
 40
1.0
100
AcDbArc
 50
196.956894
 51
270.0
  0
LINE
  5
17C7
330
1791
100
AcDbEntity
  8
0
100
AcDbLine
 10
-30.999999
 20
32.54039
 30
0.0
 11
-32.43921
 21
32.54039
 31
0.0
  0
ARC
  5
17C8
330
1791
100
AcDbEntity
  8
0
100
AcDbCircle
 10
-32.43921
 20
37.04039
 30
0.0
 40
1.0
100
AcDbArc
 50
90.0
 51
163.041901
  0
LINE
  5
17C9
330
1791
100
AcDbEntity
  8
0
100
AcDbLine
 10
-30.999999
 20
38.04039
 30
0.0
 11
-32.43921
 21
38.04039
 31
0.0
  0
LINE
  5
17CA
330
1791
100
AcDbEntity
  8
0
100
AcDbLine
 10
-30.513088
 20
39.152405
 30
0.0
 11
-26.999999
 21
39.2444
 31
0.0
  0
LINE
  5
17CB
330
1791
100
AcDbEntity
  8
0
100
AcDbLine
 10
-26.258399
 20
44.235688
 30
0.0
 11
-25.035201
 21
44.562958
 31
0.0
  0
ARC
  5
17CC
330
1791
100
AcDbEntity
  8
0
100
AcDbCircle
 10
-25.999999
 20
43.269699
 30
0.0
 40
1.0
100
AcDbArc
 50
104.976105
 51
180.0
  0
LINE
  5
17CD
330
1791
100
AcDbEntity
  8
0
100
AcDbLine
 10
0.0
 20
29.0
 30
0.0
 11
-13.5131
 21
28.646088
 31
0.0
  0
ARC
  5
17CE
330
1791
100
AcDbEntity
  8
0
100
AcDbCircle
 10
-13.5
 20
28.146195
 30
0.0
 40
0.5
100
AcDbArc
 50
91.503601
 51
180.0
  0
ARC
  5
17CF
330
1791
100
AcDbEntity
  8
0
100
AcDbCircle
 10
-4.5
 20
-21.0
 30
0.0
 40
2.0
100
AcDbArc
 50
270.0
 51
0.0
  0
ARC
  5
17D0
330
1791
100
AcDbEntity
  8
0
100
AcDbCircle
 10
-30.500107
 20
-21.0
 30
0.0
 40
2.0
100
AcDbArc
 50
180.0
 51
270.0
  0
LINE
  5
17D1
330
1791
100
AcDbEntity
  8
0
100
AcDbLine
 10
-9.0
 20
-22.0
 30
0.0
 11
-9.0
 21
-20.0
 31
0.0
  0
LINE
  5
17D2
330
1791
100
AcDbEntity
  8
0
100
AcDbLine
 10
-26.0
 20
-22.0
 30
0.0
 11
-26.0
 21
-20.0
 31
0.0
  0
ARC
  5
17D3
330
1791
100
AcDbEntity
  8
0
100
AcDbCircle
 10
-4.5
 20
-20.982483
 30
0.0
 40
2.0
100
AcDbArc
 50
269.499939
 51
0.0
  0
LINE
  5
17D4
330
1791
100
AcDbEntity
  8
0
100
AcDbLine
 10
-4.5
 20
-23.0
 30
0.0
 11
-30.500107
 21
-23.0
 31
0.0
  0
ARC
  5
17D5
330
1791
100
AcDbEntity
  8
0
100
AcDbCircle
 10
-25.0
 20
-22.0
 30
0.0
 40
1.0
100
AcDbArc
 50
180.0
 51
270.0
  0
ARC
  5
17D6
330
1791
100
AcDbEntity
  8
0
100
AcDbCircle
 10
-10.0
 20
-22.0
 30
0.0
 40
1.0
100
AcDbArc
 50
270.0
 51
0.0
  0
LINE
  5
17D7
330
1791
100
AcDbEntity
  8
0
100
AcDbLine
 10
-48.796883
 20
3.850006
 30
0.0
 11
-34.499886
 21
3.850006
 31
0.0
  0
LINE
  5
17D8
330
1791
100
AcDbEntity
  8
0
100
AcDbLine
 10
-49.648682
 20
-3.850006
 30
0.0
 11
-34.499886
 21
-3.850006
 31
0.0
  0
LINE
  5
17D9
330
1791
100
AcDbEntity
  8
HOJO
100
AcDbLine
 10
-48.720581
 20
-1.460083
 30
0.0
 11
-49.648682
 21
-3.850006
 31
0.0
  0
LINE
  5
17DA
330
1791
100
AcDbEntity
  8
HOJO
100
AcDbLine
 10
-49.532684
 20
1.014893
 30
0.0
 11
-48.720581
 21
-1.460083
 31
0.0
  0
LINE
  5
17DB
330
1791
100
AcDbEntity
  8
HOJO
100
AcDbLine
 10
-48.796883
 20
3.850006
 30
0.0
 11
-49.532684
 21
1.014893
 31
0.0
  0
LINE
  5
17DC
330
1791
100
AcDbEntity
  8
0
100
AcDbLine
 10
-2.5
 20
21.0
 30
0.0
 11
-2.5
 21
-21.0
 31
0.0
  0
LINE
  5
17DD
330
1791
100
AcDbEntity
  8
0
100
AcDbLine
 10
-32.500107
 20
-21.0
 30
0.0
 11
-32.500107
 21
21.0
 31
0.0
  0
ARC
  5
17DE
330
1791
100
AcDbEntity
  8
0
100
AcDbCircle
 10
-29.5
 20
-20.0
 30
0.0
 40
3.5
100
AcDbArc
 50
0.0
 51
90.0
  0
ARC
  5
17DF
330
1791
100
AcDbEntity
  8
0
100
AcDbCircle
 10
-31.500107
 20
-15.5
 30
0.0
 40
1.0
100
AcDbArc
 50
180.0
 51
270.0
  0
LINE
  5
17E0
330
1791
100
AcDbEntity
  8
0
100
AcDbLine
 10
-31.500107
 20
-16.5
 30
0.0
 11
-29.5
 21
-16.5
 31
0.0
  0
LINE
  5
17E1
330
1791
100
AcDbEntity
  8
0
100
AcDbLine
 10
-3.499901
 20
-16.5
 30
0.0
 11
-5.5
 21
-16.5
 31
0.0
  0
ARC
  5
17E2
330
1791
100
AcDbEntity
  8
0
100
AcDbCircle
 10
-5.5
 20
-20.0
 30
0.0
 40
3.5
100
AcDbArc
 50
90.0
 51
180.0
  0
ARC
  5
17E3
330
1791
100
AcDbEntity
  8
0
100
AcDbCircle
 10
-3.499901
 20
-15.5
 30
0.0
 40
1.0
100
AcDbArc
 50
270.0
 51
0.0
  0
LINE
  5
17E4
330
1791
100
AcDbEntity
  8
0
100
AcDbLine
 10
-4.5
 20
23.0
 30
0.0
 11
-30.500107
 21
23.0
 31
0.0
  0
ARC
  5
17E5
330
1791
100
AcDbEntity
  8
0
100
AcDbCircle
 10
-29.5
 20
20.0
 30
0.0
 40
3.5
100
AcDbArc
 50
270.0
 51
0.0
  0
ARC
  5
17E6
330
1791
100
AcDbEntity
  8
0
100
AcDbCircle
 10
-30.500107
 20
21.0
 30
0.0
 40
2.0
100
AcDbArc
 50
90.0
 51
180.0
  0
ARC
  5
17E7
330
1791
100
AcDbEntity
  8
0
100
AcDbCircle
 10
-31.500107
 20
15.5
 30
0.0
 40
1.0
100
AcDbArc
 50
90.0
 51
180.0
  0
LINE
  5
17E8
330
1791
100
AcDbEntity
  8
0
100
AcDbLine
 10
-31.500107
 20
16.5
 30
0.0
 11
-29.5
 21
16.5
 31
0.0
  0
ARC
  5
17E9
330
1791
100
AcDbEntity
  8
0
100
AcDbCircle
 10
-25.0
 20
22.0
 30
0.0
 40
1.0
100
AcDbArc
 50
90.0
 51
180.0
  0
LINE
  5
17EA
330
1791
100
AcDbEntity
  8
0
100
AcDbLine
 10
-26.0
 20
22.0
 30
0.0
 11
-26.0
 21
20.0
 31
0.0
  0
LINE
  5
17EB
330
1791
100
AcDbEntity
  8
0
100
AcDbLine
 10
-3.499901
 20
16.5
 30
0.0
 11
-5.5
 21
16.5
 31
0.0
  0
ARC
  5
17EC
330
1791
100
AcDbEntity
  8
0
100
AcDbCircle
 10
-10.0
 20
22.0
 30
0.0
 40
1.0
100
AcDbArc
 50
0.0
 51
90.0
  0
LINE
  5
17ED
330
1791
100
AcDbEntity
  8
0
100
AcDbLine
 10
-9.0
 20
22.0
 30
0.0
 11
-9.0
 21
20.0
 31
0.0
  0
ARC
  5
17EE
330
1791
100
AcDbEntity
  8
0
100
AcDbCircle
 10
-5.5
 20
20.0
 30
0.0
 40
3.5
100
AcDbArc
 50
180.0
 51
270.0
  0
ARC
  5
17EF
330
1791
100
AcDbEntity
  8
0
100
AcDbCircle
 10
-4.5
 20
21.0
 30
0.0
 40
2.0
100
AcDbArc
 50
0.0
 51
90.0
  0
ARC
  5
17F0
330
1791
100
AcDbEntity
  8
0
100
AcDbCircle
 10
-3.499901
 20
15.5
 30
0.0
 40
1.0
100
AcDbArc
 50
0.0
 51
90.0
  0
CIRCLE
  5
17F1
330
1791
100
AcDbEntity
  8
0
100
AcDbCircle
 10
-5.5
 20
-20.0
 30
0.0
 40
2.75
  0
CIRCLE
  5
17F2
330
1791
100
AcDbEntity
  8
0
100
AcDbCircle
 10
-29.5
 20
-20.0
 30
0.0
 40
2.75
  0
LINE
  5
17F3
330
1791
100
AcDbEntity
  8
0
100
AcDbLine
 10
-34.5
 20
6.0
 30
0.0
 11
-34.5
 21
-6.0
 31
0.0
  0
ARC
  5
17F4
330
1791
100
AcDbEntity
  8
0
100
AcDbCircle
 10
-33.0
 20
-7.5
 30
0.0
 40
0.5
100
AcDbArc
 50
0.0
 51
90.0
  0
ARC
  5
17F5
330
1791
100
AcDbEntity
  8
0
100
AcDbCircle
 10
-33.5
 20
-6.0
 30
0.0
 40
1.0
100
AcDbArc
 50
180.0
 51
270.0
  0
LINE
  5
17F6
330
1791
100
AcDbEntity
  8
0
100
AcDbLine
 10
-33.0
 20
-7.0
 30
0.0
 11
-33.5
 21
-7.0
 31
0.0
  0
ARC
  5
17F7
330
1791
100
AcDbEntity
  8
0
100
AcDbCircle
 10
-33.0
 20
7.5
 30
0.0
 40
0.5
100
AcDbArc
 50
270.0
 51
0.0
  0
ARC
  5
17F8
330
1791
100
AcDbEntity
  8
0
100
AcDbCircle
 10
-33.5
 20
6.0
 30
0.0
 40
1.0
100
AcDbArc
 50
90.0
 51
180.0
  0
LINE
  5
17F9
330
1791
100
AcDbEntity
  8
0
100
AcDbLine
 10
-33.0
 20
7.0
 30
0.0
 11
-33.5
 21
7.0
 31
0.0
  0
LINE
  5
17FA
330
1791
100
AcDbEntity
  8
0
100
AcDbLine
 10
-0.500004
 20
6.0
 30
0.0
 11
-0.500004
 21
-6.0
 31
0.0
  0
LINE
  5
17FB
330
1791
100
AcDbEntity
  8
0
100
AcDbLine
 10
-0.500004
 20
4.883698
 30
0.0
 11
-0.500004
 21
-4.883697
 31
0.0
  0
ARC
  5
17FC
330
1791
100
AcDbEntity
  8
0
100
AcDbCircle
 10
-2.000004
 20
-7.5
 30
0.0
 40
0.5
100
AcDbArc
 50
90.0
 51
180.0
  0
ARC
  5
17FD
330
1791
100
AcDbEntity
  8
0
100
AcDbCircle
 10
-1.500004
 20
-6.0
 30
0.0
 40
1.0
100
AcDbArc
 50
270.0
 51
0.0
  0
LINE
  5
17FE
330
1791
100
AcDbEntity
  8
0
100
AcDbLine
 10
-2.000004
 20
-7.0
 30
0.0
 11
-1.500004
 21
-7.0
 31
0.0
  0
ARC
  5
17FF
330
1791
100
AcDbEntity
  8
0
100
AcDbCircle
 10
-2.000004
 20
7.5
 30
0.0
 40
0.5
100
AcDbArc
 50
180.0
 51
270.0
  0
ARC
  5
1800
330
1791
100
AcDbEntity
  8
0
100
AcDbCircle
 10
-1.500004
 20
6.0
 30
0.0
 40
1.0
100
AcDbArc
 50
0.0
 51
90.0
  0
LINE
  5
1801
330
1791
100
AcDbEntity
  8
0
100
AcDbLine
 10
-2.000004
 20
7.0
 30
0.0
 11
-1.500004
 21
7.0
 31
0.0
  0
CIRCLE
  5
1802
330
1791
100
AcDbEntity
  8
0
100
AcDbCircle
 10
-29.5
 20
20.0
 30
0.0
 40
2.75
  0
CIRCLE
  5
1803
330
1791
100
AcDbEntity
  8
0
100
AcDbCircle
 10
-5.5
 20
20.0
 30
0.0
 40
2.75
  0
INSERT
  5
1804
330
1791
100
AcDbEntity
  8
0
100
AcDbBlockReference
  2
A$C57c306b1
 10
-5.5
 20
20.0
 30
0.0
  0
INSERT
  5
1805
330
1791
100
AcDbEntity
  8
0
100
AcDbBlockReference
  2
A$C57c306b1
 10
-29.5
 20
20.0093289677
 30
0.0
  0
INSERT
  5
1806
330
1791
100
AcDbEntity
  8
0
100
AcDbBlockReference
  2
A$C57c306b1
 10
-5.5
 20
-19.9906710323
 30
0.0
  0
INSERT
  5
1807
330
1791
100
AcDbEntity
  8
0
100
AcDbBlockReference
  2
A$C57c306b1
 10
-29.5
 20
-19.9906710323
 30
0.0
  0
ENDBLK
  5
1808
330
1791
100
AcDbEntity
  8
0
100
AcDbBlockEnd
  0
BLOCK
  5
1812
330
1811
100
AcDbEntity
  8
0
100
AcDbBlockBegin
  2
A$Ccaa00782
 70
     0
 10
0.0
 20
0.0
 30
0.0
  3
A$Ccaa00782
  1

  0
LINE
  5
1813
330
1811
100
AcDbEntity
  8
0
100
AcDbLine
 10
-30.999999
 20
17.401186
 30
0.0
 11
-57.999984
 21
18.1082
 31
0.0
  0
LINE
  5
1814
330
1811
100
AcDbEntity
  8
0
100
AcDbLine
 10
-30.999999
 20
23.348813
 30
0.0
 11
-57.999984
 21
22.6418
 31
0.0
  0
ARC
  5
1815
330
1811
100
AcDbEntity
  8
0
100
AcDbCircle
 10
-54.065933
 20
-33.24854
 30
0.0
 40
5.0
100
AcDbArc
 50
250.219727
 51
268.5
  0
ARC
  5
1816
330
1811
100
AcDbEntity
  8
0
100
AcDbCircle
 10
-54.065933
 20
33.539539
 30
0.0
 40
5.0
100
AcDbArc
 50
91.5
 51
109.780281
  0
ARC
  5
1817
330
1811
100
AcDbEntity
  8
0
100
AcDbCircle
 10
-55.999977
 20
-35.741101
 30
0.0
 40
2.0
100
AcDbArc
 50
180.0
 51
250.219681
  0
LINE
  5
1818
330
1811
100
AcDbEntity
  8
0
100
AcDbLine
 10
-55.758003
 20
-37.953526
 30
0.0
 11
-56.676807
 21
-37.623093
 31
0.0
  0
LINE
  5
1819
330
1811
100
AcDbEntity
  8
0
100
AcDbLine
 10
-57.99998
 20
36.0321
 30
0.0
 11
-58.0000178466
 21
-35.741101
 31
0.0
  0
ARC
  5
181A
330
1811
100
AcDbEntity
  8
0
100
AcDbCircle
 10
-55.999977
 20
36.0321
 30
0.0
 40
2.0
100
AcDbArc
 50
109.780319
 51
180.0
  0
LINE
  5
181B
330
1811
100
AcDbEntity
  8
0
100
AcDbLine
 10
-55.758003
 20
38.244525
 30
0.0
 11
-56.676807
 21
37.914094
 31
0.0
  0
LINE
  5
181C
330
1811
100
AcDbEntity
  8
0
100
AcDbLine
 10
-26.999999
 20
38.026143
 30
0.0
 11
-26.999999
 21
-44.250001
 31
0.0
  0
LINE
  5
181D
330
1811
100
AcDbEntity
  8
0
100
AcDbLine
 10
0.0
 20
-45.000001
 30
0.0
 11
0.0
 21
44.999999
 31
0.0
  0
LINE
  5
181E
330
1811
100
AcDbEntity
  8
0
100
AcDbLine
 10
-25.000251
 20
-35.500409
 30
0.0
 11
-14.0
 21
-35.500409
 31
0.0
  0
LINE
  5
181F
330
1811
100
AcDbEntity
  8
0
100
AcDbLine
 10
-25.032016
 20
-44.60238
 30
0.0
 11
0.0
 21
-45.000001
 31
0.0
  0
LINE
  5
1820
330
1811
100
AcDbEntity
  8
0
100
AcDbLine
 10
-54.196819
 20
-38.246827
 30
0.0
 11
-26.999999
 21
-38.959
 31
0.0
  0
ARC
  5
1821
330
1811
100
AcDbEntity
  8
0
100
AcDbCircle
 10
-26.699951
 20
-40.749982
 30
0.0
 40
7.0
100
AcDbArc
 50
163.968933
 51
196.957993
  0
LINE
  5
1822
330
1811
100
AcDbEntity
  8
0
100
AcDbLine
 10
-31.699951
 20
-43.499982
 30
0.0
 11
-31.699951
 21
-38.862115
 31
0.0
  0
LINE
  5
1823
330
1811
100
AcDbEntity
  8
0
100
AcDbLine
 10
-30.999999
 20
-43.658177
 30
0.0
 11
-30.999999
 21
-38.880441
 31
0.0
  0
LINE
  5
1824
330
1811
100
AcDbEntity
  8
0
100
AcDbLine
 10
-30.51309
 20
-44.158006
 30
0.0
 11
-26.999999
 21
-44.250001
 31
0.0
  0
ARC
  5
1825
330
1811
100
AcDbEntity
  8
0
100
AcDbCircle
 10
-30.499999
 20
-43.658177
 30
0.0
 40
0.5
100
AcDbArc
 50
180.0
 51
268.5
  0
ARC
  5
1826
330
1811
100
AcDbEntity
  8
0
100
AcDbCircle
 10
-32.43921
 20
-42.499982
 30
0.0
 40
1.0
100
AcDbArc
 50
196.958099
 51
270.0
  0
LINE
  5
1827
330
1811
100
AcDbEntity
  8
0
100
AcDbLine
 10
-30.999999
 20
-43.499982
 30
0.0
 11
-32.43921
 21
-43.499982
 31
0.0
  0
LINE
  5
1828
330
1811
100
AcDbEntity
  8
0
100
AcDbLine
 10
-26.256984
 20
-44.276643
 30
0.0
 11
-25.000251
 21
-44.610825
 31
0.0
  0
ARC
  5
1829
330
1811
100
AcDbEntity
  8
0
100
AcDbCircle
 10
-25.999999
 20
-43.310227
 30
0.0
 40
1.0
100
AcDbArc
 50
180.0
 51
255.108749
  0
LINE
  5
182A
330
1811
100
AcDbEntity
  8
0
100
AcDbLine
 10
-26.256984
 20
-35.166226
 30
0.0
 11
-25.000251
 21
-35.500409
 31
0.0
  0
ARC
  5
182B
330
1811
100
AcDbEntity
  8
0
100
AcDbCircle
 10
-25.999999
 20
-34.199811
 30
0.0
 40
1.0
100
AcDbArc
 50
180.0
 51
255.108749
  0
LINE
  5
182C
330
1811
100
AcDbEntity
  8
0
100
AcDbLine
 10
0.0
 20
-34.409291
 30
0.0
 11
-14.0
 21
-34.409291
 31
0.0
  0
ARC
  5
182D
330
1811
100
AcDbEntity
  8
0
100
AcDbCircle
 10
-8.59997
 20
-40.000409
 30
0.0
 40
8.999999
100
AcDbArc
 50
163.398987
 51
196.601517
  0
LINE
  5
182E
330
1811
100
AcDbEntity
  8
0
100
AcDbLine
 10
-15.0
 20
-43.500409
 30
0.0
 11
-15.0
 21
-36.500409
 31
0.0
  0
LINE
  5
182F
330
1811
100
AcDbEntity
  8
0
100
AcDbLine
 10
-14.0
 20
-44.264279
 30
0.0
 11
-14.0
 21
-34.409291
 31
0.0
  0
ARC
  5
1830
330
1811
100
AcDbEntity
  8
0
100
AcDbCircle
 10
-13.5
 20
-44.264279
 30
0.0
 40
0.5
100
AcDbArc
 50
180.0
 51
269.0
  0
ARC
  5
1831
330
1811
100
AcDbEntity
  8
0
100
AcDbCircle
 10
-15.97901
 20
-42.200391
 30
0.0
 40
1.3
100
AcDbArc
 50
196.601578
 51
270.0
  0
LINE
  5
1832
330
1811
100
AcDbEntity
  8
0
100
AcDbLine
 10
-14.0
 20
-43.500409
 30
0.0
 11
-15.97901
 21
-43.500409
 31
0.0
  0
ARC
  5
1833
330
1811
100
AcDbEntity
  8
0
100
AcDbCircle
 10
-15.97901
 20
-37.800397
 30
0.0
 40
1.3
100
AcDbArc
 50
90.0
 51
163.399094
  0
LINE
  5
1834
330
1811
100
AcDbEntity
  8
0
100
AcDbLine
 10
-14.0
 20
-36.500409
 30
0.0
 11
-15.97901
 21
-36.500409
 31
0.0
  0
LINE
  5
1835
330
1811
100
AcDbEntity
  8
0
100
AcDbLine
 10
-30.999999
 20
12.26356
 30
0.0
 11
-30.999999
 21
24.374999
 31
0.0
  0
LINE
  5
1836
330
1811
100
AcDbEntity
  8
0
100
AcDbLine
 10
-30.999999
 20
12.26356
 30
0.0
 11
-26.999999
 21
12.26356
 31
0.0
  0
LINE
  5
1837
330
1811
100
AcDbEntity
  8
0
100
AcDbLine
 10
-25.000251
 20
35.500409
 30
0.0
 11
-14.0
 21
35.500409
 31
0.0
  0
LINE
  5
1838
330
1811
100
AcDbEntity
  8
0
100
AcDbLine
 10
0.0
 20
44.999999
 30
0.0
 11
-32.499931
 21
44.999999
 31
0.0
  0
ARC
  5
1839
330
1811
100
AcDbEntity
  8
0
100
AcDbCircle
 10
-27.999999
 20
38.026143
 30
0.0
 40
1.0
100
AcDbArc
 50
0.0
 51
88.499985
  0
ARC
  5
183A
330
1811
100
AcDbEntity
  8
0
100
AcDbCircle
 10
-30.499931
 20
41.092635
 30
0.0
 40
2.0
100
AcDbArc
 50
180.0
 51
268.5
  0
LINE
  5
183B
330
1811
100
AcDbEntity
  8
0
100
AcDbLine
 10
-54.196819
 20
38.537826
 30
0.0
 11
-30.96013
 21
39.146301
 31
0.0
  0
LINE
  5
183C
330
1811
100
AcDbEntity
  8
0
100
AcDbLine
 10
-30.999999
 20
24.374999
 30
0.0
 11
-26.999999
 21
24.374999
 31
0.0
  0
ARC
  5
183D
330
1811
100
AcDbEntity
  8
0
100
AcDbCircle
 10
-26.699951
 20
20.375
 30
0.0
 40
7.0
100
AcDbArc
 50
163.043503
 51
196.957993
  0
LINE
  5
183E
330
1811
100
AcDbEntity
  8
0
100
AcDbLine
 10
-31.699951
 20
17.625
 30
0.0
 11
-31.699951
 21
23.124999
 31
0.0
  0
ARC
  5
183F
330
1811
100
AcDbEntity
  8
0
100
AcDbCircle
 10
-32.43921
 20
18.625
 30
0.0
 40
1.0
100
AcDbArc
 50
196.958099
 51
270.0
  0
LINE
  5
1840
330
1811
100
AcDbEntity
  8
0
100
AcDbLine
 10
-30.999999
 20
17.625
 30
0.0
 11
-32.43921
 21
17.625
 31
0.0
  0
ARC
  5
1841
330
1811
100
AcDbEntity
  8
0
100
AcDbCircle
 10
-32.43921
 20
22.125
 30
0.0
 40
1.0
100
AcDbArc
 50
90.0
 51
163.043106
  0
LINE
  5
1842
330
1811
100
AcDbEntity
  8
0
100
AcDbLine
 10
-30.999999
 20
23.124999
 30
0.0
 11
-32.43921
 21
23.124999
 31
0.0
  0
LINE
  5
1843
330
1811
100
AcDbEntity
  8
0
100
AcDbLine
 10
-27.973823
 20
39.025802
 30
0.0
 11
-30.552284
 21
39.093318
 31
0.0
  0
LINE
  5
1844
330
1811
100
AcDbEntity
  8
0
100
AcDbLine
 10
-26.256984
 20
35.166225
 30
0.0
 11
-25.000251
 21
35.500409
 31
0.0
  0
ARC
  5
1845
330
1811
100
AcDbEntity
  8
0
100
AcDbCircle
 10
-25.999999
 20
34.199809
 30
0.0
 40
1.0
100
AcDbArc
 50
104.891251
 51
180.0
  0
LINE
  5
1846
330
1811
100
AcDbEntity
  8
0
100
AcDbLine
 10
-32.499654
 20
57.000236
 30
0.0
 11
-32.499952
 21
45.002742
 31
0.0
  0
LINE
  5
1847
330
1811
100
AcDbEntity
  8
0
100
AcDbLine
 10
-32.499931
 20
41.092635
 30
0.0
 11
-32.499931
 21
44.999999
 31
0.0
  0
ARC
  5
1848
330
1811
100
AcDbEntity
  8
0
100
AcDbCircle
 10
-8.59997
 20
40.0004
 30
0.0
 40
8.999999
100
AcDbArc
 50
163.398987
 51
196.601517
  0
LINE
  5
1849
330
1811
100
AcDbEntity
  8
0
100
AcDbLine
 10
-15.0
 20
36.5004
 30
0.0
 11
-15.0
 21
43.5004
 31
0.0
  0
LINE
  5
184A
330
1811
100
AcDbEntity
  8
0
100
AcDbLine
 10
-14.0
 20
44.499999
 30
0.0
 11
-14.0
 21
34.499999
 31
0.0
  0
LINE
  5
184B
330
1811
100
AcDbEntity
  8
0
100
AcDbLine
 10
0.0
 20
34.409299
 30
0.0
 11
-14.0
 21
34.409299
 31
0.0
  0
ARC
  5
184C
330
1811
100
AcDbEntity
  8
0
100
AcDbCircle
 10
-15.97901
 20
37.800418
 30
0.0
 40
1.3
100
AcDbArc
 50
196.601578
 51
270.0
  0
LINE
  5
184D
330
1811
100
AcDbEntity
  8
0
100
AcDbLine
 10
-14.0
 20
36.5004
 30
0.0
 11
-15.97901
 21
36.5004
 31
0.0
  0
ARC
  5
184E
330
1811
100
AcDbEntity
  8
0
100
AcDbCircle
 10
-13.5
 20
44.499999
 30
0.0
 40
0.5
100
AcDbArc
 50
90.0
 51
180.0
  0
ARC
  5
184F
330
1811
100
AcDbEntity
  8
0
100
AcDbCircle
 10
-15.97901
 20
42.200412
 30
0.0
 40
1.3
100
AcDbArc
 50
90.0
 51
163.399094
  0
LINE
  5
1850
330
1811
100
AcDbEntity
  8
0
100
AcDbLine
 10
-14.0
 20
43.5004
 30
0.0
 11
-15.97901
 21
43.5004
 31
0.0
  0
LINE
  5
1851
330
1811
100
AcDbEntity
  8
0
100
AcDbLine
 10
-2.5
 20
57.000301
 30
0.0
 11
-2.5
 21
45.999999
 31
0.0
  0
ARC
  5
1852
330
1811
100
AcDbEntity
  8
0
100
AcDbCircle
 10
-1.5
 20
45.999999
 30
0.0
 40
1.0
100
AcDbArc
 50
180.0
 51
270.0
  0
LINE
  5
1853
330
1811
100
AcDbEntity
  8
0
100
AcDbLine
 10
-45.53577
 20
61.65033
 30
0.0
 11
-34.499996
 21
61.65033
 31
0.0
  0
LINE
  5
1854
330
1811
100
AcDbEntity
  8
0
100
AcDbLine
 10
-46.387569
 20
53.950318
 30
0.0
 11
-34.499996
 21
53.950318
 31
0.0
  0
LINE
  5
1855
330
1811
100
AcDbEntity
  8
HOJO
100
AcDbLine
 10
-45.459469
 20
56.34021
 30
0.0
 11
-46.387569
 21
53.950318
 31
0.0
  0
LINE
  5
1856
330
1811
100
AcDbEntity
  8
HOJO
100
AcDbLine
 10
-46.271572
 20
58.815216
 30
0.0
 11
-45.459469
 21
56.34021
 31
0.0
  0
LINE
  5
1857
330
1811
100
AcDbEntity
  8
HOJO
100
AcDbLine
 10
-45.53577
 20
61.65033
 30
0.0
 11
-46.271572
 21
58.815216
 31
0.0
  0
LINE
  5
1858
330
1811
100
AcDbEntity
  8
CENTER
100
AcDbLine
 10
-17.499996
 20
46.938294
 30
0.0
 11
-17.499996
 21
68.200806
 31
0.0
  0
ARC
  5
1859
330
1811
100
AcDbEntity
  8
0
100
AcDbCircle
 10
-17.499996
 20
-184.499687
 30
0.0
 40
250.0
100
AcDbArc
 50
86.668304
 51
93.331696
  0
ARC
  5
185A
330
1811
100
AcDbEntity
  8
0
100
AcDbCircle
 10
-29.499996
 20
57.700226
 30
0.0
 40
7.0
100
AcDbArc
 50
73.042
 51
106.956497
  0
LINE
  5
185B
330
1811
100
AcDbEntity
  8
0
100
AcDbLine
 10
-26.749996
 20
62.700226
 30
0.0
 11
-32.249996
 21
62.700226
 31
0.0
  0
LINE
  5
185C
330
1811
100
AcDbEntity
  8
0
100
AcDbLine
 10
-26.499996
 20
62.000306
 30
0.0
 11
-32.249996
 21
62.000306
 31
0.0
  0
ARC
  5
185D
330
1811
100
AcDbEntity
  8
0
100
AcDbCircle
 10
-31.999996
 20
61.500306
 30
0.0
 40
0.5
100
AcDbArc
 50
90.0
 51
180.0
  0
ARC
  5
185E
330
1811
100
AcDbEntity
  8
0
100
AcDbCircle
 10
-31.249996
 20
63.439515
 30
0.0
 40
1.0
100
AcDbArc
 50
106.956902
 51
180.0
  0
LINE
  5
185F
330
1811
100
AcDbEntity
  8
0
100
AcDbLine
 10
-32.249996
 20
62.000122
 30
0.0
 11
-32.249996
 21
63.439515
 31
0.0
  0
ARC
  5
1860
330
1811
100
AcDbEntity
  8
0
100
AcDbCircle
 10
-31.999996
 20
64.578614
 30
0.0
 40
0.5
100
AcDbArc
 50
93.331696
 51
180.0
  0
LINE
  5
1861
330
1811
100
AcDbEntity
  8
0
100
AcDbLine
 10
-32.500202
 20
58.000306
 30
0.0
 11
-32.500202
 21
64.578614
 31
0.0
  0
ARC
  5
1862
330
1811
100
AcDbEntity
  8
0
100
AcDbCircle
 10
-25.499996
 20
64.87204
 30
0.0
 40
0.5
100
AcDbArc
 50
91.837456
 51
180.0
  0
ARC
  5
1863
330
1811
100
AcDbEntity
  8
0
100
AcDbCircle
 10
-26.499996
 20
62.500306
 30
0.0
 40
0.5
100
AcDbArc
 50
270.0
 51
0.0
  0
ARC
  5
1864
330
1811
100
AcDbEntity
  8
0
100
AcDbCircle
 10
-27.749996
 20
63.439515
 30
0.0
 40
1.0
100
AcDbArc
 50
0.0
 51
73.041801
  0
LINE
  5
1865
330
1811
100
AcDbEntity
  8
0
100
AcDbLine
 10
-26.749996
 20
62.000306
 30
0.0
 11
-26.749996
 21
63.439515
 31
0.0
  0
LINE
  5
1866
330
1811
100
AcDbEntity
  8
0
100
AcDbLine
 10
-25.999996
 20
62.500306
 30
0.0
 11
-25.999996
 21
64.87204
 31
0.0
  0
ARC
  5
1867
330
1811
100
AcDbEntity
  8
0
100
AcDbCircle
 10
-5.499996
 20
57.700226
 30
0.0
 40
7.0
100
AcDbArc
 50
73.043503
 51
106.958
  0
LINE
  5
1868
330
1811
100
AcDbEntity
  8
0
100
AcDbLine
 10
-8.249996
 20
62.700226
 30
0.0
 11
-2.749996
 21
62.700226
 31
0.0
  0
LINE
  5
1869
330
1811
100
AcDbEntity
  8
0
100
AcDbLine
 10
-8.499996
 20
62.000306
 30
0.0
 11
-2.749996
 21
62.000306
 31
0.0
  0
ARC
  5
186A
330
1811
100
AcDbEntity
  8
0
100
AcDbCircle
 10
-9.499996
 20
64.87204
 30
0.0
 40
0.5
100
AcDbArc
 50
0.0
 51
88.162544
  0
ARC
  5
186B
330
1811
100
AcDbEntity
  8
0
100
AcDbCircle
 10
-8.499996
 20
62.500306
 30
0.0
 40
0.5
100
AcDbArc
 50
180.0
 51
270.0
  0
ARC
  5
186C
330
1811
100
AcDbEntity
  8
0
100
AcDbCircle
 10
-7.249996
 20
63.439515
 30
0.0
 40
1.0
100
AcDbArc
 50
106.958199
 51
180.0
  0
LINE
  5
186D
330
1811
100
AcDbEntity
  8
0
100
AcDbLine
 10
-8.249996
 20
62.000306
 30
0.0
 11
-8.249996
 21
63.439515
 31
0.0
  0
LINE
  5
186E
330
1811
100
AcDbEntity
  8
0
100
AcDbLine
 10
-8.999996
 20
62.500306
 30
0.0
 11
-8.999996
 21
64.87204
 31
0.0
  0
ARC
  5
186F
330
1811
100
AcDbEntity
  8
0
100
AcDbCircle
 10
-2.999996
 20
61.500306
 30
0.0
 40
0.5
100
AcDbArc
 50
0.0
 51
90.0
  0
ARC
  5
1870
330
1811
100
AcDbEntity
  8
0
100
AcDbCircle
 10
-3.749996
 20
63.439515
 30
0.0
 40
1.0
100
AcDbArc
 50
0.0
 51
73.043098
  0
LINE
  5
1871
330
1811
100
AcDbEntity
  8
0
100
AcDbLine
 10
-2.749996
 20
62.000122
 30
0.0
 11
-2.749996
 21
63.439515
 31
0.0
  0
ARC
  5
1872
330
1811
100
AcDbEntity
  8
0
100
AcDbCircle
 10
-2.999996
 20
64.578614
 30
0.0
 40
0.5
100
AcDbArc
 50
0.0
 51
86.668304
  0
LINE
  5
1873
330
1811
100
AcDbEntity
  8
0
100
AcDbLine
 10
-2.499996
 20
58.000306
 30
0.0
 11
-2.499996
 21
64.578614
 31
0.0
  0
ARC
  5
1874
330
1811
100
AcDbEntity
  8
0
100
AcDbCircle
 10
-1.999996
 20
50.000306
 30
0.0
 40
0.5
100
AcDbArc
 50
90.0
 51
180.0
  0
ARC
  5
1875
330
1811
100
AcDbEntity
  8
0
100
AcDbCircle
 10
-32.9998262848
 20
50.000306
 30
0.0
 40
0.5
100
AcDbArc
 50
359.9985816336
 51
90.0
  0
LINE
  5
1876
330
1811
100
AcDbEntity
  8
0
100
AcDbLine
 10
-34.499996
 20
57.000306
 30
0.0
 11
-0.5
 21
57.000306
 31
0.0
  0
LINE
  5
1877
330
1811
100
AcDbEntity
  8
0
100
AcDbLine
 10
-34.499996
 20
58.000306
 30
0.0
 11
-32.500202
 21
58.000306
 31
0.0
  0
LINE
  5
1878
330
1811
100
AcDbEntity
  8
0
100
AcDbLine
 10
-24.500202
 20
58.000306
 30
0.0
 11
-10.499996
 21
58.000306
 31
0.0
  0
LINE
  5
1879
330
1811
100
AcDbEntity
  8
0
100
AcDbLine
 10
-2.499996
 20
58.000306
 30
0.0
 11
-0.5
 21
58.000306
 31
0.0
  0
ARC
  5
187A
330
1811
100
AcDbEntity
  8
0
100
AcDbCircle
 10
-32.906735134
 20
65.000306
 30
0.0
 40
0.5
100
AcDbArc
 50
270.0
 51
335.0585433099
  0
LINE
  5
187B
330
1811
100
AcDbEntity
  8
0
100
AcDbLine
 10
-34.499996
 20
57.000306
 30
0.0
 11
-34.499996
 21
51.000306
 31
0.0
  0
ARC
  5
187C
330
1811
100
AcDbEntity
  8
0
100
AcDbCircle
 10
-33.999996
 20
51.000306
 30
0.0
 40
0.5
100
AcDbArc
 50
180.0
 51
270.0
  0
LINE
  5
187D
330
1811
100
AcDbEntity
  8
0
100
AcDbLine
 10
-32.999996
 20
50.500306
 30
0.0
 11
-33.999996
 21
50.500306
 31
0.0
  0
LINE
  5
187E
330
1811
100
AcDbEntity
  8
0
100
AcDbLine
 10
-32.906735134
 20
64.500306
 30
0.0
 11
-33.999996
 21
64.500306
 31
0.0
  0
LINE
  5
187F
330
1811
100
AcDbEntity
  8
0
100
AcDbLine
 10
-34.499996
 20
61.750306
 30
0.0
 11
-34.499996
 21
58.000306
 31
0.0
  0
LINE
  5
1880
330
1811
100
AcDbEntity
  8
0
100
AcDbLine
 10
-34.499996
 20
64.000306
 30
0.0
 11
-34.499996
 21
61.750306
 31
0.0
  0
ARC
  5
1881
330
1811
100
AcDbEntity
  8
0
100
AcDbCircle
 10
-33.999996
 20
64.000306
 30
0.0
 40
0.5
100
AcDbArc
 50
90.0
 51
180.0
  0
ARC
  5
1882
330
1811
100
AcDbEntity
  8
0
100
AcDbCircle
 10
-2.093256866
 20
65.000306
 30
0.0
 40
0.5
100
AcDbArc
 50
204.9414566901
 51
270.0
  0
LINE
  5
1883
330
1811
100
AcDbEntity
  8
0
100
AcDbLine
 10
-0.5
 20
57.000306
 30
0.0
 11
-0.5
 21
51.000306
 31
0.0
  0
LINE
  5
1884
330
1811
100
AcDbEntity
  8
0
100
AcDbLine
 10
-2.0
 20
50.500306
 30
0.0
 11
-1.0
 21
50.500306
 31
0.0
  0
ARC
  5
1885
330
1811
100
AcDbEntity
  8
0
100
AcDbCircle
 10
-1.0
 20
51.000306
 30
0.0
 40
0.5
100
AcDbArc
 50
270.0
 51
0.0
  0
LINE
  5
1886
330
1811
100
AcDbEntity
  8
0
100
AcDbLine
 10
-2.093256866
 20
64.500306
 30
0.0
 11
-1.0
 21
64.500306
 31
0.0
  0
ARC
  5
1887
330
1811
100
AcDbEntity
  8
0
100
AcDbCircle
 10
-1.0
 20
64.000306
 30
0.0
 40
0.5
100
AcDbArc
 50
0.0
 51
90.0
  0
LINE
  5
1888
330
1811
100
AcDbEntity
  8
0
100
AcDbLine
 10
-0.5
 20
64.000306
 30
0.0
 11
-0.5
 21
58.000306
 31
0.0
  0
LINE
  5
1889
330
1811
100
AcDbEntity
  8
0
100
AcDbLine
 10
-32.500202
 20
58.000306
 30
0.0
 11
-32.500202
 21
57.000306
 31
0.0
  0
LINE
  5
188A
330
1811
100
AcDbEntity
  8
0
100
AcDbLine
 10
-24.500202
 20
58.000306
 30
0.0
 11
-24.500202
 21
57.000306
 31
0.0
  0
LINE
  5
188B
330
1811
100
AcDbEntity
  8
0
100
AcDbLine
 10
-34.199996
 20
58.000306
 30
0.0
 11
-34.199996
 21
57.000306
 31
0.0
  0
LINE
  5
188C
330
1811
100
AcDbEntity
  8
0
100
AcDbLine
 10
-10.499996
 20
58.000306
 30
0.0
 11
-10.499996
 21
57.000306
 31
0.0
  0
LINE
  5
188D
330
1811
100
AcDbEntity
  8
0
100
AcDbLine
 10
-2.499996
 20
58.000306
 30
0.0
 11
-2.499996
 21
57.000306
 31
0.0
  0
LINE
  5
188E
330
1811
100
AcDbEntity
  8
0
100
AcDbLine
 10
-0.8
 20
58.000306
 30
0.0
 11
-0.8
 21
57.000306
 31
0.0
  0
LINE
  5
188F
330
1811
100
AcDbEntity
  8
0
100
AcDbLine
 10
-0.5
 20
58.000306
 30
0.0
 11
-0.5
 21
57.000306
 31
0.0
  0
ENDBLK
  5
1890
330
1811
100
AcDbEntity
  8
0
100
AcDbBlockEnd
  0
ENDSEC
  0
SECTION
  2
ENTITIES
  0
LINE
  5
8B3
330
2
100
AcDbEntity
  8
CENTER
100
AcDbLine
 10
73.5185273489
 20
329.0964961346
 30
0.0
 11
319.0185283489
 21
329.0964961346
 31
0.0
  0
LINE
  5
8B8
330
2
100
AcDbEntity
  8
CENTER
100
AcDbLine
 10
73.5185273489
 20
104.1524020992
 30
0.0
 11
234.3080333489
 21
104.1524020992
 31
0.0
  0
ARC
  5
8CA
330
2
100
AcDbEntity
  8
0
100
AcDbCircle
 10
412.3940647104
 20
129.8523990992
 30
0.0
 40
3.0
100
AcDbArc
 50
270.0
 51
90.0
  0
LINE
  5
8CB
330
2
100
AcDbEntity
  8
0
100
AcDbLine
 10
418.3940647104
 20
120.8523990992
 30
0.0
 11
388.3940647104
 21
120.8523990992
 31
0.0
  0
LINE
  5
8CC
330
2
100
AcDbEntity
  8
0
100
AcDbLine
 10
418.3940647104
 20
138.8523990992
 30
0.0
 11
388.3940647104
 21
138.8523990992
 31
0.0
  0
LINE
  5
8D2
330
2
100
AcDbEntity
  8
CENTER
100
AcDbLine
 10
381.3940647104
 20
129.8523990992
 30
0.0
 11
543.3940647104
 21
129.8523990992
 31
0.0
  0
LINE
  5
8D3
330
2
100
AcDbEntity
  8
0
100
AcDbLine
 10
404.3940647104
 20
54.8524030992
 30
0.0
 11
520.3940647104
 21
54.8524030992
 31
0.0
  0
LINE
  5
8D4
330
2
100
AcDbEntity
  8
CENTER
100
AcDbLine
 10
410.3940647104
 20
104.1524020992
 30
0.0
 11
514.3940647104
 21
104.1524020992
 31
0.0
  0
LINE
  5
8D5
330
2
100
AcDbEntity
  8
0
100
AcDbLine
 10
422.3940647104
 20
63.8524030992
 30
0.0
 11
406.3940647104
 21
63.8524030992
 31
0.0
  0
LINE
  5
8D8
330
2
100
AcDbEntity
  8
0
100
AcDbLine
 10
246.0974313489
 20
167.8523990992
 30
0.0
 11
276.9396243489
 21
167.8523990992
 31
0.0
  0
ARC
  5
8D9
330
2
100
AcDbEntity
  8
0
100
AcDbCircle
 10
261.5185283489
 20
129.8523990992
 30
0.0
 40
9.0
100
AcDbArc
 50
19.47121
 51
340.528809
  0
LINE
  5
8DA
330
2
100
AcDbEntity
  8
CENTER
100
AcDbLine
 10
231.0185283489
 20
129.8523990992
 30
0.0
 11
292.0185283489
 21
129.8523990992
 31
0.0
  0
ARC
  5
8DB
330
2
100
AcDbEntity
  8
0
100
AcDbCircle
 10
261.5185283489
 20
114.8523990992
 30
0.0
 40
50.5
100
AcDbArc
 50
18.10379
 51
161.896194
  0
LINE
  5
8DE
330
2
100
AcDbEntity
  8
0
100
AcDbLine
 10
213.0185283489
 20
63.8524030992
 30
0.0
 11
310.0185283489
 21
63.8524030992
 31
0.0
  0
LINE
  5
8DF
330
2
100
AcDbEntity
  8
0
100
AcDbLine
 10
211.0185283489
 20
54.8524030992
 30
0.0
 11
312.0185283489
 21
54.8524030992
 31
0.0
  0
ARC
  5
8E0
330
2
100
AcDbEntity
  8
0
100
AcDbCircle
 10
261.5185283489
 20
114.8523990992
 30
0.0
 40
50.5
100
AcDbArc
 50
198.103806
 51
341.89621
  0
CIRCLE
  5
8E1
330
2
100
AcDbEntity
  8
0
100
AcDbCircle
 10
261.5185283489
 20
129.8523990992
 30
0.0
 40
23.5
  0
LINE
  5
8E4
330
2
100
AcDbEntity
  8
0
100
AcDbLine
 10
213.5185283489
 20
130.5445910992
 30
0.0
 11
213.5185283489
 21
99.1598870992
 31
0.0
  0
LINE
  5
8E5
330
2
100
AcDbEntity
  8
0
100
AcDbLine
 10
211.0185283489
 20
141.7523090992
 30
0.0
 11
211.0184213489
 21
54.8524030992
 31
0.0
  0
LINE
  5
8E6
330
2
100
AcDbEntity
  8
0
100
AcDbLine
 10
138.5185283489
 20
59.1524030992
 30
0.0
 11
138.5185283489
 21
149.1524020992
 31
0.0
  0
LINE
  5
8E9
330
2
100
AcDbEntity
  8
0
100
AcDbLine
 10
138.5185163489
 20
69.7431030992
 30
0.0
 11
209.4014323489
 21
69.7431030992
 31
0.0
  0
LINE
  5
8EA
330
2
100
AcDbEntity
  8
0
100
AcDbLine
 10
138.5185163489
 20
59.1524030992
 30
0.0
 11
211.0185283489
 21
59.1524030992
 31
0.0
  0
LINE
  5
902
330
2
100
AcDbEntity
  8
HIDS
  6
sekkei_H
100
AcDbLine
 10
227.7685283489
 20
63.8524030992
 30
0.0
 11
227.7685283489
 21
54.8524030992
 31
0.0
  0
LINE
  5
903
330
2
100
AcDbEntity
  8
HIDS
  6
sekkei_H
100
AcDbLine
 10
219.2685283489
 20
63.8524030992
 30
0.0
 11
219.2685283489
 21
54.8524030992
 31
0.0
  0
LINE
  5
904
330
2
100
AcDbEntity
  8
CENTER
100
AcDbLine
 10
223.5185283489
 20
67.3524030992
 30
0.0
 11
223.5185283489
 21
51.3524030992
 31
0.0
  0
ARC
  5
905
330
2
100
AcDbEntity
  8
0
100
AcDbCircle
 10
213.0185283489
 20
61.8524030992
 30
0.0
 40
2.0
100
AcDbArc
 50
90.0
 51
180.0
  0
LINE
  5
921
330
2
100
AcDbEntity
  8
0
100
AcDbLine
 10
138.5185163489
 20
138.5617040992
 30
0.0
 11
209.4014323489
 21
138.5617040992
 31
0.0
  0
LINE
  5
922
330
2
100
AcDbEntity
  8
0
100
AcDbLine
 10
138.5185163489
 20
149.1524020992
 30
0.0
 11
217.8610263489
 21
149.1524020992
 31
0.0
  0
LINE
  5
972
330
2
100
AcDbEntity
  8
0
100
AcDbLine
 10
213.1471293489
 20
145.8455860992
 30
0.0
 11
243.2260323489
 21
166.9456840992
 31
0.0
  0
LINE
  5
973
330
2
100
AcDbEntity
  8
0
100
AcDbLine
 10
211.0185283489
 20
141.7523320992
 30
0.0
 11
211.0185283489
 21
141.7523020992
 31
0.0
  0
ARC
  5
974
330
2
100
AcDbEntity
  8
0
100
AcDbCircle
 10
216.0185283489
 20
141.7523320992
 30
0.0
 40
5.0
100
AcDbArc
 50
125.049797
 51
180.0
  0
ARC
  5
975
330
2
100
AcDbEntity
  8
0
100
AcDbCircle
 10
246.0974313489
 20
162.8523990992
 30
0.0
 40
5.0
100
AcDbArc
 50
90.0
 51
125.049698
  0
LINE
  5
979
330
2
100
AcDbEntity
  8
0
100
AcDbLine
 10
309.5185283489
 20
130.5447590992
 30
0.0
 11
309.5185283489
 21
99.1600510992
 31
0.0
  0
LINE
  5
97A
330
2
100
AcDbEntity
  8
0
100
AcDbLine
 10
312.0185283489
 20
61.8524030992
 30
0.0
 11
312.0185283489
 21
141.7523020992
 31
0.0
  0
LINE
  5
97B
330
2
100
AcDbEntity
  8
CENTER
100
AcDbLine
 10
261.5185283489
 20
174.8523990992
 30
0.0
 11
261.5185283489
 21
47.8524030992
 31
0.0
  0
LINE
  5
97C
330
2
100
AcDbEntity
  8
0
100
AcDbLine
 10
312.0185283489
 20
61.8524030992
 30
0.0
 11
312.0185283489
 21
54.8524030992
 31
0.0
  0
LINE
  5
97D
330
2
100
AcDbEntity
  8
HIDS
  6
sekkei_H
100
AcDbLine
 10
303.7685283489
 20
63.8524030992
 30
0.0
 11
303.7685283489
 21
54.8524030992
 31
0.0
  0
LINE
  5
97E
330
2
100
AcDbEntity
  8
HIDS
  6
sekkei_H
100
AcDbLine
 10
295.2685283489
 20
63.8524030992
 30
0.0
 11
295.2685283489
 21
54.8524030992
 31
0.0
  0
LINE
  5
97F
330
2
100
AcDbEntity
  8
CENTER
100
AcDbLine
 10
299.5185283489
 20
67.3524030992
 30
0.0
 11
299.5185283489
 21
51.3524030992
 31
0.0
  0
ARC
  5
9A5
330
2
100
AcDbEntity
  8
0
100
AcDbCircle
 10
310.0185283489
 20
61.8523930992
 30
0.0
 40
2.0
100
AcDbArc
 50
0.0
 51
90.0
  0
LINE
  5
9A7
330
2
100
AcDbEntity
  8
0
100
AcDbLine
 10
404.3940647104
 20
61.8524030992
 30
0.0
 11
404.3940647104
 21
54.8524030992
 31
0.0
  0
LINE
  5
9A8
330
2
100
AcDbEntity
  8
HIDS
  6
sekkei_H
100
AcDbLine
 10
410.1440647104
 20
63.8524030992
 30
0.0
 11
410.1440647104
 21
54.8524030992
 31
0.0
  0
ARC
  5
9A9
330
2
100
AcDbEntity
  8
0
100
AcDbCircle
 10
406.3940647104
 20
61.8524130992
 30
0.0
 40
2.0
100
AcDbArc
 50
90.0
 51
180.0
  0
LINE
  5
9AB
330
2
100
AcDbEntity
  8
0
100
AcDbLine
 10
309.8899273489
 20
145.8455860992
 30
0.0
 11
279.8110233489
 21
166.9456920992
 31
0.0
  0
LINE
  5
9AC
330
2
100
AcDbEntity
  8
0
100
AcDbLine
 10
273.0185283489
 20
126.8524450992
 30
0.0
 11
273.0185283489
 21
132.8524450992
 31
0.0
  0
LINE
  5
9AD
330
2
100
AcDbEntity
  8
0
100
AcDbLine
 10
267.0185283489
 20
126.8524220992
 30
0.0
 11
267.0185283489
 21
132.8524220992
 31
0.0
  0
LINE
  5
9AE
330
2
100
AcDbEntity
  8
0
100
AcDbLine
 10
273.0185283489
 20
126.8524450992
 30
0.0
 11
267.0185283489
 21
126.8524220992
 31
0.0
  0
LINE
  5
9AF
330
2
100
AcDbEntity
  8
0
100
AcDbLine
 10
273.0185283489
 20
132.8524450992
 30
0.0
 11
267.0185283489
 21
132.8524220992
 31
0.0
  0
ARC
  5
9B0
330
2
100
AcDbEntity
  8
0
100
AcDbCircle
 10
276.9397313489
 20
162.8523920992
 30
0.0
 40
5.0
100
AcDbArc
 50
54.950878
 51
90.0
  0
ARC
  5
9B1
330
2
100
AcDbEntity
  8
0
100
AcDbCircle
 10
307.0185283489
 20
141.7522860992
 30
0.0
 40
5.0
100
AcDbArc
 50
0.0
 51
54.950901
  0
LINE
  5
9B4
330
2
100
AcDbEntity
  8
0
100
AcDbLine
 10
412.3939737104
 20
126.8523990992
 30
0.0
 11
388.3940647104
 21
126.8523990992
 31
0.0
  0
LINE
  5
9B5
330
2
100
AcDbEntity
  8
0
100
AcDbLine
 10
412.3940647104
 20
132.8523990992
 30
0.0
 11
388.3940647104
 21
132.8523990992
 31
0.0
  0
LINE
  5
9B6
330
2
100
AcDbEntity
  8
0
100
AcDbLine
 10
388.3940647104
 20
120.8523990992
 30
0.0
 11
388.3940647104
 21
138.8523990992
 31
0.0
  0
LINE
  5
9B7
330
2
100
AcDbEntity
  8
0
100
AcDbLine
 10
412.3940647104
 20
132.8523990992
 30
0.0
 11
412.3940647104
 21
126.8523990992
 31
0.0
  0
LINE
  5
9B8
330
2
100
AcDbEntity
  8
0
100
AcDbLine
 10
425.3940647104
 20
66.8524030992
 30
0.0
 11
425.3940647104
 21
165.2410330992
 31
0.0
  0
LINE
  5
9BA
330
2
100
AcDbEntity
  8
0
100
AcDbLine
 10
506.3940647104
 20
139.8523990992
 30
0.0
 11
506.3940647104
 21
119.8523990992
 31
0.0
  0
LINE
  5
9BB
330
2
100
AcDbEntity
  8
0
100
AcDbLine
 10
504.3940647104
 20
107.3523990992
 30
0.0
 11
504.3940647104
 21
152.3523990992
 31
0.0
  0
ARC
  5
9BC
330
2
100
AcDbEntity
  8
HIDS
100
AcDbCircle
 10
462.3940647104
 20
104.1524020992
 30
0.0
 40
45.0
100
AcDbArc
 50
20.419371
 51
48.189686
  0
LINE
  5
9BD
330
2
100
AcDbEntity
  8
0
100
AcDbLine
 10
499.3940647104
 20
66.8524030992
 30
0.0
 11
499.3940647104
 21
165.2411630992
 31
0.0
  0
LINE
  5
9BE
330
2
100
AcDbEntity
  8
CENTER
100
AcDbLine
 10
462.3940647104
 20
47.8524030992
 30
0.0
 11
462.3940647104
 21
176.6527080992
 31
0.0
  0
LINE
  5
9BF
330
2
100
AcDbEntity
  8
0
100
AcDbLine
 10
418.3940647104
 20
139.8523990992
 30
0.0
 11
418.3940647104
 21
119.8523990992
 31
0.0
  0
LINE
  5
9C0
330
2
100
AcDbEntity
  8
0
100
AcDbLine
 10
420.3940647104
 20
107.3523990992
 30
0.0
 11
420.3940647104
 21
152.3523990992
 31
0.0
  0
ARC
  5
9C1
330
2
100
AcDbEntity
  8
HIDS
100
AcDbCircle
 10
462.3940647104
 20
104.1524020992
 30
0.0
 40
45.0
100
AcDbArc
 50
131.810318
 51
159.580627
  0
ARC
  5
9C2
330
2
100
AcDbEntity
  8
HIDS
100
AcDbCircle
 10
462.3940647104
 20
104.1524020992
 30
0.0
 40
45.0
100
AcDbArc
 50
311.810314
 51
325.307869
  0
LINE
  5
9C4
330
2
100
AcDbEntity
  8
HIDS
  6
sekkei_H
100
AcDbLine
 10
418.6440647104
 20
63.8524030992
 30
0.0
 11
418.6440647104
 21
54.8524030992
 31
0.0
  0
LINE
  5
9C5
330
2
100
AcDbEntity
  8
CENTER
100
AcDbLine
 10
414.3940647104
 20
67.3524030992
 30
0.0
 11
414.3940647104
 21
51.3524030992
 31
0.0
  0
LINE
  5
9C6
330
2
100
AcDbEntity
  8
HIDS
100
AcDbLine
 10
436.3940647104
 20
59.1524030992
 30
0.0
 11
488.3940647104
 21
59.1524030992
 31
0.0
  0
ARC
  5
9C7
330
2
100
AcDbEntity
  8
0
100
AcDbCircle
 10
462.3940647104
 20
104.1524020992
 30
0.0
 40
45.0
100
AcDbArc
 50
159.580627
 51
214.692123
  0
ARC
  5
9C8
330
2
100
AcDbEntity
  8
HIDS
100
AcDbCircle
 10
436.3940647104
 20
62.1524030992
 30
0.0
 40
3.0
100
AcDbArc
 50
208.811234
 51
270.0
  0
ARC
  5
9C9
330
2
100
AcDbEntity
  8
HIDS
100
AcDbCircle
 10
436.3940647104
 20
62.1524030992
 30
0.0
 40
3.0
100
AcDbArc
 50
180.0
 51
208.811234
  0
ARC
  5
9CA
330
2
100
AcDbEntity
  8
HIDS
100
AcDbCircle
 10
430.3940647104
 20
68.3753140992
 30
0.0
 40
3.0
100
AcDbArc
 50
0.0
 51
48.189686
  0
LINE
  5
9CB
330
2
100
AcDbEntity
  8
HIDS
100
AcDbLine
 10
433.3940647104
 20
62.1524030992
 30
0.0
 11
433.3940647104
 21
68.3753140992
 31
0.0
  0
ARC
  5
9CC
330
2
100
AcDbEntity
  8
HIDS
100
AcDbCircle
 10
462.3940647104
 20
104.1524020992
 30
0.0
 40
45.0
100
AcDbArc
 50
214.692123
 51
228.189682
  0
ARC
  5
9CD
330
2
100
AcDbEntity
  8
0
100
AcDbCircle
 10
422.3940647104
 20
66.8524030992
 30
0.0
 40
3.0
100
AcDbArc
 50
270.0
 51
0.0
  0
ARC
  5
9CE
330
2
100
AcDbEntity
  8
0
100
AcDbCircle
 10
423.3940647104
 20
104.3524110992
 30
0.0
 40
2.0
100
AcDbArc
 50
0.0
 51
90.0
  0
LINE
  5
9CF
330
2
100
AcDbEntity
  8
0
100
AcDbLine
 10
420.3940647104
 20
119.8523990992
 30
0.0
 11
418.3940647104
 21
119.8523990992
 31
0.0
  0
ARC
  5
9D0
330
2
100
AcDbEntity
  8
0
100
AcDbCircle
 10
421.3940647104
 20
107.3523990992
 30
0.0
 40
1.0
100
AcDbArc
 50
180.0
 51
270.0
  0
LINE
  5
9D1
330
2
100
AcDbEntity
  8
0
100
AcDbLine
 10
421.3940647104
 20
106.3523990992
 30
0.0
 11
423.3940647104
 21
106.3523990992
 31
0.0
  0
ARC
  5
9D2
330
2
100
AcDbEntity
  8
HIDS
100
AcDbCircle
 10
494.3940647104
 20
68.3753140992
 30
0.0
 40
3.0
100
AcDbArc
 50
131.810318
 51
180.0
  0
ARC
  5
9D3
330
2
100
AcDbEntity
  8
HIDS
100
AcDbCircle
 10
488.3940647104
 20
62.1524030992
 30
0.0
 40
3.0
100
AcDbArc
 50
270.0
 51
0.0
  0
LINE
  5
9D4
330
2
100
AcDbEntity
  8
HIDS
100
AcDbLine
 10
491.3940647104
 20
62.1524030992
 30
0.0
 11
491.3940647104
 21
68.3753140992
 31
0.0
  0
LINE
  5
9D5
330
2
100
AcDbEntity
  8
HIDS
  6
sekkei_H
100
AcDbLine
 10
506.1440647104
 20
63.8524030992
 30
0.0
 11
506.1440647104
 21
54.8524030992
 31
0.0
  0
LINE
  5
9D6
330
2
100
AcDbEntity
  8
HIDS
  6
sekkei_H
100
AcDbLine
 10
514.6440647104
 20
63.8524030992
 30
0.0
 11
514.6440647104
 21
54.8524030992
 31
0.0
  0
LINE
  5
9D7
330
2
100
AcDbEntity
  8
CENTER
100
AcDbLine
 10
510.3940647104
 20
67.3524030992
 30
0.0
 11
510.3940647104
 21
51.3524030992
 31
0.0
  0
LINE
  5
9D8
330
2
100
AcDbEntity
  8
0
100
AcDbLine
 10
520.3940647104
 20
61.8524030992
 30
0.0
 11
520.3940647104
 21
54.8524030992
 31
0.0
  0
ARC
  5
9D9
330
2
100
AcDbEntity
  8
0
100
AcDbCircle
 10
462.3940647104
 20
104.1524020992
 30
0.0
 40
45.0
100
AcDbArc
 50
325.307892
 51
20.437799
  0
LINE
  5
9DA
330
2
100
AcDbEntity
  8
0
100
AcDbLine
 10
502.3940647104
 20
63.8524030992
 30
0.0
 11
518.3940647104
 21
63.8524030992
 31
0.0
  0
ARC
  5
9DB
330
2
100
AcDbEntity
  8
0
100
AcDbCircle
 10
502.3940647104
 20
66.8524030992
 30
0.0
 40
3.0
100
AcDbArc
 50
180.0
 51
270.0
  0
ARC
  5
9DC
330
2
100
AcDbEntity
  8
0
100
AcDbCircle
 10
518.3940647104
 20
61.8523930992
 30
0.0
 40
2.0
100
AcDbArc
 50
0.0
 51
90.0
  0
LINE
  5
9DD
330
2
100
AcDbEntity
  8
0
100
AcDbLine
 10
504.3940647104
 20
119.8523990992
 30
0.0
 11
506.3940647104
 21
119.8523990992
 31
0.0
  0
LINE
  5
9DE
330
2
100
AcDbEntity
  8
0
100
AcDbLine
 10
503.3940647104
 20
106.3523990992
 30
0.0
 11
501.3940647104
 21
106.3523990992
 31
0.0
  0
ARC
  5
9DF
330
2
100
AcDbEntity
  8
0
100
AcDbCircle
 10
501.3940647104
 20
104.3524110992
 30
0.0
 40
2.0
100
AcDbArc
 50
90.0
 51
180.0
  0
ARC
  5
9E0
330
2
100
AcDbEntity
  8
0
100
AcDbCircle
 10
503.3940647104
 20
107.3523990992
 30
0.0
 40
1.0
100
AcDbArc
 50
270.0
 51
0.0
  0
LINE
  5
9E1
330
2
100
AcDbEntity
  8
0
100
AcDbLine
 10
426.6440647104
 20
144.3523990992
 30
0.0
 11
498.3940647104
 21
144.3523990992
 31
0.0
  0
LINE
  5
9E2
330
2
100
AcDbEntity
  8
0
100
AcDbLine
 10
462.3940647104
 20
167.8523990992
 30
0.0
 11
497.4289767104
 21
167.2408730992
 31
0.0
  0
LINE
  5
9E5
330
2
100
AcDbEntity
  8
0
100
AcDbLine
 10
427.3591837104
 20
167.2407360992
 30
0.0
 11
462.3940647104
 21
167.8523990992
 31
0.0
  0
LINE
  5
9E6
330
2
100
AcDbEntity
  8
HIDS
100
AcDbLine
 10
435.3591837104
 20
148.6822030992
 30
0.0
 11
462.3940647104
 21
149.1540960992
 31
0.0
  0
ARC
  5
9E7
330
2
100
AcDbEntity
  8
0
100
AcDbCircle
 10
462.3940647104
 20
-80.3472919008
 30
0.0
 40
250.0
100
AcDbArc
 50
84.826019
 51
95.173981
  0
LINE
  5
9E8
330
2
100
AcDbEntity
  8
HIDS
100
AcDbLine
 10
439.3940647104
 20
167.4508493122
 30
0.0
 11
439.3940647104
 21
148.7509360992
 31
0.0
  0
ARC
  5
9E9
330
2
100
AcDbEntity
  8
HIDS
100
AcDbCircle
 10
435.3940647104
 20
146.6825000992
 30
0.0
 40
2.0
100
AcDbArc
 50
90.999809
 51
180.0
  0
ARC
  5
9EA
330
2
100
AcDbEntity
  8
HIDS
100
AcDbCircle
 10
430.3940647104
 20
139.9294940992
 30
0.0
 40
3.0
100
AcDbArc
 50
311.810314
 51
0.0
  0
LINE
  5
9EB
330
2
100
AcDbEntity
  8
HIDS
100
AcDbLine
 10
433.3940647104
 20
146.6825160992
 30
0.0
 11
433.3940647104
 21
139.9294940992
 31
0.0
  0
LINE
  5
9EC
330
2
100
AcDbEntity
  8
0
100
AcDbLine
 10
420.3940647104
 20
139.8523990992
 30
0.0
 11
418.3940647104
 21
139.8523990992
 31
0.0
  0
ARC
  5
9ED
330
2
100
AcDbEntity
  8
0
100
AcDbCircle
 10
423.3940647104
 20
155.3523990992
 30
0.0
 40
2.0
100
AcDbArc
 50
270.0
 51
0.0
  0
ARC
  5
9EE
330
2
100
AcDbEntity
  8
0
100
AcDbCircle
 10
427.3940647104
 20
165.2410410992
 30
0.0
 40
2.0
100
AcDbArc
 50
91.000641
 51
180.0
  0
ARC
  5
9EF
330
2
100
AcDbEntity
  8
0
100
AcDbCircle
 10
421.3940647104
 20
152.3523920992
 30
0.0
 40
1.0
100
AcDbArc
 50
90.0
 51
180.0
  0
LINE
  5
9F0
330
2
100
AcDbEntity
  8
0
100
AcDbLine
 10
421.3940647104
 20
153.3523990992
 30
0.0
 11
423.3940647104
 21
153.3523990992
 31
0.0
  0
ARC
  5
9F1
330
2
100
AcDbEntity
  8
0
100
AcDbCircle
 10
444.1440647104
 20
167.5919010992
 30
0.0
 40
1.0
100
AcDbArc
 50
0.0
 51
73.043098
  0
LINE
  5
9F2
330
2
100
AcDbEntity
  8
0
100
AcDbLine
 10
445.1440647104
 20
167.5512370992
 30
0.0
 11
445.1440647104
 21
167.5919010992
 31
0.0
  0
ARC
  5
9F3
330
2
100
AcDbEntity
  8
0
100
AcDbCircle
 10
446.3940647104
 20
168.6391500992
 30
0.0
 40
0.5
100
AcDbArc
 50
93.676804
 51
180.0
  0
LINE
  5
9F4
330
2
100
AcDbEntity
  8
0
100
AcDbLine
 10
445.8940647104
 20
168.6391500992
 30
0.0
 11
445.8940647104
 21
167.5643290992
 31
0.0
  0
LINE
  5
9F5
330
2
100
AcDbEntity
  8
0
100
AcDbLine
 10
439.6440647104
 20
167.4552130992
 30
0.0
 11
439.6440647104
 21
167.5919010992
 31
0.0
  0
ARC
  5
9F6
330
2
100
AcDbEntity
  8
0
100
AcDbCircle
 10
439.8940647104
 20
168.1361060992
 30
0.0
 40
0.5
100
AcDbArc
 50
95.173981
 51
180.0
  0
ARC
  5
9F7
330
2
100
AcDbEntity
  8
0
100
AcDbCircle
 10
440.6440647104
 20
167.5919010992
 30
0.0
 40
1.0
100
AcDbArc
 50
106.958153
 51
180.0
  0
LINE
  5
9F8
330
2
100
AcDbEntity
  8
0
100
AcDbLine
 10
439.3940647104
 20
168.1361060992
 30
0.0
 11
439.3940647104
 21
167.4508490992
 31
0.0
  0
ARC
  5
9FD
330
2
100
AcDbEntity
  8
0
100
AcDbCircle
 10
442.3940647104
 20
161.8526050992
 30
0.0
 40
7.0
100
AcDbArc
 50
73.043503
 51
106.958023
  0
LINE
  5
9FE
330
2
100
AcDbEntity
  8
HIDS
100
AcDbLine
 10
485.3940647104
 20
167.4509396064
 30
0.0
 11
485.3940647104
 21
148.7509360992
 31
0.0
  0
LINE
  5
9FF
330
2
100
AcDbEntity
  8
HIDS
100
AcDbLine
 10
489.4289767104
 20
148.6822030992
 30
0.0
 11
462.3940647104
 21
149.1540960992
 31
0.0
  0
ARC
  5
A00
330
2
100
AcDbEntity
  8
HIDS
100
AcDbCircle
 10
489.3940647104
 20
146.6825000992
 30
0.0
 40
2.0
100
AcDbArc
 50
0.0
 51
89.000191
  0
ARC
  5
A01
330
2
100
AcDbEntity
  8
HIDS
100
AcDbCircle
 10
494.3940647104
 20
139.9294940992
 30
0.0
 40
3.0
100
AcDbArc
 50
180.0
 51
228.189682
  0
LINE
  5
A02
330
2
100
AcDbEntity
  8
HIDS
100
AcDbLine
 10
491.3940647104
 20
146.6825160992
 30
0.0
 11
491.3940647104
 21
139.9294940992
 31
0.0
  0
LINE
  5
A03
330
2
100
AcDbEntity
  8
0
100
AcDbLine
 10
485.1440647104
 20
167.4553050992
 30
0.0
 11
485.1440647104
 21
167.5919010992
 31
0.0
  0
ARC
  5
A04
330
2
100
AcDbEntity
  8
0
100
AcDbCircle
 10
484.8940647104
 20
168.1361060992
 30
0.0
 40
0.5
100
AcDbArc
 50
0.0
 51
84.826019
  0
ARC
  5
A05
330
2
100
AcDbEntity
  8
0
100
AcDbCircle
 10
484.1440647104
 20
167.5919010992
 30
0.0
 40
1.0
100
AcDbArc
 50
0.0
 51
73.041847
  0
LINE
  5
A06
330
2
100
AcDbEntity
  8
0
100
AcDbLine
 10
485.3940647104
 20
168.1361060992
 30
0.0
 11
485.3940647104
 21
167.4509410992
 31
0.0
  0
ARC
  5
A0B
330
2
100
AcDbEntity
  8
0
100
AcDbCircle
 10
480.6440647104
 20
167.5919010992
 30
0.0
 40
1.0
100
AcDbArc
 50
106.956902
 51
180.0
  0
LINE
  5
A0C
330
2
100
AcDbEntity
  8
0
100
AcDbLine
 10
478.8940647104
 20
168.6391500992
 30
0.0
 11
478.8940647104
 21
167.5643970992
 31
0.0
  0
LINE
  5
A0D
330
2
100
AcDbEntity
  8
0
100
AcDbLine
 10
479.6440647104
 20
167.5513050992
 30
0.0
 11
479.6440647104
 21
167.5919010992
 31
0.0
  0
ARC
  5
A0E
330
2
100
AcDbEntity
  8
0
100
AcDbCircle
 10
478.3940647104
 20
168.6391500992
 30
0.0
 40
0.5
100
AcDbArc
 50
0.0
 51
86.323196
  0
ARC
  5
A0F
330
2
100
AcDbEntity
  8
0
100
AcDbCircle
 10
482.3940647104
 20
161.8526050992
 30
0.0
 40
7.0
100
AcDbArc
 50
73.041977
 51
106.956497
  0
LINE
  5
A13
330
2
100
AcDbEntity
  8
0
100
AcDbLine
 10
512.3940647104
 20
126.8523990992
 30
0.0
 11
536.3940647104
 21
126.8523990992
 31
0.0
  0
LINE
  5
A14
330
2
100
AcDbEntity
  8
0
100
AcDbLine
 10
512.3940647104
 20
132.8523990992
 30
0.0
 11
536.3940647104
 21
132.8523990992
 31
0.0
  0
LINE
  5
A15
330
2
100
AcDbEntity
  8
0
100
AcDbLine
 10
506.3940647104
 20
120.8523990992
 30
0.0
 11
536.3940647104
 21
120.8523990992
 31
0.0
  0
LINE
  5
A16
330
2
100
AcDbEntity
  8
0
100
AcDbLine
 10
506.3940647104
 20
138.8523990992
 30
0.0
 11
536.3940647104
 21
138.8523990992
 31
0.0
  0
ARC
  5
A17
330
2
100
AcDbEntity
  8
0
100
AcDbCircle
 10
512.3940647104
 20
129.8523990992
 30
0.0
 40
3.0
100
AcDbArc
 50
90.0
 51
270.0
  0
LINE
  5
A18
330
2
100
AcDbEntity
  8
0
100
AcDbLine
 10
512.3940647104
 20
132.8523990992
 30
0.0
 11
512.3940647104
 21
126.8523990992
 31
0.0
  0
LINE
  5
A19
330
2
100
AcDbEntity
  8
0
100
AcDbLine
 10
504.3940647104
 20
139.8523990992
 30
0.0
 11
506.3940647104
 21
139.8523990992
 31
0.0
  0
LINE
  5
A1A
330
2
100
AcDbEntity
  8
0
100
AcDbLine
 10
536.3940647104
 20
120.8523990992
 30
0.0
 11
536.3940647104
 21
138.8523990992
 31
0.0
  0
LINE
  5
A1B
330
2
100
AcDbEntity
  8
0
100
AcDbLine
 10
503.3940647104
 20
153.3523990992
 30
0.0
 11
501.3940647104
 21
153.3523990992
 31
0.0
  0
ARC
  5
A1C
330
2
100
AcDbEntity
  8
0
100
AcDbCircle
 10
497.3940647104
 20
165.2411630992
 30
0.0
 40
2.0
100
AcDbArc
 50
0.0
 51
89.000137
  0
ARC
  5
A1D
330
2
100
AcDbEntity
  8
0
100
AcDbCircle
 10
501.3940647104
 20
155.3523990992
 30
0.0
 40
2.0
100
AcDbArc
 50
180.0
 51
270.0
  0
ARC
  5
A1E
330
2
100
AcDbEntity
  8
0
100
AcDbCircle
 10
503.3940647104
 20
152.3523920992
 30
0.0
 40
1.0
100
AcDbArc
 50
0.0
 51
90.0
  0
TEXT
  5
A1F
330
2
100
AcDbEntity
  8
TITLE
100
AcDbText
 10
383.6105314324
 20
314.7177506117
 30
0.0
 40
5.0
  1
HLV-18T-10~240-S40
100
AcDbText
  0
TEXT
  5
A20
330
2
100
AcDbEntity
  8
TITLE
100
AcDbText
 10
383.6105314324
 20
322.7177506117
 30
0.0
 40
5.0
  1
HLV-18T-10~240-T90
100
AcDbText
  0
TEXT
  5
A21
330
2
100
AcDbEntity
  8
TITLE
100
AcDbText
 10
383.6105314324
 20
330.7177506117
 30
0.0
 40
5.0
  1
HLV-18T-10~240-T60
100
AcDbText
  0
TEXT
  5
A22
330
2
100
AcDbEntity
  8
TITLE
100
AcDbText
 10
383.6105314324
 20
338.7177506117
 30
0.0
 40
5.0
  1
HLV-18T-160~240-T40
100
AcDbText
  0
LINE
  5
A23
330
2
100
AcDbEntity
  8
0
100
AcDbLine
 10
273.0185283489
 20
403.0964961346
 30
0.0
 11
252.5185283489
 21
403.0964961346
 31
0.0
  0
LINE
  5
A24
330
2
100
AcDbEntity
  8
0
100
AcDbLine
 10
251.5185283489
 20
373.0964961346
 30
0.0
 11
271.5185283489
 21
373.0964961346
 31
0.0
  0
LINE
  5
A25
330
2
100
AcDbEntity
  8
0
100
AcDbLine
 10
284.0185283489
 20
371.0964961346
 30
0.0
 11
239.0185283489
 21
371.0964961346
 31
0.0
  0
LINE
  5
A26
330
2
100
AcDbEntity
  8
0
100
AcDbLine
 10
213.0185283489
 20
366.0964961346
 30
0.0
 11
309.4072913489
 21
366.0964961346
 31
0.0
  0
LINE
  5
A27
330
2
100
AcDbEntity
  8
0
100
AcDbLine
 10
251.5185283489
 20
285.0964961346
 30
0.0
 11
271.5185283489
 21
285.0964961346
 31
0.0
  0
LINE
  5
A28
330
2
100
AcDbEntity
  8
0
100
AcDbLine
 10
273.0185283489
 20
255.0964961346
 30
0.0
 11
252.5185283489
 21
255.0964961346
 31
0.0
  0
LINE
  5
A29
330
2
100
AcDbEntity
  8
0
100
AcDbLine
 10
284.0185283489
 20
287.0964961346
 30
0.0
 11
239.0185283489
 21
287.0964961346
 31
0.0
  0
LINE
  5
A2A
330
2
100
AcDbEntity
  8
0
100
AcDbLine
 10
213.0185283489
 20
292.0964961346
 30
0.0
 11
309.4072913489
 21
292.0964961346
 31
0.0
  0
ARC
  5
A2B
330
2
100
AcDbEntity
  8
0
100
AcDbCircle
 10
213.6297643489
 20
364.0964961346
 30
0.0
 40
2.0
100
AcDbArc
 50
90.0
 51
179.0
  0
LINE
  5
A2C
330
2
100
AcDbEntity
  8
0
100
AcDbLine
 10
138.5185283489
 20
284.0964961346
 30
0.0
 11
138.5185283489
 21
374.0964961346
 31
0.0
  0
LINE
  5
A31
330
2
100
AcDbEntity
  8
0
100
AcDbLine
 10
209.0185283489
 20
284.0964961346
 30
0.0
 11
138.5185283489
 21
284.0964961346
 31
0.0
  0
LINE
  5
A32
330
2
100
AcDbEntity
  8
0
100
AcDbLine
 10
138.5185283489
 20
358.0964961346
 30
0.0
 11
217.8610723489
 21
358.0964961346
 31
0.0
  0
LINE
  5
A33
330
2
100
AcDbEntity
  8
0
100
AcDbLine
 10
138.5185283489
 20
300.0964961346
 30
0.0
 11
217.8610723489
 21
300.0964961346
 31
0.0
  0
LINE
  5
AA7
330
2
100
AcDbEntity
  8
0
100
AcDbLine
 10
244.5185283489
 20
361.0964961346
 30
0.0
 11
244.5185283489
 21
297.0964961346
 31
0.0
  0
ARC
  5
AA8
330
2
100
AcDbEntity
  8
0
100
AcDbCircle
 10
221.8578983489
 20
281.0964961346
 30
0.0
 40
10.0
100
AcDbArc
 50
181.0
 51
270.0
  0
LINE
  5
AA9
330
2
100
AcDbEntity
  8
CENTER
100
AcDbLine
 10
215.5002933427
 20
281.0965121346
 30
0.0
 11
231.5367633552
 21
281.0965121346
 31
0.0
  0
LINE
  5
AAA
330
2
100
AcDbEntity
  8
0
100
AcDbLine
 10
211.0185283489
 20
290.0964961346
 30
0.0
 11
211.0185283489
 21
286.0964961346
 31
0.0
  0
ARC
  5
AAB
330
2
100
AcDbEntity
  8
0
100
AcDbCircle
 10
213.0185283489
 20
290.0964961346
 30
0.0
 40
2.0
100
AcDbArc
 50
90.0
 51
180.0
  0
LINE
  5
AAC
330
2
100
AcDbEntity
  8
0
100
AcDbLine
 10
211.8594093489
 20
280.9219661346
 30
0.0
 11
211.6734353489
 21
291.5766131346
 31
0.0
  0
ARC
  5
AAD
330
2
100
AcDbEntity
  8
0
100
AcDbCircle
 10
209.0185283489
 20
286.0964961346
 30
0.0
 40
2.0
100
AcDbArc
 50
270.0
 51
0.0
  0
ARC
  5
AAE
330
2
100
AcDbEntity
  8
0
100
AcDbCircle
 10
213.6297643489
 20
294.0964961346
 30
0.0
 40
2.0
100
AcDbArc
 50
181.0
 51
270.0
  0
LINE
  5
AAF
330
2
100
AcDbEntity
  8
0
100
AcDbLine
 10
211.6300693489
 20
294.0615841346
 30
0.0
 11
211.5247233489
 21
300.0964961346
 31
0.0
  0
LINE
  5
AB0
330
2
100
AcDbEntity
  8
0
100
AcDbLine
 10
252.5185283489
 20
285.0964961346
 30
0.0
 11
252.5185283489
 21
255.0964961346
 31
0.0
  0
ARC
  5
AB1
330
2
100
AcDbEntity
  8
0
100
AcDbCircle
 10
239.0185433489
 20
288.0964961346
 30
0.0
 40
1.0
100
AcDbArc
 50
180.0
 51
270.0
  0
LINE
  5
AB2
330
2
100
AcDbEntity
  8
0
100
AcDbLine
 10
252.5185283489
 20
271.0964961346
 30
0.0
 11
221.8578983489
 21
271.0964961346
 31
0.0
  0
LINE
  5
AB3
330
2
100
AcDbEntity
  8
0
100
AcDbLine
 10
238.0185283489
 20
288.0964961346
 30
0.0
 11
238.0185283489
 21
290.0964961346
 31
0.0
  0
ARC
  5
AB4
330
2
100
AcDbEntity
  8
0
100
AcDbCircle
 10
236.0185283489
 20
290.0964961346
 30
0.0
 40
2.0
100
AcDbArc
 50
0.0
 51
90.0
  0
LINE
  5
AB5
330
2
100
AcDbEntity
  8
CENTER
100
AcDbLine
 10
223.5185283489
 20
273.0782771283
 30
0.0
 11
223.5185283489
 21
289.1147471408
 31
0.0
  0
CIRCLE
  5
AB6
330
2
100
AcDbEntity
  8
0
100
AcDbCircle
 10
223.5185283489
 20
281.0964961346
 30
0.0
 40
4.25
  0
LINE
  5
AB7
330
2
100
AcDbEntity
  8
0
100
AcDbLine
 10
251.5185283489
 20
287.0964961346
 30
0.0
 11
251.5185283489
 21
285.0964961346
 31
0.0
  0
LINE
  5
AB8
330
2
100
AcDbEntity
  8
0
100
AcDbLine
 10
217.8610723489
 20
356.0964961346
 30
0.0
 11
217.8610723489
 21
302.0964961346
 31
0.0
  0
LINE
  5
AB9
330
2
100
AcDbEntity
  8
0
100
AcDbLine
 10
211.6300693489
 20
364.1314081346
 30
0.0
 11
211.5247233489
 21
358.0964961346
 31
0.0
  0
LINE
  5
ABA
330
2
100
AcDbEntity
  8
0
100
AcDbLine
 10
209.0185283489
 20
374.0964961346
 30
0.0
 11
138.5185283489
 21
374.0964961346
 31
0.0
  0
ARC
  5
AC2
330
2
100
AcDbEntity
  8
0
100
AcDbCircle
 10
221.8578983489
 20
377.0964961346
 30
0.0
 40
10.0
100
AcDbArc
 50
90.0
 51
179.0
  0
LINE
  5
AC3
330
2
100
AcDbEntity
  8
CENTER
100
AcDbLine
 10
215.5002933427
 20
377.0964961346
 30
0.0
 11
231.5367633552
 21
377.0964961346
 31
0.0
  0
LINE
  5
AC4
330
2
100
AcDbEntity
  8
0
100
AcDbLine
 10
211.0185283489
 20
368.0964961346
 30
0.0
 11
211.0185283489
 21
372.0964961346
 31
0.0
  0
ARC
  5
AC5
330
2
100
AcDbEntity
  8
0
100
AcDbCircle
 10
213.0185283489
 20
368.0964961346
 30
0.0
 40
2.0
100
AcDbArc
 50
180.0
 51
270.0
  0
ARC
  5
AC6
330
2
100
AcDbEntity
  8
0
100
AcDbCircle
 10
209.0185283489
 20
372.0964961346
 30
0.0
 40
2.0
100
AcDbArc
 50
0.0
 51
90.0
  0
LINE
  5
AC7
330
2
100
AcDbEntity
  8
0
100
AcDbLine
 10
211.8594093489
 20
377.2710261346
 30
0.0
 11
211.6734353489
 21
366.6163931346
 31
0.0
  0
LINE
  5
AC8
330
2
100
AcDbEntity
  8
0
100
AcDbLine
 10
252.5185283489
 20
373.0964961346
 30
0.0
 11
252.5185283489
 21
403.0964961346
 31
0.0
  0
ARC
  5
AC9
330
2
100
AcDbEntity
  8
0
100
AcDbCircle
 10
239.0185433489
 20
370.0964961346
 30
0.0
 40
1.0
100
AcDbArc
 50
90.0
 51
180.0
  0
LINE
  5
ACA
330
2
100
AcDbEntity
  8
0
100
AcDbLine
 10
252.5185283489
 20
387.0964961346
 30
0.0
 11
221.8578983489
 21
387.0964961346
 31
0.0
  0
LINE
  5
ACB
330
2
100
AcDbEntity
  8
0
100
AcDbLine
 10
238.0185283489
 20
370.0964961346
 30
0.0
 11
238.0185283489
 21
368.0964961346
 31
0.0
  0
ARC
  5
ACC
330
2
100
AcDbEntity
  8
0
100
AcDbCircle
 10
236.0185283489
 20
368.0964961346
 30
0.0
 40
2.0
100
AcDbArc
 50
270.0
 51
0.0
  0
LINE
  5
ACD
330
2
100
AcDbEntity
  8
CENTER
100
AcDbLine
 10
223.5185283489
 20
369.0782611283
 30
0.0
 11
223.5185283489
 21
385.1147311408
 31
0.0
  0
CIRCLE
  5
ACE
330
2
100
AcDbEntity
  8
0
100
AcDbCircle
 10
223.5185283489
 20
377.0964961346
 30
0.0
 40
4.25
  0
LINE
  5
ACF
330
2
100
AcDbEntity
  8
0
100
AcDbLine
 10
251.5185283489
 20
371.0964961346
 30
0.0
 11
251.5185283489
 21
373.0964961346
 31
0.0
  0
ARC
  5
AD0
330
2
100
AcDbEntity
  8
0
100
AcDbCircle
 10
309.4072913489
 20
364.0964961346
 30
0.0
 40
2.0
100
AcDbArc
 50
1.0
 51
90.0
  0
LINE
  5
AD1
330
2
100
AcDbEntity
  8
0
100
AcDbLine
 10
311.1776313489
 20
377.2710261346
 30
0.0
 11
312.0185283489
 21
329.0964961346
 31
0.0
  0
LINE
  5
AD2
330
2
100
AcDbEntity
  8
CENTER
100
AcDbLine
 10
261.5185283489
 20
410.0964961346
 30
0.0
 11
261.5185283489
 21
248.0964961346
 31
0.0
  0
LINE
  5
AD3
330
2
100
AcDbEntity
  8
0
100
AcDbLine
 10
311.1776313489
 20
280.9219661346
 30
0.0
 11
312.0185283489
 21
329.0964961346
 31
0.0
  0
LINE
  5
AD4
330
2
100
AcDbEntity
  8
0
100
AcDbLine
 10
278.5185283489
 20
361.0964961346
 30
0.0
 11
278.5185283489
 21
297.0964961346
 31
0.0
  0
CIRCLE
  5
AD5
330
2
100
AcDbEntity
  8
0
100
AcDbCircle
 10
299.5185283489
 20
281.0964961346
 30
0.0
 40
4.25
  0
LINE
  5
AD6
330
2
100
AcDbEntity
  8
CENTER
100
AcDbLine
 10
291.5002933427
 20
281.0965121346
 30
0.0
 11
307.5367633552
 21
281.0965121346
 31
0.0
  0
LINE
  5
AD7
330
2
100
AcDbEntity
  8
0
100
AcDbLine
 10
301.1791573489
 20
271.0964961346
 30
0.0
 11
273.0185283489
 21
271.0964961346
 31
0.0
  0
LINE
  5
AD8
330
2
100
AcDbEntity
  8
0
100
AcDbLine
 10
273.0185283489
 20
255.0964961346
 30
0.0
 11
273.0185283489
 21
279.0964961346
 31
0.0
  0
LINE
  5
AD9
330
2
100
AcDbEntity
  8
0
100
AcDbLine
 10
270.0035283489
 20
255.0964961346
 30
0.0
 11
270.0035283489
 21
279.0964961346
 31
0.0
  0
LINE
  5
ADA
330
2
100
AcDbEntity
  8
0
100
AcDbLine
 10
271.5185283489
 20
287.0964961346
 30
0.0
 11
271.5185283489
 21
285.0964961346
 31
0.0
  0
LINE
  5
ADB
330
2
100
AcDbEntity
  8
0
100
AcDbLine
 10
270.5185283489
 20
285.0964961346
 30
0.0
 11
270.5185283489
 21
279.0964961346
 31
0.0
  0
LINE
  5
ADC
330
2
100
AcDbEntity
  8
0
100
AcDbLine
 10
273.0185283489
 20
279.0964961346
 30
0.0
 11
270.0035283489
 21
279.0964961346
 31
0.0
  0
LINE
  5
ADD
330
2
100
AcDbEntity
  8
CENTER
100
AcDbLine
 10
299.5185283489
 20
273.0782771283
 30
0.0
 11
299.5185283489
 21
289.1147471408
 31
0.0
  0
LINE
  5
ADE
330
2
100
AcDbEntity
  8
0
100
AcDbLine
 10
285.0185283489
 20
288.0964961346
 30
0.0
 11
285.0185283489
 21
290.0964961346
 31
0.0
  0
ARC
  5
ADF
330
2
100
AcDbEntity
  8
0
100
AcDbCircle
 10
284.0185283489
 20
288.0964961346
 30
0.0
 40
1.0
100
AcDbArc
 50
270.0
 51
0.0
  0
ARC
  5
AE0
330
2
100
AcDbEntity
  8
0
100
AcDbCircle
 10
287.0185283489
 20
290.0964961346
 30
0.0
 40
2.0
100
AcDbArc
 50
90.0
 51
180.0
  0
ARC
  5
AE1
330
2
100
AcDbEntity
  8
0
100
AcDbCircle
 10
301.1791573489
 20
281.0964961346
 30
0.0
 40
10.0
100
AcDbArc
 50
270.0
 51
359.0
  0
ARC
  5
AE2
330
2
100
AcDbEntity
  8
0
100
AcDbCircle
 10
309.4072913489
 20
294.0964961346
 30
0.0
 40
2.0
100
AcDbArc
 50
270.0
 51
359.0
  0
CIRCLE
  5
AE3
330
2
100
AcDbEntity
  8
0
100
AcDbCircle
 10
299.5185283489
 20
377.0964961346
 30
0.0
 40
4.25
  0
LINE
  5
AE4
330
2
100
AcDbEntity
  8
CENTER
100
AcDbLine
 10
291.5002933427
 20
377.0964961346
 30
0.0
 11
307.5367633552
 21
377.0964961346
 31
0.0
  0
LINE
  5
AE5
330
2
100
AcDbEntity
  8
0
100
AcDbLine
 10
301.1791573489
 20
387.0964961346
 30
0.0
 11
273.0185283489
 21
387.0964961346
 31
0.0
  0
LINE
  5
AE6
330
2
100
AcDbEntity
  8
0
100
AcDbLine
 10
273.0185283489
 20
403.0964961346
 30
0.0
 11
273.0185283489
 21
379.0964961346
 31
0.0
  0
LINE
  5
AE7
330
2
100
AcDbEntity
  8
0
100
AcDbLine
 10
270.0035283489
 20
403.0964961346
 30
0.0
 11
270.0035283489
 21
379.0964961346
 31
0.0
  0
LINE
  5
AE8
330
2
100
AcDbEntity
  8
0
100
AcDbLine
 10
273.0185283489
 20
379.0964961346
 30
0.0
 11
270.0035283489
 21
379.0964961346
 31
0.0
  0
LINE
  5
AE9
330
2
100
AcDbEntity
  8
0
100
AcDbLine
 10
271.5185283489
 20
371.0964961346
 30
0.0
 11
271.5185283489
 21
373.0964961346
 31
0.0
  0
LINE
  5
AEA
330
2
100
AcDbEntity
  8
0
100
AcDbLine
 10
270.5185283489
 20
373.0964961346
 30
0.0
 11
270.5185283489
 21
379.0964961346
 31
0.0
  0
LINE
  5
AEB
330
2
100
AcDbEntity
  8
CENTER
100
AcDbLine
 10
299.5185283489
 20
369.0782611283
 30
0.0
 11
299.5185283489
 21
385.1147311408
 31
0.0
  0
LINE
  5
AEC
330
2
100
AcDbEntity
  8
0
100
AcDbLine
 10
285.0185283489
 20
370.0964961346
 30
0.0
 11
285.0185283489
 21
368.0964961346
 31
0.0
  0
ARC
  5
AED
330
2
100
AcDbEntity
  8
0
100
AcDbCircle
 10
284.0185283489
 20
370.0964961346
 30
0.0
 40
1.0
100
AcDbArc
 50
0.0
 51
90.0
  0
ARC
  5
AEE
330
2
100
AcDbEntity
  8
0
100
AcDbCircle
 10
287.0185283489
 20
368.0964961346
 30
0.0
 40
2.0
100
AcDbArc
 50
180.0
 51
270.0
  0
ARC
  5
AEF
330
2
100
AcDbEntity
  8
0
100
AcDbCircle
 10
301.1791573489
 20
377.0964961346
 30
0.0
 40
10.0
100
AcDbArc
 50
1.0
 51
90.0
  0
INSERT
  5
1810
330
2
100
AcDbEntity
  8
0
100
AcDbBlockReference
  2
A$C0e0b3c3a
 10
138.5185283489
 20
329.0964961346
 30
0.0
  0
INSERT
  5
1896
330
2
100
AcDbEntity
  8
0
100
AcDbBlockReference
  2
A$Ccaa00782
 10
138.5185283489
 20
104.1524020992
 30
0.0
  0
ENDSEC
  0
SECTION
  2
OBJECTS
  0
DICTIONARY
  5
7
330
0
100
AcDbDictionary
281
     1
  3
ACAD_CIP_PREVIOUS_PRODUCT_INFO
350
1718
  3
ACAD_COLOR
350
165A
  3
ACAD_DETAILVIEWSTYLE
350
1714
  3
ACAD_GROUP
350
75
  3
ACAD_LAYOUT
350
61
  3
ACAD_MATERIAL
350
1630
  3
ACAD_MLEADERSTYLE
350
167F
  3
ACAD_MLINESTYLE
350
76
  3
ACAD_PLOTSETTINGS
350
77
  3
ACAD_PLOTSTYLENAME
350
6
  3
ACAD_SCALELIST
350
165D
  3
ACAD_SECTIONVIEWSTYLE
350
1712
  3
ACAD_TABLESTYLE
350
165B
  3
ACAD_VISUALSTYLE
350
1649
  3
AcadDim
350
480
  3
ACDB_RECOMPOSE_DATA
350
1990
  3
AcDbVariableDictionary
350
102
  3
DWGPROPS
350
1991
  0
DICTIONARY
  5
16AE
330
6E
100
AcDbDictionary
280
     1
281
     1
  0
DICTIONARY
  5
1809
330
66
100
AcDbDictionary
280
     1
281
     1
  3
ACAD_LAYERSTATES
360
180A
  0
DICTIONARY
  5
1684
330
5E
100
AcDbDictionary
280
     1
281
     1
  3
ADSK_XREC_LAYER_RECONCILED
360
1685
  0
DICTIONARY
  5
1686
330
3E
100
AcDbDictionary
280
     1
281
     1
  3
ADSK_XREC_LAYER_RECONCILED
360
1687
  0
DICTIONARY
  5
168C
330
2B5
100
AcDbDictionary
280
     1
281
     1
  3
ADSK_XREC_LAYER_RECONCILED
360
168D
  0
DICTIONARY
  5
168E
330
2BA
100
AcDbDictionary
280
     1
281
     1
  3
ADSK_XREC_LAYER_RECONCILED
360
168F
  0
DICTIONARY
  5
1692
330
3FA
100
AcDbDictionary
280
     1
281
     1
  3
ADSK_XREC_LAYER_RECONCILED
360
1693
  0
DICTIONARY
  5
177B
330
177A
100
AcDbDictionary
280
     1
281
     1
  3
ACAD_SORTENTS
360
177C
  0
XRECORD
  5
1718
102
{ACAD_REACTORS
330
7
102
}
330
7
100
AcDbXrecord
280
     1
300
ACD
300
2020
300
87224ACD_2020_0F
  0
DICTIONARY
  5
165A
102
{ACAD_REACTORS
330
7
102
}
330
7
100
AcDbDictionary
281
     1
  0
DICTIONARY
  5
1714
102
{ACAD_REACTORS
330
7
102
}
330
7
100
AcDbDictionary
281
     1
  3
Imperial24
350
1715
  0
DICTIONARY
  5
75
102
{ACAD_REACTORS
330
7
102
}
330
7
100
AcDbDictionary
281
     1
  0
DICTIONARY
  5
61
102
{ACAD_REACTORS
330
7
102
}
330
7
100
AcDbDictionary
281
     1
  3
Model
350
60
  3
レイアウト1
350
198A
  0
DICTIONARY
  5
1630
102
{ACAD_REACTORS
330
7
102
}
330
7
100
AcDbDictionary
281
     1
  3
ByBlock
350
1639
  3
ByLayer
350
1631
  3
Global
350
1641
  0
DICTIONARY
  5
167F
102
{ACAD_REACTORS
330
7
102
}
330
7
100
AcDbDictionary
281
     1
  3
Standard
350
1680
  0
DICTIONARY
  5
76
102
{ACAD_REACTORS
330
7
102
}
330
7
100
AcDbDictionary
281
     1
  3
STANDARD
350
78
  0
DICTIONARY
  5
77
102
{ACAD_REACTORS
330
7
102
}
330
7
100
AcDbDictionary
281
     1
  0
ACDBDICTIONARYWDFLT
  5
6
102
{ACAD_REACTORS
330
7
102
}
330
7
100
AcDbDictionary
281
     1
  3
Normal
350
5
100
AcDbDictionaryWithDefault
340
5
  0
DICTIONARY
  5
165D
102
{ACAD_REACTORS
330
7
102
}
330
7
100
AcDbDictionary
281
     1
  3
A0
350
165E
  3
A1
350
165F
  3
A2
350
1660
  3
A3
350
1661
  3
A4
350
1662
  3
A5
350
1663
  3
A6
350
1664
  3
A7
350
1665
  3
A8
350
1666
  3
A9
350
1667
  3
B0
350
1668
  3
B1
350
1669
  3
B2
350
166A
  3
B3
350
166B
  3
B4
350
166C
  3
B5
350
166D
  3
B6
350
166E
  3
B7
350
166F
  3
B8
350
1670
  3
B9
350
1671
  3
C0
350
1672
  3
C1
350
1673
  3
C2
350
1674
  3
C3
350
1675
  3
C4
350
1676
  3
C5
350
1677
  3
C6
350
1678
  3
C7
350
1679
  3
C8
350
167A
  3
C9
350
167B
  3
D0
350
167C
  3
D1
350
167D
  3
D2
350
167E
  0
DICTIONARY
  5
1712
102
{ACAD_REACTORS
330
7
102
}
330
7
100
AcDbDictionary
281
     1
  3
Imperial24
350
1713
  0
DICTIONARY
  5
165B
102
{ACAD_REACTORS
330
7
102
}
330
7
100
AcDbDictionary
281
     1
  3
Standard
350
165C
  0
DICTIONARY
  5
1649
102
{ACAD_REACTORS
330
7
102
}
330
7
100
AcDbDictionary
281
     1
  3
2dWireframe
350
164F
  3
3D Hidden
350
1651
  3
3dWireframe
350
1650
  3
Basic
350
164E
  3
Brighten
350
1655
  3
ColorChange
350
1659
  3
Conceptual
350
1652
  3
Dim
350
1654
  3
EdgeColorOff
350
1711
  3
Facepattern
350
1658
  3
Flat
350
164A
  3
FlatWithEdges
350
164B
  3
Gouraud
350
164C
  3
GouraudWithEdges
350
164D
  3
Hidden
350
1709
  3
JitterOff
350
170F
  3
Linepattern
350
1657
  3
OverhangOff
350
1710
  3
Realistic
350
1653
  3
Shaded
350
170E
  3
Shaded with edges
350
170D
  3
Shades of Gray
350
170A
  3
Sketchy
350
170B
  3
Thicken
350
1656
  3
Wireframe
350
1708
  3
X-Ray
350
170C
  0
XRECORD
  5
480
102
{ACAD_REACTORS
330
7
102
}
330
7
100
AcDbXrecord
280
     1
 90
   990106
  3

 60
     0
 61
     0
 62
     1
 63
     3
 64
     1
 65
     0
 66
     0
 67
     3
 68
     1
 69
     0
 70
     0
 71
     0
 72
     0
 40
0.0
170
     2
340
0
  0
XRECORD
  5
1990
102
{ACAD_REACTORS
330
7
102
}
330
7
100
AcDbXrecord
280
     1
 90
        1
330
165C
  0
DICTIONARY
  5
102
102
{ACAD_REACTORS
330
7
102
}
330
7
100
AcDbDictionary
281
     1
  3
CANNOSCALE
350
1696
  3
CMLEADERSTYLE
350
1695
  3
CTABLESTYLE
350
1694
  3
CVIEWDETAILSTYLE
350
1774
  3
CVIEWSECTIONSTYLE
350
1775
  3
DIMASSOC
350
103
  3
INDEXCTL
350
16CF
  3
SORTENTS
350
16CE
  3
XCLIPFRAME
350
198E
  0
XRECORD
  5
1991
102
{ACAD_REACTORS
330
7
102
}
330
7
100
AcDbXrecord
280
     1
  1
DWGPROPS COOKIE
  2

  3

  4

  6

  7

  8
ykitaga
  9

300
=
301
=
302
=
303
=
304
=
305
=
306
=
307
=
308
=
309
=
 40
0.1085754861
 41
2453759.648634259
 42
2460516.514131945
  1

 90
        0
  0
DICTIONARY
  5
180A
102
{ACAD_REACTORS
330
1809
102
}
330
1809
100
AcDbDictionary
281
     1
  0
XRECORD
  5
1685
102
{ACAD_REACTORS
330
1684
102
}
330
1684
100
AcDbXrecord
280
     1
290
     1
  0
XRECORD
  5
1687
102
{ACAD_REACTORS
330
1686
102
}
330
1686
100
AcDbXrecord
280
     1
290
     1
  0
XRECORD
  5
168D
102
{ACAD_REACTORS
330
168C
102
}
330
168C
100
AcDbXrecord
280
     1
290
     1
  0
XRECORD
  5
168F
102
{ACAD_REACTORS
330
168E
102
}
330
168E
100
AcDbXrecord
280
     1
290
     1
  0
XRECORD
  5
1693
102
{ACAD_REACTORS
330
1692
102
}
330
1692
100
AcDbXrecord
280
     1
290
     1
  0
SORTENTSTABLE
  5
177C
102
{ACAD_REACTORS
330
177B
102
}
330
177B
100
AcDbSortentsTable
330
177A
  0
ACDBDETAILVIEWSTYLE
  5
1715
102
{ACAD_XDICTIONARY
360
19DE
102
}
102
{ACAD_REACTORS
330
1714
102
}
330
1714
100
AcDbModelDocViewStyle
 70
     0
  3
Imperial24
290
     0
100
AcDbDetailViewStyle
 70
     0
 71
     0
 90
        3
 71
     1
340
16
 40
0.24
340
0
 40
0.24
300

 40
0.36
280
     3
 71
     2
340
8
 90
       25
 71
     3
340
16
 40
0.24
 90
        1
 40
0.75
 90
        1
300
%<\AcVar ViewType \f "%tc1">% %<\AcVar ViewDetailId>%\PSCALE %<\AcVar ViewScale \f "%sn">%
 71
     4
340
8
 90
       25
340
8
 90
       25
280
     0
  0
LAYOUT
  5
60
102
{ACAD_XDICTIONARY
360
1992
102
}
102
{ACAD_REACTORS
330
61
102
}
330
61
100
AcDbPlotSettings
  1

  2
Canon LBP-1420
  4
A4
  6

 40
5.873749733
 41
5.8737478256
 42
5.8737487793
 43
5.8737487793
 44
209.9733276367
 45
296.925994873
 46
0.0
 47
5.37
 48
0.0
 49
0.0
140
0.0
141
0.0
142
1.0
143
0.088099941
 70
 11956
 72
     1
 73
     1
 74
     1
  7
Sekkei.ctb
 75
     0
147
11.3507453947
148
-88.9740150773
149
-101.3630682339
100
AcDbLayout
  1
Model
 70
     1
 71
     0
 10
0.0
 20
0.0
 11
12.0
 21
9.0
 12
0.0
 22
0.0
 32
0.0
 14
0.0
 24
0.0
 34
0.0
 15
0.0
 25
0.0
 35
0.0
146
0.0
 13
0.0
 23
0.0
 33
0.0
 16
1.0
 26
0.0
 36
0.0
 17
0.0
 27
1.0
 37
0.0
 76
     0
330
2
331
162E
  0
LAYOUT
  5
198A
102
{ACAD_XDICTIONARY
360
19E0
102
}
102
{ACAD_REACTORS
330
61
102
}
330
61
100
AcDbPlotSettings
  1

  2
LBP8610
  4

  6

 40
0.0
 41
0.0
 42
0.0
 43
0.0
 44
0.0
 45
0.0
 46
0.0
 47
0.0
 48
0.0
 49
0.0
140
0.0
141
0.0
142
1.0
143
1.0
 70
   688
 72
     0
 73
     0
 74
     5
  7

 75
    16
147
1.0
148
0.0
149
0.0
100
AcDbLayout
  1
レイアウト1
 70
     1
 71
     1
 10
0.0
 20
0.0
 11
12.0
 21
9.0
 12
0.0
 22
0.0
 32
0.0
 14
0.0
 24
0.0
 34
0.0
 15
0.0
 25
0.0
 35
0.0
146
0.0
 13
0.0
 23
0.0
 33
0.0
 16
1.0
 26
0.0
 36
0.0
 17
0.0
 27
1.0
 37
0.0
 76
     0
330
1989
  0
MATERIAL
  5
1639
102
{ACAD_XDICTIONARY
360
163A
102
}
102
{ACAD_REACTORS
330
1630
102
}
330
1630
100
AcDbMaterial
  1
ByBlock
 72
     0
 43
0.0208333333
 43
0.0
 43
0.0
 43
0.0
 43
0.0
 43
0.0208333333
 43
0.0
 43
0.0
 43
0.0
 43
0.0
 43
1.0
 43
0.0
 43
0.0
 43
0.0
 43
0.0
 43
1.0
 77
     0
 47
0.0208333333
 47
0.0
 47
0.0
 47
0.0
 47
0.0
 47
0.0208333333
 47
0.0
 47
0.0
 47
0.0
 47
0.0
 47
1.0
 47
0.0
 47
0.0
 47
0.0
 47
0.0
 47
1.0
171
     0
 49
0.0208333333
 49
0.0
 49
0.0
 49
0.0
 49
0.0
 49
0.0208333333
 49
0.0
 49
0.0
 49
0.0
 49
0.0
 49
1.0
 49
0.0
 49
0.0
 49
0.0
 49
0.0
 49
1.0
175
     0
142
0.0208333333
142
0.0
142
0.0
142
0.0
142
0.0
142
0.0208333333
142
0.0
142
0.0
142
0.0
142
0.0
142
1.0
142
0.0
142
0.0
142
0.0
142
0.0
142
1.0
179
     0
144
0.0208333333
144
0.0
144
0.0
144
0.0
144
0.0
144
0.0208333333
144
0.0
144
0.0
144
0.0
144
0.0
144
1.0
144
0.0
144
0.0
144
0.0
144
0.0
144
1.0
147
0.0208333333
147
0.0
147
0.0
147
0.0
147
0.0
147
0.0208333333
147
0.0
147
0.0
147
0.0
147
0.0
147
1.0
147
0.0
147
0.0
147
0.0
147
0.0
147
1.0
  0
MATERIAL
  5
1631
102
{ACAD_XDICTIONARY
360
1632
102
}
102
{ACAD_REACTORS
330
1630
102
}
330
1630
100
AcDbMaterial
  1
ByLayer
 72
     0
 43
0.0208333333
 43
0.0
 43
0.0
 43
0.0
 43
0.0
 43
0.0208333333
 43
0.0
 43
0.0
 43
0.0
 43
0.0
 43
1.0
 43
0.0
 43
0.0
 43
0.0
 43
0.0
 43
1.0
 77
     0
 47
0.0208333333
 47
0.0
 47
0.0
 47
0.0
 47
0.0
 47
0.0208333333
 47
0.0
 47
0.0
 47
0.0
 47
0.0
 47
1.0
 47
0.0
 47
0.0
 47
0.0
 47
0.0
 47
1.0
171
     0
 49
0.0208333333
 49
0.0
 49
0.0
 49
0.0
 49
0.0
 49
0.0208333333
 49
0.0
 49
0.0
 49
0.0
 49
0.0
 49
1.0
 49
0.0
 49
0.0
 49
0.0
 49
0.0
 49
1.0
175
     0
142
0.0208333333
142
0.0
142
0.0
142
0.0
142
0.0
142
0.0208333333
142
0.0
142
0.0
142
0.0
142
0.0
142
1.0
142
0.0
142
0.0
142
0.0
142
0.0
142
1.0
179
     0
144
0.0208333333
144
0.0
144
0.0
144
0.0
144
0.0
144
0.0208333333
144
0.0
144
0.0
144
0.0
144
0.0
144
1.0
144
0.0
144
0.0
144
0.0
144
0.0
144
1.0
147
0.0208333333
147
0.0
147
0.0
147
0.0
147
0.0
147
0.0208333333
147
0.0
147
0.0
147
0.0
147
0.0
147
1.0
147
0.0
147
0.0
147
0.0
147
0.0
147
1.0
  0
MATERIAL
  5
1641
102
{ACAD_XDICTIONARY
360
1642
102
}
102
{ACAD_REACTORS
330
1630
102
}
330
1630
100
AcDbMaterial
  1
Global
 72
     0
 43
0.0208333333
 43
0.0
 43
0.0
 43
0.0
 43
0.0
 43
0.0208333333
 43
0.0
 43
0.0
 43
0.0
 43
0.0
 43
1.0
 43
0.0
 43
0.0
 43
0.0
 43
0.0
 43
1.0
 77
     0
 47
0.0208333333
 47
0.0
 47
0.0
 47
0.0
 47
0.0
 47
0.0208333333
 47
0.0
 47
0.0
 47
0.0
 47
0.0
 47
1.0
 47
0.0
 47
0.0
 47
0.0
 47
0.0
 47
1.0
171
     0
 49
0.0208333333
 49
0.0
 49
0.0
 49
0.0
 49
0.0
 49
0.0208333333
 49
0.0
 49
0.0
 49
0.0
 49
0.0
 49
1.0
 49
0.0
 49
0.0
 49
0.0
 49
0.0
 49
1.0
175
     0
142
0.0208333333
142
0.0
142
0.0
142
0.0
142
0.0
142
0.0208333333
142
0.0
142
0.0
142
0.0
142
0.0
142
1.0
142
0.0
142
0.0
142
0.0
142
0.0
142
1.0
179
     0
144
0.0208333333
144
0.0
144
0.0
144
0.0
144
0.0
144
0.0208333333
144
0.0
144
0.0
144
0.0
144
0.0
144
1.0
144
0.0
144
0.0
144
0.0
144
0.0
144
1.0
147
0.0208333333
147
0.0
147
0.0
147
0.0
147
0.0
147
0.0208333333
147
0.0
147
0.0
147
0.0
147
0.0
147
1.0
147
0.0
147
0.0
147
0.0
147
0.0
147
1.0
  0
MLEADERSTYLE
  5
1680
102
{ACAD_REACTORS
330
167F
102
}
330
167F
100
AcDbMLeaderStyle
170
     2
171
     1
172
     0
 90
        2
 40
0.0
 41
0.0
173
     1
 91
-1056964608
340
6A
 92
       -2
290
     1
 42
0.09
291
     1
 43
0.36
  3
Standard
 44
0.18
300

342
16
174
     1
178
     6
175
     1
176
     0
 93
-1056964608
 45
0.18
292
     0
297
     0
 46
0.18
 94
-1056964608
 47
1.0
 49
1.0
140
1.0
293
     1
141
0.0
294
     1
177
     0
142
1.0
295
     0
296
     0
143
0.125
1001
ACAD_MLEADERVER
1070
     2
  0
MLINESTYLE
  5
78
102
{ACAD_REACTORS
330
76
102
}
330
76
100
AcDbMlineStyle
  2
STANDARD
 70
     0
  3

 62
     0
 51
90.0
 52
90.0
 71
     2
 49
0.5
 62
   256
  6
BYLAYER
 49
-0.5
 62
   256
  6
BYLAYER
  0
ACDBPLACEHOLDER
  5
5
102
{ACAD_REACTORS
330
6
102
}
330
6
  0
SCALE
  5
165E
102
{ACAD_REACTORS
330
165D
102
}
330
165D
100
AcDbScale
 70
     0
300
1:1
140
1.0
141
1.0
290
     1
  0
SCALE
  5
165F
102
{ACAD_REACTORS
330
165D
102
}
330
165D
100
AcDbScale
 70
     0
300
1:2
140
1.0
141
2.0
290
     0
  0
SCALE
  5
1660
102
{ACAD_REACTORS
330
165D
102
}
330
165D
100
AcDbScale
 70
     0
300
1:4
140
1.0
141
4.0
290
     0
  0
SCALE
  5
1661
102
{ACAD_REACTORS
330
165D
102
}
330
165D
100
AcDbScale
 70
     0
300
1:5
140
1.0
141
5.0
290
     0
  0
SCALE
  5
1662
102
{ACAD_REACTORS
330
165D
102
}
330
165D
100
AcDbScale
 70
     0
300
1:8
140
1.0
141
8.0
290
     0
  0
SCALE
  5
1663
102
{ACAD_REACTORS
330
165D
102
}
330
165D
100
AcDbScale
 70
     0
300
1:10
140
1.0
141
10.0
290
     0
  0
SCALE
  5
1664
102
{ACAD_REACTORS
330
165D
102
}
330
165D
100
AcDbScale
 70
     0
300
1:16
140
1.0
141
16.0
290
     0
  0
SCALE
  5
1665
102
{ACAD_REACTORS
330
165D
102
}
330
165D
100
AcDbScale
 70
     0
300
1:20
140
1.0
141
20.0
290
     0
  0
SCALE
  5
1666
102
{ACAD_REACTORS
330
165D
102
}
330
165D
100
AcDbScale
 70
     0
300
1:30
140
1.0
141
30.0
290
     0
  0
SCALE
  5
1667
102
{ACAD_REACTORS
330
165D
102
}
330
165D
100
AcDbScale
 70
     0
300
1:40
140
1.0
141
40.0
290
     0
  0
SCALE
  5
1668
102
{ACAD_REACTORS
330
165D
102
}
330
165D
100
AcDbScale
 70
     0
300
1:50
140
1.0
141
50.0
290
     0
  0
SCALE
  5
1669
102
{ACAD_REACTORS
330
165D
102
}
330
165D
100
AcDbScale
 70
     0
300
1:100
140
1.0
141
100.0
290
     0
  0
SCALE
  5
166A
102
{ACAD_REACTORS
330
165D
102
}
330
165D
100
AcDbScale
 70
     0
300
2:1
140
2.0
141
1.0
290
     0
  0
SCALE
  5
166B
102
{ACAD_REACTORS
330
165D
102
}
330
165D
100
AcDbScale
 70
     0
300
4:1
140
4.0
141
1.0
290
     0
  0
SCALE
  5
166C
102
{ACAD_REACTORS
330
165D
102
}
330
165D
100
AcDbScale
 70
     0
300
8:1
140
8.0
141
1.0
290
     0
  0
SCALE
  5
166D
102
{ACAD_REACTORS
330
165D
102
}
330
165D
100
AcDbScale
 70
     0
300
10:1
140
10.0
141
1.0
290
     0
  0
SCALE
  5
166E
102
{ACAD_REACTORS
330
165D
102
}
330
165D
100
AcDbScale
 70
     0
300
100:1
140
100.0
141
1.0
290
     0
  0
SCALE
  5
166F
102
{ACAD_REACTORS
330
165D
102
}
330
165D
100
AcDbScale
 70
     0
300
1/128" = 1'-0"
140
0.0078125
141
12.0
290
     0
  0
SCALE
  5
1670
102
{ACAD_REACTORS
330
165D
102
}
330
165D
100
AcDbScale
 70
     0
300
1/64" = 1'-0"
140
0.015625
141
12.0
290
     0
  0
SCALE
  5
1671
102
{ACAD_REACTORS
330
165D
102
}
330
165D
100
AcDbScale
 70
     0
300
1/32" = 1'-0"
140
0.03125
141
12.0
290
     0
  0
SCALE
  5
1672
102
{ACAD_REACTORS
330
165D
102
}
330
165D
100
AcDbScale
 70
     0
300
1/16" = 1'-0"
140
0.0625
141
12.0
290
     0
  0
SCALE
  5
1673
102
{ACAD_REACTORS
330
165D
102
}
330
165D
100
AcDbScale
 70
     0
300
3/32" = 1'-0"
140
0.09375
141
12.0
290
     0
  0
SCALE
  5
1674
102
{ACAD_REACTORS
330
165D
102
}
330
165D
100
AcDbScale
 70
     0
300
1/8" = 1'-0"
140
0.125
141
12.0
290
     0
  0
SCALE
  5
1675
102
{ACAD_REACTORS
330
165D
102
}
330
165D
100
AcDbScale
 70
     0
300
3/16" = 1'-0"
140
0.1875
141
12.0
290
     0
  0
SCALE
  5
1676
102
{ACAD_REACTORS
330
165D
102
}
330
165D
100
AcDbScale
 70
     0
300
1/4" = 1'-0"
140
0.25
141
12.0
290
     0
  0
SCALE
  5
1677
102
{ACAD_REACTORS
330
165D
102
}
330
165D
100
AcDbScale
 70
     0
300
3/8" = 1'-0"
140
0.375
141
12.0
290
     0
  0
SCALE
  5
1678
102
{ACAD_REACTORS
330
165D
102
}
330
165D
100
AcDbScale
 70
     0
300
1/2" = 1'-0"
140
0.5
141
12.0
290
     0
  0
SCALE
  5
1679
102
{ACAD_REACTORS
330
165D
102
}
330
165D
100
AcDbScale
 70
     0
300
3/4" = 1'-0"
140
0.75
141
12.0
290
     0
  0
SCALE
  5
167A
102
{ACAD_REACTORS
330
165D
102
}
330
165D
100
AcDbScale
 70
     0
300
1" = 1'-0"
140
1.0
141
12.0
290
     0
  0
SCALE
  5
167B
102
{ACAD_REACTORS
330
165D
102
}
330
165D
100
AcDbScale
 70
     0
300
1-1/2" = 1'-0"
140
1.5
141
12.0
290
     0
  0
SCALE
  5
167C
102
{ACAD_REACTORS
330
165D
102
}
330
165D
100
AcDbScale
 70
     0
300
3" = 1'-0"
140
3.0
141
12.0
290
     0
  0
SCALE
  5
167D
102
{ACAD_REACTORS
330
165D
102
}
330
165D
100
AcDbScale
 70
     0
300
6" = 1'-0"
140
6.0
141
12.0
290
     0
  0
SCALE
  5
167E
102
{ACAD_REACTORS
330
165D
102
}
330
165D
100
AcDbScale
 70
     0
300
1'-0" = 1'-0"
140
12.0
141
12.0
290
     0
  0
ACDBSECTIONVIEWSTYLE
  5
1713
102
{ACAD_XDICTIONARY
360
19DC
102
}
102
{ACAD_REACTORS
330
1712
102
}
330
1712
100
AcDbModelDocViewStyle
 70
     0
  3
Imperial24
290
     0
100
AcDbSectionViewStyle
 70
     0
 71
     0
 90
       78
 71
     1
340
16
 40
0.24
340
0
340
0
 40
0.24
300
I, O, Q, S, X, Z
 40
0.48
 90
        3
 40
0.18
 90
        1
 71
     2
340
8
 90
       25
340
8
 90
       50
 40
0.24
 40
0.0
 40
0.24
 71
     3
340
16
 40
0.24
 90
        1
 40
0.75
 90
        1
300
%<\AcVar ViewType \f "%tc1">% %<\AcVar ViewSectionStartId>%-%<\AcVar ViewSectionEndId>%\PSCALE %<\AcVar ViewScale \f "%sn">%
 71
     4
300
ANSI31
 40
1.0
 90
        0
290
     0
290
     0
 90
        6
 40
0.0
 40
1.5707963268
 40
0.2617993878
 40
1.308996939
 40
-0.2617993878
 40
1.8325957146
  0
TABLESTYLE
  5
165C
102
{ACAD_XDICTIONARY
360
1697
102
}
102
{ACAD_REACTORS
330
165B
102
}
330
165B
100
AcDbTableStyle
  3
Standard
 70
     0
 71
     0
 40
0.06
 41
0.06
280
     0
281
     0
  7
STANDARD
140
0.18
170
     2
 62
     0
 63
     7
283
     0
274
    -2
284
     1
 64
     0
275
    -2
285
     1
 65
     0
276
    -2
286
     1
 66
     0
277
    -2
287
     1
 67
     0
278
    -2
288
     1
 68
     0
279
    -2
289
     1
 69
     0
  7
STANDARD
140
0.25
170
     5
 62
     0
 63
     7
283
     0
274
    -2
284
     1
 64
     0
275
    -2
285
     1
 65
     0
276
    -2
286
     1
 66
     0
277
    -2
287
     1
 67
     0
278
    -2
288
     1
 68
     0
279
    -2
289
     1
 69
     0
  7
STANDARD
140
0.18
170
     5
 62
     0
 63
     7
283
     0
274
    -2
284
     1
 64
     0
275
    -2
285
     1
 65
     0
276
    -2
286
     1
 66
     0
277
    -2
287
     1
 67
     0
278
    -2
288
     1
 68
     0
279
    -2
289
     1
 69
     0
  0
VISUALSTYLE
  5
164F
102
{ACAD_XDICTIONARY
360
19B1
102
}
102
{ACAD_REACTORS
330
1649
102
}
330
1649
100
AcDbVisualStyle
  2
2dWireframe
 70
     4
 71
     0
 72
     2
 73
     0
 90
        0
 40
-0.6
 41
-30.0
 62
     5
 63
     7
 74
     1
 91
        4
 64
     7
 65
   257
 75
     1
175
     1
 42
1.0
 92
        0
 66
   257
 43
1.0
 76
     1
 77
     6
 78
     2
 67
     7
 79
     5
170
     0
171
     0
290
     0
174
     0
 93
        1
 44
0.0
173
     0
291
     0
 45
0.0
1001
ACAD
1000
AcDbSavedByObjectVersion
1070
     0
  0
VISUALSTYLE
  5
1651
102
{ACAD_XDICTIONARY
360
19B5
102
}
102
{ACAD_REACTORS
330
1649
102
}
330
1649
100
AcDbVisualStyle
  2
3D Hidden
 70
     6
 71
     1
 72
     2
 73
     2
 90
        0
 40
-0.6
 41
-30.0
 62
     5
 63
     7
 74
     2
 91
        2
 64
     7
 65
   257
 75
     2
175
     1
 42
40.0
 92
        0
 66
   257
 43
1.0
 76
     1
 77
     6
 78
     2
 67
     7
 79
     3
170
     0
171
     0
290
     0
174
     0
 93
        1
 44
0.0
173
     0
291
     0
 45
0.0
1001
ACAD
1000
AcDbSavedByObjectVersion
1070
     0
  0
VISUALSTYLE
  5
1650
102
{ACAD_XDICTIONARY
360
19B3
102
}
102
{ACAD_REACTORS
330
1649
102
}
330
1649
100
AcDbVisualStyle
  2
3dWireframe
 70
     5
 71
     0
 72
     2
 73
     0
 90
        0
 40
-0.6
 41
-30.0
 62
     5
 63
     7
 74
     1
 91
        4
 64
     7
 65
   257
 75
     1
175
     1
 42
1.0
 92
        0
 66
   257
 43
1.0
 76
     1
 77
     6
 78
     2
 67
     7
 79
     5
170
     0
171
     0
290
     0
174
     0
 93
        1
 44
0.0
173
     0
291
     0
 45
0.0
1001
ACAD
1000
AcDbSavedByObjectVersion
1070
     0
  0
VISUALSTYLE
  5
164E
102
{ACAD_XDICTIONARY
360
19AF
102
}
102
{ACAD_REACTORS
330
1649
102
}
330
1649
100
AcDbVisualStyle
  2
Basic
 70
     7
 71
     1
 72
     0
 73
     1
 90
        0
 40
-0.6
 41
-30.0
 62
     5
 63
     7
 74
     0
 91
        4
 64
     7
 65
   257
 75
     1
175
     1
 42
1.0
 92
        8
 66
     7
 43
1.0
 76
     1
 77
     6
 78
     2
 67
     7
 79
     5
170
     0
171
     0
290
     0
174
     0
 93
        1
 44
0.0
173
     0
291
     1
 45
0.0
1001
ACAD
1000
AcDbSavedByObjectVersion
1070
     0
  0
VISUALSTYLE
  5
1655
102
{ACAD_XDICTIONARY
360
19BD
102
}
102
{ACAD_REACTORS
330
1649
102
}
330
1649
100
AcDbVisualStyle
  2
Brighten
 70
    12
 71
     2
 72
     2
 73
     0
 90
        0
 40
-0.6
 41
-30.0
 62
     5
 63
     7
 74
     1
 91
        4
 64
     7
 65
   257
 75
     1
175
     1
 42
1.0
 92
        8
 66
     7
 43
1.0
 76
     1
 77
     6
 78
     2
 67
     7
 79
     5
170
     0
171
     0
290
     0
174
     0
 93
        1
 44
50.0
173
     0
291
     1
 45
0.0
1001
ACAD
1000
AcDbSavedByObjectVersion
1070
     0
  0
VISUALSTYLE
  5
1659
102
{ACAD_XDICTIONARY
360
19C5
102
}
102
{ACAD_REACTORS
330
1649
102
}
330
1649
100
AcDbVisualStyle
  2
ColorChange
 70
    16
 71
     2
 72
     2
 73
     3
 90
        0
 40
-0.6
 41
-30.0
 62
     5
 63
     8
 74
     1
 91
        4
 64
     7
 65
   257
 75
     1
175
     1
 42
1.0
 92
        8
 66
     8
 43
1.0
 76
     1
 77
     6
 78
     2
 67
     7
 79
     5
170
     0
171
     0
290
     0
174
     0
 93
        1
 44
0.0
173
     0
291
     1
 45
0.0
1001
ACAD
1000
AcDbSavedByObjectVersion
1070
     0
  0
VISUALSTYLE
  5
1652
102
{ACAD_XDICTIONARY
360
19B7
102
}
102
{ACAD_REACTORS
330
1649
102
}
330
1649
100
AcDbVisualStyle
  2
Conceptual
 70
     9
 71
     3
 72
     2
 73
     0
 90
        0
 40
-0.6
 41
-30.0
 62
     5
 63
     7
 74
     2
 91
        2
 64
     7
 65
   257
 75
     1
175
     1
 42
40.0
 92
        8
 66
     7
 43
1.0
 76
     1
 77
     6
 78
     2
 67
     7
 79
     3
170
     0
171
     0
290
     0
174
     0
 93
        1
 44
0.0
173
     0
291
     0
 45
0.0
1001
ACAD
1000
AcDbSavedByObjectVersion
1070
     0
  0
VISUALSTYLE
  5
1654
102
{ACAD_XDICTIONARY
360
19BB
102
}
102
{ACAD_REACTORS
330
1649
102
}
330
1649
100
AcDbVisualStyle
  2
Dim
 70
    11
 71
     2
 72
     2
 73
     0
 90
        0
 40
-0.6
 41
-30.0
 62
     5
 63
     7
 74
     1
 91
        4
 64
     7
 65
   257
 75
     1
175
     1
 42
1.0
 92
        8
 66
     7
 43
1.0
 76
     1
 77
     6
 78
     2
 67
     7
 79
     5
170
     0
171
     0
290
     0
174
     0
 93
        1
 44
-50.0
173
     0
291
     1
 45
0.0
1001
ACAD
1000
AcDbSavedByObjectVersion
1070
     0
  0
VISUALSTYLE
  5
1711
102
{ACAD_XDICTIONARY
360
19DA
102
}
102
{ACAD_REACTORS
330
1649
102
}
330
1649
100
AcDbVisualStyle
  2
EdgeColorOff
 70
    22
 71
     2
 72
     2
 73
     0
 90
        0
 40
-0.6
 41
-30.0
 62
     5
 63
     7
 74
     1
 91
        4
 64
     7
 65
   257
 75
     1
175
     1
 42
1.0
 92
        8
 66
     7
 43
1.0
 76
     1
 77
     6
 78
     2
 67
     7
 79
     5
170
     0
171
     0
290
     0
174
     0
 93
        1
 44
0.0
173
     0
291
     1
 45
0.0
1001
ACAD
1000
AcDbSavedByObjectVersion
1070
     0
  0
VISUALSTYLE
  5
1658
102
{ACAD_XDICTIONARY
360
19C3
102
}
102
{ACAD_REACTORS
330
1649
102
}
330
1649
100
AcDbVisualStyle
  2
Facepattern
 70
    15
 71
     2
 72
     2
 73
     0
 90
        0
 40
-0.6
 41
-30.0
 62
     5
 63
     7
 74
     1
 91
        4
 64
     7
 65
   257
 75
     1
175
     1
 42
1.0
 92
        8
 66
     7
 43
1.0
 76
     1
 77
     6
 78
     2
 67
     7
 79
     5
170
     0
171
     0
290
     0
174
     0
 93
        1
 44
0.0
173
     0
291
     1
 45
0.0
1001
ACAD
1000
AcDbSavedByObjectVersion
1070
     0
  0
VISUALSTYLE
  5
164A
102
{ACAD_XDICTIONARY
360
19A7
102
}
102
{ACAD_REACTORS
330
1649
102
}
330
1649
100
AcDbVisualStyle
  2
Flat
 70
     0
 71
     2
 72
     1
 73
     1
 90
        2
 40
-0.6
 41
30.0
 62
     5
 63
     7
 74
     0
 91
        4
 64
     7
 65
   257
 75
     1
175
     1
 42
1.0
 92
        8
 66
     7
 43
1.0
 76
     1
 77
     6
 78
     2
 67
     7
 79
     5
170
     0
171
     0
290
     0
174
     0
 93
       13
 44
0.0
173
     0
291
     1
 45
0.0
1001
ACAD
1000
AcDbSavedByObjectVersion
1070
     0
  0
VISUALSTYLE
  5
164B
102
{ACAD_XDICTIONARY
360
19A9
102
}
102
{ACAD_REACTORS
330
1649
102
}
330
1649
100
AcDbVisualStyle
  2
FlatWithEdges
 70
     1
 71
     2
 72
     1
 73
     1
 90
        2
 40
-0.6
 41
30.0
 62
     5
 63
     7
 74
     1
 91
        4
 64
     7
 65
   257
 75
     1
175
     1
 42
1.0
 92
        0
 66
   257
 43
1.0
 76
     1
 77
     6
 78
     2
 67
     7
 79
     5
170
     0
171
     0
290
     0
174
     0
 93
       13
 44
0.0
173
     0
291
     1
 45
0.0
1001
ACAD
1000
AcDbSavedByObjectVersion
1070
     0
  0
VISUALSTYLE
  5
164C
102
{ACAD_XDICTIONARY
360
19AB
102
}
102
{ACAD_REACTORS
330
1649
102
}
330
1649
100
AcDbVisualStyle
  2
Gouraud
 70
     2
 71
     2
 72
     2
 73
     1
 90
        2
 40
-0.6
 41
30.0
 62
     5
 63
     7
 74
     0
 91
        4
 64
     7
 65
   257
 75
     1
175
     1
 42
1.0
 92
        0
 66
     7
 43
1.0
 76
     1
 77
     6
 78
     2
 67
     7
 79
     5
170
     0
171
     0
290
     0
174
     0
 93
       13
 44
0.0
173
     0
291
     1
 45
0.0
1001
ACAD
1000
AcDbSavedByObjectVersion
1070
     0
  0
VISUALSTYLE
  5
164D
102
{ACAD_XDICTIONARY
360
19AD
102
}
102
{ACAD_REACTORS
330
1649
102
}
330
1649
100
AcDbVisualStyle
  2
GouraudWithEdges
 70
     3
 71
     2
 72
     2
 73
     1
 90
        2
 40
-0.6
 41
30.0
 62
     5
 63
     7
 74
     1
 91
        4
 64
     7
 65
   257
 75
     1
175
     1
 42
1.0
 92
        0
 66
   257
 43
1.0
 76
     1
 77
     6
 78
     2
 67
     7
 79
     5
170
     0
171
     0
290
     0
174
     0
 93
       13
 44
0.0
173
     0
291
     1
 45
0.0
1001
ACAD
1000
AcDbSavedByObjectVersion
1070
     0
  0
VISUALSTYLE
  5
1709
102
{ACAD_XDICTIONARY
360
19CA
102
}
102
{ACAD_REACTORS
330
1649
102
}
330
1649
100
AcDbVisualStyle
  2
Hidden
 70
     6
 71
     1
 72
     2
 73
     2
 90
        0
 40
-0.6
 41
-30.0
 62
     5
 63
     7
 74
     2
 91
        2
 64
     7
 65
   257
 75
     2
175
     1
 42
40.0
 92
        0
 66
   257
 43
1.0
 76
     1
 77
     6
 78
     2
 67
     7
 79
     3
170
     0
171
     0
290
     0
174
     0
 93
        1
 44
0.0
173
     0
291
     0
 45
0.0
1001
ACAD
1000
AcDbSavedByObjectVersion
1070
     0
  0
VISUALSTYLE
  5
170F
102
{ACAD_XDICTIONARY
360
19D6
102
}
102
{ACAD_REACTORS
330
1649
102
}
330
1649
100
AcDbVisualStyle
  2
JitterOff
 70
    20
 71
     2
 72
     2
 73
     0
 90
        0
 40
-0.6
 41
-30.0
 62
     5
 63
     7
 74
     1
 91
        4
 64
     7
 65
   257
 75
     1
175
     1
 42
1.0
 92
       10
 66
     7
 43
1.0
 76
     1
 77
     6
 78
     2
 67
     7
 79
     5
170
     0
171
     0
290
     0
174
     0
 93
        1
 44
0.0
173
     0
291
     1
 45
0.0
1001
ACAD
1000
AcDbSavedByObjectVersion
1070
     0
  0
VISUALSTYLE
  5
1657
102
{ACAD_XDICTIONARY
360
19C1
102
}
102
{ACAD_REACTORS
330
1649
102
}
330
1649
100
AcDbVisualStyle
  2
Linepattern
 70
    14
 71
     2
 72
     2
 73
     0
 90
        0
 40
-0.6
 41
-30.0
 62
     5
 63
     7
 74
     1
 91
        4
 64
     7
 65
   257
 75
     7
175
     7
 42
1.0
 92
        8
 66
     7
 43
1.0
 76
     1
 77
     6
 78
     2
 67
     7
 79
     5
170
     0
171
     0
290
     0
174
     0
 93
        1
 44
0.0
173
     0
291
     1
 45
0.0
1001
ACAD
1000
AcDbSavedByObjectVersion
1070
     0
  0
VISUALSTYLE
  5
1710
102
{ACAD_XDICTIONARY
360
19D8
102
}
102
{ACAD_REACTORS
330
1649
102
}
330
1649
100
AcDbVisualStyle
  2
OverhangOff
 70
    21
 71
     2
 72
     2
 73
     0
 90
        0
 40
-0.6
 41
-30.0
 62
     5
 63
     7
 74
     1
 91
        4
 64
     7
 65
   257
 75
     1
175
     1
 42
1.0
 92
        9
 66
     7
 43
1.0
 76
     1
 77
     6
 78
     2
 67
     7
 79
     5
170
     0
171
     0
290
     0
174
     0
 93
        1
 44
0.0
173
     0
291
     1
 45
0.0
1001
ACAD
1000
AcDbSavedByObjectVersion
1070
     0
  0
VISUALSTYLE
  5
1653
102
{ACAD_XDICTIONARY
360
19B9
102
}
102
{ACAD_REACTORS
330
1649
102
}
330
1649
100
AcDbVisualStyle
  2
Realistic
 70
     8
 71
     2
 72
     2
 73
     0
 90
        0
 40
-0.6
 41
-30.0
 62
     5
 63
     7
 74
     1
 91
        0
 64
     7
 65
   257
 75
     1
175
     1
 42
1.0
 92
        8
 66
     8
 43
1.0
 76
     1
 77
     6
 78
     2
 67
     7
 79
     5
170
     0
171
     0
290
     0
174
     0
 93
       13
 44
0.0
173
     0
291
     0
 45
0.0
1001
ACAD
1000
AcDbSavedByObjectVersion
1070
     0
  0
VISUALSTYLE
  5
170E
102
{ACAD_XDICTIONARY
360
19D4
102
}
102
{ACAD_REACTORS
330
1649
102
}
330
1649
100
AcDbVisualStyle
  2
Shaded
 70
    27
 71
     2
 72
     2
 73
     1
 90
        2
 40
-0.6
 41
30.0
 62
     5
 63
     7
 74
     0
 91
        4
 64
     7
 65
   257
 75
     1
175
     1
 42
1.0
 92
        8
 66
   257
 43
1.0
 76
     1
 77
     6
 78
     2
 67
     8
 79
     3
170
     0
171
     0
290
     0
174
     0
 93
        5
 44
0.0
173
     0
291
     0
 45
0.0
1001
ACAD
1000
AcDbSavedByObjectVersion
1070
     0
  0
VISUALSTYLE
  5
170D
102
{ACAD_XDICTIONARY
360
19D2
102
}
102
{ACAD_REACTORS
330
1649
102
}
330
1649
100
AcDbVisualStyle
  2
Shaded with edges
 70
    26
 71
     2
 72
     2
 73
     1
 90
        2
 40
-0.6
 41
30.0
 62
     5
 63
     7
 74
     1
 91
        2
 64
     7
 65
   257
 75
     2
175
     1
 42
1.0
 92
        8
 66
   257
 43
1.0
 76
     1
 77
     6
 78
     2
 67
     7
 79
     3
170
     0
171
     0
290
     0
174
     0
 93
        5
 44
0.0
173
     0
291
     0
 45
0.0
1001
ACAD
1000
AcDbSavedByObjectVersion
1070
     0
  0
VISUALSTYLE
  5
170A
102
{ACAD_XDICTIONARY
360
19CC
102
}
102
{ACAD_REACTORS
330
1649
102
}
330
1649
100
AcDbVisualStyle
  2
Shades of Gray
 70
    23
 71
     2
 72
     2
 73
     3
 90
        0
 40
-0.6
 41
-30.0
 62
     5
 63
     7
 74
     2
 91
        2
 64
     7
 65
     7
 75
     1
175
     1
 42
40.0
 92
        8
 66
     7
 43
1.0
 76
     1
 77
     6
 78
     2
 67
     7
 79
     3
170
     0
171
     0
290
     0
174
     0
 93
        1
 44
0.0
173
     0
291
     0
 45
0.0
1001
ACAD
1000
AcDbSavedByObjectVersion
1070
     0
  0
VISUALSTYLE
  5
170B
102
{ACAD_XDICTIONARY
360
19CE
102
}
102
{ACAD_REACTORS
330
1649
102
}
330
1649
100
AcDbVisualStyle
  2
Sketchy
 70
    24
 71
     1
 72
     2
 73
     2
 90
        0
 40
-0.6
 41
-30.0
 62
     5
 63
     7
 74
     2
 91
        2
 64
     7
 65
     7
 75
     1
175
     1
 42
40.0
 92
       11
 66
     7
 43
1.0
 76
     1
 77
     6
 78
     2
 67
     7
 79
     6
170
     0
171
     0
290
     0
174
     0
 93
        1
 44
0.0
173
     0
291
     0
 45
0.0
1001
ACAD
1000
AcDbSavedByObjectVersion
1070
     0
  0
VISUALSTYLE
  5
1656
102
{ACAD_XDICTIONARY
360
19BF
102
}
102
{ACAD_REACTORS
330
1649
102
}
330
1649
100
AcDbVisualStyle
  2
Thicken
 70
    13
 71
     2
 72
     2
 73
     0
 90
        0
 40
-0.6
 41
-30.0
 62
     5
 63
     7
 74
     1
 91
        4
 64
     7
 65
   257
 75
     1
175
     1
 42
1.0
 92
       12
 66
     7
 43
1.0
 76
     1
 77
     6
 78
     2
 67
     7
 79
     5
170
     0
171
     0
290
     0
174
     0
 93
        1
 44
0.0
173
     0
291
     1
 45
0.0
1001
ACAD
1000
AcDbSavedByObjectVersion
1070
     0
  0
VISUALSTYLE
  5
1708
102
{ACAD_XDICTIONARY
360
19C8
102
}
102
{ACAD_REACTORS
330
1649
102
}
330
1649
100
AcDbVisualStyle
  2
Wireframe
 70
     5
 71
     0
 72
     2
 73
     0
 90
        0
 40
-0.6
 41
-30.0
 62
     5
 63
     7
 74
     1
 91
        4
 64
     7
 65
   257
 75
     1
175
     1
 42
1.0
 92
        0
 66
   257
 43
1.0
 76
     1
 77
     6
 78
     2
 67
     7
 79
     3
170
     0
171
     0
290
     0
174
     0
 93
        1
 44
0.0
173
     0
291
     0
 45
0.0
1001
ACAD
1000
AcDbSavedByObjectVersion
1070
     0
  0
VISUALSTYLE
  5
170C
102
{ACAD_XDICTIONARY
360
19D0
102
}
102
{ACAD_REACTORS
330
1649
102
}
330
1649
100
AcDbVisualStyle
  2
X-Ray
 70
    25
 71
     2
 72
     2
 73
     1
 90
        1
 40
0.5
 41
-30.0
 62
     5
 63
     7
 74
     1
 91
        0
 64
     7
 65
   257
 75
     1
175
     1
 42
1.0
 92
        8
 66
     7
 43
1.0
 76
     1
 77
     6
 78
     2
 67
     7
 79
     3
170
     0
171
     0
290
     0
174
     0
 93
       13
 44
0.0
173
     0
291
     0
 45
0.0
1001
ACAD
1000
AcDbSavedByObjectVersion
1070
     0
  0
DICTIONARYVAR
  5
1696
102
{ACAD_REACTORS
330
102
102
}
330
102
100
DictionaryVariables
280
     0
  1
1:1
  0
DICTIONARYVAR
  5
1695
102
{ACAD_REACTORS
330
102
102
}
330
102
100
DictionaryVariables
280
     0
  1
STANDARD
  0
DICTIONARYVAR
  5
1694
102
{ACAD_REACTORS
330
102
102
}
330
102
100
DictionaryVariables
280
     0
  1
STANDARD
  0
DICTIONARYVAR
  5
1774
102
{ACAD_REACTORS
330
102
102
}
330
102
100
DictionaryVariables
280
     0
  1
Imperial24
  0
DICTIONARYVAR
  5
1775
102
{ACAD_REACTORS
330
102
102
}
330
102
100
DictionaryVariables
280
     0
  1
Imperial24
  0
DICTIONARYVAR
  5
103
102
{ACAD_REACTORS
330
102
102
}
330
102
100
DictionaryVariables
280
     0
  1
1
  0
DICTIONARYVAR
  5
16CF
102
{ACAD_REACTORS
330
102
102
}
330
102
100
DictionaryVariables
280
     0
  1
0
  0
DICTIONARYVAR
  5
16CE
102
{ACAD_REACTORS
330
102
102
}
330
102
100
DictionaryVariables
280
     0
  1
127
  0
DICTIONARYVAR
  5
198E
102
{ACAD_REACTORS
330
102
102
}
330
102
100
DictionaryVariables
280
     0
  1
2
  0
DICTIONARY
  5
19DE
330
1715
100
AcDbDictionary
280
     1
281
     1
  3
ACAD_XREC_ROUNDTRIP
360
19DF
  0
DICTIONARY
  5
1992
330
60
100
AcDbDictionary
280
     1
281
     1
  3
ACAD_XREC_ROUNDTRIP
360
1993
  0
DICTIONARY
  5
19E0
330
198A
100
AcDbDictionary
280
     1
281
     1
  3
ACAD_XREC_ROUNDTRIP
360
19E1
  0
DICTIONARY
  5
163A
330
1639
100
AcDbDictionary
280
     1
281
     1
  3
ACAD_XREC_ROUNDTRIP
360
19A5
  3
BUMPTILE
360
163C
  3
DIFFUSETILE
360
163B
  3
OPACITYTILE
360
163F
  3
REFLECTIONTILE
360
163E
  3
REFRACTIONTILE
360
1640
  3
SPECULARTILE
360
163D
  0
DICTIONARY
  5
1632
330
1631
100
AcDbDictionary
280
     1
281
     1
  3
ACAD_XREC_ROUNDTRIP
360
19A4
  3
BUMPTILE
360
1634
  3
DIFFUSETILE
360
1633
  3
OPACITYTILE
360
1637
  3
REFLECTIONTILE
360
1636
  3
REFRACTIONTILE
360
1638
  3
SPECULARTILE
360
1635
  0
DICTIONARY
  5
1642
330
1641
100
AcDbDictionary
280
     1
281
     1
  3
ACAD_XREC_ROUNDTRIP
360
19A6
  3
BUMPTILE
360
1644
  3
DIFFUSETILE
360
1643
  3
OPACITYTILE
360
1647
  3
REFLECTIONTILE
360
1646
  3
REFRACTIONTILE
360
1648
  3
SPECULARTILE
360
1645
  0
DICTIONARY
  5
19DC
330
1713
100
AcDbDictionary
280
     1
281
     1
  3
ACAD_XREC_ROUNDTRIP
360
19DD
  0
DICTIONARY
  5
1697
330
165C
100
AcDbDictionary
280
     1
281
     1
  3
ACAD_ROUNDTRIP_2008_TABLESTYLE_CELLSTYLEMAP
360
198F
  3
ACAD_XREC_ROUNDTRIP
360
19C7
  0
DICTIONARY
  5
19B1
330
164F
100
AcDbDictionary
280
     1
281
     1
  3
ACAD_XREC_ROUNDTRIP
360
19B2
  0
DICTIONARY
  5
19B5
330
1651
100
AcDbDictionary
280
     1
281
     1
  3
ACAD_XREC_ROUNDTRIP
360
19B6
  0
DICTIONARY
  5
19B3
330
1650
100
AcDbDictionary
280
     1
281
     1
  3
ACAD_XREC_ROUNDTRIP
360
19B4
  0
DICTIONARY
  5
19AF
330
164E
100
AcDbDictionary
280
     1
281
     1
  3
ACAD_XREC_ROUNDTRIP
360
19B0
  0
DICTIONARY
  5
19BD
330
1655
100
AcDbDictionary
280
     1
281
     1
  3
ACAD_XREC_ROUNDTRIP
360
19BE
  0
DICTIONARY
  5
19C5
330
1659
100
AcDbDictionary
280
     1
281
     1
  3
ACAD_XREC_ROUNDTRIP
360
19C6
  0
DICTIONARY
  5
19B7
330
1652
100
AcDbDictionary
280
     1
281
     1
  3
ACAD_XREC_ROUNDTRIP
360
19B8
  0
DICTIONARY
  5
19BB
330
1654
100
AcDbDictionary
280
     1
281
     1
  3
ACAD_XREC_ROUNDTRIP
360
19BC
  0
DICTIONARY
  5
19DA
330
1711
100
AcDbDictionary
280
     1
281
     1
  3
ACAD_XREC_ROUNDTRIP
360
19DB
  0
DICTIONARY
  5
19C3
330
1658
100
AcDbDictionary
280
     1
281
     1
  3
ACAD_XREC_ROUNDTRIP
360
19C4
  0
DICTIONARY
  5
19A7
330
164A
100
AcDbDictionary
280
     1
281
     1
  3
ACAD_XREC_ROUNDTRIP
360
19A8
  0
DICTIONARY
  5
19A9
330
164B
100
AcDbDictionary
280
     1
281
     1
  3
ACAD_XREC_ROUNDTRIP
360
19AA
  0
DICTIONARY
  5
19AB
330
164C
100
AcDbDictionary
280
     1
281
     1
  3
ACAD_XREC_ROUNDTRIP
360
19AC
  0
DICTIONARY
  5
19AD
330
164D
100
AcDbDictionary
280
     1
281
     1
  3
ACAD_XREC_ROUNDTRIP
360
19AE
  0
DICTIONARY
  5
19CA
330
1709
100
AcDbDictionary
280
     1
281
     1
  3
ACAD_XREC_ROUNDTRIP
360
19CB
  0
DICTIONARY
  5
19D6
330
170F
100
AcDbDictionary
280
     1
281
     1
  3
ACAD_XREC_ROUNDTRIP
360
19D7
  0
DICTIONARY
  5
19C1
330
1657
100
AcDbDictionary
280
     1
281
     1
  3
ACAD_XREC_ROUNDTRIP
360
19C2
  0
DICTIONARY
  5
19D8
330
1710
100
AcDbDictionary
280
     1
281
     1
  3
ACAD_XREC_ROUNDTRIP
360
19D9
  0
DICTIONARY
  5
19B9
330
1653
100
AcDbDictionary
280
     1
281
     1
  3
ACAD_XREC_ROUNDTRIP
360
19BA
  0
DICTIONARY
  5
19D4
330
170E
100
AcDbDictionary
280
     1
281
     1
  3
ACAD_XREC_ROUNDTRIP
360
19D5
  0
DICTIONARY
  5
19D2
330
170D
100
AcDbDictionary
280
     1
281
     1
  3
ACAD_XREC_ROUNDTRIP
360
19D3
  0
DICTIONARY
  5
19CC
330
170A
100
AcDbDictionary
280
     1
281
     1
  3
ACAD_XREC_ROUNDTRIP
360
19CD
  0
DICTIONARY
  5
19CE
330
170B
100
AcDbDictionary
280
     1
281
     1
  3
ACAD_XREC_ROUNDTRIP
360
19CF
  0
DICTIONARY
  5
19BF
330
1656
100
AcDbDictionary
280
     1
281
     1
  3
ACAD_XREC_ROUNDTRIP
360
19C0
  0
DICTIONARY
  5
19C8
330
1708
100
AcDbDictionary
280
     1
281
     1
  3
ACAD_XREC_ROUNDTRIP
360
19C9
  0
DICTIONARY
  5
19D0
330
170C
100
AcDbDictionary
280
     1
281
     1
  3
ACAD_XREC_ROUNDTRIP
360
19D1
  0
XRECORD
  5
19DF
102
{ACAD_REACTORS
330
19DE
102
}
330
19DE
100
AcDbXrecord
280
     1
102
DISPLAYNAME
  1
Imperial24
102
FLAGS
 90
        0
  0
XRECORD
  5
1993
102
{ACAD_REACTORS
330
1992
102
}
330
1992
100
AcDbXrecord
280
     1
102
SHADEPLOT
 70
     0
102
SHADEPLOTRESLEVEL
 70
     2
102
SHADEPLOTCUSTOMDPI
 70
   300
  0
XRECORD
  5
19E1
102
{ACAD_REACTORS
330
19E0
102
}
330
19E0
100
AcDbXrecord
280
     1
102
SHADEPLOT
 70
     0
102
SHADEPLOTRESLEVEL
 70
     2
102
SHADEPLOTCUSTOMDPI
 70
   300
  0
XRECORD
  5
19A5
102
{ACAD_REACTORS
330
163A
102
}
330
163A
100
AcDbXrecord
280
     1
102
MATERIAL
148
0.0
149
0.0
149
0.0
 93
        0
 94
      127
282
     0
 72
     0
 77
     0
171
     0
175
     0
179
     0
273
     0
  0
XRECORD
  5
163C
102
{ACAD_REACTORS
330
163A
102
}
330
163A
100
AcDbXrecord
280
     1
270
     1
271
     1
  0
XRECORD
  5
163B
102
{ACAD_REACTORS
330
163A
102
}
330
163A
100
AcDbXrecord
280
     1
270
     1
271
     1
  0
XRECORD
  5
163F
102
{ACAD_REACTORS
330
163A
102
}
330
163A
100
AcDbXrecord
280
     1
270
     1
271
     1
  0
XRECORD
  5
163E
102
{ACAD_REACTORS
330
163A
102
}
330
163A
100
AcDbXrecord
280
     1
270
     1
271
     1
  0
XRECORD
  5
1640
102
{ACAD_REACTORS
330
163A
102
}
330
163A
100
AcDbXrecord
280
     1
270
     1
271
     1
  0
XRECORD
  5
163D
102
{ACAD_REACTORS
330
163A
102
}
330
163A
100
AcDbXrecord
280
     1
270
     1
271
     1
  0
XRECORD
  5
19A4
102
{ACAD_REACTORS
330
1632
102
}
330
1632
100
AcDbXrecord
280
     1
102
MATERIAL
148
0.0
149
0.0
149
0.0
 93
        0
 94
      127
282
     0
 72
     0
 77
     0
171
     0
175
     0
179
     0
273
     0
  0
XRECORD
  5
1634
102
{ACAD_REACTORS
330
1632
102
}
330
1632
100
AcDbXrecord
280
     1
270
     1
271
     1
  0
XRECORD
  5
1633
102
{ACAD_REACTORS
330
1632
102
}
330
1632
100
AcDbXrecord
280
     1
270
     1
271
     1
  0
XRECORD
  5
1637
102
{ACAD_REACTORS
330
1632
102
}
330
1632
100
AcDbXrecord
280
     1
270
     1
271
     1
  0
XRECORD
  5
1636
102
{ACAD_REACTORS
330
1632
102
}
330
1632
100
AcDbXrecord
280
     1
270
     1
271
     1
  0
XRECORD
  5
1638
102
{ACAD_REACTORS
330
1632
102
}
330
1632
100
AcDbXrecord
280
     1
270
     1
271
     1
  0
XRECORD
  5
1635
102
{ACAD_REACTORS
330
1632
102
}
330
1632
100
AcDbXrecord
280
     1
270
     1
271
     1
  0
XRECORD
  5
19A6
102
{ACAD_REACTORS
330
1642
102
}
330
1642
100
AcDbXrecord
280
     1
102
MATERIAL
148
0.0
149
0.0
149
0.0
 93
        0
 94
      127
282
     0
 72
     0
 77
     0
171
     0
175
     0
179
     0
273
     0
  0
XRECORD
  5
1644
102
{ACAD_REACTORS
330
1642
102
}
330
1642
100
AcDbXrecord
280
     1
270
     1
271
     1
  0
XRECORD
  5
1643
102
{ACAD_REACTORS
330
1642
102
}
330
1642
100
AcDbXrecord
280
     1
270
     1
271
     1
  0
XRECORD
  5
1647
102
{ACAD_REACTORS
330
1642
102
}
330
1642
100
AcDbXrecord
280
     1
270
     1
271
     1
  0
XRECORD
  5
1646
102
{ACAD_REACTORS
330
1642
102
}
330
1642
100
AcDbXrecord
280
     1
270
     1
271
     1
  0
XRECORD
  5
1648
102
{ACAD_REACTORS
330
1642
102
}
330
1642
100
AcDbXrecord
280
     1
270
     1
271
     1
  0
XRECORD
  5
1645
102
{ACAD_REACTORS
330
1642
102
}
330
1642
100
AcDbXrecord
280
     1
270
     1
271
     1
  0
XRECORD
  5
19DD
102
{ACAD_REACTORS
330
19DC
102
}
330
19DC
100
AcDbXrecord
280
     1
102
DISPLAYNAME
  1
Imperial24
102
FLAGS
 90
        0
  0
CELLSTYLEMAP
  5
198F
102
{ACAD_REACTORS
330
1697
102
}
330
1697
100
AcDbCellStyleMap
 90
        3
300
CELLSTYLE
  1
TABLEFORMAT_BEGIN
 90
        5
170
     1
 91
        0
 92
    32768
 62
   257
 93
        1
300
CONTENTFORMAT
  1
CONTENTFORMAT_BEGIN
 90
        0
 91
        0
 92
      512
 93
        0
300

 40
0.0
140
1.0
 94
        5
 62
     0
340
16
144
0.25
309
CONTENTFORMAT_END
171
     1
301
MARGIN
  1
CELLMARGIN_BEGIN
 40
0.06
 40
0.06
 40
0.06
 40
0.06
 40
0.18
 40
0.18
309
CELLMARGIN_END
 94
        6
 95
        1
302
GRIDFORMAT
  1
GRIDFORMAT_BEGIN
 90
        0
 91
        1
 62
     0
 92
       -2
340
0
 93
        0
 40
0.045
309
GRIDFORMAT_END
 95
        2
302
GRIDFORMAT
  1
GRIDFORMAT_BEGIN
 90
        0
 91
        1
 62
     0
 92
       -2
340
0
 93
        0
 40
0.045
309
GRIDFORMAT_END
 95
        4
302
GRIDFORMAT
  1
GRIDFORMAT_BEGIN
 90
        0
 91
        1
 62
     0
 92
       -2
340
0
 93
        0
 40
0.045
309
GRIDFORMAT_END
 95
        8
302
GRIDFORMAT
  1
GRIDFORMAT_BEGIN
 90
        0
 91
        1
 62
     0
 92
       -2
340
0
 93
        0
 40
0.045
309
GRIDFORMAT_END
 95
       16
302
GRIDFORMAT
  1
GRIDFORMAT_BEGIN
 90
        0
 91
        1
 62
     0
 92
       -2
340
0
 93
        0
 40
0.045
309
GRIDFORMAT_END
 95
       32
302
GRIDFORMAT
  1
GRIDFORMAT_BEGIN
 90
        0
 91
        1
 62
     0
 92
       -2
340
0
 93
        0
 40
0.045
309
GRIDFORMAT_END
309
TABLEFORMAT_END
  1
CELLSTYLE_BEGIN
 90
        1
 91
        1
300
_TITLE
309
CELLSTYLE_END
300
CELLSTYLE
  1
TABLEFORMAT_BEGIN
 90
        5
170
     1
 91
        0
 92
        0
 62
   257
 93
        1
300
CONTENTFORMAT
  1
CONTENTFORMAT_BEGIN
 90
        0
 91
        0
 92
      512
 93
        0
300

 40
0.0
140
1.0
 94
        5
 62
     0
340
16
144
0.18
309
CONTENTFORMAT_END
171
     1
301
MARGIN
  1
CELLMARGIN_BEGIN
 40
0.06
 40
0.06
 40
0.06
 40
0.06
 40
0.18
 40
0.18
309
CELLMARGIN_END
 94
        6
 95
        1
302
GRIDFORMAT
  1
GRIDFORMAT_BEGIN
 90
        0
 91
        1
 62
     0
 92
       -2
340
0
 93
        0
 40
0.045
309
GRIDFORMAT_END
 95
        2
302
GRIDFORMAT
  1
GRIDFORMAT_BEGIN
 90
        0
 91
        1
 62
     0
 92
       -2
340
0
 93
        0
 40
0.045
309
GRIDFORMAT_END
 95
        4
302
GRIDFORMAT
  1
GRIDFORMAT_BEGIN
 90
        0
 91
        1
 62
     0
 92
       -2
340
0
 93
        0
 40
0.045
309
GRIDFORMAT_END
 95
        8
302
GRIDFORMAT
  1
GRIDFORMAT_BEGIN
 90
        0
 91
        1
 62
     0
 92
       -2
340
0
 93
        0
 40
0.045
309
GRIDFORMAT_END
 95
       16
302
GRIDFORMAT
  1
GRIDFORMAT_BEGIN
 90
        0
 91
        1
 62
     0
 92
       -2
340
0
 93
        0
 40
0.045
309
GRIDFORMAT_END
 95
       32
302
GRIDFORMAT
  1
GRIDFORMAT_BEGIN
 90
        0
 91
        1
 62
     0
 92
       -2
340
0
 93
        0
 40
0.045
309
GRIDFORMAT_END
309
TABLEFORMAT_END
  1
CELLSTYLE_BEGIN
 90
        2
 91
        1
300
_HEADER
309
CELLSTYLE_END
300
CELLSTYLE
  1
TABLEFORMAT_BEGIN
 90
        5
170
     1
 91
        0
 92
        0
 62
   257
 93
        1
300
CONTENTFORMAT
  1
CONTENTFORMAT_BEGIN
 90
        0
 91
        0
 92
      512
 93
        0
300

 40
0.0
140
1.0
 94
        2
 62
     0
340
16
144
0.18
309
CONTENTFORMAT_END
171
     1
301
MARGIN
  1
CELLMARGIN_BEGIN
 40
0.06
 40
0.06
 40
0.06
 40
0.06
 40
0.18
 40
0.18
309
CELLMARGIN_END
 94
        6
 95
        1
302
GRIDFORMAT
  1
GRIDFORMAT_BEGIN
 90
        0
 91
        1
 62
     0
 92
       -2
340
0
 93
        0
 40
0.045
309
GRIDFORMAT_END
 95
        2
302
GRIDFORMAT
  1
GRIDFORMAT_BEGIN
 90
        0
 91
        1
 62
     0
 92
       -2
340
0
 93
        0
 40
0.045
309
GRIDFORMAT_END
 95
        4
302
GRIDFORMAT
  1
GRIDFORMAT_BEGIN
 90
        0
 91
        1
 62
     0
 92
       -2
340
0
 93
        0
 40
0.045
309
GRIDFORMAT_END
 95
        8
302
GRIDFORMAT
  1
GRIDFORMAT_BEGIN
 90
        0
 91
        1
 62
     0
 92
       -2
340
0
 93
        0
 40
0.045
309
GRIDFORMAT_END
 95
       16
302
GRIDFORMAT
  1
GRIDFORMAT_BEGIN
 90
        0
 91
        1
 62
     0
 92
       -2
340
0
 93
        0
 40
0.045
309
GRIDFORMAT_END
 95
       32
302
GRIDFORMAT
  1
GRIDFORMAT_BEGIN
 90
        0
 91
        1
 62
     0
 92
       -2
340
0
 93
        0
 40
0.045
309
GRIDFORMAT_END
309
TABLEFORMAT_END
  1
CELLSTYLE_BEGIN
 90
        3
 91
        2
300
_DATA
309
CELLSTYLE_END
  0
XRECORD
  5
19C7
102
{ACAD_REACTORS
330
1697
102
}
330
1697
100
AcDbXrecord
280
     1
102
ACAD_ROUNDTRIP_PRE2007_TABLESTYLE
 90
      512
 91
        0
  1

 92
      512
 93
        0
  2

 94
      512
 95
        0
  3

  0
XRECORD
  5
19B2
102
{ACAD_REACTORS
330
19B1
102
}
330
19B1
100
AcDbXrecord
280
     1
102
RTVSPost2010Prop28
280
     1
102
RTVSPost2010PropOp28
 70
     1
102
RTVSPost2010Prop29
280
     1
102
RTVSPost2010PropOp29
 70
     1
102
RTVSPost2010Prop30
280
     0
102
RTVSPost2010PropOp30
 70
     1
102
RTVSPost2010Prop31
280
     0
102
RTVSPost2010PropOp31
 70
     1
102
RTVSPost2010Prop32
280
     0
102
RTVSPost2010PropOp32
 70
     1
102
RTVSPost2010Prop33
280
     0
102
RTVSPost2010PropOp33
 70
     1
102
RTVSPost2010Prop34
280
     0
102
RTVSPost2010PropOp34
 70
     1
102
RTVSPost2010Prop35
280
     0
102
RTVSPost2010PropOp35
 70
     1
102
RTVSPost2010Prop36
280
     0
102
RTVSPost2010PropOp36
 70
     1
102
RTVSPost2010Prop37
 90
       50
102
RTVSPost2010PropOp37
 70
     1
102
RTVSPost2010Prop38
140
0.0
102
RTVSPost2010PropOp38
 70
     1
102
RTVSPost2010Prop39
140
1.0
102
RTVSPost2010PropOp39
 70
     1
102
RTVSPost2010Prop40
 90
        0
102
RTVSPost2010PropOp40
 70
     1
102
RTVSPost2010Prop41ColorIndex
 90
       18
102
RTVSPost2010Prop41ColorRGB
 90
        0
102
RTVSPost2010PropOp41
 70
     1
102
RTVSPost2010Prop42
 90
       50
102
RTVSPost2010PropOp42
 70
     1
102
RTVSPost2010Prop43
 90
        3
102
RTVSPost2010PropOp43
 70
     1
102
RTVSPost2010Prop44ColorIndex
 90
        5
102
RTVSPost2010Prop44ColorRGB
 90
      255
102
RTVSPost2010PropOp44
 70
     1
102
RTVSPost2010Prop45
280
     0
102
RTVSPost2010PropOp45
 70
     1
102
RTVSPost2010Prop46
 90
       50
102
RTVSPost2010PropOp46
 70
     1
102
RTVSPost2010Prop47
 90
       50
102
RTVSPost2010PropOp47
 70
     1
102
RTVSPost2010Prop48
 90
       50
102
RTVSPost2010PropOp48
 70
     1
102
RTVSPost2010Prop49
280
     0
102
RTVSPost2010PropOp49
 70
     1
102
RTVSPost2010Prop50
 90
       50
102
RTVSPost2010PropOp50
 70
     1
102
RTVSPost2010Prop51ColorIndex
 90
      256
102
RTVSPost2010Prop51ColorRGB
 90
-16777216
102
RTVSPost2010PropOp51
 70
     0
102
RTVSPost2010Prop52
140
1.0
102
RTVSPost2010PropOp52
 70
     0
102
RTVSPost2010Prop53
 90
        2
102
RTVSPost2010PropOp53
 70
     1
102
RTVSPost2010Prop54
  1
strokes_ogs.tif
102
RTVSPost2010PropOp54
 70
     1
102
RTVSPost2010Prop55
280
     0
102
RTVSPost2010PropOp55
 70
     1
102
RTVSPost2010Prop56
140
1.0
102
RTVSPost2010PropOp56
 70
     1
102
RTVSPost2010Prop57
140
1.0
102
RTVSPost2010PropOp57
 70
     1
102
RTVSPropertyOp0
 70
     1
102
RTVSPropertyOp1
 70
     1
102
RTVSPropertyOp2
 70
     1
102
RTVSPropertyOp3
 70
     1
102
RTVSPropertyOp4
 70
     1
102
RTVSPropertyOp5
 70
     1
102
RTVSPropertyOp6
 70
     1
102
RTVSPropertyOp7
 70
     1
102
RTVSPropertyOp8
 70
     1
102
RTVSPropertyOp9
 70
     1
102
RTVSPropertyOp10
 70
     1
102
RTVSPropertyOp11
 70
     1
102
RTVSPropertyOp12
 70
     1
102
RTVSPropertyOp13
 70
     1
102
RTVSPropertyOp14
 70
     1
102
RTVSPropertyOp15
 70
     1
102
RTVSPropertyOp16
 70
     1
102
RTVSPropertyOp17
 70
     1
102
RTVSPropertyOp18
 70
     1
102
RTVSPropertyOp19
 70
     1
102
RTVSPropertyOp20
 70
     1
102
RTVSPropertyOp21
 70
     1
102
RTVSPropertyOp22
 70
     1
102
RTVSPropertyOp23
 70
     1
102
RTVSPropertyOp24
 70
     1
102
RTVSPropertyOp25
 70
     1
102
RTVSPropertyOp26
 70
     1
102
RTVSPropertyOp27
 70
     1
102
RTVSPropertyOp28
 70
     1
102
RTVSPropertyOp29
 70
     1
102
RTVSPropertyOp30
 70
     1
102
RTVSPropertyOp31
 70
     1
102
RTVSPropertyOp32
 70
     1
102
RTVSPropertyOp33
 70
     1
102
RTVSPropertyOp34
 70
     1
102
RTVSPropertyOp35
 70
     1
102
RTVSPropertyOp36
 70
     1
102
RTVSPropertyOp37
 70
     1
102
RTVSPropertyOp38
 70
     1
102
RTVSPropertyOp39
 70
     1
102
RTVSPropertyOp40
 70
     1
102
RTVSPropertyOp41
 70
     1
102
RTVSPropertyOp42
 70
     1
102
RTVSPropertyOp43
 70
     1
102
RTVSPropertyOp44
 70
     1
102
RTVSPropertyOp45
 70
     1
102
RTVSPropertyOp46
 70
     1
102
RTVSPropertyOp47
 70
     1
102
RTVSPropertyOp48
 70
     1
102
RTVSPropertyOp49
 70
     1
102
RTVSPropertyOp50
 70
     1
102
RTVSPropertyOp51
 70
     0
102
RTVSPropertyOp52
 70
     0
102
RTVSPropertyOp53
 70
     1
102
RTVSPropertyOp54
 70
     1
102
RTVSPropertyOp55
 70
     1
102
RTVSPropertyOp56
 70
     1
102
RTVSPropertyOp57
 70
     1
102
RTVSPropertyOp58
 70
     1
102
RTVSPropertyOp59
 70
     1
102
RTVSPropertyOp60
 70
     1
102
RTVSPropertyOp61
 70
     1
102
RTVSPropertyOp62
 70
     1
  0
XRECORD
  5
19B6
102
{ACAD_REACTORS
330
19B5
102
}
330
19B5
100
AcDbXrecord
280
     1
102
RTVSPost2010Prop28
280
     0
102
RTVSPost2010PropOp28
 70
     1
102
RTVSPost2010Prop29
280
     1
102
RTVSPost2010PropOp29
 70
     1
102
RTVSPost2010Prop30
280
     1
102
RTVSPost2010PropOp30
 70
     1
102
RTVSPost2010Prop31
280
     0
102
RTVSPost2010PropOp31
 70
     1
102
RTVSPost2010Prop32
280
     0
102
RTVSPost2010PropOp32
 70
     1
102
RTVSPost2010Prop33
280
     0
102
RTVSPost2010PropOp33
 70
     1
102
RTVSPost2010Prop34
280
     0
102
RTVSPost2010PropOp34
 70
     1
102
RTVSPost2010Prop35
280
     0
102
RTVSPost2010PropOp35
 70
     1
102
RTVSPost2010Prop36
280
     0
102
RTVSPost2010PropOp36
 70
     1
102
RTVSPost2010Prop37
 90
       50
102
RTVSPost2010PropOp37
 70
     1
102
RTVSPost2010Prop38
140
0.0
102
RTVSPost2010PropOp38
 70
     1
102
RTVSPost2010Prop39
140
1.0
102
RTVSPost2010PropOp39
 70
     1
102
RTVSPost2010Prop40
 90
        0
102
RTVSPost2010PropOp40
 70
     1
102
RTVSPost2010Prop41ColorIndex
 90
       18
102
RTVSPost2010Prop41ColorRGB
 90
        0
102
RTVSPost2010PropOp41
 70
     1
102
RTVSPost2010Prop42
 90
       50
102
RTVSPost2010PropOp42
 70
     1
102
RTVSPost2010Prop43
 90
        3
102
RTVSPost2010PropOp43
 70
     1
102
RTVSPost2010Prop44ColorIndex
 90
        5
102
RTVSPost2010Prop44ColorRGB
 90
      255
102
RTVSPost2010PropOp44
 70
     1
102
RTVSPost2010Prop45
280
     0
102
RTVSPost2010PropOp45
 70
     1
102
RTVSPost2010Prop46
 90
       50
102
RTVSPost2010PropOp46
 70
     1
102
RTVSPost2010Prop47
 90
       50
102
RTVSPost2010PropOp47
 70
     1
102
RTVSPost2010Prop48
 90
       50
102
RTVSPost2010PropOp48
 70
     1
102
RTVSPost2010Prop49
280
     0
102
RTVSPost2010PropOp49
 70
     1
102
RTVSPost2010Prop50
 90
       50
102
RTVSPost2010PropOp50
 70
     1
102
RTVSPost2010Prop51ColorIndex
 90
      256
102
RTVSPost2010Prop51ColorRGB
 90
-16777216
102
RTVSPost2010PropOp51
 70
     0
102
RTVSPost2010Prop52
140
1.0
102
RTVSPost2010PropOp52
 70
     0
102
RTVSPost2010Prop53
 90
        2
102
RTVSPost2010PropOp53
 70
     1
102
RTVSPost2010Prop54
  1
strokes_ogs.tif
102
RTVSPost2010PropOp54
 70
     1
102
RTVSPost2010Prop55
280
     0
102
RTVSPost2010PropOp55
 70
     1
102
RTVSPost2010Prop56
140
1.0
102
RTVSPost2010PropOp56
 70
     1
102
RTVSPost2010Prop57
140
1.0
102
RTVSPost2010PropOp57
 70
     1
102
RTVSPropertyOp0
 70
     1
102
RTVSPropertyOp1
 70
     1
102
RTVSPropertyOp2
 70
     1
102
RTVSPropertyOp3
 70
     1
102
RTVSPropertyOp4
 70
     1
102
RTVSPropertyOp5
 70
     1
102
RTVSPropertyOp6
 70
     1
102
RTVSPropertyOp7
 70
     1
102
RTVSPropertyOp8
 70
     1
102
RTVSPropertyOp9
 70
     1
102
RTVSPropertyOp10
 70
     1
102
RTVSPropertyOp11
 70
     1
102
RTVSPropertyOp12
 70
     1
102
RTVSPropertyOp13
 70
     1
102
RTVSPropertyOp14
 70
     1
102
RTVSPropertyOp15
 70
     1
102
RTVSPropertyOp16
 70
     1
102
RTVSPropertyOp17
 70
     1
102
RTVSPropertyOp18
 70
     1
102
RTVSPropertyOp19
 70
     1
102
RTVSPropertyOp20
 70
     1
102
RTVSPropertyOp21
 70
     1
102
RTVSPropertyOp22
 70
     1
102
RTVSPropertyOp23
 70
     1
102
RTVSPropertyOp24
 70
     1
102
RTVSPropertyOp25
 70
     1
102
RTVSPropertyOp26
 70
     1
102
RTVSPropertyOp27
 70
     1
102
RTVSPropertyOp28
 70
     1
102
RTVSPropertyOp29
 70
     1
102
RTVSPropertyOp30
 70
     1
102
RTVSPropertyOp31
 70
     1
102
RTVSPropertyOp32
 70
     1
102
RTVSPropertyOp33
 70
     1
102
RTVSPropertyOp34
 70
     1
102
RTVSPropertyOp35
 70
     1
102
RTVSPropertyOp36
 70
     1
102
RTVSPropertyOp37
 70
     1
102
RTVSPropertyOp38
 70
     1
102
RTVSPropertyOp39
 70
     1
102
RTVSPropertyOp40
 70
     1
102
RTVSPropertyOp41
 70
     1
102
RTVSPropertyOp42
 70
     1
102
RTVSPropertyOp43
 70
     1
102
RTVSPropertyOp44
 70
     1
102
RTVSPropertyOp45
 70
     1
102
RTVSPropertyOp46
 70
     1
102
RTVSPropertyOp47
 70
     1
102
RTVSPropertyOp48
 70
     1
102
RTVSPropertyOp49
 70
     1
102
RTVSPropertyOp50
 70
     1
102
RTVSPropertyOp51
 70
     0
102
RTVSPropertyOp52
 70
     0
102
RTVSPropertyOp53
 70
     1
102
RTVSPropertyOp54
 70
     1
102
RTVSPropertyOp55
 70
     1
102
RTVSPropertyOp56
 70
     1
102
RTVSPropertyOp57
 70
     1
102
RTVSPropertyOp58
 70
     1
102
RTVSPropertyOp59
 70
     1
102
RTVSPropertyOp60
 70
     1
102
RTVSPropertyOp61
 70
     1
102
RTVSPropertyOp62
 70
     1
  0
XRECORD
  5
19B4
102
{ACAD_REACTORS
330
19B3
102
}
330
19B3
100
AcDbXrecord
280
     1
102
RTVSPost2010Prop28
280
     0
102
RTVSPost2010PropOp28
 70
     1
102
RTVSPost2010Prop29
280
     1
102
RTVSPost2010PropOp29
 70
     1
102
RTVSPost2010Prop30
280
     1
102
RTVSPost2010PropOp30
 70
     1
102
RTVSPost2010Prop31
280
     0
102
RTVSPost2010PropOp31
 70
     1
102
RTVSPost2010Prop32
280
     0
102
RTVSPost2010PropOp32
 70
     1
102
RTVSPost2010Prop33
280
     0
102
RTVSPost2010PropOp33
 70
     1
102
RTVSPost2010Prop34
280
     0
102
RTVSPost2010PropOp34
 70
     1
102
RTVSPost2010Prop35
280
     0
102
RTVSPost2010PropOp35
 70
     1
102
RTVSPost2010Prop36
280
     0
102
RTVSPost2010PropOp36
 70
     1
102
RTVSPost2010Prop37
 90
       50
102
RTVSPost2010PropOp37
 70
     1
102
RTVSPost2010Prop38
140
0.0
102
RTVSPost2010PropOp38
 70
     1
102
RTVSPost2010Prop39
140
1.0
102
RTVSPost2010PropOp39
 70
     1
102
RTVSPost2010Prop40
 90
        0
102
RTVSPost2010PropOp40
 70
     1
102
RTVSPost2010Prop41ColorIndex
 90
       18
102
RTVSPost2010Prop41ColorRGB
 90
        0
102
RTVSPost2010PropOp41
 70
     1
102
RTVSPost2010Prop42
 90
       50
102
RTVSPost2010PropOp42
 70
     1
102
RTVSPost2010Prop43
 90
        3
102
RTVSPost2010PropOp43
 70
     1
102
RTVSPost2010Prop44ColorIndex
 90
        5
102
RTVSPost2010Prop44ColorRGB
 90
      255
102
RTVSPost2010PropOp44
 70
     1
102
RTVSPost2010Prop45
280
     0
102
RTVSPost2010PropOp45
 70
     1
102
RTVSPost2010Prop46
 90
       50
102
RTVSPost2010PropOp46
 70
     1
102
RTVSPost2010Prop47
 90
       50
102
RTVSPost2010PropOp47
 70
     1
102
RTVSPost2010Prop48
 90
       50
102
RTVSPost2010PropOp48
 70
     1
102
RTVSPost2010Prop49
280
     0
102
RTVSPost2010PropOp49
 70
     1
102
RTVSPost2010Prop50
 90
       50
102
RTVSPost2010PropOp50
 70
     1
102
RTVSPost2010Prop51ColorIndex
 90
      256
102
RTVSPost2010Prop51ColorRGB
 90
-16777216
102
RTVSPost2010PropOp51
 70
     0
102
RTVSPost2010Prop52
140
1.0
102
RTVSPost2010PropOp52
 70
     0
102
RTVSPost2010Prop53
 90
        2
102
RTVSPost2010PropOp53
 70
     1
102
RTVSPost2010Prop54
  1
strokes_ogs.tif
102
RTVSPost2010PropOp54
 70
     1
102
RTVSPost2010Prop55
280
     0
102
RTVSPost2010PropOp55
 70
     1
102
RTVSPost2010Prop56
140
1.0
102
RTVSPost2010PropOp56
 70
     1
102
RTVSPost2010Prop57
140
1.0
102
RTVSPost2010PropOp57
 70
     1
102
RTVSPropertyOp0
 70
     1
102
RTVSPropertyOp1
 70
     1
102
RTVSPropertyOp2
 70
     1
102
RTVSPropertyOp3
 70
     1
102
RTVSPropertyOp4
 70
     1
102
RTVSPropertyOp5
 70
     1
102
RTVSPropertyOp6
 70
     1
102
RTVSPropertyOp7
 70
     1
102
RTVSPropertyOp8
 70
     1
102
RTVSPropertyOp9
 70
     1
102
RTVSPropertyOp10
 70
     1
102
RTVSPropertyOp11
 70
     1
102
RTVSPropertyOp12
 70
     1
102
RTVSPropertyOp13
 70
     1
102
RTVSPropertyOp14
 70
     1
102
RTVSPropertyOp15
 70
     1
102
RTVSPropertyOp16
 70
     1
102
RTVSPropertyOp17
 70
     1
102
RTVSPropertyOp18
 70
     1
102
RTVSPropertyOp19
 70
     1
102
RTVSPropertyOp20
 70
     1
102
RTVSPropertyOp21
 70
     1
102
RTVSPropertyOp22
 70
     1
102
RTVSPropertyOp23
 70
     1
102
RTVSPropertyOp24
 70
     1
102
RTVSPropertyOp25
 70
     1
102
RTVSPropertyOp26
 70
     1
102
RTVSPropertyOp27
 70
     1
102
RTVSPropertyOp28
 70
     1
102
RTVSPropertyOp29
 70
     1
102
RTVSPropertyOp30
 70
     1
102
RTVSPropertyOp31
 70
     1
102
RTVSPropertyOp32
 70
     1
102
RTVSPropertyOp33
 70
     1
102
RTVSPropertyOp34
 70
     1
102
RTVSPropertyOp35
 70
     1
102
RTVSPropertyOp36
 70
     1
102
RTVSPropertyOp37
 70
     1
102
RTVSPropertyOp38
 70
     1
102
RTVSPropertyOp39
 70
     1
102
RTVSPropertyOp40
 70
     1
102
RTVSPropertyOp41
 70
     1
102
RTVSPropertyOp42
 70
     1
102
RTVSPropertyOp43
 70
     1
102
RTVSPropertyOp44
 70
     1
102
RTVSPropertyOp45
 70
     1
102
RTVSPropertyOp46
 70
     1
102
RTVSPropertyOp47
 70
     1
102
RTVSPropertyOp48
 70
     1
102
RTVSPropertyOp49
 70
     1
102
RTVSPropertyOp50
 70
     1
102
RTVSPropertyOp51
 70
     0
102
RTVSPropertyOp52
 70
     0
102
RTVSPropertyOp53
 70
     1
102
RTVSPropertyOp54
 70
     1
102
RTVSPropertyOp55
 70
     1
102
RTVSPropertyOp56
 70
     1
102
RTVSPropertyOp57
 70
     1
102
RTVSPropertyOp58
 70
     1
102
RTVSPropertyOp59
 70
     1
102
RTVSPropertyOp60
 70
     1
102
RTVSPropertyOp61
 70
     1
102
RTVSPropertyOp62
 70
     1
  0
XRECORD
  5
19B0
102
{ACAD_REACTORS
330
19AF
102
}
330
19AF
100
AcDbXrecord
280
     1
102
RTVSPost2010Prop28
280
     0
102
RTVSPost2010PropOp28
 70
     1
102
RTVSPost2010Prop29
280
     1
102
RTVSPost2010PropOp29
 70
     1
102
RTVSPost2010Prop30
280
     1
102
RTVSPost2010PropOp30
 70
     1
102
RTVSPost2010Prop31
280
     0
102
RTVSPost2010PropOp31
 70
     1
102
RTVSPost2010Prop32
280
     0
102
RTVSPost2010PropOp32
 70
     1
102
RTVSPost2010Prop33
280
     0
102
RTVSPost2010PropOp33
 70
     1
102
RTVSPost2010Prop34
280
     0
102
RTVSPost2010PropOp34
 70
     1
102
RTVSPost2010Prop35
280
     0
102
RTVSPost2010PropOp35
 70
     1
102
RTVSPost2010Prop36
280
     0
102
RTVSPost2010PropOp36
 70
     1
102
RTVSPost2010Prop37
 90
       50
102
RTVSPost2010PropOp37
 70
     1
102
RTVSPost2010Prop38
140
0.0
102
RTVSPost2010PropOp38
 70
     1
102
RTVSPost2010Prop39
140
1.0
102
RTVSPost2010PropOp39
 70
     1
102
RTVSPost2010Prop40
 90
        0
102
RTVSPost2010PropOp40
 70
     1
102
RTVSPost2010Prop41ColorIndex
 90
       18
102
RTVSPost2010Prop41ColorRGB
 90
        0
102
RTVSPost2010PropOp41
 70
     1
102
RTVSPost2010Prop42
 90
       50
102
RTVSPost2010PropOp42
 70
     1
102
RTVSPost2010Prop43
 90
        3
102
RTVSPost2010PropOp43
 70
     1
102
RTVSPost2010Prop44ColorIndex
 90
        5
102
RTVSPost2010Prop44ColorRGB
 90
      255
102
RTVSPost2010PropOp44
 70
     1
102
RTVSPost2010Prop45
280
     0
102
RTVSPost2010PropOp45
 70
     1
102
RTVSPost2010Prop46
 90
       50
102
RTVSPost2010PropOp46
 70
     1
102
RTVSPost2010Prop47
 90
       50
102
RTVSPost2010PropOp47
 70
     1
102
RTVSPost2010Prop48
 90
       50
102
RTVSPost2010PropOp48
 70
     1
102
RTVSPost2010Prop49
280
     0
102
RTVSPost2010PropOp49
 70
     1
102
RTVSPost2010Prop50
 90
       50
102
RTVSPost2010PropOp50
 70
     1
102
RTVSPost2010Prop51ColorIndex
 90
      256
102
RTVSPost2010Prop51ColorRGB
 90
-16777216
102
RTVSPost2010PropOp51
 70
     0
102
RTVSPost2010Prop52
140
1.0
102
RTVSPost2010PropOp52
 70
     0
102
RTVSPost2010Prop53
 90
        2
102
RTVSPost2010PropOp53
 70
     1
102
RTVSPost2010Prop54
  1
strokes_ogs.tif
102
RTVSPost2010PropOp54
 70
     1
102
RTVSPost2010Prop55
280
     0
102
RTVSPost2010PropOp55
 70
     1
102
RTVSPost2010Prop56
140
1.0
102
RTVSPost2010PropOp56
 70
     1
102
RTVSPost2010Prop57
140
1.0
102
RTVSPost2010PropOp57
 70
     1
102
RTVSPropertyOp0
 70
     1
102
RTVSPropertyOp1
 70
     1
102
RTVSPropertyOp2
 70
     1
102
RTVSPropertyOp3
 70
     1
102
RTVSPropertyOp4
 70
     1
102
RTVSPropertyOp5
 70
     1
102
RTVSPropertyOp6
 70
     1
102
RTVSPropertyOp7
 70
     1
102
RTVSPropertyOp8
 70
     1
102
RTVSPropertyOp9
 70
     1
102
RTVSPropertyOp10
 70
     1
102
RTVSPropertyOp11
 70
     1
102
RTVSPropertyOp12
 70
     1
102
RTVSPropertyOp13
 70
     1
102
RTVSPropertyOp14
 70
     1
102
RTVSPropertyOp15
 70
     1
102
RTVSPropertyOp16
 70
     1
102
RTVSPropertyOp17
 70
     1
102
RTVSPropertyOp18
 70
     1
102
RTVSPropertyOp19
 70
     1
102
RTVSPropertyOp20
 70
     1
102
RTVSPropertyOp21
 70
     1
102
RTVSPropertyOp22
 70
     1
102
RTVSPropertyOp23
 70
     1
102
RTVSPropertyOp24
 70
     1
102
RTVSPropertyOp25
 70
     1
102
RTVSPropertyOp26
 70
     1
102
RTVSPropertyOp27
 70
     1
102
RTVSPropertyOp28
 70
     1
102
RTVSPropertyOp29
 70
     1
102
RTVSPropertyOp30
 70
     1
102
RTVSPropertyOp31
 70
     1
102
RTVSPropertyOp32
 70
     1
102
RTVSPropertyOp33
 70
     1
102
RTVSPropertyOp34
 70
     1
102
RTVSPropertyOp35
 70
     1
102
RTVSPropertyOp36
 70
     1
102
RTVSPropertyOp37
 70
     1
102
RTVSPropertyOp38
 70
     1
102
RTVSPropertyOp39
 70
     1
102
RTVSPropertyOp40
 70
     1
102
RTVSPropertyOp41
 70
     1
102
RTVSPropertyOp42
 70
     1
102
RTVSPropertyOp43
 70
     1
102
RTVSPropertyOp44
 70
     1
102
RTVSPropertyOp45
 70
     1
102
RTVSPropertyOp46
 70
     1
102
RTVSPropertyOp47
 70
     1
102
RTVSPropertyOp48
 70
     1
102
RTVSPropertyOp49
 70
     1
102
RTVSPropertyOp50
 70
     1
102
RTVSPropertyOp51
 70
     0
102
RTVSPropertyOp52
 70
     0
102
RTVSPropertyOp53
 70
     1
102
RTVSPropertyOp54
 70
     1
102
RTVSPropertyOp55
 70
     1
102
RTVSPropertyOp56
 70
     1
102
RTVSPropertyOp57
 70
     1
102
RTVSPropertyOp58
 70
     1
102
RTVSPropertyOp59
 70
     1
102
RTVSPropertyOp60
 70
     1
102
RTVSPropertyOp61
 70
     1
102
RTVSPropertyOp62
 70
     1
  0
XRECORD
  5
19BE
102
{ACAD_REACTORS
330
19BD
102
}
330
19BD
100
AcDbXrecord
280
     1
102
RTVSPost2010Prop28
280
     0
102
RTVSPost2010PropOp28
 70
     1
102
RTVSPost2010Prop29
280
     1
102
RTVSPost2010PropOp29
 70
     1
102
RTVSPost2010Prop30
280
     1
102
RTVSPost2010PropOp30
 70
     1
102
RTVSPost2010Prop31
280
     0
102
RTVSPost2010PropOp31
 70
     1
102
RTVSPost2010Prop32
280
     0
102
RTVSPost2010PropOp32
 70
     1
102
RTVSPost2010Prop33
280
     0
102
RTVSPost2010PropOp33
 70
     1
102
RTVSPost2010Prop34
280
     0
102
RTVSPost2010PropOp34
 70
     1
102
RTVSPost2010Prop35
280
     0
102
RTVSPost2010PropOp35
 70
     1
102
RTVSPost2010Prop36
280
     0
102
RTVSPost2010PropOp36
 70
     1
102
RTVSPost2010Prop37
 90
       50
102
RTVSPost2010PropOp37
 70
     1
102
RTVSPost2010Prop38
140
0.0
102
RTVSPost2010PropOp38
 70
     1
102
RTVSPost2010Prop39
140
1.0
102
RTVSPost2010PropOp39
 70
     1
102
RTVSPost2010Prop40
 90
        0
102
RTVSPost2010PropOp40
 70
     1
102
RTVSPost2010Prop41ColorIndex
 90
       18
102
RTVSPost2010Prop41ColorRGB
 90
        0
102
RTVSPost2010PropOp41
 70
     1
102
RTVSPost2010Prop42
 90
       50
102
RTVSPost2010PropOp42
 70
     1
102
RTVSPost2010Prop43
 90
        3
102
RTVSPost2010PropOp43
 70
     1
102
RTVSPost2010Prop44ColorIndex
 90
        5
102
RTVSPost2010Prop44ColorRGB
 90
      255
102
RTVSPost2010PropOp44
 70
     1
102
RTVSPost2010Prop45
280
     0
102
RTVSPost2010PropOp45
 70
     1
102
RTVSPost2010Prop46
 90
       50
102
RTVSPost2010PropOp46
 70
     1
102
RTVSPost2010Prop47
 90
       50
102
RTVSPost2010PropOp47
 70
     1
102
RTVSPost2010Prop48
 90
       50
102
RTVSPost2010PropOp48
 70
     1
102
RTVSPost2010Prop49
280
     0
102
RTVSPost2010PropOp49
 70
     1
102
RTVSPost2010Prop50
 90
       50
102
RTVSPost2010PropOp50
 70
     1
102
RTVSPost2010Prop51ColorIndex
 90
      256
102
RTVSPost2010Prop51ColorRGB
 90
-16777216
102
RTVSPost2010PropOp51
 70
     0
102
RTVSPost2010Prop52
140
1.0
102
RTVSPost2010PropOp52
 70
     0
102
RTVSPost2010Prop53
 90
        2
102
RTVSPost2010PropOp53
 70
     1
102
RTVSPost2010Prop54
  1
strokes_ogs.tif
102
RTVSPost2010PropOp54
 70
     1
102
RTVSPost2010Prop55
280
     0
102
RTVSPost2010PropOp55
 70
     1
102
RTVSPost2010Prop56
140
1.0
102
RTVSPost2010PropOp56
 70
     1
102
RTVSPost2010Prop57
140
1.0
102
RTVSPost2010PropOp57
 70
     1
102
RTVSPropertyOp0
 70
     1
102
RTVSPropertyOp1
 70
     1
102
RTVSPropertyOp2
 70
     1
102
RTVSPropertyOp3
 70
     1
102
RTVSPropertyOp4
 70
     1
102
RTVSPropertyOp5
 70
     1
102
RTVSPropertyOp6
 70
     1
102
RTVSPropertyOp7
 70
     1
102
RTVSPropertyOp8
 70
     1
102
RTVSPropertyOp9
 70
     1
102
RTVSPropertyOp10
 70
     1
102
RTVSPropertyOp11
 70
     1
102
RTVSPropertyOp12
 70
     1
102
RTVSPropertyOp13
 70
     1
102
RTVSPropertyOp14
 70
     1
102
RTVSPropertyOp15
 70
     1
102
RTVSPropertyOp16
 70
     1
102
RTVSPropertyOp17
 70
     1
102
RTVSPropertyOp18
 70
     1
102
RTVSPropertyOp19
 70
     1
102
RTVSPropertyOp20
 70
     1
102
RTVSPropertyOp21
 70
     1
102
RTVSPropertyOp22
 70
     1
102
RTVSPropertyOp23
 70
     1
102
RTVSPropertyOp24
 70
     1
102
RTVSPropertyOp25
 70
     1
102
RTVSPropertyOp26
 70
     1
102
RTVSPropertyOp27
 70
     1
102
RTVSPropertyOp28
 70
     1
102
RTVSPropertyOp29
 70
     1
102
RTVSPropertyOp30
 70
     1
102
RTVSPropertyOp31
 70
     1
102
RTVSPropertyOp32
 70
     1
102
RTVSPropertyOp33
 70
     1
102
RTVSPropertyOp34
 70
     1
102
RTVSPropertyOp35
 70
     1
102
RTVSPropertyOp36
 70
     1
102
RTVSPropertyOp37
 70
     1
102
RTVSPropertyOp38
 70
     1
102
RTVSPropertyOp39
 70
     1
102
RTVSPropertyOp40
 70
     1
102
RTVSPropertyOp41
 70
     1
102
RTVSPropertyOp42
 70
     1
102
RTVSPropertyOp43
 70
     1
102
RTVSPropertyOp44
 70
     1
102
RTVSPropertyOp45
 70
     1
102
RTVSPropertyOp46
 70
     1
102
RTVSPropertyOp47
 70
     1
102
RTVSPropertyOp48
 70
     1
102
RTVSPropertyOp49
 70
     1
102
RTVSPropertyOp50
 70
     1
102
RTVSPropertyOp51
 70
     0
102
RTVSPropertyOp52
 70
     0
102
RTVSPropertyOp53
 70
     1
102
RTVSPropertyOp54
 70
     1
102
RTVSPropertyOp55
 70
     1
102
RTVSPropertyOp56
 70
     1
102
RTVSPropertyOp57
 70
     1
102
RTVSPropertyOp58
 70
     1
102
RTVSPropertyOp59
 70
     1
102
RTVSPropertyOp60
 70
     1
102
RTVSPropertyOp61
 70
     1
102
RTVSPropertyOp62
 70
     1
  0
XRECORD
  5
19C6
102
{ACAD_REACTORS
330
19C5
102
}
330
19C5
100
AcDbXrecord
280
     1
102
RTVSPost2010Prop28
280
     0
102
RTVSPost2010PropOp28
 70
     1
102
RTVSPost2010Prop29
280
     1
102
RTVSPost2010PropOp29
 70
     1
102
RTVSPost2010Prop30
280
     1
102
RTVSPost2010PropOp30
 70
     1
102
RTVSPost2010Prop31
280
     0
102
RTVSPost2010PropOp31
 70
     1
102
RTVSPost2010Prop32
280
     0
102
RTVSPost2010PropOp32
 70
     1
102
RTVSPost2010Prop33
280
     0
102
RTVSPost2010PropOp33
 70
     1
102
RTVSPost2010Prop34
280
     0
102
RTVSPost2010PropOp34
 70
     1
102
RTVSPost2010Prop35
280
     0
102
RTVSPost2010PropOp35
 70
     1
102
RTVSPost2010Prop36
280
     0
102
RTVSPost2010PropOp36
 70
     1
102
RTVSPost2010Prop37
 90
       50
102
RTVSPost2010PropOp37
 70
     1
102
RTVSPost2010Prop38
140
0.0
102
RTVSPost2010PropOp38
 70
     1
102
RTVSPost2010Prop39
140
1.0
102
RTVSPost2010PropOp39
 70
     1
102
RTVSPost2010Prop40
 90
        0
102
RTVSPost2010PropOp40
 70
     1
102
RTVSPost2010Prop41ColorIndex
 90
       18
102
RTVSPost2010Prop41ColorRGB
 90
        0
102
RTVSPost2010PropOp41
 70
     1
102
RTVSPost2010Prop42
 90
       50
102
RTVSPost2010PropOp42
 70
     1
102
RTVSPost2010Prop43
 90
        3
102
RTVSPost2010PropOp43
 70
     1
102
RTVSPost2010Prop44ColorIndex
 90
        5
102
RTVSPost2010Prop44ColorRGB
 90
      255
102
RTVSPost2010PropOp44
 70
     1
102
RTVSPost2010Prop45
280
     0
102
RTVSPost2010PropOp45
 70
     1
102
RTVSPost2010Prop46
 90
       50
102
RTVSPost2010PropOp46
 70
     1
102
RTVSPost2010Prop47
 90
       50
102
RTVSPost2010PropOp47
 70
     1
102
RTVSPost2010Prop48
 90
       50
102
RTVSPost2010PropOp48
 70
     1
102
RTVSPost2010Prop49
280
     0
102
RTVSPost2010PropOp49
 70
     1
102
RTVSPost2010Prop50
 90
       50
102
RTVSPost2010PropOp50
 70
     1
102
RTVSPost2010Prop51ColorIndex
 90
      256
102
RTVSPost2010Prop51ColorRGB
 90
-16777216
102
RTVSPost2010PropOp51
 70
     0
102
RTVSPost2010Prop52
140
1.0
102
RTVSPost2010PropOp52
 70
     0
102
RTVSPost2010Prop53
 90
        2
102
RTVSPost2010PropOp53
 70
     1
102
RTVSPost2010Prop54
  1
strokes_ogs.tif
102
RTVSPost2010PropOp54
 70
     1
102
RTVSPost2010Prop55
280
     0
102
RTVSPost2010PropOp55
 70
     1
102
RTVSPost2010Prop56
140
1.0
102
RTVSPost2010PropOp56
 70
     1
102
RTVSPost2010Prop57
140
1.0
102
RTVSPost2010PropOp57
 70
     1
102
RTVSPropertyOp0
 70
     1
102
RTVSPropertyOp1
 70
     1
102
RTVSPropertyOp2
 70
     1
102
RTVSPropertyOp3
 70
     1
102
RTVSPropertyOp4
 70
     1
102
RTVSPropertyOp5
 70
     1
102
RTVSPropertyOp6
 70
     1
102
RTVSPropertyOp7
 70
     1
102
RTVSPropertyOp8
 70
     1
102
RTVSPropertyOp9
 70
     1
102
RTVSPropertyOp10
 70
     1
102
RTVSPropertyOp11
 70
     1
102
RTVSPropertyOp12
 70
     1
102
RTVSPropertyOp13
 70
     1
102
RTVSPropertyOp14
 70
     1
102
RTVSPropertyOp15
 70
     1
102
RTVSPropertyOp16
 70
     1
102
RTVSPropertyOp17
 70
     1
102
RTVSPropertyOp18
 70
     1
102
RTVSPropertyOp19
 70
     1
102
RTVSPropertyOp20
 70
     1
102
RTVSPropertyOp21
 70
     1
102
RTVSPropertyOp22
 70
     1
102
RTVSPropertyOp23
 70
     1
102
RTVSPropertyOp24
 70
     1
102
RTVSPropertyOp25
 70
     1
102
RTVSPropertyOp26
 70
     1
102
RTVSPropertyOp27
 70
     1
102
RTVSPropertyOp28
 70
     1
102
RTVSPropertyOp29
 70
     1
102
RTVSPropertyOp30
 70
     1
102
RTVSPropertyOp31
 70
     1
102
RTVSPropertyOp32
 70
     1
102
RTVSPropertyOp33
 70
     1
102
RTVSPropertyOp34
 70
     1
102
RTVSPropertyOp35
 70
     1
102
RTVSPropertyOp36
 70
     1
102
RTVSPropertyOp37
 70
     1
102
RTVSPropertyOp38
 70
     1
102
RTVSPropertyOp39
 70
     1
102
RTVSPropertyOp40
 70
     1
102
RTVSPropertyOp41
 70
     1
102
RTVSPropertyOp42
 70
     1
102
RTVSPropertyOp43
 70
     1
102
RTVSPropertyOp44
 70
     1
102
RTVSPropertyOp45
 70
     1
102
RTVSPropertyOp46
 70
     1
102
RTVSPropertyOp47
 70
     1
102
RTVSPropertyOp48
 70
     1
102
RTVSPropertyOp49
 70
     1
102
RTVSPropertyOp50
 70
     1
102
RTVSPropertyOp51
 70
     0
102
RTVSPropertyOp52
 70
     0
102
RTVSPropertyOp53
 70
     1
102
RTVSPropertyOp54
 70
     1
102
RTVSPropertyOp55
 70
     1
102
RTVSPropertyOp56
 70
     1
102
RTVSPropertyOp57
 70
     1
102
RTVSPropertyOp58
 70
     1
102
RTVSPropertyOp59
 70
     1
102
RTVSPropertyOp60
 70
     1
102
RTVSPropertyOp61
 70
     1
102
RTVSPropertyOp62
 70
     1
  0
XRECORD
  5
19B8
102
{ACAD_REACTORS
330
19B7
102
}
330
19B7
100
AcDbXrecord
280
     1
102
RTVSPost2010Prop28
280
     0
102
RTVSPost2010PropOp28
 70
     1
102
RTVSPost2010Prop29
280
     1
102
RTVSPost2010PropOp29
 70
     1
102
RTVSPost2010Prop30
280
     1
102
RTVSPost2010PropOp30
 70
     1
102
RTVSPost2010Prop31
280
     0
102
RTVSPost2010PropOp31
 70
     1
102
RTVSPost2010Prop32
280
     0
102
RTVSPost2010PropOp32
 70
     1
102
RTVSPost2010Prop33
280
     0
102
RTVSPost2010PropOp33
 70
     1
102
RTVSPost2010Prop34
280
     0
102
RTVSPost2010PropOp34
 70
     1
102
RTVSPost2010Prop35
280
     0
102
RTVSPost2010PropOp35
 70
     1
102
RTVSPost2010Prop36
280
     0
102
RTVSPost2010PropOp36
 70
     1
102
RTVSPost2010Prop37
 90
       50
102
RTVSPost2010PropOp37
 70
     1
102
RTVSPost2010Prop38
140
0.0
102
RTVSPost2010PropOp38
 70
     1
102
RTVSPost2010Prop39
140
1.0
102
RTVSPost2010PropOp39
 70
     1
102
RTVSPost2010Prop40
 90
        0
102
RTVSPost2010PropOp40
 70
     1
102
RTVSPost2010Prop41ColorIndex
 90
       18
102
RTVSPost2010Prop41ColorRGB
 90
        0
102
RTVSPost2010PropOp41
 70
     1
102
RTVSPost2010Prop42
 90
       50
102
RTVSPost2010PropOp42
 70
     1
102
RTVSPost2010Prop43
 90
        3
102
RTVSPost2010PropOp43
 70
     1
102
RTVSPost2010Prop44ColorIndex
 90
        5
102
RTVSPost2010Prop44ColorRGB
 90
      255
102
RTVSPost2010PropOp44
 70
     1
102
RTVSPost2010Prop45
280
     0
102
RTVSPost2010PropOp45
 70
     1
102
RTVSPost2010Prop46
 90
       50
102
RTVSPost2010PropOp46
 70
     1
102
RTVSPost2010Prop47
 90
       50
102
RTVSPost2010PropOp47
 70
     1
102
RTVSPost2010Prop48
 90
       50
102
RTVSPost2010PropOp48
 70
     1
102
RTVSPost2010Prop49
280
     0
102
RTVSPost2010PropOp49
 70
     1
102
RTVSPost2010Prop50
 90
       50
102
RTVSPost2010PropOp50
 70
     1
102
RTVSPost2010Prop51ColorIndex
 90
      256
102
RTVSPost2010Prop51ColorRGB
 90
-16777216
102
RTVSPost2010PropOp51
 70
     0
102
RTVSPost2010Prop52
140
1.0
102
RTVSPost2010PropOp52
 70
     0
102
RTVSPost2010Prop53
 90
        2
102
RTVSPost2010PropOp53
 70
     1
102
RTVSPost2010Prop54
  1
strokes_ogs.tif
102
RTVSPost2010PropOp54
 70
     1
102
RTVSPost2010Prop55
280
     0
102
RTVSPost2010PropOp55
 70
     1
102
RTVSPost2010Prop56
140
1.0
102
RTVSPost2010PropOp56
 70
     1
102
RTVSPost2010Prop57
140
1.0
102
RTVSPost2010PropOp57
 70
     1
102
RTVSPropertyOp0
 70
     1
102
RTVSPropertyOp1
 70
     1
102
RTVSPropertyOp2
 70
     1
102
RTVSPropertyOp3
 70
     1
102
RTVSPropertyOp4
 70
     1
102
RTVSPropertyOp5
 70
     1
102
RTVSPropertyOp6
 70
     1
102
RTVSPropertyOp7
 70
     1
102
RTVSPropertyOp8
 70
     1
102
RTVSPropertyOp9
 70
     1
102
RTVSPropertyOp10
 70
     1
102
RTVSPropertyOp11
 70
     1
102
RTVSPropertyOp12
 70
     1
102
RTVSPropertyOp13
 70
     1
102
RTVSPropertyOp14
 70
     1
102
RTVSPropertyOp15
 70
     1
102
RTVSPropertyOp16
 70
     1
102
RTVSPropertyOp17
 70
     1
102
RTVSPropertyOp18
 70
     1
102
RTVSPropertyOp19
 70
     1
102
RTVSPropertyOp20
 70
     1
102
RTVSPropertyOp21
 70
     1
102
RTVSPropertyOp22
 70
     1
102
RTVSPropertyOp23
 70
     1
102
RTVSPropertyOp24
 70
     1
102
RTVSPropertyOp25
 70
     1
102
RTVSPropertyOp26
 70
     1
102
RTVSPropertyOp27
 70
     1
102
RTVSPropertyOp28
 70
     1
102
RTVSPropertyOp29
 70
     1
102
RTVSPropertyOp30
 70
     1
102
RTVSPropertyOp31
 70
     1
102
RTVSPropertyOp32
 70
     1
102
RTVSPropertyOp33
 70
     1
102
RTVSPropertyOp34
 70
     1
102
RTVSPropertyOp35
 70
     1
102
RTVSPropertyOp36
 70
     1
102
RTVSPropertyOp37
 70
     1
102
RTVSPropertyOp38
 70
     1
102
RTVSPropertyOp39
 70
     1
102
RTVSPropertyOp40
 70
     1
102
RTVSPropertyOp41
 70
     1
102
RTVSPropertyOp42
 70
     1
102
RTVSPropertyOp43
 70
     1
102
RTVSPropertyOp44
 70
     1
102
RTVSPropertyOp45
 70
     1
102
RTVSPropertyOp46
 70
     1
102
RTVSPropertyOp47
 70
     1
102
RTVSPropertyOp48
 70
     1
102
RTVSPropertyOp49
 70
     1
102
RTVSPropertyOp50
 70
     1
102
RTVSPropertyOp51
 70
     0
102
RTVSPropertyOp52
 70
     0
102
RTVSPropertyOp53
 70
     1
102
RTVSPropertyOp54
 70
     1
102
RTVSPropertyOp55
 70
     1
102
RTVSPropertyOp56
 70
     1
102
RTVSPropertyOp57
 70
     1
102
RTVSPropertyOp58
 70
     1
102
RTVSPropertyOp59
 70
     1
102
RTVSPropertyOp60
 70
     1
102
RTVSPropertyOp61
 70
     1
102
RTVSPropertyOp62
 70
     1
  0
XRECORD
  5
19BC
102
{ACAD_REACTORS
330
19BB
102
}
330
19BB
100
AcDbXrecord
280
     1
102
RTVSPost2010Prop28
280
     0
102
RTVSPost2010PropOp28
 70
     1
102
RTVSPost2010Prop29
280
     1
102
RTVSPost2010PropOp29
 70
     1
102
RTVSPost2010Prop30
280
     1
102
RTVSPost2010PropOp30
 70
     1
102
RTVSPost2010Prop31
280
     0
102
RTVSPost2010PropOp31
 70
     1
102
RTVSPost2010Prop32
280
     0
102
RTVSPost2010PropOp32
 70
     1
102
RTVSPost2010Prop33
280
     0
102
RTVSPost2010PropOp33
 70
     1
102
RTVSPost2010Prop34
280
     0
102
RTVSPost2010PropOp34
 70
     1
102
RTVSPost2010Prop35
280
     0
102
RTVSPost2010PropOp35
 70
     1
102
RTVSPost2010Prop36
280
     0
102
RTVSPost2010PropOp36
 70
     1
102
RTVSPost2010Prop37
 90
       50
102
RTVSPost2010PropOp37
 70
     1
102
RTVSPost2010Prop38
140
0.0
102
RTVSPost2010PropOp38
 70
     1
102
RTVSPost2010Prop39
140
1.0
102
RTVSPost2010PropOp39
 70
     1
102
RTVSPost2010Prop40
 90
        0
102
RTVSPost2010PropOp40
 70
     1
102
RTVSPost2010Prop41ColorIndex
 90
       18
102
RTVSPost2010Prop41ColorRGB
 90
        0
102
RTVSPost2010PropOp41
 70
     1
102
RTVSPost2010Prop42
 90
       50
102
RTVSPost2010PropOp42
 70
     1
102
RTVSPost2010Prop43
 90
        3
102
RTVSPost2010PropOp43
 70
     1
102
RTVSPost2010Prop44ColorIndex
 90
        5
102
RTVSPost2010Prop44ColorRGB
 90
      255
102
RTVSPost2010PropOp44
 70
     1
102
RTVSPost2010Prop45
280
     0
102
RTVSPost2010PropOp45
 70
     1
102
RTVSPost2010Prop46
 90
       50
102
RTVSPost2010PropOp46
 70
     1
102
RTVSPost2010Prop47
 90
       50
102
RTVSPost2010PropOp47
 70
     1
102
RTVSPost2010Prop48
 90
       50
102
RTVSPost2010PropOp48
 70
     1
102
RTVSPost2010Prop49
280
     0
102
RTVSPost2010PropOp49
 70
     1
102
RTVSPost2010Prop50
 90
       50
102
RTVSPost2010PropOp50
 70
     1
102
RTVSPost2010Prop51ColorIndex
 90
      256
102
RTVSPost2010Prop51ColorRGB
 90
-16777216
102
RTVSPost2010PropOp51
 70
     0
102
RTVSPost2010Prop52
140
1.0
102
RTVSPost2010PropOp52
 70
     0
102
RTVSPost2010Prop53
 90
        2
102
RTVSPost2010PropOp53
 70
     1
102
RTVSPost2010Prop54
  1
strokes_ogs.tif
102
RTVSPost2010PropOp54
 70
     1
102
RTVSPost2010Prop55
280
     0
102
RTVSPost2010PropOp55
 70
     1
102
RTVSPost2010Prop56
140
1.0
102
RTVSPost2010PropOp56
 70
     1
102
RTVSPost2010Prop57
140
1.0
102
RTVSPost2010PropOp57
 70
     1
102
RTVSPropertyOp0
 70
     1
102
RTVSPropertyOp1
 70
     1
102
RTVSPropertyOp2
 70
     1
102
RTVSPropertyOp3
 70
     1
102
RTVSPropertyOp4
 70
     1
102
RTVSPropertyOp5
 70
     1
102
RTVSPropertyOp6
 70
     1
102
RTVSPropertyOp7
 70
     1
102
RTVSPropertyOp8
 70
     1
102
RTVSPropertyOp9
 70
     1
102
RTVSPropertyOp10
 70
     1
102
RTVSPropertyOp11
 70
     1
102
RTVSPropertyOp12
 70
     1
102
RTVSPropertyOp13
 70
     1
102
RTVSPropertyOp14
 70
     1
102
RTVSPropertyOp15
 70
     1
102
RTVSPropertyOp16
 70
     1
102
RTVSPropertyOp17
 70
     1
102
RTVSPropertyOp18
 70
     1
102
RTVSPropertyOp19
 70
     1
102
RTVSPropertyOp20
 70
     1
102
RTVSPropertyOp21
 70
     1
102
RTVSPropertyOp22
 70
     1
102
RTVSPropertyOp23
 70
     1
102
RTVSPropertyOp24
 70
     1
102
RTVSPropertyOp25
 70
     1
102
RTVSPropertyOp26
 70
     1
102
RTVSPropertyOp27
 70
     1
102
RTVSPropertyOp28
 70
     1
102
RTVSPropertyOp29
 70
     1
102
RTVSPropertyOp30
 70
     1
102
RTVSPropertyOp31
 70
     1
102
RTVSPropertyOp32
 70
     1
102
RTVSPropertyOp33
 70
     1
102
RTVSPropertyOp34
 70
     1
102
RTVSPropertyOp35
 70
     1
102
RTVSPropertyOp36
 70
     1
102
RTVSPropertyOp37
 70
     1
102
RTVSPropertyOp38
 70
     1
102
RTVSPropertyOp39
 70
     1
102
RTVSPropertyOp40
 70
     1
102
RTVSPropertyOp41
 70
     1
102
RTVSPropertyOp42
 70
     1
102
RTVSPropertyOp43
 70
     1
102
RTVSPropertyOp44
 70
     1
102
RTVSPropertyOp45
 70
     1
102
RTVSPropertyOp46
 70
     1
102
RTVSPropertyOp47
 70
     1
102
RTVSPropertyOp48
 70
     1
102
RTVSPropertyOp49
 70
     1
102
RTVSPropertyOp50
 70
     1
102
RTVSPropertyOp51
 70
     0
102
RTVSPropertyOp52
 70
     0
102
RTVSPropertyOp53
 70
     1
102
RTVSPropertyOp54
 70
     1
102
RTVSPropertyOp55
 70
     1
102
RTVSPropertyOp56
 70
     1
102
RTVSPropertyOp57
 70
     1
102
RTVSPropertyOp58
 70
     1
102
RTVSPropertyOp59
 70
     1
102
RTVSPropertyOp60
 70
     1
102
RTVSPropertyOp61
 70
     1
102
RTVSPropertyOp62
 70
     1
  0
XRECORD
  5
19DB
102
{ACAD_REACTORS
330
19DA
102
}
330
19DA
100
AcDbXrecord
280
     1
102
RTVSPost2010Prop28
280
     0
102
RTVSPost2010PropOp28
 70
     0
102
RTVSPost2010Prop29
280
     1
102
RTVSPost2010PropOp29
 70
     0
102
RTVSPost2010Prop30
280
     1
102
RTVSPost2010PropOp30
 70
     0
102
RTVSPost2010Prop31
280
     0
102
RTVSPost2010PropOp31
 70
     0
102
RTVSPost2010Prop32
280
     0
102
RTVSPost2010PropOp32
 70
     0
102
RTVSPost2010Prop33
280
     0
102
RTVSPost2010PropOp33
 70
     0
102
RTVSPost2010Prop34
280
     0
102
RTVSPost2010PropOp34
 70
     0
102
RTVSPost2010Prop35
280
     0
102
RTVSPost2010PropOp35
 70
     0
102
RTVSPost2010Prop36
280
     0
102
RTVSPost2010PropOp36
 70
     0
102
RTVSPost2010Prop37
 90
       50
102
RTVSPost2010PropOp37
 70
     0
102
RTVSPost2010Prop38
140
0.0
102
RTVSPost2010PropOp38
 70
     0
102
RTVSPost2010Prop39
140
1.0
102
RTVSPost2010PropOp39
 70
     0
102
RTVSPost2010Prop40
 90
        0
102
RTVSPost2010PropOp40
 70
     0
102
RTVSPost2010Prop41ColorIndex
 90
       18
102
RTVSPost2010Prop41ColorRGB
 90
        0
102
RTVSPost2010PropOp41
 70
     0
102
RTVSPost2010Prop42
 90
       50
102
RTVSPost2010PropOp42
 70
     0
102
RTVSPost2010Prop43
 90
        3
102
RTVSPost2010PropOp43
 70
     0
102
RTVSPost2010Prop44ColorIndex
 90
        5
102
RTVSPost2010Prop44ColorRGB
 90
      255
102
RTVSPost2010PropOp44
 70
     0
102
RTVSPost2010Prop45
280
     0
102
RTVSPost2010PropOp45
 70
     0
102
RTVSPost2010Prop46
 90
       50
102
RTVSPost2010PropOp46
 70
     0
102
RTVSPost2010Prop47
 90
       50
102
RTVSPost2010PropOp47
 70
     0
102
RTVSPost2010Prop48
 90
       50
102
RTVSPost2010PropOp48
 70
     0
102
RTVSPost2010Prop49
280
     0
102
RTVSPost2010PropOp49
 70
     0
102
RTVSPost2010Prop50
 90
       50
102
RTVSPost2010PropOp50
 70
     0
102
RTVSPost2010Prop51ColorIndex
 90
      256
102
RTVSPost2010Prop51ColorRGB
 90
-16777216
102
RTVSPost2010PropOp51
 70
     0
102
RTVSPost2010Prop52
140
1.0
102
RTVSPost2010PropOp52
 70
     0
102
RTVSPost2010Prop53
 90
        2
102
RTVSPost2010PropOp53
 70
     0
102
RTVSPost2010Prop54
  1
strokes_ogs.tif
102
RTVSPost2010PropOp54
 70
     0
102
RTVSPost2010Prop55
280
     0
102
RTVSPost2010PropOp55
 70
     0
102
RTVSPost2010Prop56
140
1.0
102
RTVSPost2010PropOp56
 70
     0
102
RTVSPost2010Prop57
140
1.0
102
RTVSPost2010PropOp57
 70
     0
102
RTVSPropertyOp0
 70
     0
102
RTVSPropertyOp1
 70
     0
102
RTVSPropertyOp2
 70
     0
102
RTVSPropertyOp3
 70
     0
102
RTVSPropertyOp4
 70
     0
102
RTVSPropertyOp5
 70
     0
102
RTVSPropertyOp6
 70
     0
102
RTVSPropertyOp7
 70
     0
102
RTVSPropertyOp8
 70
     0
102
RTVSPropertyOp9
 70
     0
102
RTVSPropertyOp10
 70
     0
102
RTVSPropertyOp11
 70
     0
102
RTVSPropertyOp12
 70
     0
102
RTVSPropertyOp13
 70
     0
102
RTVSPropertyOp14
 70
     2
102
RTVSPropertyOp15
 70
     0
102
RTVSPropertyOp16
 70
     0
102
RTVSPropertyOp17
 70
     0
102
RTVSPropertyOp18
 70
     0
102
RTVSPropertyOp19
 70
     0
102
RTVSPropertyOp20
 70
     0
102
RTVSPropertyOp21
 70
     0
102
RTVSPropertyOp22
 70
     0
102
RTVSPropertyOp23
 70
     0
102
RTVSPropertyOp24
 70
     0
102
RTVSPropertyOp25
 70
     0
102
RTVSPropertyOp26
 70
     0
102
RTVSPropertyOp27
 70
     0
102
RTVSPropertyOp28
 70
     0
102
RTVSPropertyOp29
 70
     0
102
RTVSPropertyOp30
 70
     0
102
RTVSPropertyOp31
 70
     0
102
RTVSPropertyOp32
 70
     0
102
RTVSPropertyOp33
 70
     0
102
RTVSPropertyOp34
 70
     0
102
RTVSPropertyOp35
 70
     0
102
RTVSPropertyOp36
 70
     0
102
RTVSPropertyOp37
 70
     0
102
RTVSPropertyOp38
 70
     0
102
RTVSPropertyOp39
 70
     0
102
RTVSPropertyOp40
 70
     0
102
RTVSPropertyOp41
 70
     0
102
RTVSPropertyOp42
 70
     0
102
RTVSPropertyOp43
 70
     0
102
RTVSPropertyOp44
 70
     0
102
RTVSPropertyOp45
 70
     0
102
RTVSPropertyOp46
 70
     0
102
RTVSPropertyOp47
 70
     0
102
RTVSPropertyOp48
 70
     0
102
RTVSPropertyOp49
 70
     0
102
RTVSPropertyOp50
 70
     0
102
RTVSPropertyOp51
 70
     0
102
RTVSPropertyOp52
 70
     0
102
RTVSPropertyOp53
 70
     0
102
RTVSPropertyOp54
 70
     0
102
RTVSPropertyOp55
 70
     0
102
RTVSPropertyOp56
 70
     0
102
RTVSPropertyOp57
 70
     0
102
RTVSPropertyOp58
 70
     0
102
RTVSPropertyOp59
 70
     0
102
RTVSPropertyOp60
 70
     0
102
RTVSPropertyOp61
 70
     0
102
RTVSPropertyOp62
 70
     0
  0
XRECORD
  5
19C4
102
{ACAD_REACTORS
330
19C3
102
}
330
19C3
100
AcDbXrecord
280
     1
102
RTVSPost2010Prop28
280
     0
102
RTVSPost2010PropOp28
 70
     1
102
RTVSPost2010Prop29
280
     1
102
RTVSPost2010PropOp29
 70
     1
102
RTVSPost2010Prop30
280
     1
102
RTVSPost2010PropOp30
 70
     1
102
RTVSPost2010Prop31
280
     0
102
RTVSPost2010PropOp31
 70
     1
102
RTVSPost2010Prop32
280
     0
102
RTVSPost2010PropOp32
 70
     1
102
RTVSPost2010Prop33
280
     0
102
RTVSPost2010PropOp33
 70
     1
102
RTVSPost2010Prop34
280
     0
102
RTVSPost2010PropOp34
 70
     1
102
RTVSPost2010Prop35
280
     0
102
RTVSPost2010PropOp35
 70
     1
102
RTVSPost2010Prop36
280
     0
102
RTVSPost2010PropOp36
 70
     1
102
RTVSPost2010Prop37
 90
       50
102
RTVSPost2010PropOp37
 70
     1
102
RTVSPost2010Prop38
140
0.0
102
RTVSPost2010PropOp38
 70
     1
102
RTVSPost2010Prop39
140
1.0
102
RTVSPost2010PropOp39
 70
     1
102
RTVSPost2010Prop40
 90
        0
102
RTVSPost2010PropOp40
 70
     1
102
RTVSPost2010Prop41ColorIndex
 90
       18
102
RTVSPost2010Prop41ColorRGB
 90
        0
102
RTVSPost2010PropOp41
 70
     1
102
RTVSPost2010Prop42
 90
       50
102
RTVSPost2010PropOp42
 70
     1
102
RTVSPost2010Prop43
 90
        3
102
RTVSPost2010PropOp43
 70
     1
102
RTVSPost2010Prop44ColorIndex
 90
        5
102
RTVSPost2010Prop44ColorRGB
 90
      255
102
RTVSPost2010PropOp44
 70
     1
102
RTVSPost2010Prop45
280
     0
102
RTVSPost2010PropOp45
 70
     1
102
RTVSPost2010Prop46
 90
       50
102
RTVSPost2010PropOp46
 70
     1
102
RTVSPost2010Prop47
 90
       50
102
RTVSPost2010PropOp47
 70
     1
102
RTVSPost2010Prop48
 90
       50
102
RTVSPost2010PropOp48
 70
     1
102
RTVSPost2010Prop49
280
     0
102
RTVSPost2010PropOp49
 70
     1
102
RTVSPost2010Prop50
 90
       50
102
RTVSPost2010PropOp50
 70
     1
102
RTVSPost2010Prop51ColorIndex
 90
      256
102
RTVSPost2010Prop51ColorRGB
 90
-16777216
102
RTVSPost2010PropOp51
 70
     0
102
RTVSPost2010Prop52
140
1.0
102
RTVSPost2010PropOp52
 70
     0
102
RTVSPost2010Prop53
 90
        2
102
RTVSPost2010PropOp53
 70
     1
102
RTVSPost2010Prop54
  1
strokes_ogs.tif
102
RTVSPost2010PropOp54
 70
     1
102
RTVSPost2010Prop55
280
     0
102
RTVSPost2010PropOp55
 70
     1
102
RTVSPost2010Prop56
140
1.0
102
RTVSPost2010PropOp56
 70
     1
102
RTVSPost2010Prop57
140
1.0
102
RTVSPost2010PropOp57
 70
     1
102
RTVSPropertyOp0
 70
     1
102
RTVSPropertyOp1
 70
     1
102
RTVSPropertyOp2
 70
     1
102
RTVSPropertyOp3
 70
     1
102
RTVSPropertyOp4
 70
     1
102
RTVSPropertyOp5
 70
     1
102
RTVSPropertyOp6
 70
     1
102
RTVSPropertyOp7
 70
     1
102
RTVSPropertyOp8
 70
     1
102
RTVSPropertyOp9
 70
     1
102
RTVSPropertyOp10
 70
     1
102
RTVSPropertyOp11
 70
     1
102
RTVSPropertyOp12
 70
     1
102
RTVSPropertyOp13
 70
     1
102
RTVSPropertyOp14
 70
     1
102
RTVSPropertyOp15
 70
     1
102
RTVSPropertyOp16
 70
     1
102
RTVSPropertyOp17
 70
     1
102
RTVSPropertyOp18
 70
     1
102
RTVSPropertyOp19
 70
     1
102
RTVSPropertyOp20
 70
     1
102
RTVSPropertyOp21
 70
     1
102
RTVSPropertyOp22
 70
     1
102
RTVSPropertyOp23
 70
     1
102
RTVSPropertyOp24
 70
     1
102
RTVSPropertyOp25
 70
     1
102
RTVSPropertyOp26
 70
     1
102
RTVSPropertyOp27
 70
     1
102
RTVSPropertyOp28
 70
     1
102
RTVSPropertyOp29
 70
     1
102
RTVSPropertyOp30
 70
     1
102
RTVSPropertyOp31
 70
     1
102
RTVSPropertyOp32
 70
     1
102
RTVSPropertyOp33
 70
     1
102
RTVSPropertyOp34
 70
     1
102
RTVSPropertyOp35
 70
     1
102
RTVSPropertyOp36
 70
     1
102
RTVSPropertyOp37
 70
     1
102
RTVSPropertyOp38
 70
     1
102
RTVSPropertyOp39
 70
     1
102
RTVSPropertyOp40
 70
     1
102
RTVSPropertyOp41
 70
     1
102
RTVSPropertyOp42
 70
     1
102
RTVSPropertyOp43
 70
     1
102
RTVSPropertyOp44
 70
     1
102
RTVSPropertyOp45
 70
     1
102
RTVSPropertyOp46
 70
     1
102
RTVSPropertyOp47
 70
     1
102
RTVSPropertyOp48
 70
     1
102
RTVSPropertyOp49
 70
     1
102
RTVSPropertyOp50
 70
     1
102
RTVSPropertyOp51
 70
     0
102
RTVSPropertyOp52
 70
     0
102
RTVSPropertyOp53
 70
     1
102
RTVSPropertyOp54
 70
     1
102
RTVSPropertyOp55
 70
     1
102
RTVSPropertyOp56
 70
     1
102
RTVSPropertyOp57
 70
     1
102
RTVSPropertyOp58
 70
     1
102
RTVSPropertyOp59
 70
     1
102
RTVSPropertyOp60
 70
     1
102
RTVSPropertyOp61
 70
     1
102
RTVSPropertyOp62
 70
     1
  0
XRECORD
  5
19A8
102
{ACAD_REACTORS
330
19A7
102
}
330
19A7
100
AcDbXrecord
280
     1
102
RTVSPost2010Prop28
280
     0
102
RTVSPost2010PropOp28
 70
     1
102
RTVSPost2010Prop29
280
     1
102
RTVSPost2010PropOp29
 70
     1
102
RTVSPost2010Prop30
280
     1
102
RTVSPost2010PropOp30
 70
     1
102
RTVSPost2010Prop31
280
     0
102
RTVSPost2010PropOp31
 70
     1
102
RTVSPost2010Prop32
280
     0
102
RTVSPost2010PropOp32
 70
     1
102
RTVSPost2010Prop33
280
     0
102
RTVSPost2010PropOp33
 70
     1
102
RTVSPost2010Prop34
280
     0
102
RTVSPost2010PropOp34
 70
     1
102
RTVSPost2010Prop35
280
     0
102
RTVSPost2010PropOp35
 70
     1
102
RTVSPost2010Prop36
280
     0
102
RTVSPost2010PropOp36
 70
     1
102
RTVSPost2010Prop37
 90
       50
102
RTVSPost2010PropOp37
 70
     1
102
RTVSPost2010Prop38
140
0.0
102
RTVSPost2010PropOp38
 70
     1
102
RTVSPost2010Prop39
140
1.0
102
RTVSPost2010PropOp39
 70
     1
102
RTVSPost2010Prop40
 90
        0
102
RTVSPost2010PropOp40
 70
     1
102
RTVSPost2010Prop41ColorIndex
 90
       18
102
RTVSPost2010Prop41ColorRGB
 90
        0
102
RTVSPost2010PropOp41
 70
     1
102
RTVSPost2010Prop42
 90
       50
102
RTVSPost2010PropOp42
 70
     1
102
RTVSPost2010Prop43
 90
        3
102
RTVSPost2010PropOp43
 70
     1
102
RTVSPost2010Prop44ColorIndex
 90
        5
102
RTVSPost2010Prop44ColorRGB
 90
      255
102
RTVSPost2010PropOp44
 70
     1
102
RTVSPost2010Prop45
280
     0
102
RTVSPost2010PropOp45
 70
     1
102
RTVSPost2010Prop46
 90
       50
102
RTVSPost2010PropOp46
 70
     1
102
RTVSPost2010Prop47
 90
       50
102
RTVSPost2010PropOp47
 70
     1
102
RTVSPost2010Prop48
 90
       50
102
RTVSPost2010PropOp48
 70
     1
102
RTVSPost2010Prop49
280
     0
102
RTVSPost2010PropOp49
 70
     1
102
RTVSPost2010Prop50
 90
       50
102
RTVSPost2010PropOp50
 70
     1
102
RTVSPost2010Prop51ColorIndex
 90
      256
102
RTVSPost2010Prop51ColorRGB
 90
-16777216
102
RTVSPost2010PropOp51
 70
     0
102
RTVSPost2010Prop52
140
1.0
102
RTVSPost2010PropOp52
 70
     0
102
RTVSPost2010Prop53
 90
        2
102
RTVSPost2010PropOp53
 70
     1
102
RTVSPost2010Prop54
  1
strokes_ogs.tif
102
RTVSPost2010PropOp54
 70
     1
102
RTVSPost2010Prop55
280
     0
102
RTVSPost2010PropOp55
 70
     1
102
RTVSPost2010Prop56
140
1.0
102
RTVSPost2010PropOp56
 70
     1
102
RTVSPost2010Prop57
140
1.0
102
RTVSPost2010PropOp57
 70
     1
102
RTVSPropertyOp0
 70
     1
102
RTVSPropertyOp1
 70
     1
102
RTVSPropertyOp2
 70
     1
102
RTVSPropertyOp3
 70
     1
102
RTVSPropertyOp4
 70
     1
102
RTVSPropertyOp5
 70
     1
102
RTVSPropertyOp6
 70
     1
102
RTVSPropertyOp7
 70
     1
102
RTVSPropertyOp8
 70
     1
102
RTVSPropertyOp9
 70
     1
102
RTVSPropertyOp10
 70
     1
102
RTVSPropertyOp11
 70
     1
102
RTVSPropertyOp12
 70
     1
102
RTVSPropertyOp13
 70
     1
102
RTVSPropertyOp14
 70
     1
102
RTVSPropertyOp15
 70
     1
102
RTVSPropertyOp16
 70
     1
102
RTVSPropertyOp17
 70
     1
102
RTVSPropertyOp18
 70
     1
102
RTVSPropertyOp19
 70
     1
102
RTVSPropertyOp20
 70
     1
102
RTVSPropertyOp21
 70
     1
102
RTVSPropertyOp22
 70
     1
102
RTVSPropertyOp23
 70
     1
102
RTVSPropertyOp24
 70
     1
102
RTVSPropertyOp25
 70
     1
102
RTVSPropertyOp26
 70
     1
102
RTVSPropertyOp27
 70
     1
102
RTVSPropertyOp28
 70
     1
102
RTVSPropertyOp29
 70
     1
102
RTVSPropertyOp30
 70
     1
102
RTVSPropertyOp31
 70
     1
102
RTVSPropertyOp32
 70
     1
102
RTVSPropertyOp33
 70
     1
102
RTVSPropertyOp34
 70
     1
102
RTVSPropertyOp35
 70
     1
102
RTVSPropertyOp36
 70
     1
102
RTVSPropertyOp37
 70
     1
102
RTVSPropertyOp38
 70
     1
102
RTVSPropertyOp39
 70
     1
102
RTVSPropertyOp40
 70
     1
102
RTVSPropertyOp41
 70
     1
102
RTVSPropertyOp42
 70
     1
102
RTVSPropertyOp43
 70
     1
102
RTVSPropertyOp44
 70
     1
102
RTVSPropertyOp45
 70
     1
102
RTVSPropertyOp46
 70
     1
102
RTVSPropertyOp47
 70
     1
102
RTVSPropertyOp48
 70
     1
102
RTVSPropertyOp49
 70
     1
102
RTVSPropertyOp50
 70
     1
102
RTVSPropertyOp51
 70
     0
102
RTVSPropertyOp52
 70
     0
102
RTVSPropertyOp53
 70
     1
102
RTVSPropertyOp54
 70
     1
102
RTVSPropertyOp55
 70
     1
102
RTVSPropertyOp56
 70
     1
102
RTVSPropertyOp57
 70
     1
102
RTVSPropertyOp58
 70
     1
102
RTVSPropertyOp59
 70
     1
102
RTVSPropertyOp60
 70
     1
102
RTVSPropertyOp61
 70
     1
102
RTVSPropertyOp62
 70
     1
  0
XRECORD
  5
19AA
102
{ACAD_REACTORS
330
19A9
102
}
330
19A9
100
AcDbXrecord
280
     1
102
RTVSPost2010Prop28
280
     0
102
RTVSPost2010PropOp28
 70
     1
102
RTVSPost2010Prop29
280
     1
102
RTVSPost2010PropOp29
 70
     1
102
RTVSPost2010Prop30
280
     1
102
RTVSPost2010PropOp30
 70
     1
102
RTVSPost2010Prop31
280
     0
102
RTVSPost2010PropOp31
 70
     1
102
RTVSPost2010Prop32
280
     0
102
RTVSPost2010PropOp32
 70
     1
102
RTVSPost2010Prop33
280
     0
102
RTVSPost2010PropOp33
 70
     1
102
RTVSPost2010Prop34
280
     0
102
RTVSPost2010PropOp34
 70
     1
102
RTVSPost2010Prop35
280
     0
102
RTVSPost2010PropOp35
 70
     1
102
RTVSPost2010Prop36
280
     0
102
RTVSPost2010PropOp36
 70
     1
102
RTVSPost2010Prop37
 90
       50
102
RTVSPost2010PropOp37
 70
     1
102
RTVSPost2010Prop38
140
0.0
102
RTVSPost2010PropOp38
 70
     1
102
RTVSPost2010Prop39
140
1.0
102
RTVSPost2010PropOp39
 70
     1
102
RTVSPost2010Prop40
 90
        0
102
RTVSPost2010PropOp40
 70
     1
102
RTVSPost2010Prop41ColorIndex
 90
       18
102
RTVSPost2010Prop41ColorRGB
 90
        0
102
RTVSPost2010PropOp41
 70
     1
102
RTVSPost2010Prop42
 90
       50
102
RTVSPost2010PropOp42
 70
     1
102
RTVSPost2010Prop43
 90
        3
102
RTVSPost2010PropOp43
 70
     1
102
RTVSPost2010Prop44ColorIndex
 90
        5
102
RTVSPost2010Prop44ColorRGB
 90
      255
102
RTVSPost2010PropOp44
 70
     1
102
RTVSPost2010Prop45
280
     0
102
RTVSPost2010PropOp45
 70
     1
102
RTVSPost2010Prop46
 90
       50
102
RTVSPost2010PropOp46
 70
     1
102
RTVSPost2010Prop47
 90
       50
102
RTVSPost2010PropOp47
 70
     1
102
RTVSPost2010Prop48
 90
       50
102
RTVSPost2010PropOp48
 70
     1
102
RTVSPost2010Prop49
280
     0
102
RTVSPost2010PropOp49
 70
     1
102
RTVSPost2010Prop50
 90
       50
102
RTVSPost2010PropOp50
 70
     1
102
RTVSPost2010Prop51ColorIndex
 90
      256
102
RTVSPost2010Prop51ColorRGB
 90
-16777216
102
RTVSPost2010PropOp51
 70
     0
102
RTVSPost2010Prop52
140
1.0
102
RTVSPost2010PropOp52
 70
     0
102
RTVSPost2010Prop53
 90
        2
102
RTVSPost2010PropOp53
 70
     1
102
RTVSPost2010Prop54
  1
strokes_ogs.tif
102
RTVSPost2010PropOp54
 70
     1
102
RTVSPost2010Prop55
280
     0
102
RTVSPost2010PropOp55
 70
     1
102
RTVSPost2010Prop56
140
1.0
102
RTVSPost2010PropOp56
 70
     1
102
RTVSPost2010Prop57
140
1.0
102
RTVSPost2010PropOp57
 70
     1
102
RTVSPropertyOp0
 70
     1
102
RTVSPropertyOp1
 70
     1
102
RTVSPropertyOp2
 70
     1
102
RTVSPropertyOp3
 70
     1
102
RTVSPropertyOp4
 70
     1
102
RTVSPropertyOp5
 70
     1
102
RTVSPropertyOp6
 70
     1
102
RTVSPropertyOp7
 70
     1
102
RTVSPropertyOp8
 70
     1
102
RTVSPropertyOp9
 70
     1
102
RTVSPropertyOp10
 70
     1
102
RTVSPropertyOp11
 70
     1
102
RTVSPropertyOp12
 70
     1
102
RTVSPropertyOp13
 70
     1
102
RTVSPropertyOp14
 70
     1
102
RTVSPropertyOp15
 70
     1
102
RTVSPropertyOp16
 70
     1
102
RTVSPropertyOp17
 70
     1
102
RTVSPropertyOp18
 70
     1
102
RTVSPropertyOp19
 70
     1
102
RTVSPropertyOp20
 70
     1
102
RTVSPropertyOp21
 70
     1
102
RTVSPropertyOp22
 70
     1
102
RTVSPropertyOp23
 70
     1
102
RTVSPropertyOp24
 70
     1
102
RTVSPropertyOp25
 70
     1
102
RTVSPropertyOp26
 70
     1
102
RTVSPropertyOp27
 70
     1
102
RTVSPropertyOp28
 70
     1
102
RTVSPropertyOp29
 70
     1
102
RTVSPropertyOp30
 70
     1
102
RTVSPropertyOp31
 70
     1
102
RTVSPropertyOp32
 70
     1
102
RTVSPropertyOp33
 70
     1
102
RTVSPropertyOp34
 70
     1
102
RTVSPropertyOp35
 70
     1
102
RTVSPropertyOp36
 70
     1
102
RTVSPropertyOp37
 70
     1
102
RTVSPropertyOp38
 70
     1
102
RTVSPropertyOp39
 70
     1
102
RTVSPropertyOp40
 70
     1
102
RTVSPropertyOp41
 70
     1
102
RTVSPropertyOp42
 70
     1
102
RTVSPropertyOp43
 70
     1
102
RTVSPropertyOp44
 70
     1
102
RTVSPropertyOp45
 70
     1
102
RTVSPropertyOp46
 70
     1
102
RTVSPropertyOp47
 70
     1
102
RTVSPropertyOp48
 70
     1
102
RTVSPropertyOp49
 70
     1
102
RTVSPropertyOp50
 70
     1
102
RTVSPropertyOp51
 70
     0
102
RTVSPropertyOp52
 70
     0
102
RTVSPropertyOp53
 70
     1
102
RTVSPropertyOp54
 70
     1
102
RTVSPropertyOp55
 70
     1
102
RTVSPropertyOp56
 70
     1
102
RTVSPropertyOp57
 70
     1
102
RTVSPropertyOp58
 70
     1
102
RTVSPropertyOp59
 70
     1
102
RTVSPropertyOp60
 70
     1
102
RTVSPropertyOp61
 70
     1
102
RTVSPropertyOp62
 70
     1
  0
XRECORD
  5
19AC
102
{ACAD_REACTORS
330
19AB
102
}
330
19AB
100
AcDbXrecord
280
     1
102
RTVSPost2010Prop28
280
     0
102
RTVSPost2010PropOp28
 70
     1
102
RTVSPost2010Prop29
280
     1
102
RTVSPost2010PropOp29
 70
     1
102
RTVSPost2010Prop30
280
     1
102
RTVSPost2010PropOp30
 70
     1
102
RTVSPost2010Prop31
280
     0
102
RTVSPost2010PropOp31
 70
     1
102
RTVSPost2010Prop32
280
     0
102
RTVSPost2010PropOp32
 70
     1
102
RTVSPost2010Prop33
280
     0
102
RTVSPost2010PropOp33
 70
     1
102
RTVSPost2010Prop34
280
     0
102
RTVSPost2010PropOp34
 70
     1
102
RTVSPost2010Prop35
280
     0
102
RTVSPost2010PropOp35
 70
     1
102
RTVSPost2010Prop36
280
     0
102
RTVSPost2010PropOp36
 70
     1
102
RTVSPost2010Prop37
 90
       50
102
RTVSPost2010PropOp37
 70
     1
102
RTVSPost2010Prop38
140
0.0
102
RTVSPost2010PropOp38
 70
     1
102
RTVSPost2010Prop39
140
1.0
102
RTVSPost2010PropOp39
 70
     1
102
RTVSPost2010Prop40
 90
        0
102
RTVSPost2010PropOp40
 70
     1
102
RTVSPost2010Prop41ColorIndex
 90
       18
102
RTVSPost2010Prop41ColorRGB
 90
        0
102
RTVSPost2010PropOp41
 70
     1
102
RTVSPost2010Prop42
 90
       50
102
RTVSPost2010PropOp42
 70
     1
102
RTVSPost2010Prop43
 90
        3
102
RTVSPost2010PropOp43
 70
     1
102
RTVSPost2010Prop44ColorIndex
 90
        5
102
RTVSPost2010Prop44ColorRGB
 90
      255
102
RTVSPost2010PropOp44
 70
     1
102
RTVSPost2010Prop45
280
     0
102
RTVSPost2010PropOp45
 70
     1
102
RTVSPost2010Prop46
 90
       50
102
RTVSPost2010PropOp46
 70
     1
102
RTVSPost2010Prop47
 90
       50
102
RTVSPost2010PropOp47
 70
     1
102
RTVSPost2010Prop48
 90
       50
102
RTVSPost2010PropOp48
 70
     1
102
RTVSPost2010Prop49
280
     0
102
RTVSPost2010PropOp49
 70
     1
102
RTVSPost2010Prop50
 90
       50
102
RTVSPost2010PropOp50
 70
     1
102
RTVSPost2010Prop51ColorIndex
 90
      256
102
RTVSPost2010Prop51ColorRGB
 90
-16777216
102
RTVSPost2010PropOp51
 70
     0
102
RTVSPost2010Prop52
140
1.0
102
RTVSPost2010PropOp52
 70
     0
102
RTVSPost2010Prop53
 90
        2
102
RTVSPost2010PropOp53
 70
     1
102
RTVSPost2010Prop54
  1
strokes_ogs.tif
102
RTVSPost2010PropOp54
 70
     1
102
RTVSPost2010Prop55
280
     0
102
RTVSPost2010PropOp55
 70
     1
102
RTVSPost2010Prop56
140
1.0
102
RTVSPost2010PropOp56
 70
     1
102
RTVSPost2010Prop57
140
1.0
102
RTVSPost2010PropOp57
 70
     1
102
RTVSPropertyOp0
 70
     1
102
RTVSPropertyOp1
 70
     1
102
RTVSPropertyOp2
 70
     1
102
RTVSPropertyOp3
 70
     1
102
RTVSPropertyOp4
 70
     1
102
RTVSPropertyOp5
 70
     1
102
RTVSPropertyOp6
 70
     1
102
RTVSPropertyOp7
 70
     1
102
RTVSPropertyOp8
 70
     1
102
RTVSPropertyOp9
 70
     1
102
RTVSPropertyOp10
 70
     1
102
RTVSPropertyOp11
 70
     1
102
RTVSPropertyOp12
 70
     1
102
RTVSPropertyOp13
 70
     1
102
RTVSPropertyOp14
 70
     1
102
RTVSPropertyOp15
 70
     1
102
RTVSPropertyOp16
 70
     1
102
RTVSPropertyOp17
 70
     1
102
RTVSPropertyOp18
 70
     1
102
RTVSPropertyOp19
 70
     1
102
RTVSPropertyOp20
 70
     1
102
RTVSPropertyOp21
 70
     1
102
RTVSPropertyOp22
 70
     1
102
RTVSPropertyOp23
 70
     1
102
RTVSPropertyOp24
 70
     1
102
RTVSPropertyOp25
 70
     1
102
RTVSPropertyOp26
 70
     1
102
RTVSPropertyOp27
 70
     1
102
RTVSPropertyOp28
 70
     1
102
RTVSPropertyOp29
 70
     1
102
RTVSPropertyOp30
 70
     1
102
RTVSPropertyOp31
 70
     1
102
RTVSPropertyOp32
 70
     1
102
RTVSPropertyOp33
 70
     1
102
RTVSPropertyOp34
 70
     1
102
RTVSPropertyOp35
 70
     1
102
RTVSPropertyOp36
 70
     1
102
RTVSPropertyOp37
 70
     1
102
RTVSPropertyOp38
 70
     1
102
RTVSPropertyOp39
 70
     1
102
RTVSPropertyOp40
 70
     1
102
RTVSPropertyOp41
 70
     1
102
RTVSPropertyOp42
 70
     1
102
RTVSPropertyOp43
 70
     1
102
RTVSPropertyOp44
 70
     1
102
RTVSPropertyOp45
 70
     1
102
RTVSPropertyOp46
 70
     1
102
RTVSPropertyOp47
 70
     1
102
RTVSPropertyOp48
 70
     1
102
RTVSPropertyOp49
 70
     1
102
RTVSPropertyOp50
 70
     1
102
RTVSPropertyOp51
 70
     0
102
RTVSPropertyOp52
 70
     0
102
RTVSPropertyOp53
 70
     1
102
RTVSPropertyOp54
 70
     1
102
RTVSPropertyOp55
 70
     1
102
RTVSPropertyOp56
 70
     1
102
RTVSPropertyOp57
 70
     1
102
RTVSPropertyOp58
 70
     1
102
RTVSPropertyOp59
 70
     1
102
RTVSPropertyOp60
 70
     1
102
RTVSPropertyOp61
 70
     1
102
RTVSPropertyOp62
 70
     1
  0
XRECORD
  5
19AE
102
{ACAD_REACTORS
330
19AD
102
}
330
19AD
100
AcDbXrecord
280
     1
102
RTVSPost2010Prop28
280
     0
102
RTVSPost2010PropOp28
 70
     1
102
RTVSPost2010Prop29
280
     1
102
RTVSPost2010PropOp29
 70
     1
102
RTVSPost2010Prop30
280
     1
102
RTVSPost2010PropOp30
 70
     1
102
RTVSPost2010Prop31
280
     0
102
RTVSPost2010PropOp31
 70
     1
102
RTVSPost2010Prop32
280
     0
102
RTVSPost2010PropOp32
 70
     1
102
RTVSPost2010Prop33
280
     0
102
RTVSPost2010PropOp33
 70
     1
102
RTVSPost2010Prop34
280
     0
102
RTVSPost2010PropOp34
 70
     1
102
RTVSPost2010Prop35
280
     0
102
RTVSPost2010PropOp35
 70
     1
102
RTVSPost2010Prop36
280
     0
102
RTVSPost2010PropOp36
 70
     1
102
RTVSPost2010Prop37
 90
       50
102
RTVSPost2010PropOp37
 70
     1
102
RTVSPost2010Prop38
140
0.0
102
RTVSPost2010PropOp38
 70
     1
102
RTVSPost2010Prop39
140
1.0
102
RTVSPost2010PropOp39
 70
     1
102
RTVSPost2010Prop40
 90
        0
102
RTVSPost2010PropOp40
 70
     1
102
RTVSPost2010Prop41ColorIndex
 90
       18
102
RTVSPost2010Prop41ColorRGB
 90
        0
102
RTVSPost2010PropOp41
 70
     1
102
RTVSPost2010Prop42
 90
       50
102
RTVSPost2010PropOp42
 70
     1
102
RTVSPost2010Prop43
 90
        3
102
RTVSPost2010PropOp43
 70
     1
102
RTVSPost2010Prop44ColorIndex
 90
        5
102
RTVSPost2010Prop44ColorRGB
 90
      255
102
RTVSPost2010PropOp44
 70
     1
102
RTVSPost2010Prop45
280
     0
102
RTVSPost2010PropOp45
 70
     1
102
RTVSPost2010Prop46
 90
       50
102
RTVSPost2010PropOp46
 70
     1
102
RTVSPost2010Prop47
 90
       50
102
RTVSPost2010PropOp47
 70
     1
102
RTVSPost2010Prop48
 90
       50
102
RTVSPost2010PropOp48
 70
     1
102
RTVSPost2010Prop49
280
     0
102
RTVSPost2010PropOp49
 70
     1
102
RTVSPost2010Prop50
 90
       50
102
RTVSPost2010PropOp50
 70
     1
102
RTVSPost2010Prop51ColorIndex
 90
      256
102
RTVSPost2010Prop51ColorRGB
 90
-16777216
102
RTVSPost2010PropOp51
 70
     0
102
RTVSPost2010Prop52
140
1.0
102
RTVSPost2010PropOp52
 70
     0
102
RTVSPost2010Prop53
 90
        2
102
RTVSPost2010PropOp53
 70
     1
102
RTVSPost2010Prop54
  1
strokes_ogs.tif
102
RTVSPost2010PropOp54
 70
     1
102
RTVSPost2010Prop55
280
     0
102
RTVSPost2010PropOp55
 70
     1
102
RTVSPost2010Prop56
140
1.0
102
RTVSPost2010PropOp56
 70
     1
102
RTVSPost2010Prop57
140
1.0
102
RTVSPost2010PropOp57
 70
     1
102
RTVSPropertyOp0
 70
     1
102
RTVSPropertyOp1
 70
     1
102
RTVSPropertyOp2
 70
     1
102
RTVSPropertyOp3
 70
     1
102
RTVSPropertyOp4
 70
     1
102
RTVSPropertyOp5
 70
     1
102
RTVSPropertyOp6
 70
     1
102
RTVSPropertyOp7
 70
     1
102
RTVSPropertyOp8
 70
     1
102
RTVSPropertyOp9
 70
     1
102
RTVSPropertyOp10
 70
     1
102
RTVSPropertyOp11
 70
     1
102
RTVSPropertyOp12
 70
     1
102
RTVSPropertyOp13
 70
     1
102
RTVSPropertyOp14
 70
     1
102
RTVSPropertyOp15
 70
     1
102
RTVSPropertyOp16
 70
     1
102
RTVSPropertyOp17
 70
     1
102
RTVSPropertyOp18
 70
     1
102
RTVSPropertyOp19
 70
     1
102
RTVSPropertyOp20
 70
     1
102
RTVSPropertyOp21
 70
     1
102
RTVSPropertyOp22
 70
     1
102
RTVSPropertyOp23
 70
     1
102
RTVSPropertyOp24
 70
     1
102
RTVSPropertyOp25
 70
     1
102
RTVSPropertyOp26
 70
     1
102
RTVSPropertyOp27
 70
     1
102
RTVSPropertyOp28
 70
     1
102
RTVSPropertyOp29
 70
     1
102
RTVSPropertyOp30
 70
     1
102
RTVSPropertyOp31
 70
     1
102
RTVSPropertyOp32
 70
     1
102
RTVSPropertyOp33
 70
     1
102
RTVSPropertyOp34
 70
     1
102
RTVSPropertyOp35
 70
     1
102
RTVSPropertyOp36
 70
     1
102
RTVSPropertyOp37
 70
     1
102
RTVSPropertyOp38
 70
     1
102
RTVSPropertyOp39
 70
     1
102
RTVSPropertyOp40
 70
     1
102
RTVSPropertyOp41
 70
     1
102
RTVSPropertyOp42
 70
     1
102
RTVSPropertyOp43
 70
     1
102
RTVSPropertyOp44
 70
     1
102
RTVSPropertyOp45
 70
     1
102
RTVSPropertyOp46
 70
     1
102
RTVSPropertyOp47
 70
     1
102
RTVSPropertyOp48
 70
     1
102
RTVSPropertyOp49
 70
     1
102
RTVSPropertyOp50
 70
     1
102
RTVSPropertyOp51
 70
     0
102
RTVSPropertyOp52
 70
     0
102
RTVSPropertyOp53
 70
     1
102
RTVSPropertyOp54
 70
     1
102
RTVSPropertyOp55
 70
     1
102
RTVSPropertyOp56
 70
     1
102
RTVSPropertyOp57
 70
     1
102
RTVSPropertyOp58
 70
     1
102
RTVSPropertyOp59
 70
     1
102
RTVSPropertyOp60
 70
     1
102
RTVSPropertyOp61
 70
     1
102
RTVSPropertyOp62
 70
     1
  0
XRECORD
  5
19CB
102
{ACAD_REACTORS
330
19CA
102
}
330
19CA
100
AcDbXrecord
280
     1
102
RTVSPost2010Prop28
280
     0
102
RTVSPost2010PropOp28
 70
     1
102
RTVSPost2010Prop29
280
     1
102
RTVSPost2010PropOp29
 70
     1
102
RTVSPost2010Prop30
280
     1
102
RTVSPost2010PropOp30
 70
     1
102
RTVSPost2010Prop31
280
     0
102
RTVSPost2010PropOp31
 70
     1
102
RTVSPost2010Prop32
280
     0
102
RTVSPost2010PropOp32
 70
     1
102
RTVSPost2010Prop33
280
     0
102
RTVSPost2010PropOp33
 70
     1
102
RTVSPost2010Prop34
280
     0
102
RTVSPost2010PropOp34
 70
     1
102
RTVSPost2010Prop35
280
     0
102
RTVSPost2010PropOp35
 70
     1
102
RTVSPost2010Prop36
280
     0
102
RTVSPost2010PropOp36
 70
     1
102
RTVSPost2010Prop37
 90
       50
102
RTVSPost2010PropOp37
 70
     1
102
RTVSPost2010Prop38
140
0.0
102
RTVSPost2010PropOp38
 70
     1
102
RTVSPost2010Prop39
140
1.0
102
RTVSPost2010PropOp39
 70
     1
102
RTVSPost2010Prop40
 90
        0
102
RTVSPost2010PropOp40
 70
     1
102
RTVSPost2010Prop41ColorIndex
 90
       18
102
RTVSPost2010Prop41ColorRGB
 90
        0
102
RTVSPost2010PropOp41
 70
     1
102
RTVSPost2010Prop42
 90
       50
102
RTVSPost2010PropOp42
 70
     1
102
RTVSPost2010Prop43
 90
        3
102
RTVSPost2010PropOp43
 70
     1
102
RTVSPost2010Prop44ColorIndex
 90
        5
102
RTVSPost2010Prop44ColorRGB
 90
      255
102
RTVSPost2010PropOp44
 70
     1
102
RTVSPost2010Prop45
280
     0
102
RTVSPost2010PropOp45
 70
     1
102
RTVSPost2010Prop46
 90
       50
102
RTVSPost2010PropOp46
 70
     1
102
RTVSPost2010Prop47
 90
       50
102
RTVSPost2010PropOp47
 70
     1
102
RTVSPost2010Prop48
 90
       50
102
RTVSPost2010PropOp48
 70
     1
102
RTVSPost2010Prop49
280
     0
102
RTVSPost2010PropOp49
 70
     1
102
RTVSPost2010Prop50
 90
       50
102
RTVSPost2010PropOp50
 70
     1
102
RTVSPost2010Prop51ColorIndex
 90
      256
102
RTVSPost2010Prop51ColorRGB
 90
-16777216
102
RTVSPost2010PropOp51
 70
     0
102
RTVSPost2010Prop52
140
1.0
102
RTVSPost2010PropOp52
 70
     0
102
RTVSPost2010Prop53
 90
        2
102
RTVSPost2010PropOp53
 70
     1
102
RTVSPost2010Prop54
  1
strokes_ogs.tif
102
RTVSPost2010PropOp54
 70
     1
102
RTVSPost2010Prop55
280
     0
102
RTVSPost2010PropOp55
 70
     1
102
RTVSPost2010Prop56
140
1.0
102
RTVSPost2010PropOp56
 70
     1
102
RTVSPost2010Prop57
140
1.0
102
RTVSPost2010PropOp57
 70
     1
102
RTVSPropertyOp0
 70
     1
102
RTVSPropertyOp1
 70
     1
102
RTVSPropertyOp2
 70
     1
102
RTVSPropertyOp3
 70
     1
102
RTVSPropertyOp4
 70
     1
102
RTVSPropertyOp5
 70
     1
102
RTVSPropertyOp6
 70
     1
102
RTVSPropertyOp7
 70
     1
102
RTVSPropertyOp8
 70
     1
102
RTVSPropertyOp9
 70
     1
102
RTVSPropertyOp10
 70
     1
102
RTVSPropertyOp11
 70
     1
102
RTVSPropertyOp12
 70
     1
102
RTVSPropertyOp13
 70
     1
102
RTVSPropertyOp14
 70
     1
102
RTVSPropertyOp15
 70
     1
102
RTVSPropertyOp16
 70
     1
102
RTVSPropertyOp17
 70
     1
102
RTVSPropertyOp18
 70
     1
102
RTVSPropertyOp19
 70
     1
102
RTVSPropertyOp20
 70
     1
102
RTVSPropertyOp21
 70
     1
102
RTVSPropertyOp22
 70
     1
102
RTVSPropertyOp23
 70
     1
102
RTVSPropertyOp24
 70
     1
102
RTVSPropertyOp25
 70
     1
102
RTVSPropertyOp26
 70
     1
102
RTVSPropertyOp27
 70
     1
102
RTVSPropertyOp28
 70
     1
102
RTVSPropertyOp29
 70
     1
102
RTVSPropertyOp30
 70
     1
102
RTVSPropertyOp31
 70
     1
102
RTVSPropertyOp32
 70
     1
102
RTVSPropertyOp33
 70
     1
102
RTVSPropertyOp34
 70
     1
102
RTVSPropertyOp35
 70
     1
102
RTVSPropertyOp36
 70
     1
102
RTVSPropertyOp37
 70
     1
102
RTVSPropertyOp38
 70
     1
102
RTVSPropertyOp39
 70
     1
102
RTVSPropertyOp40
 70
     1
102
RTVSPropertyOp41
 70
     1
102
RTVSPropertyOp42
 70
     1
102
RTVSPropertyOp43
 70
     1
102
RTVSPropertyOp44
 70
     1
102
RTVSPropertyOp45
 70
     1
102
RTVSPropertyOp46
 70
     1
102
RTVSPropertyOp47
 70
     1
102
RTVSPropertyOp48
 70
     1
102
RTVSPropertyOp49
 70
     1
102
RTVSPropertyOp50
 70
     1
102
RTVSPropertyOp51
 70
     0
102
RTVSPropertyOp52
 70
     0
102
RTVSPropertyOp53
 70
     1
102
RTVSPropertyOp54
 70
     1
102
RTVSPropertyOp55
 70
     1
102
RTVSPropertyOp56
 70
     1
102
RTVSPropertyOp57
 70
     1
102
RTVSPropertyOp58
 70
     1
102
RTVSPropertyOp59
 70
     1
102
RTVSPropertyOp60
 70
     1
102
RTVSPropertyOp61
 70
     1
102
RTVSPropertyOp62
 70
     1
  0
XRECORD
  5
19D7
102
{ACAD_REACTORS
330
19D6
102
}
330
19D6
100
AcDbXrecord
280
     1
102
RTVSPost2010Prop28
280
     0
102
RTVSPost2010PropOp28
 70
     0
102
RTVSPost2010Prop29
280
     1
102
RTVSPost2010PropOp29
 70
     0
102
RTVSPost2010Prop30
280
     1
102
RTVSPost2010PropOp30
 70
     0
102
RTVSPost2010Prop31
280
     0
102
RTVSPost2010PropOp31
 70
     0
102
RTVSPost2010Prop32
280
     0
102
RTVSPost2010PropOp32
 70
     0
102
RTVSPost2010Prop33
280
     0
102
RTVSPost2010PropOp33
 70
     0
102
RTVSPost2010Prop34
280
     0
102
RTVSPost2010PropOp34
 70
     0
102
RTVSPost2010Prop35
280
     0
102
RTVSPost2010PropOp35
 70
     0
102
RTVSPost2010Prop36
280
     0
102
RTVSPost2010PropOp36
 70
     0
102
RTVSPost2010Prop37
 90
       50
102
RTVSPost2010PropOp37
 70
     0
102
RTVSPost2010Prop38
140
0.0
102
RTVSPost2010PropOp38
 70
     0
102
RTVSPost2010Prop39
140
1.0
102
RTVSPost2010PropOp39
 70
     0
102
RTVSPost2010Prop40
 90
        0
102
RTVSPost2010PropOp40
 70
     0
102
RTVSPost2010Prop41ColorIndex
 90
       18
102
RTVSPost2010Prop41ColorRGB
 90
        0
102
RTVSPost2010PropOp41
 70
     0
102
RTVSPost2010Prop42
 90
       50
102
RTVSPost2010PropOp42
 70
     0
102
RTVSPost2010Prop43
 90
        3
102
RTVSPost2010PropOp43
 70
     0
102
RTVSPost2010Prop44ColorIndex
 90
        5
102
RTVSPost2010Prop44ColorRGB
 90
      255
102
RTVSPost2010PropOp44
 70
     0
102
RTVSPost2010Prop45
280
     0
102
RTVSPost2010PropOp45
 70
     0
102
RTVSPost2010Prop46
 90
       50
102
RTVSPost2010PropOp46
 70
     0
102
RTVSPost2010Prop47
 90
       50
102
RTVSPost2010PropOp47
 70
     0
102
RTVSPost2010Prop48
 90
       50
102
RTVSPost2010PropOp48
 70
     0
102
RTVSPost2010Prop49
280
     0
102
RTVSPost2010PropOp49
 70
     0
102
RTVSPost2010Prop50
 90
       50
102
RTVSPost2010PropOp50
 70
     0
102
RTVSPost2010Prop51ColorIndex
 90
      256
102
RTVSPost2010Prop51ColorRGB
 90
-16777216
102
RTVSPost2010PropOp51
 70
     0
102
RTVSPost2010Prop52
140
1.0
102
RTVSPost2010PropOp52
 70
     0
102
RTVSPost2010Prop53
 90
        2
102
RTVSPost2010PropOp53
 70
     0
102
RTVSPost2010Prop54
  1
strokes_ogs.tif
102
RTVSPost2010PropOp54
 70
     0
102
RTVSPost2010Prop55
280
     0
102
RTVSPost2010PropOp55
 70
     0
102
RTVSPost2010Prop56
140
1.0
102
RTVSPost2010PropOp56
 70
     0
102
RTVSPost2010Prop57
140
1.0
102
RTVSPost2010PropOp57
 70
     0
102
RTVSPropertyOp0
 70
     0
102
RTVSPropertyOp1
 70
     0
102
RTVSPropertyOp2
 70
     0
102
RTVSPropertyOp3
 70
     0
102
RTVSPropertyOp4
 70
     0
102
RTVSPropertyOp5
 70
     0
102
RTVSPropertyOp6
 70
     0
102
RTVSPropertyOp7
 70
     0
102
RTVSPropertyOp8
 70
     0
102
RTVSPropertyOp9
 70
     0
102
RTVSPropertyOp10
 70
     0
102
RTVSPropertyOp11
 70
     0
102
RTVSPropertyOp12
 70
     0
102
RTVSPropertyOp13
 70
     0
102
RTVSPropertyOp14
 70
     2
102
RTVSPropertyOp15
 70
     0
102
RTVSPropertyOp16
 70
     0
102
RTVSPropertyOp17
 70
     0
102
RTVSPropertyOp18
 70
     0
102
RTVSPropertyOp19
 70
     0
102
RTVSPropertyOp20
 70
     0
102
RTVSPropertyOp21
 70
     0
102
RTVSPropertyOp22
 70
     0
102
RTVSPropertyOp23
 70
     0
102
RTVSPropertyOp24
 70
     0
102
RTVSPropertyOp25
 70
     0
102
RTVSPropertyOp26
 70
     0
102
RTVSPropertyOp27
 70
     0
102
RTVSPropertyOp28
 70
     0
102
RTVSPropertyOp29
 70
     0
102
RTVSPropertyOp30
 70
     0
102
RTVSPropertyOp31
 70
     0
102
RTVSPropertyOp32
 70
     0
102
RTVSPropertyOp33
 70
     0
102
RTVSPropertyOp34
 70
     0
102
RTVSPropertyOp35
 70
     0
102
RTVSPropertyOp36
 70
     0
102
RTVSPropertyOp37
 70
     0
102
RTVSPropertyOp38
 70
     0
102
RTVSPropertyOp39
 70
     0
102
RTVSPropertyOp40
 70
     0
102
RTVSPropertyOp41
 70
     0
102
RTVSPropertyOp42
 70
     0
102
RTVSPropertyOp43
 70
     0
102
RTVSPropertyOp44
 70
     0
102
RTVSPropertyOp45
 70
     0
102
RTVSPropertyOp46
 70
     0
102
RTVSPropertyOp47
 70
     0
102
RTVSPropertyOp48
 70
     0
102
RTVSPropertyOp49
 70
     0
102
RTVSPropertyOp50
 70
     0
102
RTVSPropertyOp51
 70
     0
102
RTVSPropertyOp52
 70
     0
102
RTVSPropertyOp53
 70
     0
102
RTVSPropertyOp54
 70
     0
102
RTVSPropertyOp55
 70
     0
102
RTVSPropertyOp56
 70
     0
102
RTVSPropertyOp57
 70
     0
102
RTVSPropertyOp58
 70
     0
102
RTVSPropertyOp59
 70
     0
102
RTVSPropertyOp60
 70
     0
102
RTVSPropertyOp61
 70
     0
102
RTVSPropertyOp62
 70
     0
  0
XRECORD
  5
19C2
102
{ACAD_REACTORS
330
19C1
102
}
330
19C1
100
AcDbXrecord
280
     1
102
RTVSPost2010Prop28
280
     0
102
RTVSPost2010PropOp28
 70
     1
102
RTVSPost2010Prop29
280
     1
102
RTVSPost2010PropOp29
 70
     1
102
RTVSPost2010Prop30
280
     1
102
RTVSPost2010PropOp30
 70
     1
102
RTVSPost2010Prop31
280
     0
102
RTVSPost2010PropOp31
 70
     1
102
RTVSPost2010Prop32
280
     0
102
RTVSPost2010PropOp32
 70
     1
102
RTVSPost2010Prop33
280
     0
102
RTVSPost2010PropOp33
 70
     1
102
RTVSPost2010Prop34
280
     0
102
RTVSPost2010PropOp34
 70
     1
102
RTVSPost2010Prop35
280
     0
102
RTVSPost2010PropOp35
 70
     1
102
RTVSPost2010Prop36
280
     0
102
RTVSPost2010PropOp36
 70
     1
102
RTVSPost2010Prop37
 90
       50
102
RTVSPost2010PropOp37
 70
     1
102
RTVSPost2010Prop38
140
0.0
102
RTVSPost2010PropOp38
 70
     1
102
RTVSPost2010Prop39
140
1.0
102
RTVSPost2010PropOp39
 70
     1
102
RTVSPost2010Prop40
 90
        0
102
RTVSPost2010PropOp40
 70
     1
102
RTVSPost2010Prop41ColorIndex
 90
       18
102
RTVSPost2010Prop41ColorRGB
 90
        0
102
RTVSPost2010PropOp41
 70
     1
102
RTVSPost2010Prop42
 90
       50
102
RTVSPost2010PropOp42
 70
     1
102
RTVSPost2010Prop43
 90
        3
102
RTVSPost2010PropOp43
 70
     1
102
RTVSPost2010Prop44ColorIndex
 90
        5
102
RTVSPost2010Prop44ColorRGB
 90
      255
102
RTVSPost2010PropOp44
 70
     1
102
RTVSPost2010Prop45
280
     0
102
RTVSPost2010PropOp45
 70
     1
102
RTVSPost2010Prop46
 90
       50
102
RTVSPost2010PropOp46
 70
     1
102
RTVSPost2010Prop47
 90
       50
102
RTVSPost2010PropOp47
 70
     1
102
RTVSPost2010Prop48
 90
       50
102
RTVSPost2010PropOp48
 70
     1
102
RTVSPost2010Prop49
280
     0
102
RTVSPost2010PropOp49
 70
     1
102
RTVSPost2010Prop50
 90
       50
102
RTVSPost2010PropOp50
 70
     1
102
RTVSPost2010Prop51ColorIndex
 90
      256
102
RTVSPost2010Prop51ColorRGB
 90
-16777216
102
RTVSPost2010PropOp51
 70
     0
102
RTVSPost2010Prop52
140
1.0
102
RTVSPost2010PropOp52
 70
     0
102
RTVSPost2010Prop53
 90
        2
102
RTVSPost2010PropOp53
 70
     1
102
RTVSPost2010Prop54
  1
strokes_ogs.tif
102
RTVSPost2010PropOp54
 70
     1
102
RTVSPost2010Prop55
280
     0
102
RTVSPost2010PropOp55
 70
     1
102
RTVSPost2010Prop56
140
1.0
102
RTVSPost2010PropOp56
 70
     1
102
RTVSPost2010Prop57
140
1.0
102
RTVSPost2010PropOp57
 70
     1
102
RTVSPropertyOp0
 70
     1
102
RTVSPropertyOp1
 70
     1
102
RTVSPropertyOp2
 70
     1
102
RTVSPropertyOp3
 70
     1
102
RTVSPropertyOp4
 70
     1
102
RTVSPropertyOp5
 70
     1
102
RTVSPropertyOp6
 70
     1
102
RTVSPropertyOp7
 70
     1
102
RTVSPropertyOp8
 70
     1
102
RTVSPropertyOp9
 70
     1
102
RTVSPropertyOp10
 70
     1
102
RTVSPropertyOp11
 70
     1
102
RTVSPropertyOp12
 70
     1
102
RTVSPropertyOp13
 70
     1
102
RTVSPropertyOp14
 70
     1
102
RTVSPropertyOp15
 70
     1
102
RTVSPropertyOp16
 70
     1
102
RTVSPropertyOp17
 70
     1
102
RTVSPropertyOp18
 70
     1
102
RTVSPropertyOp19
 70
     1
102
RTVSPropertyOp20
 70
     1
102
RTVSPropertyOp21
 70
     1
102
RTVSPropertyOp22
 70
     1
102
RTVSPropertyOp23
 70
     1
102
RTVSPropertyOp24
 70
     1
102
RTVSPropertyOp25
 70
     1
102
RTVSPropertyOp26
 70
     1
102
RTVSPropertyOp27
 70
     1
102
RTVSPropertyOp28
 70
     1
102
RTVSPropertyOp29
 70
     1
102
RTVSPropertyOp30
 70
     1
102
RTVSPropertyOp31
 70
     1
102
RTVSPropertyOp32
 70
     1
102
RTVSPropertyOp33
 70
     1
102
RTVSPropertyOp34
 70
     1
102
RTVSPropertyOp35
 70
     1
102
RTVSPropertyOp36
 70
     1
102
RTVSPropertyOp37
 70
     1
102
RTVSPropertyOp38
 70
     1
102
RTVSPropertyOp39
 70
     1
102
RTVSPropertyOp40
 70
     1
102
RTVSPropertyOp41
 70
     1
102
RTVSPropertyOp42
 70
     1
102
RTVSPropertyOp43
 70
     1
102
RTVSPropertyOp44
 70
     1
102
RTVSPropertyOp45
 70
     1
102
RTVSPropertyOp46
 70
     1
102
RTVSPropertyOp47
 70
     1
102
RTVSPropertyOp48
 70
     1
102
RTVSPropertyOp49
 70
     1
102
RTVSPropertyOp50
 70
     1
102
RTVSPropertyOp51
 70
     0
102
RTVSPropertyOp52
 70
     0
102
RTVSPropertyOp53
 70
     1
102
RTVSPropertyOp54
 70
     1
102
RTVSPropertyOp55
 70
     1
102
RTVSPropertyOp56
 70
     1
102
RTVSPropertyOp57
 70
     1
102
RTVSPropertyOp58
 70
     1
102
RTVSPropertyOp59
 70
     1
102
RTVSPropertyOp60
 70
     1
102
RTVSPropertyOp61
 70
     1
102
RTVSPropertyOp62
 70
     1
  0
XRECORD
  5
19D9
102
{ACAD_REACTORS
330
19D8
102
}
330
19D8
100
AcDbXrecord
280
     1
102
RTVSPost2010Prop28
280
     0
102
RTVSPost2010PropOp28
 70
     0
102
RTVSPost2010Prop29
280
     1
102
RTVSPost2010PropOp29
 70
     0
102
RTVSPost2010Prop30
280
     1
102
RTVSPost2010PropOp30
 70
     0
102
RTVSPost2010Prop31
280
     0
102
RTVSPost2010PropOp31
 70
     0
102
RTVSPost2010Prop32
280
     0
102
RTVSPost2010PropOp32
 70
     0
102
RTVSPost2010Prop33
280
     0
102
RTVSPost2010PropOp33
 70
     0
102
RTVSPost2010Prop34
280
     0
102
RTVSPost2010PropOp34
 70
     0
102
RTVSPost2010Prop35
280
     0
102
RTVSPost2010PropOp35
 70
     0
102
RTVSPost2010Prop36
280
     0
102
RTVSPost2010PropOp36
 70
     0
102
RTVSPost2010Prop37
 90
       50
102
RTVSPost2010PropOp37
 70
     0
102
RTVSPost2010Prop38
140
0.0
102
RTVSPost2010PropOp38
 70
     0
102
RTVSPost2010Prop39
140
1.0
102
RTVSPost2010PropOp39
 70
     0
102
RTVSPost2010Prop40
 90
        0
102
RTVSPost2010PropOp40
 70
     0
102
RTVSPost2010Prop41ColorIndex
 90
       18
102
RTVSPost2010Prop41ColorRGB
 90
        0
102
RTVSPost2010PropOp41
 70
     0
102
RTVSPost2010Prop42
 90
       50
102
RTVSPost2010PropOp42
 70
     0
102
RTVSPost2010Prop43
 90
        3
102
RTVSPost2010PropOp43
 70
     0
102
RTVSPost2010Prop44ColorIndex
 90
        5
102
RTVSPost2010Prop44ColorRGB
 90
      255
102
RTVSPost2010PropOp44
 70
     0
102
RTVSPost2010Prop45
280
     0
102
RTVSPost2010PropOp45
 70
     0
102
RTVSPost2010Prop46
 90
       50
102
RTVSPost2010PropOp46
 70
     0
102
RTVSPost2010Prop47
 90
       50
102
RTVSPost2010PropOp47
 70
     0
102
RTVSPost2010Prop48
 90
       50
102
RTVSPost2010PropOp48
 70
     0
102
RTVSPost2010Prop49
280
     0
102
RTVSPost2010PropOp49
 70
     0
102
RTVSPost2010Prop50
 90
       50
102
RTVSPost2010PropOp50
 70
     0
102
RTVSPost2010Prop51ColorIndex
 90
      256
102
RTVSPost2010Prop51ColorRGB
 90
-16777216
102
RTVSPost2010PropOp51
 70
     0
102
RTVSPost2010Prop52
140
1.0
102
RTVSPost2010PropOp52
 70
     0
102
RTVSPost2010Prop53
 90
        2
102
RTVSPost2010PropOp53
 70
     0
102
RTVSPost2010Prop54
  1
strokes_ogs.tif
102
RTVSPost2010PropOp54
 70
     0
102
RTVSPost2010Prop55
280
     0
102
RTVSPost2010PropOp55
 70
     0
102
RTVSPost2010Prop56
140
1.0
102
RTVSPost2010PropOp56
 70
     0
102
RTVSPost2010Prop57
140
1.0
102
RTVSPost2010PropOp57
 70
     0
102
RTVSPropertyOp0
 70
     0
102
RTVSPropertyOp1
 70
     0
102
RTVSPropertyOp2
 70
     0
102
RTVSPropertyOp3
 70
     0
102
RTVSPropertyOp4
 70
     0
102
RTVSPropertyOp5
 70
     0
102
RTVSPropertyOp6
 70
     0
102
RTVSPropertyOp7
 70
     0
102
RTVSPropertyOp8
 70
     0
102
RTVSPropertyOp9
 70
     0
102
RTVSPropertyOp10
 70
     0
102
RTVSPropertyOp11
 70
     0
102
RTVSPropertyOp12
 70
     0
102
RTVSPropertyOp13
 70
     0
102
RTVSPropertyOp14
 70
     2
102
RTVSPropertyOp15
 70
     0
102
RTVSPropertyOp16
 70
     0
102
RTVSPropertyOp17
 70
     0
102
RTVSPropertyOp18
 70
     0
102
RTVSPropertyOp19
 70
     0
102
RTVSPropertyOp20
 70
     0
102
RTVSPropertyOp21
 70
     0
102
RTVSPropertyOp22
 70
     0
102
RTVSPropertyOp23
 70
     0
102
RTVSPropertyOp24
 70
     0
102
RTVSPropertyOp25
 70
     0
102
RTVSPropertyOp26
 70
     0
102
RTVSPropertyOp27
 70
     0
102
RTVSPropertyOp28
 70
     0
102
RTVSPropertyOp29
 70
     0
102
RTVSPropertyOp30
 70
     0
102
RTVSPropertyOp31
 70
     0
102
RTVSPropertyOp32
 70
     0
102
RTVSPropertyOp33
 70
     0
102
RTVSPropertyOp34
 70
     0
102
RTVSPropertyOp35
 70
     0
102
RTVSPropertyOp36
 70
     0
102
RTVSPropertyOp37
 70
     0
102
RTVSPropertyOp38
 70
     0
102
RTVSPropertyOp39
 70
     0
102
RTVSPropertyOp40
 70
     0
102
RTVSPropertyOp41
 70
     0
102
RTVSPropertyOp42
 70
     0
102
RTVSPropertyOp43
 70
     0
102
RTVSPropertyOp44
 70
     0
102
RTVSPropertyOp45
 70
     0
102
RTVSPropertyOp46
 70
     0
102
RTVSPropertyOp47
 70
     0
102
RTVSPropertyOp48
 70
     0
102
RTVSPropertyOp49
 70
     0
102
RTVSPropertyOp50
 70
     0
102
RTVSPropertyOp51
 70
     0
102
RTVSPropertyOp52
 70
     0
102
RTVSPropertyOp53
 70
     0
102
RTVSPropertyOp54
 70
     0
102
RTVSPropertyOp55
 70
     0
102
RTVSPropertyOp56
 70
     0
102
RTVSPropertyOp57
 70
     0
102
RTVSPropertyOp58
 70
     0
102
RTVSPropertyOp59
 70
     0
102
RTVSPropertyOp60
 70
     0
102
RTVSPropertyOp61
 70
     0
102
RTVSPropertyOp62
 70
     0
  0
XRECORD
  5
19BA
102
{ACAD_REACTORS
330
19B9
102
}
330
19B9
100
AcDbXrecord
280
     1
102
RTVSPost2010Prop28
280
     0
102
RTVSPost2010PropOp28
 70
     1
102
RTVSPost2010Prop29
280
     1
102
RTVSPost2010PropOp29
 70
     1
102
RTVSPost2010Prop30
280
     1
102
RTVSPost2010PropOp30
 70
     1
102
RTVSPost2010Prop31
280
     0
102
RTVSPost2010PropOp31
 70
     1
102
RTVSPost2010Prop32
280
     0
102
RTVSPost2010PropOp32
 70
     1
102
RTVSPost2010Prop33
280
     0
102
RTVSPost2010PropOp33
 70
     1
102
RTVSPost2010Prop34
280
     0
102
RTVSPost2010PropOp34
 70
     1
102
RTVSPost2010Prop35
280
     0
102
RTVSPost2010PropOp35
 70
     1
102
RTVSPost2010Prop36
280
     0
102
RTVSPost2010PropOp36
 70
     1
102
RTVSPost2010Prop37
 90
       50
102
RTVSPost2010PropOp37
 70
     1
102
RTVSPost2010Prop38
140
0.0
102
RTVSPost2010PropOp38
 70
     1
102
RTVSPost2010Prop39
140
1.0
102
RTVSPost2010PropOp39
 70
     1
102
RTVSPost2010Prop40
 90
        0
102
RTVSPost2010PropOp40
 70
     1
102
RTVSPost2010Prop41ColorIndex
 90
       18
102
RTVSPost2010Prop41ColorRGB
 90
        0
102
RTVSPost2010PropOp41
 70
     1
102
RTVSPost2010Prop42
 90
       50
102
RTVSPost2010PropOp42
 70
     1
102
RTVSPost2010Prop43
 90
        3
102
RTVSPost2010PropOp43
 70
     1
102
RTVSPost2010Prop44ColorIndex
 90
        5
102
RTVSPost2010Prop44ColorRGB
 90
      255
102
RTVSPost2010PropOp44
 70
     1
102
RTVSPost2010Prop45
280
     0
102
RTVSPost2010PropOp45
 70
     1
102
RTVSPost2010Prop46
 90
       50
102
RTVSPost2010PropOp46
 70
     1
102
RTVSPost2010Prop47
 90
       50
102
RTVSPost2010PropOp47
 70
     1
102
RTVSPost2010Prop48
 90
       50
102
RTVSPost2010PropOp48
 70
     1
102
RTVSPost2010Prop49
280
     0
102
RTVSPost2010PropOp49
 70
     1
102
RTVSPost2010Prop50
 90
       50
102
RTVSPost2010PropOp50
 70
     1
102
RTVSPost2010Prop51ColorIndex
 90
      256
102
RTVSPost2010Prop51ColorRGB
 90
-16777216
102
RTVSPost2010PropOp51
 70
     0
102
RTVSPost2010Prop52
140
1.0
102
RTVSPost2010PropOp52
 70
     0
102
RTVSPost2010Prop53
 90
        2
102
RTVSPost2010PropOp53
 70
     1
102
RTVSPost2010Prop54
  1
strokes_ogs.tif
102
RTVSPost2010PropOp54
 70
     1
102
RTVSPost2010Prop55
280
     0
102
RTVSPost2010PropOp55
 70
     1
102
RTVSPost2010Prop56
140
1.0
102
RTVSPost2010PropOp56
 70
     1
102
RTVSPost2010Prop57
140
1.0
102
RTVSPost2010PropOp57
 70
     1
102
RTVSPropertyOp0
 70
     1
102
RTVSPropertyOp1
 70
     1
102
RTVSPropertyOp2
 70
     1
102
RTVSPropertyOp3
 70
     1
102
RTVSPropertyOp4
 70
     1
102
RTVSPropertyOp5
 70
     1
102
RTVSPropertyOp6
 70
     1
102
RTVSPropertyOp7
 70
     1
102
RTVSPropertyOp8
 70
     1
102
RTVSPropertyOp9
 70
     1
102
RTVSPropertyOp10
 70
     1
102
RTVSPropertyOp11
 70
     1
102
RTVSPropertyOp12
 70
     1
102
RTVSPropertyOp13
 70
     1
102
RTVSPropertyOp14
 70
     1
102
RTVSPropertyOp15
 70
     1
102
RTVSPropertyOp16
 70
     1
102
RTVSPropertyOp17
 70
     1
102
RTVSPropertyOp18
 70
     1
102
RTVSPropertyOp19
 70
     1
102
RTVSPropertyOp20
 70
     1
102
RTVSPropertyOp21
 70
     1
102
RTVSPropertyOp22
 70
     1
102
RTVSPropertyOp23
 70
     1
102
RTVSPropertyOp24
 70
     1
102
RTVSPropertyOp25
 70
     1
102
RTVSPropertyOp26
 70
     1
102
RTVSPropertyOp27
 70
     1
102
RTVSPropertyOp28
 70
     1
102
RTVSPropertyOp29
 70
     1
102
RTVSPropertyOp30
 70
     1
102
RTVSPropertyOp31
 70
     1
102
RTVSPropertyOp32
 70
     1
102
RTVSPropertyOp33
 70
     1
102
RTVSPropertyOp34
 70
     1
102
RTVSPropertyOp35
 70
     1
102
RTVSPropertyOp36
 70
     1
102
RTVSPropertyOp37
 70
     1
102
RTVSPropertyOp38
 70
     1
102
RTVSPropertyOp39
 70
     1
102
RTVSPropertyOp40
 70
     1
102
RTVSPropertyOp41
 70
     1
102
RTVSPropertyOp42
 70
     1
102
RTVSPropertyOp43
 70
     1
102
RTVSPropertyOp44
 70
     1
102
RTVSPropertyOp45
 70
     1
102
RTVSPropertyOp46
 70
     1
102
RTVSPropertyOp47
 70
     1
102
RTVSPropertyOp48
 70
     1
102
RTVSPropertyOp49
 70
     1
102
RTVSPropertyOp50
 70
     1
102
RTVSPropertyOp51
 70
     0
102
RTVSPropertyOp52
 70
     0
102
RTVSPropertyOp53
 70
     1
102
RTVSPropertyOp54
 70
     1
102
RTVSPropertyOp55
 70
     1
102
RTVSPropertyOp56
 70
     1
102
RTVSPropertyOp57
 70
     1
102
RTVSPropertyOp58
 70
     1
102
RTVSPropertyOp59
 70
     1
102
RTVSPropertyOp60
 70
     1
102
RTVSPropertyOp61
 70
     1
102
RTVSPropertyOp62
 70
     1
  0
XRECORD
  5
19D5
102
{ACAD_REACTORS
330
19D4
102
}
330
19D4
100
AcDbXrecord
280
     1
102
RTVSPost2010Prop28
280
     0
102
RTVSPost2010PropOp28
 70
     1
102
RTVSPost2010Prop29
280
     1
102
RTVSPost2010PropOp29
 70
     1
102
RTVSPost2010Prop30
280
     1
102
RTVSPost2010PropOp30
 70
     1
102
RTVSPost2010Prop31
280
     0
102
RTVSPost2010PropOp31
 70
     1
102
RTVSPost2010Prop32
280
     0
102
RTVSPost2010PropOp32
 70
     1
102
RTVSPost2010Prop33
280
     0
102
RTVSPost2010PropOp33
 70
     1
102
RTVSPost2010Prop34
280
     0
102
RTVSPost2010PropOp34
 70
     1
102
RTVSPost2010Prop35
280
     0
102
RTVSPost2010PropOp35
 70
     1
102
RTVSPost2010Prop36
280
     0
102
RTVSPost2010PropOp36
 70
     1
102
RTVSPost2010Prop37
 90
       50
102
RTVSPost2010PropOp37
 70
     1
102
RTVSPost2010Prop38
140
0.0
102
RTVSPost2010PropOp38
 70
     1
102
RTVSPost2010Prop39
140
1.0
102
RTVSPost2010PropOp39
 70
     1
102
RTVSPost2010Prop40
 90
        0
102
RTVSPost2010PropOp40
 70
     1
102
RTVSPost2010Prop41ColorIndex
 90
       18
102
RTVSPost2010Prop41ColorRGB
 90
        0
102
RTVSPost2010PropOp41
 70
     1
102
RTVSPost2010Prop42
 90
       50
102
RTVSPost2010PropOp42
 70
     1
102
RTVSPost2010Prop43
 90
        3
102
RTVSPost2010PropOp43
 70
     1
102
RTVSPost2010Prop44ColorIndex
 90
        5
102
RTVSPost2010Prop44ColorRGB
 90
      255
102
RTVSPost2010PropOp44
 70
     1
102
RTVSPost2010Prop45
280
     0
102
RTVSPost2010PropOp45
 70
     1
102
RTVSPost2010Prop46
 90
       50
102
RTVSPost2010PropOp46
 70
     1
102
RTVSPost2010Prop47
 90
       50
102
RTVSPost2010PropOp47
 70
     1
102
RTVSPost2010Prop48
 90
       50
102
RTVSPost2010PropOp48
 70
     1
102
RTVSPost2010Prop49
280
     0
102
RTVSPost2010PropOp49
 70
     1
102
RTVSPost2010Prop50
 90
       50
102
RTVSPost2010PropOp50
 70
     1
102
RTVSPost2010Prop51ColorIndex
 90
      256
102
RTVSPost2010Prop51ColorRGB
 90
-16777216
102
RTVSPost2010PropOp51
 70
     0
102
RTVSPost2010Prop52
140
1.0
102
RTVSPost2010PropOp52
 70
     0
102
RTVSPost2010Prop53
 90
        2
102
RTVSPost2010PropOp53
 70
     1
102
RTVSPost2010Prop54
  1
strokes_ogs.tif
102
RTVSPost2010PropOp54
 70
     1
102
RTVSPost2010Prop55
280
     0
102
RTVSPost2010PropOp55
 70
     1
102
RTVSPost2010Prop56
140
1.0
102
RTVSPost2010PropOp56
 70
     1
102
RTVSPost2010Prop57
140
1.0
102
RTVSPost2010PropOp57
 70
     1
102
RTVSPropertyOp0
 70
     1
102
RTVSPropertyOp1
 70
     1
102
RTVSPropertyOp2
 70
     1
102
RTVSPropertyOp3
 70
     1
102
RTVSPropertyOp4
 70
     1
102
RTVSPropertyOp5
 70
     1
102
RTVSPropertyOp6
 70
     1
102
RTVSPropertyOp7
 70
     1
102
RTVSPropertyOp8
 70
     1
102
RTVSPropertyOp9
 70
     1
102
RTVSPropertyOp10
 70
     1
102
RTVSPropertyOp11
 70
     1
102
RTVSPropertyOp12
 70
     1
102
RTVSPropertyOp13
 70
     1
102
RTVSPropertyOp14
 70
     1
102
RTVSPropertyOp15
 70
     1
102
RTVSPropertyOp16
 70
     1
102
RTVSPropertyOp17
 70
     1
102
RTVSPropertyOp18
 70
     1
102
RTVSPropertyOp19
 70
     1
102
RTVSPropertyOp20
 70
     1
102
RTVSPropertyOp21
 70
     1
102
RTVSPropertyOp22
 70
     1
102
RTVSPropertyOp23
 70
     1
102
RTVSPropertyOp24
 70
     1
102
RTVSPropertyOp25
 70
     1
102
RTVSPropertyOp26
 70
     1
102
RTVSPropertyOp27
 70
     1
102
RTVSPropertyOp28
 70
     1
102
RTVSPropertyOp29
 70
     1
102
RTVSPropertyOp30
 70
     1
102
RTVSPropertyOp31
 70
     1
102
RTVSPropertyOp32
 70
     1
102
RTVSPropertyOp33
 70
     1
102
RTVSPropertyOp34
 70
     1
102
RTVSPropertyOp35
 70
     1
102
RTVSPropertyOp36
 70
     1
102
RTVSPropertyOp37
 70
     1
102
RTVSPropertyOp38
 70
     1
102
RTVSPropertyOp39
 70
     1
102
RTVSPropertyOp40
 70
     1
102
RTVSPropertyOp41
 70
     1
102
RTVSPropertyOp42
 70
     1
102
RTVSPropertyOp43
 70
     1
102
RTVSPropertyOp44
 70
     1
102
RTVSPropertyOp45
 70
     1
102
RTVSPropertyOp46
 70
     1
102
RTVSPropertyOp47
 70
     1
102
RTVSPropertyOp48
 70
     1
102
RTVSPropertyOp49
 70
     1
102
RTVSPropertyOp50
 70
     1
102
RTVSPropertyOp51
 70
     0
102
RTVSPropertyOp52
 70
     0
102
RTVSPropertyOp53
 70
     1
102
RTVSPropertyOp54
 70
     1
102
RTVSPropertyOp55
 70
     1
102
RTVSPropertyOp56
 70
     1
102
RTVSPropertyOp57
 70
     1
102
RTVSPropertyOp58
 70
     1
102
RTVSPropertyOp59
 70
     1
102
RTVSPropertyOp60
 70
     1
102
RTVSPropertyOp61
 70
     1
102
RTVSPropertyOp62
 70
     1
  0
XRECORD
  5
19D3
102
{ACAD_REACTORS
330
19D2
102
}
330
19D2
100
AcDbXrecord
280
     1
102
RTVSPost2010Prop28
280
     0
102
RTVSPost2010PropOp28
 70
     1
102
RTVSPost2010Prop29
280
     1
102
RTVSPost2010PropOp29
 70
     1
102
RTVSPost2010Prop30
280
     1
102
RTVSPost2010PropOp30
 70
     1
102
RTVSPost2010Prop31
280
     0
102
RTVSPost2010PropOp31
 70
     1
102
RTVSPost2010Prop32
280
     0
102
RTVSPost2010PropOp32
 70
     1
102
RTVSPost2010Prop33
280
     0
102
RTVSPost2010PropOp33
 70
     1
102
RTVSPost2010Prop34
280
     0
102
RTVSPost2010PropOp34
 70
     1
102
RTVSPost2010Prop35
280
     0
102
RTVSPost2010PropOp35
 70
     1
102
RTVSPost2010Prop36
280
     0
102
RTVSPost2010PropOp36
 70
     1
102
RTVSPost2010Prop37
 90
       50
102
RTVSPost2010PropOp37
 70
     1
102
RTVSPost2010Prop38
140
0.0
102
RTVSPost2010PropOp38
 70
     1
102
RTVSPost2010Prop39
140
1.0
102
RTVSPost2010PropOp39
 70
     1
102
RTVSPost2010Prop40
 90
        0
102
RTVSPost2010PropOp40
 70
     1
102
RTVSPost2010Prop41ColorIndex
 90
       18
102
RTVSPost2010Prop41ColorRGB
 90
        0
102
RTVSPost2010PropOp41
 70
     1
102
RTVSPost2010Prop42
 90
       50
102
RTVSPost2010PropOp42
 70
     1
102
RTVSPost2010Prop43
 90
        3
102
RTVSPost2010PropOp43
 70
     1
102
RTVSPost2010Prop44ColorIndex
 90
        5
102
RTVSPost2010Prop44ColorRGB
 90
      255
102
RTVSPost2010PropOp44
 70
     1
102
RTVSPost2010Prop45
280
     0
102
RTVSPost2010PropOp45
 70
     1
102
RTVSPost2010Prop46
 90
       50
102
RTVSPost2010PropOp46
 70
     1
102
RTVSPost2010Prop47
 90
       50
102
RTVSPost2010PropOp47
 70
     1
102
RTVSPost2010Prop48
 90
       50
102
RTVSPost2010PropOp48
 70
     1
102
RTVSPost2010Prop49
280
     0
102
RTVSPost2010PropOp49
 70
     1
102
RTVSPost2010Prop50
 90
       50
102
RTVSPost2010PropOp50
 70
     1
102
RTVSPost2010Prop51ColorIndex
 90
      256
102
RTVSPost2010Prop51ColorRGB
 90
-16777216
102
RTVSPost2010PropOp51
 70
     0
102
RTVSPost2010Prop52
140
1.0
102
RTVSPost2010PropOp52
 70
     0
102
RTVSPost2010Prop53
 90
        2
102
RTVSPost2010PropOp53
 70
     1
102
RTVSPost2010Prop54
  1
strokes_ogs.tif
102
RTVSPost2010PropOp54
 70
     1
102
RTVSPost2010Prop55
280
     0
102
RTVSPost2010PropOp55
 70
     1
102
RTVSPost2010Prop56
140
1.0
102
RTVSPost2010PropOp56
 70
     1
102
RTVSPost2010Prop57
140
1.0
102
RTVSPost2010PropOp57
 70
     1
102
RTVSPropertyOp0
 70
     1
102
RTVSPropertyOp1
 70
     1
102
RTVSPropertyOp2
 70
     1
102
RTVSPropertyOp3
 70
     1
102
RTVSPropertyOp4
 70
     1
102
RTVSPropertyOp5
 70
     1
102
RTVSPropertyOp6
 70
     1
102
RTVSPropertyOp7
 70
     1
102
RTVSPropertyOp8
 70
     1
102
RTVSPropertyOp9
 70
     1
102
RTVSPropertyOp10
 70
     1
102
RTVSPropertyOp11
 70
     1
102
RTVSPropertyOp12
 70
     1
102
RTVSPropertyOp13
 70
     1
102
RTVSPropertyOp14
 70
     1
102
RTVSPropertyOp15
 70
     1
102
RTVSPropertyOp16
 70
     1
102
RTVSPropertyOp17
 70
     1
102
RTVSPropertyOp18
 70
     1
102
RTVSPropertyOp19
 70
     1
102
RTVSPropertyOp20
 70
     1
102
RTVSPropertyOp21
 70
     1
102
RTVSPropertyOp22
 70
     1
102
RTVSPropertyOp23
 70
     1
102
RTVSPropertyOp24
 70
     1
102
RTVSPropertyOp25
 70
     1
102
RTVSPropertyOp26
 70
     1
102
RTVSPropertyOp27
 70
     1
102
RTVSPropertyOp28
 70
     1
102
RTVSPropertyOp29
 70
     1
102
RTVSPropertyOp30
 70
     1
102
RTVSPropertyOp31
 70
     1
102
RTVSPropertyOp32
 70
     1
102
RTVSPropertyOp33
 70
     1
102
RTVSPropertyOp34
 70
     1
102
RTVSPropertyOp35
 70
     1
102
RTVSPropertyOp36
 70
     1
102
RTVSPropertyOp37
 70
     1
102
RTVSPropertyOp38
 70
     1
102
RTVSPropertyOp39
 70
     1
102
RTVSPropertyOp40
 70
     1
102
RTVSPropertyOp41
 70
     1
102
RTVSPropertyOp42
 70
     1
102
RTVSPropertyOp43
 70
     1
102
RTVSPropertyOp44
 70
     1
102
RTVSPropertyOp45
 70
     1
102
RTVSPropertyOp46
 70
     1
102
RTVSPropertyOp47
 70
     1
102
RTVSPropertyOp48
 70
     1
102
RTVSPropertyOp49
 70
     1
102
RTVSPropertyOp50
 70
     1
102
RTVSPropertyOp51
 70
     0
102
RTVSPropertyOp52
 70
     0
102
RTVSPropertyOp53
 70
     1
102
RTVSPropertyOp54
 70
     1
102
RTVSPropertyOp55
 70
     1
102
RTVSPropertyOp56
 70
     1
102
RTVSPropertyOp57
 70
     1
102
RTVSPropertyOp58
 70
     1
102
RTVSPropertyOp59
 70
     1
102
RTVSPropertyOp60
 70
     1
102
RTVSPropertyOp61
 70
     1
102
RTVSPropertyOp62
 70
     1
  0
XRECORD
  5
19CD
102
{ACAD_REACTORS
330
19CC
102
}
330
19CC
100
AcDbXrecord
280
     1
102
RTVSPost2010Prop28
280
     0
102
RTVSPost2010PropOp28
 70
     1
102
RTVSPost2010Prop29
280
     1
102
RTVSPost2010PropOp29
 70
     1
102
RTVSPost2010Prop30
280
     1
102
RTVSPost2010PropOp30
 70
     1
102
RTVSPost2010Prop31
280
     0
102
RTVSPost2010PropOp31
 70
     1
102
RTVSPost2010Prop32
280
     0
102
RTVSPost2010PropOp32
 70
     1
102
RTVSPost2010Prop33
280
     0
102
RTVSPost2010PropOp33
 70
     1
102
RTVSPost2010Prop34
280
     0
102
RTVSPost2010PropOp34
 70
     1
102
RTVSPost2010Prop35
280
     0
102
RTVSPost2010PropOp35
 70
     1
102
RTVSPost2010Prop36
280
     0
102
RTVSPost2010PropOp36
 70
     1
102
RTVSPost2010Prop37
 90
       50
102
RTVSPost2010PropOp37
 70
     1
102
RTVSPost2010Prop38
140
0.0
102
RTVSPost2010PropOp38
 70
     1
102
RTVSPost2010Prop39
140
1.0
102
RTVSPost2010PropOp39
 70
     1
102
RTVSPost2010Prop40
 90
        0
102
RTVSPost2010PropOp40
 70
     1
102
RTVSPost2010Prop41ColorIndex
 90
       18
102
RTVSPost2010Prop41ColorRGB
 90
        0
102
RTVSPost2010PropOp41
 70
     1
102
RTVSPost2010Prop42
 90
       50
102
RTVSPost2010PropOp42
 70
     1
102
RTVSPost2010Prop43
 90
        3
102
RTVSPost2010PropOp43
 70
     1
102
RTVSPost2010Prop44ColorIndex
 90
        5
102
RTVSPost2010Prop44ColorRGB
 90
      255
102
RTVSPost2010PropOp44
 70
     1
102
RTVSPost2010Prop45
280
     0
102
RTVSPost2010PropOp45
 70
     1
102
RTVSPost2010Prop46
 90
       50
102
RTVSPost2010PropOp46
 70
     1
102
RTVSPost2010Prop47
 90
       50
102
RTVSPost2010PropOp47
 70
     1
102
RTVSPost2010Prop48
 90
       50
102
RTVSPost2010PropOp48
 70
     1
102
RTVSPost2010Prop49
280
     0
102
RTVSPost2010PropOp49
 70
     1
102
RTVSPost2010Prop50
 90
       50
102
RTVSPost2010PropOp50
 70
     1
102
RTVSPost2010Prop51ColorIndex
 90
      256
102
RTVSPost2010Prop51ColorRGB
 90
-16777216
102
RTVSPost2010PropOp51
 70
     0
102
RTVSPost2010Prop52
140
1.0
102
RTVSPost2010PropOp52
 70
     0
102
RTVSPost2010Prop53
 90
        2
102
RTVSPost2010PropOp53
 70
     1
102
RTVSPost2010Prop54
  1
strokes_ogs.tif
102
RTVSPost2010PropOp54
 70
     1
102
RTVSPost2010Prop55
280
     0
102
RTVSPost2010PropOp55
 70
     1
102
RTVSPost2010Prop56
140
1.0
102
RTVSPost2010PropOp56
 70
     1
102
RTVSPost2010Prop57
140
1.0
102
RTVSPost2010PropOp57
 70
     1
102
RTVSPropertyOp0
 70
     1
102
RTVSPropertyOp1
 70
     1
102
RTVSPropertyOp2
 70
     1
102
RTVSPropertyOp3
 70
     1
102
RTVSPropertyOp4
 70
     1
102
RTVSPropertyOp5
 70
     1
102
RTVSPropertyOp6
 70
     1
102
RTVSPropertyOp7
 70
     1
102
RTVSPropertyOp8
 70
     1
102
RTVSPropertyOp9
 70
     1
102
RTVSPropertyOp10
 70
     1
102
RTVSPropertyOp11
 70
     1
102
RTVSPropertyOp12
 70
     1
102
RTVSPropertyOp13
 70
     1
102
RTVSPropertyOp14
 70
     1
102
RTVSPropertyOp15
 70
     1
102
RTVSPropertyOp16
 70
     1
102
RTVSPropertyOp17
 70
     1
102
RTVSPropertyOp18
 70
     1
102
RTVSPropertyOp19
 70
     1
102
RTVSPropertyOp20
 70
     1
102
RTVSPropertyOp21
 70
     1
102
RTVSPropertyOp22
 70
     1
102
RTVSPropertyOp23
 70
     1
102
RTVSPropertyOp24
 70
     1
102
RTVSPropertyOp25
 70
     1
102
RTVSPropertyOp26
 70
     1
102
RTVSPropertyOp27
 70
     1
102
RTVSPropertyOp28
 70
     1
102
RTVSPropertyOp29
 70
     1
102
RTVSPropertyOp30
 70
     1
102
RTVSPropertyOp31
 70
     1
102
RTVSPropertyOp32
 70
     1
102
RTVSPropertyOp33
 70
     1
102
RTVSPropertyOp34
 70
     1
102
RTVSPropertyOp35
 70
     1
102
RTVSPropertyOp36
 70
     1
102
RTVSPropertyOp37
 70
     1
102
RTVSPropertyOp38
 70
     1
102
RTVSPropertyOp39
 70
     1
102
RTVSPropertyOp40
 70
     1
102
RTVSPropertyOp41
 70
     1
102
RTVSPropertyOp42
 70
     1
102
RTVSPropertyOp43
 70
     1
102
RTVSPropertyOp44
 70
     1
102
RTVSPropertyOp45
 70
     1
102
RTVSPropertyOp46
 70
     1
102
RTVSPropertyOp47
 70
     1
102
RTVSPropertyOp48
 70
     1
102
RTVSPropertyOp49
 70
     1
102
RTVSPropertyOp50
 70
     1
102
RTVSPropertyOp51
 70
     0
102
RTVSPropertyOp52
 70
     0
102
RTVSPropertyOp53
 70
     1
102
RTVSPropertyOp54
 70
     1
102
RTVSPropertyOp55
 70
     1
102
RTVSPropertyOp56
 70
     1
102
RTVSPropertyOp57
 70
     1
102
RTVSPropertyOp58
 70
     1
102
RTVSPropertyOp59
 70
     1
102
RTVSPropertyOp60
 70
     1
102
RTVSPropertyOp61
 70
     1
102
RTVSPropertyOp62
 70
     1
  0
XRECORD
  5
19CF
102
{ACAD_REACTORS
330
19CE
102
}
330
19CE
100
AcDbXrecord
280
     1
102
RTVSPost2010Prop28
280
     0
102
RTVSPost2010PropOp28
 70
     1
102
RTVSPost2010Prop29
280
     1
102
RTVSPost2010PropOp29
 70
     1
102
RTVSPost2010Prop30
280
     1
102
RTVSPost2010PropOp30
 70
     1
102
RTVSPost2010Prop31
280
     0
102
RTVSPost2010PropOp31
 70
     1
102
RTVSPost2010Prop32
280
     0
102
RTVSPost2010PropOp32
 70
     1
102
RTVSPost2010Prop33
280
     0
102
RTVSPost2010PropOp33
 70
     1
102
RTVSPost2010Prop34
280
     0
102
RTVSPost2010PropOp34
 70
     1
102
RTVSPost2010Prop35
280
     0
102
RTVSPost2010PropOp35
 70
     1
102
RTVSPost2010Prop36
280
     0
102
RTVSPost2010PropOp36
 70
     1
102
RTVSPost2010Prop37
 90
       50
102
RTVSPost2010PropOp37
 70
     1
102
RTVSPost2010Prop38
140
0.0
102
RTVSPost2010PropOp38
 70
     1
102
RTVSPost2010Prop39
140
1.0
102
RTVSPost2010PropOp39
 70
     1
102
RTVSPost2010Prop40
 90
        0
102
RTVSPost2010PropOp40
 70
     1
102
RTVSPost2010Prop41ColorIndex
 90
       18
102
RTVSPost2010Prop41ColorRGB
 90
        0
102
RTVSPost2010PropOp41
 70
     1
102
RTVSPost2010Prop42
 90
       50
102
RTVSPost2010PropOp42
 70
     1
102
RTVSPost2010Prop43
 90
        3
102
RTVSPost2010PropOp43
 70
     1
102
RTVSPost2010Prop44ColorIndex
 90
        5
102
RTVSPost2010Prop44ColorRGB
 90
      255
102
RTVSPost2010PropOp44
 70
     1
102
RTVSPost2010Prop45
280
     0
102
RTVSPost2010PropOp45
 70
     1
102
RTVSPost2010Prop46
 90
       50
102
RTVSPost2010PropOp46
 70
     1
102
RTVSPost2010Prop47
 90
       50
102
RTVSPost2010PropOp47
 70
     1
102
RTVSPost2010Prop48
 90
       50
102
RTVSPost2010PropOp48
 70
     1
102
RTVSPost2010Prop49
280
     0
102
RTVSPost2010PropOp49
 70
     1
102
RTVSPost2010Prop50
 90
       50
102
RTVSPost2010PropOp50
 70
     1
102
RTVSPost2010Prop51ColorIndex
 90
      256
102
RTVSPost2010Prop51ColorRGB
 90
-16777216
102
RTVSPost2010PropOp51
 70
     0
102
RTVSPost2010Prop52
140
1.0
102
RTVSPost2010PropOp52
 70
     0
102
RTVSPost2010Prop53
 90
        2
102
RTVSPost2010PropOp53
 70
     1
102
RTVSPost2010Prop54
  1
strokes_ogs.tif
102
RTVSPost2010PropOp54
 70
     1
102
RTVSPost2010Prop55
280
     0
102
RTVSPost2010PropOp55
 70
     1
102
RTVSPost2010Prop56
140
1.0
102
RTVSPost2010PropOp56
 70
     1
102
RTVSPost2010Prop57
140
1.0
102
RTVSPost2010PropOp57
 70
     1
102
RTVSPropertyOp0
 70
     1
102
RTVSPropertyOp1
 70
     1
102
RTVSPropertyOp2
 70
     1
102
RTVSPropertyOp3
 70
     1
102
RTVSPropertyOp4
 70
     1
102
RTVSPropertyOp5
 70
     1
102
RTVSPropertyOp6
 70
     1
102
RTVSPropertyOp7
 70
     1
102
RTVSPropertyOp8
 70
     1
102
RTVSPropertyOp9
 70
     1
102
RTVSPropertyOp10
 70
     1
102
RTVSPropertyOp11
 70
     1
102
RTVSPropertyOp12
 70
     1
102
RTVSPropertyOp13
 70
     1
102
RTVSPropertyOp14
 70
     1
102
RTVSPropertyOp15
 70
     1
102
RTVSPropertyOp16
 70
     1
102
RTVSPropertyOp17
 70
     1
102
RTVSPropertyOp18
 70
     1
102
RTVSPropertyOp19
 70
     1
102
RTVSPropertyOp20
 70
     1
102
RTVSPropertyOp21
 70
     1
102
RTVSPropertyOp22
 70
     1
102
RTVSPropertyOp23
 70
     1
102
RTVSPropertyOp24
 70
     1
102
RTVSPropertyOp25
 70
     1
102
RTVSPropertyOp26
 70
     1
102
RTVSPropertyOp27
 70
     1
102
RTVSPropertyOp28
 70
     1
102
RTVSPropertyOp29
 70
     1
102
RTVSPropertyOp30
 70
     1
102
RTVSPropertyOp31
 70
     1
102
RTVSPropertyOp32
 70
     1
102
RTVSPropertyOp33
 70
     1
102
RTVSPropertyOp34
 70
     1
102
RTVSPropertyOp35
 70
     1
102
RTVSPropertyOp36
 70
     1
102
RTVSPropertyOp37
 70
     1
102
RTVSPropertyOp38
 70
     1
102
RTVSPropertyOp39
 70
     1
102
RTVSPropertyOp40
 70
     1
102
RTVSPropertyOp41
 70
     1
102
RTVSPropertyOp42
 70
     1
102
RTVSPropertyOp43
 70
     1
102
RTVSPropertyOp44
 70
     1
102
RTVSPropertyOp45
 70
     1
102
RTVSPropertyOp46
 70
     1
102
RTVSPropertyOp47
 70
     1
102
RTVSPropertyOp48
 70
     1
102
RTVSPropertyOp49
 70
     1
102
RTVSPropertyOp50
 70
     1
102
RTVSPropertyOp51
 70
     0
102
RTVSPropertyOp52
 70
     0
102
RTVSPropertyOp53
 70
     1
102
RTVSPropertyOp54
 70
     1
102
RTVSPropertyOp55
 70
     1
102
RTVSPropertyOp56
 70
     1
102
RTVSPropertyOp57
 70
     1
102
RTVSPropertyOp58
 70
     1
102
RTVSPropertyOp59
 70
     1
102
RTVSPropertyOp60
 70
     1
102
RTVSPropertyOp61
 70
     1
102
RTVSPropertyOp62
 70
     1
  0
XRECORD
  5
19C0
102
{ACAD_REACTORS
330
19BF
102
}
330
19BF
100
AcDbXrecord
280
     1
102
RTVSPost2010Prop28
280
     0
102
RTVSPost2010PropOp28
 70
     1
102
RTVSPost2010Prop29
280
     1
102
RTVSPost2010PropOp29
 70
     1
102
RTVSPost2010Prop30
280
     1
102
RTVSPost2010PropOp30
 70
     1
102
RTVSPost2010Prop31
280
     0
102
RTVSPost2010PropOp31
 70
     1
102
RTVSPost2010Prop32
280
     0
102
RTVSPost2010PropOp32
 70
     1
102
RTVSPost2010Prop33
280
     0
102
RTVSPost2010PropOp33
 70
     1
102
RTVSPost2010Prop34
280
     0
102
RTVSPost2010PropOp34
 70
     1
102
RTVSPost2010Prop35
280
     0
102
RTVSPost2010PropOp35
 70
     1
102
RTVSPost2010Prop36
280
     0
102
RTVSPost2010PropOp36
 70
     1
102
RTVSPost2010Prop37
 90
       50
102
RTVSPost2010PropOp37
 70
     1
102
RTVSPost2010Prop38
140
0.0
102
RTVSPost2010PropOp38
 70
     1
102
RTVSPost2010Prop39
140
1.0
102
RTVSPost2010PropOp39
 70
     1
102
RTVSPost2010Prop40
 90
        0
102
RTVSPost2010PropOp40
 70
     1
102
RTVSPost2010Prop41ColorIndex
 90
       18
102
RTVSPost2010Prop41ColorRGB
 90
        0
102
RTVSPost2010PropOp41
 70
     1
102
RTVSPost2010Prop42
 90
       50
102
RTVSPost2010PropOp42
 70
     1
102
RTVSPost2010Prop43
 90
        3
102
RTVSPost2010PropOp43
 70
     1
102
RTVSPost2010Prop44ColorIndex
 90
        5
102
RTVSPost2010Prop44ColorRGB
 90
      255
102
RTVSPost2010PropOp44
 70
     1
102
RTVSPost2010Prop45
280
     0
102
RTVSPost2010PropOp45
 70
     1
102
RTVSPost2010Prop46
 90
       50
102
RTVSPost2010PropOp46
 70
     1
102
RTVSPost2010Prop47
 90
       50
102
RTVSPost2010PropOp47
 70
     1
102
RTVSPost2010Prop48
 90
       50
102
RTVSPost2010PropOp48
 70
     1
102
RTVSPost2010Prop49
280
     0
102
RTVSPost2010PropOp49
 70
     1
102
RTVSPost2010Prop50
 90
       50
102
RTVSPost2010PropOp50
 70
     1
102
RTVSPost2010Prop51ColorIndex
 90
      256
102
RTVSPost2010Prop51ColorRGB
 90
-16777216
102
RTVSPost2010PropOp51
 70
     0
102
RTVSPost2010Prop52
140
1.0
102
RTVSPost2010PropOp52
 70
     0
102
RTVSPost2010Prop53
 90
        2
102
RTVSPost2010PropOp53
 70
     1
102
RTVSPost2010Prop54
  1
strokes_ogs.tif
102
RTVSPost2010PropOp54
 70
     1
102
RTVSPost2010Prop55
280
     0
102
RTVSPost2010PropOp55
 70
     1
102
RTVSPost2010Prop56
140
1.0
102
RTVSPost2010PropOp56
 70
     1
102
RTVSPost2010Prop57
140
1.0
102
RTVSPost2010PropOp57
 70
     1
102
RTVSPropertyOp0
 70
     1
102
RTVSPropertyOp1
 70
     1
102
RTVSPropertyOp2
 70
     1
102
RTVSPropertyOp3
 70
     1
102
RTVSPropertyOp4
 70
     1
102
RTVSPropertyOp5
 70
     1
102
RTVSPropertyOp6
 70
     1
102
RTVSPropertyOp7
 70
     1
102
RTVSPropertyOp8
 70
     1
102
RTVSPropertyOp9
 70
     1
102
RTVSPropertyOp10
 70
     1
102
RTVSPropertyOp11
 70
     1
102
RTVSPropertyOp12
 70
     1
102
RTVSPropertyOp13
 70
     1
102
RTVSPropertyOp14
 70
     1
102
RTVSPropertyOp15
 70
     1
102
RTVSPropertyOp16
 70
     1
102
RTVSPropertyOp17
 70
     1
102
RTVSPropertyOp18
 70
     1
102
RTVSPropertyOp19
 70
     1
102
RTVSPropertyOp20
 70
     1
102
RTVSPropertyOp21
 70
     1
102
RTVSPropertyOp22
 70
     1
102
RTVSPropertyOp23
 70
     1
102
RTVSPropertyOp24
 70
     1
102
RTVSPropertyOp25
 70
     1
102
RTVSPropertyOp26
 70
     1
102
RTVSPropertyOp27
 70
     1
102
RTVSPropertyOp28
 70
     1
102
RTVSPropertyOp29
 70
     1
102
RTVSPropertyOp30
 70
     1
102
RTVSPropertyOp31
 70
     1
102
RTVSPropertyOp32
 70
     1
102
RTVSPropertyOp33
 70
     1
102
RTVSPropertyOp34
 70
     1
102
RTVSPropertyOp35
 70
     1
102
RTVSPropertyOp36
 70
     1
102
RTVSPropertyOp37
 70
     1
102
RTVSPropertyOp38
 70
     1
102
RTVSPropertyOp39
 70
     1
102
RTVSPropertyOp40
 70
     1
102
RTVSPropertyOp41
 70
     1
102
RTVSPropertyOp42
 70
     1
102
RTVSPropertyOp43
 70
     1
102
RTVSPropertyOp44
 70
     1
102
RTVSPropertyOp45
 70
     1
102
RTVSPropertyOp46
 70
     1
102
RTVSPropertyOp47
 70
     1
102
RTVSPropertyOp48
 70
     1
102
RTVSPropertyOp49
 70
     1
102
RTVSPropertyOp50
 70
     1
102
RTVSPropertyOp51
 70
     0
102
RTVSPropertyOp52
 70
     0
102
RTVSPropertyOp53
 70
     1
102
RTVSPropertyOp54
 70
     1
102
RTVSPropertyOp55
 70
     1
102
RTVSPropertyOp56
 70
     1
102
RTVSPropertyOp57
 70
     1
102
RTVSPropertyOp58
 70
     1
102
RTVSPropertyOp59
 70
     1
102
RTVSPropertyOp60
 70
     1
102
RTVSPropertyOp61
 70
     1
102
RTVSPropertyOp62
 70
     1
  0
XRECORD
  5
19C9
102
{ACAD_REACTORS
330
19C8
102
}
330
19C8
100
AcDbXrecord
280
     1
102
RTVSPost2010Prop28
280
     0
102
RTVSPost2010PropOp28
 70
     1
102
RTVSPost2010Prop29
280
     1
102
RTVSPost2010PropOp29
 70
     1
102
RTVSPost2010Prop30
280
     1
102
RTVSPost2010PropOp30
 70
     1
102
RTVSPost2010Prop31
280
     0
102
RTVSPost2010PropOp31
 70
     1
102
RTVSPost2010Prop32
280
     0
102
RTVSPost2010PropOp32
 70
     1
102
RTVSPost2010Prop33
280
     0
102
RTVSPost2010PropOp33
 70
     1
102
RTVSPost2010Prop34
280
     0
102
RTVSPost2010PropOp34
 70
     1
102
RTVSPost2010Prop35
280
     0
102
RTVSPost2010PropOp35
 70
     1
102
RTVSPost2010Prop36
280
     0
102
RTVSPost2010PropOp36
 70
     1
102
RTVSPost2010Prop37
 90
       50
102
RTVSPost2010PropOp37
 70
     1
102
RTVSPost2010Prop38
140
0.0
102
RTVSPost2010PropOp38
 70
     1
102
RTVSPost2010Prop39
140
1.0
102
RTVSPost2010PropOp39
 70
     1
102
RTVSPost2010Prop40
 90
        0
102
RTVSPost2010PropOp40
 70
     1
102
RTVSPost2010Prop41ColorIndex
 90
       18
102
RTVSPost2010Prop41ColorRGB
 90
        0
102
RTVSPost2010PropOp41
 70
     1
102
RTVSPost2010Prop42
 90
       50
102
RTVSPost2010PropOp42
 70
     1
102
RTVSPost2010Prop43
 90
        3
102
RTVSPost2010PropOp43
 70
     1
102
RTVSPost2010Prop44ColorIndex
 90
        5
102
RTVSPost2010Prop44ColorRGB
 90
      255
102
RTVSPost2010PropOp44
 70
     1
102
RTVSPost2010Prop45
280
     0
102
RTVSPost2010PropOp45
 70
     1
102
RTVSPost2010Prop46
 90
       50
102
RTVSPost2010PropOp46
 70
     1
102
RTVSPost2010Prop47
 90
       50
102
RTVSPost2010PropOp47
 70
     1
102
RTVSPost2010Prop48
 90
       50
102
RTVSPost2010PropOp48
 70
     1
102
RTVSPost2010Prop49
280
     0
102
RTVSPost2010PropOp49
 70
     1
102
RTVSPost2010Prop50
 90
       50
102
RTVSPost2010PropOp50
 70
     1
102
RTVSPost2010Prop51ColorIndex
 90
      256
102
RTVSPost2010Prop51ColorRGB
 90
-16777216
102
RTVSPost2010PropOp51
 70
     0
102
RTVSPost2010Prop52
140
1.0
102
RTVSPost2010PropOp52
 70
     0
102
RTVSPost2010Prop53
 90
        2
102
RTVSPost2010PropOp53
 70
     1
102
RTVSPost2010Prop54
  1
strokes_ogs.tif
102
RTVSPost2010PropOp54
 70
     1
102
RTVSPost2010Prop55
280
     0
102
RTVSPost2010PropOp55
 70
     1
102
RTVSPost2010Prop56
140
1.0
102
RTVSPost2010PropOp56
 70
     1
102
RTVSPost2010Prop57
140
1.0
102
RTVSPost2010PropOp57
 70
     1
102
RTVSPropertyOp0
 70
     1
102
RTVSPropertyOp1
 70
     1
102
RTVSPropertyOp2
 70
     1
102
RTVSPropertyOp3
 70
     1
102
RTVSPropertyOp4
 70
     1
102
RTVSPropertyOp5
 70
     1
102
RTVSPropertyOp6
 70
     1
102
RTVSPropertyOp7
 70
     1
102
RTVSPropertyOp8
 70
     1
102
RTVSPropertyOp9
 70
     1
102
RTVSPropertyOp10
 70
     1
102
RTVSPropertyOp11
 70
     1
102
RTVSPropertyOp12
 70
     1
102
RTVSPropertyOp13
 70
     1
102
RTVSPropertyOp14
 70
     1
102
RTVSPropertyOp15
 70
     1
102
RTVSPropertyOp16
 70
     1
102
RTVSPropertyOp17
 70
     1
102
RTVSPropertyOp18
 70
     1
102
RTVSPropertyOp19
 70
     1
102
RTVSPropertyOp20
 70
     1
102
RTVSPropertyOp21
 70
     1
102
RTVSPropertyOp22
 70
     1
102
RTVSPropertyOp23
 70
     1
102
RTVSPropertyOp24
 70
     1
102
RTVSPropertyOp25
 70
     1
102
RTVSPropertyOp26
 70
     1
102
RTVSPropertyOp27
 70
     1
102
RTVSPropertyOp28
 70
     1
102
RTVSPropertyOp29
 70
     1
102
RTVSPropertyOp30
 70
     1
102
RTVSPropertyOp31
 70
     1
102
RTVSPropertyOp32
 70
     1
102
RTVSPropertyOp33
 70
     1
102
RTVSPropertyOp34
 70
     1
102
RTVSPropertyOp35
 70
     1
102
RTVSPropertyOp36
 70
     1
102
RTVSPropertyOp37
 70
     1
102
RTVSPropertyOp38
 70
     1
102
RTVSPropertyOp39
 70
     1
102
RTVSPropertyOp40
 70
     1
102
RTVSPropertyOp41
 70
     1
102
RTVSPropertyOp42
 70
     1
102
RTVSPropertyOp43
 70
     1
102
RTVSPropertyOp44
 70
     1
102
RTVSPropertyOp45
 70
     1
102
RTVSPropertyOp46
 70
     1
102
RTVSPropertyOp47
 70
     1
102
RTVSPropertyOp48
 70
     1
102
RTVSPropertyOp49
 70
     1
102
RTVSPropertyOp50
 70
     1
102
RTVSPropertyOp51
 70
     0
102
RTVSPropertyOp52
 70
     0
102
RTVSPropertyOp53
 70
     1
102
RTVSPropertyOp54
 70
     1
102
RTVSPropertyOp55
 70
     1
102
RTVSPropertyOp56
 70
     1
102
RTVSPropertyOp57
 70
     1
102
RTVSPropertyOp58
 70
     1
102
RTVSPropertyOp59
 70
     1
102
RTVSPropertyOp60
 70
     1
102
RTVSPropertyOp61
 70
     1
102
RTVSPropertyOp62
 70
     1
  0
XRECORD
  5
19D1
102
{ACAD_REACTORS
330
19D0
102
}
330
19D0
100
AcDbXrecord
280
     1
102
RTVSPost2010Prop28
280
     0
102
RTVSPost2010PropOp28
 70
     1
102
RTVSPost2010Prop29
280
     1
102
RTVSPost2010PropOp29
 70
     1
102
RTVSPost2010Prop30
280
     1
102
RTVSPost2010PropOp30
 70
     1
102
RTVSPost2010Prop31
280
     0
102
RTVSPost2010PropOp31
 70
     1
102
RTVSPost2010Prop32
280
     0
102
RTVSPost2010PropOp32
 70
     1
102
RTVSPost2010Prop33
280
     0
102
RTVSPost2010PropOp33
 70
     1
102
RTVSPost2010Prop34
280
     0
102
RTVSPost2010PropOp34
 70
     1
102
RTVSPost2010Prop35
280
     0
102
RTVSPost2010PropOp35
 70
     1
102
RTVSPost2010Prop36
280
     0
102
RTVSPost2010PropOp36
 70
     1
102
RTVSPost2010Prop37
 90
       50
102
RTVSPost2010PropOp37
 70
     1
102
RTVSPost2010Prop38
140
0.0
102
RTVSPost2010PropOp38
 70
     1
102
RTVSPost2010Prop39
140
1.0
102
RTVSPost2010PropOp39
 70
     1
102
RTVSPost2010Prop40
 90
        0
102
RTVSPost2010PropOp40
 70
     1
102
RTVSPost2010Prop41ColorIndex
 90
       18
102
RTVSPost2010Prop41ColorRGB
 90
        0
102
RTVSPost2010PropOp41
 70
     1
102
RTVSPost2010Prop42
 90
       50
102
RTVSPost2010PropOp42
 70
     1
102
RTVSPost2010Prop43
 90
        3
102
RTVSPost2010PropOp43
 70
     1
102
RTVSPost2010Prop44ColorIndex
 90
        5
102
RTVSPost2010Prop44ColorRGB
 90
      255
102
RTVSPost2010PropOp44
 70
     1
102
RTVSPost2010Prop45
280
     0
102
RTVSPost2010PropOp45
 70
     1
102
RTVSPost2010Prop46
 90
       50
102
RTVSPost2010PropOp46
 70
     1
102
RTVSPost2010Prop47
 90
       50
102
RTVSPost2010PropOp47
 70
     1
102
RTVSPost2010Prop48
 90
       50
102
RTVSPost2010PropOp48
 70
     1
102
RTVSPost2010Prop49
280
     0
102
RTVSPost2010PropOp49
 70
     1
102
RTVSPost2010Prop50
 90
       50
102
RTVSPost2010PropOp50
 70
     1
102
RTVSPost2010Prop51ColorIndex
 90
      256
102
RTVSPost2010Prop51ColorRGB
 90
-16777216
102
RTVSPost2010PropOp51
 70
     0
102
RTVSPost2010Prop52
140
1.0
102
RTVSPost2010PropOp52
 70
     0
102
RTVSPost2010Prop53
 90
        2
102
RTVSPost2010PropOp53
 70
     1
102
RTVSPost2010Prop54
  1
strokes_ogs.tif
102
RTVSPost2010PropOp54
 70
     1
102
RTVSPost2010Prop55
280
     0
102
RTVSPost2010PropOp55
 70
     1
102
RTVSPost2010Prop56
140
1.0
102
RTVSPost2010PropOp56
 70
     1
102
RTVSPost2010Prop57
140
1.0
102
RTVSPost2010PropOp57
 70
     1
102
RTVSPropertyOp0
 70
     1
102
RTVSPropertyOp1
 70
     1
102
RTVSPropertyOp2
 70
     1
102
RTVSPropertyOp3
 70
     1
102
RTVSPropertyOp4
 70
     1
102
RTVSPropertyOp5
 70
     1
102
RTVSPropertyOp6
 70
     1
102
RTVSPropertyOp7
 70
     1
102
RTVSPropertyOp8
 70
     1
102
RTVSPropertyOp9
 70
     1
102
RTVSPropertyOp10
 70
     1
102
RTVSPropertyOp11
 70
     1
102
RTVSPropertyOp12
 70
     1
102
RTVSPropertyOp13
 70
     1
102
RTVSPropertyOp14
 70
     1
102
RTVSPropertyOp15
 70
     1
102
RTVSPropertyOp16
 70
     1
102
RTVSPropertyOp17
 70
     1
102
RTVSPropertyOp18
 70
     1
102
RTVSPropertyOp19
 70
     1
102
RTVSPropertyOp20
 70
     1
102
RTVSPropertyOp21
 70
     1
102
RTVSPropertyOp22
 70
     1
102
RTVSPropertyOp23
 70
     1
102
RTVSPropertyOp24
 70
     1
102
RTVSPropertyOp25
 70
     1
102
RTVSPropertyOp26
 70
     1
102
RTVSPropertyOp27
 70
     1
102
RTVSPropertyOp28
 70
     1
102
RTVSPropertyOp29
 70
     1
102
RTVSPropertyOp30
 70
     1
102
RTVSPropertyOp31
 70
     1
102
RTVSPropertyOp32
 70
     1
102
RTVSPropertyOp33
 70
     1
102
RTVSPropertyOp34
 70
     1
102
RTVSPropertyOp35
 70
     1
102
RTVSPropertyOp36
 70
     1
102
RTVSPropertyOp37
 70
     1
102
RTVSPropertyOp38
 70
     1
102
RTVSPropertyOp39
 70
     1
102
RTVSPropertyOp40
 70
     1
102
RTVSPropertyOp41
 70
     1
102
RTVSPropertyOp42
 70
     1
102
RTVSPropertyOp43
 70
     1
102
RTVSPropertyOp44
 70
     1
102
RTVSPropertyOp45
 70
     1
102
RTVSPropertyOp46
 70
     1
102
RTVSPropertyOp47
 70
     1
102
RTVSPropertyOp48
 70
     1
102
RTVSPropertyOp49
 70
     1
102
RTVSPropertyOp50
 70
     1
102
RTVSPropertyOp51
 70
     0
102
RTVSPropertyOp52
 70
     0
102
RTVSPropertyOp53
 70
     1
102
RTVSPropertyOp54
 70
     1
102
RTVSPropertyOp55
 70
     1
102
RTVSPropertyOp56
 70
     1
102
RTVSPropertyOp57
 70
     1
102
RTVSPropertyOp58
 70
     1
102
RTVSPropertyOp59
 70
     1
102
RTVSPropertyOp60
 70
     1
102
RTVSPropertyOp61
 70
     1
102
RTVSPropertyOp62
 70
     1
  0
ENDSEC
  0
EOF
