  0
SECTION
  2
HEADER
  9
$ACADVER
  1
AC1014
  9
$ACADMAINTVER
 70
     9
  9
$DWGCODEPAGE
  3
ANSI_932
  9
$INSBASE
 10
0.0
 20
0.0
 30
0.0
  9
$EXTMIN
 10
66.92054491824842
 20
46.85160968698499
 30
0.0
  9
$EXTMAX
 10
712.6866328463846
 20
351.8108848946571
 30
0.0
  9
$LIMMIN
 10
0.0
 20
0.0
  9
$LIMMAX
 10
297.0
 20
210.0
  9
$ORTHOMODE
 70
     1
  9
$REGENMODE
 70
     1
  9
$FILLMODE
 70
     1
  9
$QTEXTMODE
 70
     0
  9
$MIRRTEXT
 70
     0
  9
$DRAGMODE
 70
     2
  9
$LTSCALE
 40
2.0
  9
$OSMODE
 70
    37
  9
$ATTMODE
 70
     1
  9
$TEXTSIZE
 40
2.0
  9
$TRACEWID
 40
1.0
  9
$TEXTSTYLE
  7
STANDARD
  9
$CLAYER
  8
0
  9
$CELTYPE
  6
BYLAYER
  9
$CECOLOR
 62
   256
  9
$CELTSCALE
 40
1.0
  9
$DELOBJ
 70
     1
  9
$DISPSILH
 70
     0
  9
$DIMSCALE
 40
2.0
  9
$DIMASZ
 40
1.8
  9
$DIMEXO
 40
0.625
  9
$DIMDLI
 40
3.75
  9
$DIMRND
 40
0.0
  9
$DIMDLE
 40
0.0
  9
$DIMEXE
 40
0.8
  9
$DIMTP
 40
0.0
  9
$DIMTM
 40
0.0
  9
$DIMTXT
 40
1.8
  9
$DIMCEN
 40
2.5
  9
$DIMTSZ
 40
0.0
  9
$DIMTOL
 70
     0
  9
$DIMLIM
 70
     0
  9
$DIMTIH
 70
     0
  9
$DIMTOH
 70
     0
  9
$DIMSE1
 70
     0
  9
$DIMSE2
 70
     0
  9
$DIMTAD
 70
     1
  9
$DIMZIN
 70
     8
  9
$DIMBLK
  1

  9
$DIMASO
 70
     1
  9
$DIMSHO
 70
     1
  9
$DIMPOST
  1

  9
$DIMAPOST
  1

  9
$DIMALT
 70
     0
  9
$DIMALTD
 70
     4
  9
$DIMALTF
 40
0.0394
  9
$DIMLFAC
 40
1.0
  9
$DIMTOFL
 70
     1
  9
$DIMTVP
 40
0.0
  9
$DIMTIX
 70
     0
  9
$DIMSOXD
 70
     0
  9
$DIMSAH
 70
     0
  9
$DIMBLK1
  1

  9
$DIMBLK2
  1

  9
$DIMSTYLE
  2
STANDARD
  9
$DIMCLRD
 70
     0
  9
$DIMCLRE
 70
     0
  9
$DIMCLRT
 70
     0
  9
$DIMTFAC
 40
1.0
  9
$DIMGAP
 40
0.75
  9
$DIMJUST
 70
     0
  9
$DIMSD1
 70
     0
  9
$DIMSD2
 70
     0
  9
$DIMTOLJ
 70
     1
  9
$DIMTZIN
 70
     0
  9
$DIMALTZ
 70
     0
  9
$DIMALTTZ
 70
     0
  9
$DIMFIT
 70
     3
  9
$DIMUPT
 70
     0
  9
$DIMUNIT
 70
     8
  9
$DIMDEC
 70
     2
  9
$DIMTDEC
 70
     2
  9
$DIMALTU
 70
     8
  9
$DIMALTTD
 70
     4
  9
$DIMTXSTY
  7
STANDARD
  9
$DIMAUNIT
 70
     0
  9
$LUNITS
 70
     2
  9
$LUPREC
 70
     3
  9
$SKETCHINC
 40
1.0
  9
$FILLETRAD
 40
10.0
  9
$AUNITS
 70
     0
  9
$AUPREC
 70
     2
  9
$MENU
  1
.
  9
$ELEVATION
 40
0.0
  9
$PELEVATION
 40
0.0
  9
$THICKNESS
 40
0.0
  9
$LIMCHECK
 70
     0
  9
$BLIPMODE
 70
     0
  9
$CHAMFERA
 40
0.0
  9
$CHAMFERB
 40
0.0
  9
$CHAMFERC
 40
20.0
  9
$CHAMFERD
 40
0.0
  9
$SKPOLY
 70
     0
  9
$TDCREATE
 40
2453761.457355856
  9
$TDUPDATE
 40
2454399.564023437
  9
$TDINDWG
 40
0.1658848727
  9
$TDUSRTIMER
 40
0.1658845139
  9
$USRTIMER
 70
     1
  9
$ANGBASE
 50
0.0
  9
$ANGDIR
 70
     0
  9
$PDMODE
 70
     0
  9
$PDSIZE
 40
-10.0
  9
$PLINEWID
 40
0.0
  9
$COORDS
 70
     1
  9
$SPLFRAME
 70
     0
  9
$SPLINETYPE
 70
     6
  9
$SPLINESEGS
 70
     8
  9
$ATTDIA
 70
     0
  9
$ATTREQ
 70
     1
  9
$HANDLING
 70
-16383
  9
$HANDSEED
  5
1311
  9
$SURFTAB1
 70
     6
  9
$SURFTAB2
 70
     6
  9
$SURFTYPE
 70
     6
  9
$SURFU
 70
     6
  9
$SURFV
 70
     6
  9
$UCSNAME
  2

  9
$UCSORG
 10
0.0
 20
0.0
 30
0.0
  9
$UCSXDIR
 10
1.0
 20
0.0
 30
0.0
  9
$UCSYDIR
 10
0.0
 20
1.0
 30
0.0
  9
$PUCSNAME
  2

  9
$PUCSORG
 10
0.0
 20
0.0
 30
0.0
  9
$PUCSXDIR
 10
1.0
 20
0.0
 30
0.0
  9
$PUCSYDIR
 10
0.0
 20
1.0
 30
0.0
  9
$USERI1
 70
     0
  9
$USERI2
 70
     0
  9
$USERI3
 70
     0
  9
$USERI4
 70
     0
  9
$USERI5
 70
     0
  9
$USERR1
 40
0.0
  9
$USERR2
 40
0.0
  9
$USERR3
 40
0.0
  9
$USERR4
 40
0.0
  9
$USERR5
 40
0.0
  9
$WORLDVIEW
 70
     1
  9
$SHADEDGE
 70
     3
  9
$SHADEDIF
 70
    70
  9
$TILEMODE
 70
     1
  9
$MAXACTVP
 70
    48
  9
$PINSBASE
 10
0.0
 20
0.0
 30
0.0
  9
$PLIMCHECK
 70
     0
  9
$PEXTMIN
 10
0.0
 20
0.0
 30
0.0
  9
$PEXTMAX
 10
0.0
 20
0.0
 30
0.0
  9
$PLIMMIN
 10
0.0
 20
0.0
  9
$PLIMMAX
 10
12.0
 20
9.0
  9
$UNITMODE
 70
     0
  9
$VISRETAIN
 70
     1
  9
$PLINEGEN
 70
     0
  9
$PSLTSCALE
 70
     1
  9
$TREEDEPTH
 70
  3020
  9
$PICKSTYLE
 70
     1
  9
$CMLSTYLE
  2
STANDARD
  9
$CMLJUST
 70
     0
  9
$CMLSCALE
 40
1.0
  9
$PROXYGRAPHICS
 70
     1
  9
$MEASUREMENT
 70
     0
  0
ENDSEC
  0
SECTION
  2
CLASSES
  0
CLASS
  1
DICTIONARYVAR
  2
AcDbDictionaryVar
  3
AutoCAD 2000
 90
        0
280
     0
281
     0
  0
CLASS
  1
ACDBDICTIONARYWDFLT
  2
AcDbDictionaryWithDefault
  3
AutoCAD 2000
 90
        0
280
     0
281
     0
  0
CLASS
  1
ACDBPLACEHOLDER
  2
AcDbPlaceHolder
  3
AutoCAD 2000
 90
        0
280
     0
281
     0
  0
CLASS
  1
LAYOUT
  2
AcDbLayout
  3
AutoCAD 2000
 90
        0
280
     0
281
     0
  0
CLASS
  1
LONG_TRANSACTION
  2
AcDbLongTransaction
  3
AutoCAD 2000
 90
        0
280
     0
281
     0
  0
CLASS
  1
LWPOLYLINE
  2
AcDbPolyline
  3
AutoCAD 2000
 90
        0
280
     0
281
     1
  0
CLASS
  1
HATCH
  2
AcDbHatch
  3
AutoCAD 2000
 90
        0
280
     0
281
     1
  0
CLASS
  1
XRECORD
  2
AcDbXrecord
  3
AutoCAD 2000
 90
        0
280
     0
281
     0
  0
ENDSEC
  0
SECTION
  2
TABLES
  0
TABLE
  2
VPORT
  5
6E
330
0
100
AcDbSymbolTable
 70
     2
  0
VPORT
  5
12EB
330
6E
100
AcDbSymbolTableRecord
100
AcDbViewportTableRecord
  2
*ACTIVE
 70
     0
 10
0.0
 20
0.0
 11
1.0
 21
1.0
 12
370.002402615344
 22
187.5735998932697
 13
0.0
 23
0.0
 14
10.0
 24
10.0
 15
10.0
 25
10.0
 16
0.0
 26
0.0
 36
1.0
 17
0.0
 27
0.0
 37
0.0
 40
447.0471169736376
 41
1.540920716112531
 42
50.0
 43
0.0
 44
0.0
 50
0.0
 51
0.0
 71
     0
 72
   100
 73
     1
 74
     3
 75
     0
 76
     0
 77
     0
 78
     0
  0
ENDTAB
  0
TABLE
  2
LTYPE
  5
69
330
0
100
AcDbSymbolTable
 70
     4
  0
LTYPE
  5
6A
330
69
100
AcDbSymbolTableRecord
100
AcDbLinetypeTableRecord
  2
BYBLOCK
 70
     0
  3

 72
    65
 73
     0
 40
0.0
  0
LTYPE
  5
6B
330
69
100
AcDbSymbolTableRecord
100
AcDbLinetypeTableRecord
  2
BYLAYER
 70
     0
  3

 72
    65
 73
     0
 40
0.0
  0
LTYPE
  5
8
330
69
100
AcDbSymbolTableRecord
100
AcDbLinetypeTableRecord
  2
CONTINUOUS
 70
     0
  3
Solid line
 72
    65
 73
     0
 40
0.0
  0
LTYPE
  5
27C
330
69
100
AcDbSymbolTableRecord
100
AcDbLinetypeTableRecord
  2
SEKKEI_A2_
 70
     0
  3
center(A2)  ____ _ ____ _ ____ _ ____ _ ____ _ 
 72
    65
 73
     4
 40
14.28749999999999
 49
9.525
 74
     0
 49
-1.587499999999999
 74
     0
 49
1.587499999999999
 74
     0
 49
-1.587499999999999
 74
     0
  0
LTYPE
  5
2B4
330
69
100
AcDbSymbolTableRecord
100
AcDbLinetypeTableRecord
  2
HIDDEN2
 70
     0
  3
Hidden (.5x) _ _ _ _ _ _ _ _ _ _ _ _ _ _ _ _ _
 72
    65
 73
     2
 40
4.762499999999999
 49
3.174999999999999
 74
     0
 49
-1.587499999999999
 74
     0
  0
LTYPE
  5
48F
330
69
100
AcDbSymbolTableRecord
100
AcDbLinetypeTableRecord
  2
SEKKEI_H
 70
     0
  3
Hidden-S _ _ _ _ _ _ _ _ _ _ _ _ _ _ _ _ _
 72
    65
 73
     2
 40
2.381249999999999
 49
1.587499999999999
 74
     0
 49
-0.79375
 74
     0
  0
ENDTAB
  0
TABLE
  2
LAYER
  5
66
330
0
100
AcDbSymbolTable
 70
     9
  0
LAYER
  5
5E
330
66
100
AcDbSymbolTableRecord
100
AcDbLayerTableRecord
  2
0
 70
     0
 62
     7
  6
CONTINUOUS
  0
LAYER
  5
3E
330
66
100
AcDbSymbolTableRecord
100
AcDbLayerTableRecord
  2
CENTER
 70
     0
 62
     3
  6
SEKKEI_A2_
  0
LAYER
  5
2B5
330
66
100
AcDbSymbolTableRecord
100
AcDbLayerTableRecord
  2
HIDS
 70
     0
 62
     1
  6
HIDDEN2
  0
LAYER
  5
2BA
330
66
100
AcDbSymbolTableRecord
100
AcDbLayerTableRecord
  2
HOJO
 70
     0
 62
     4
  6
CONTINUOUS
  0
LAYER
  5
3FA
330
66
100
AcDbSymbolTableRecord
100
AcDbLayerTableRecord
  2
TITLE
 70
     0
 62
     4
  6
CONTINUOUS
  0
ENDTAB
  0
TABLE
  2
STYLE
  5
67
330
0
100
AcDbSymbolTable
 70
     1
  0
STYLE
  5
16
330
67
100
AcDbSymbolTableRecord
100
AcDbTextStyleTableRecord
  2
STANDARD
 70
     0
 40
0.0
 41
1.0
 50
0.0
 71
     0
 42
2.0
  3
simplex.shx
  4
extfont.shx
  0
ENDTAB
  0
TABLE
  2
VIEW
  5
6C
330
0
100
AcDbSymbolTable
 70
     0
  0
ENDTAB
  0
TABLE
  2
UCS
  5
6D
330
0
100
AcDbSymbolTable
 70
     0
  0
ENDTAB
  0
TABLE
  2
APPID
  5
70
330
0
100
AcDbSymbolTable
 70
     1
  0
APPID
  5
71
330
70
100
AcDbSymbolTableRecord
100
AcDbRegAppTableRecord
  2
ACAD
 70
     0
  0
ENDTAB
  0
TABLE
  2
DIMSTYLE
  5
72
330
0
100
AcDbSymbolTable
 70
     2
  0
DIMSTYLE
105
73
102
{ACAD_REACTORS
330
90E
330
940
102
}
330
72
100
AcDbSymbolTableRecord
100
AcDbDimStyleTableRecord
  2
STANDARD
 70
     0
  3

  4

  5

  6

  7

 40
2.0
 41
1.8
 42
0.625
 43
3.75
 44
0.8
 45
0.0
 46
0.0
 47
0.0
 48
0.0
140
1.8
141
2.5
142
0.0
143
0.0394
144
1.0
145
0.0
146
1.0
147
0.75
 71
     0
 72
     0
 73
     0
 74
     0
 75
     0
 76
     0
 77
     1
 78
     8
170
     0
171
     4
172
     1
173
     0
174
     0
175
     0
176
     0
177
     0
178
     0
270
     8
271
     2
272
     2
273
     8
274
     4
340
16
275
     0
280
     0
281
     0
282
     0
283
     1
284
     0
285
     0
286
     0
287
     3
288
     0
  0
ENDTAB
  0
TABLE
  2
BLOCK_RECORD
  5
1
330
0
100
AcDbSymbolTable
 70
    59
  0
BLOCK_RECORD
  5
2
102
{ACAD_XDICTIONARY
360
130D
102
}
330
1
100
AcDbSymbolTableRecord
100
AcDbBlockTableRecord
  2
*MODEL_SPACE
  0
BLOCK_RECORD
  5
12E6
102
{ACAD_XDICTIONARY
360
130F
102
}
330
1
100
AcDbSymbolTableRecord
100
AcDbBlockTableRecord
  2
*PAPER_SPACE
  0
ENDTAB
  0
ENDSEC
  0
SECTION
  2
BLOCKS
  0
BLOCK
  5
5D
330
2
100
AcDbEntity
  8
0
100
AcDbBlockBegin
  2
*MODEL_SPACE
 70
     0
 10
0.0
 20
0.0
 30
0.0
  3
*MODEL_SPACE
  1

  0
ENDBLK
  5
5F
330
2
100
AcDbEntity
  8
0
100
AcDbBlockEnd
  0
BLOCK
  5
12E8
330
12E6
100
AcDbEntity
 67
     1
  8
0
100
AcDbBlockBegin
  2
*PAPER_SPACE
 70
     0
 10
0.0
 20
0.0
 30
0.0
  3
*PAPER_SPACE
  1

  0
ENDBLK
  5
12E9
330
12E6
100
AcDbEntity
 67
     1
  8
0
100
AcDbBlockEnd
  0
ENDSEC
  0
SECTION
  2
ENTITIES
  0
ARC
  5
8CA
330
2
100
AcDbEntity
  8
0
100
AcDbCircle
 10
338.4628598463844
 20
59.85161968698474
 30
0.0
 40
2.0
100
AcDbArc
 50
90.0
 51
180.0
  0
LINE
  5
8CB
330
2
100
AcDbEntity
  8
0
100
AcDbLine
 10
336.4628598463843
 20
53.851609686985
 30
0.0
 11
430.4628628463844
 21
53.851609686985
 31
0.0
  0
LINE
  5
8CF
330
2
100
AcDbEntity
  8
0
100
AcDbLine
 10
123.1202095557946
 20
58.55162968698476
 30
0.0
 11
123.1202095557946
 21
134.551611686985
 31
0.0
  0
LINE
  5
8D0
330
2
100
AcDbEntity
  8
CENTER
100
AcDbLine
 10
238.1202035557946
 20
158.451612686985
 30
0.0
 11
238.1202035557945
 21
46.85160968698499
 31
0.0
  0
LINE
  5
8D1
330
2
100
AcDbEntity
  8
0
100
AcDbLine
 10
97.32020855579458
 20
61.4017146869848
 30
0.0
 11
97.32020855579458
 21
127.101507686985
 31
0.0
  0
LINE
  5
8D2
330
2
100
AcDbEntity
  8
0
100
AcDbLine
 10
98.12020855579465
 20
126.8793546869848
 30
0.0
 11
98.12020855579465
 21
65.30169968698482
 31
0.0
  0
ARC
  5
8D3
330
2
100
AcDbEntity
  8
0
100
AcDbCircle
 10
238.1202035557946
 20
105.8516066869849
 30
0.0
 40
42.5
100
AcDbArc
 50
199.7498929999959
 51
340.2500919999958
  0
LINE
  5
8D4
330
2
100
AcDbEntity
  8
0
100
AcDbLine
 10
195.6202115557946
 20
129.552206686985
 30
0.0
 11
195.6202115557946
 21
53.851609686985
 31
0.0
  0
LINE
  5
8D5
330
2
100
AcDbEntity
  8
0
100
AcDbLine
 10
226.4410045557946
 20
90.25158968698491
 30
0.0
 11
226.4410045557946
 21
84.74252968698483
 31
0.0
  0
LINE
  5
8D6
330
2
100
AcDbEntity
  8
0
100
AcDbLine
 10
225.3702035557946
 20
90.93211268698491
 30
0.0
 11
225.3702035557946
 21
84.09247068698476
 31
0.0
  0
LINE
  5
8D7
330
2
100
AcDbEntity
  8
0
100
AcDbLine
 10
244.9683025557945
 20
91.24369668698472
 30
0.0
 11
244.9683025557945
 21
83.84770068698498
 31
0.0
  0
LINE
  5
8D8
330
2
100
AcDbEntity
  8
0
100
AcDbLine
 10
238.6930035557945
 20
91.24369668698472
 30
0.0
 11
238.6930035557945
 21
83.89750968698484
 31
0.0
  0
LINE
  5
8D9
330
2
100
AcDbEntity
  8
0
100
AcDbLine
 10
237.4976145557945
 20
91.24369668698472
 30
0.0
 11
237.4976145557945
 21
83.89750968698484
 31
0.0
  0
ARC
  5
8DA
330
2
100
AcDbEntity
  8
0
100
AcDbCircle
 10
248.3177135557946
 20
89.86162068698485
 30
0.0
 40
2.55249
100
AcDbArc
 50
286.0181270000005
 51
90.00351000000046
  0
LINE
  5
8DB
330
2
100
AcDbEntity
  8
0
100
AcDbLine
 10
246.0640055557946
 20
91.24369668698472
 30
0.0
 11
246.0640055557946
 21
88.31744668698474
 31
0.0
  0
ARC
  5
8DC
330
2
100
AcDbEntity
  8
0
100
AcDbCircle
 10
248.3177135557946
 20
89.86162068698485
 30
0.0
 40
1.557193
100
AcDbArc
 50
277.4147260000004
 51
62.41184999999767
  0
LINE
  5
8DD
330
2
100
AcDbEntity
  8
0
100
AcDbLine
 10
280.6202035557946
 20
129.5521916869849
 30
0.0
 11
280.6202035557946
 21
53.851609686985
 31
0.0
  0
LINE
  5
8E1
330
2
100
AcDbEntity
  8
0
100
AcDbLine
 10
123.1201575557946
 20
66.30263968698471
 30
0.0
 11
195.6201955557945
 21
66.30263968698471
 31
0.0
  0
LINE
  5
8E2
330
2
100
AcDbEntity
  8
0
100
AcDbLine
 10
123.1202095557946
 20
58.55160968698482
 30
0.0
 11
195.6202115557946
 21
58.55160968698482
 31
0.0
  0
LINE
  5
8E3
330
2
100
AcDbEntity
  8
0
100
AcDbLine
 10
123.1202095557946
 20
66.30263968698471
 30
0.0
 11
109.1202095557946
 21
66.30263968698471
 31
0.0
  0
LINE
  5
8E4
330
2
100
AcDbEntity
  8
0
100
AcDbLine
 10
100.1199035557946
 20
58.95308168698483
 30
0.0
 11
123.1202095557946
 21
58.55160968698482
 31
0.0
  0
LINE
  5
8E5
330
2
100
AcDbEntity
  8
0
100
AcDbLine
 10
108.1202085557946
 20
66.05160968698482
 30
0.0
 11
108.1202085557946
 21
59.05160968698481
 31
0.0
  0
LINE
  5
8E6
330
2
100
AcDbEntity
  8
0
100
AcDbLine
 10
109.1202095557946
 20
66.16968068698492
 30
0.0
 11
109.1202095557946
 21
59.05160968698481
 31
0.0
  0
LINE
  5
8E7
330
2
100
AcDbEntity
  8
0
100
AcDbLine
 10
109.1202095557946
 20
66.05160968698482
 30
0.0
 11
109.1202095557946
 21
59.40519968698499
 31
0.0
  0
ARC
  5
8E8
330
2
100
AcDbEntity
  8
0
100
AcDbCircle
 10
114.5201995557946
 20
62.55160968698482
 30
0.0
 40
8.999999
100
AcDbArc
 50
163.3984989999952
 51
196.6009979999981
  0
LINE
  5
8E9
330
2
100
AcDbEntity
  8
0
100
AcDbLine
 10
98.12020855579465
 20
60.25565168698489
 30
0.0
 11
98.12020855579465
 21
65.30169968698482
 31
0.0
  0
ARC
  5
8EA
330
2
100
AcDbEntity
  8
0
100
AcDbCircle
 10
97.82020855579458
 20
61.4017146869848
 30
0.0
 40
0.5
100
AcDbArc
 50
180.0
 51
250.0000000000009
  0
ARC
  5
8EB
330
2
100
AcDbEntity
  8
0
100
AcDbCircle
 10
109.6202095557946
 20
59.28732968698494
 30
0.0
 40
0.5
100
AcDbArc
 50
180.0
 51
268.9999999999998
  0
LINE
  5
8EC
330
2
100
AcDbEntity
  8
0
100
AcDbLine
 10
109.1202095557946
 20
59.05160968698481
 30
0.0
 11
107.1412045557946
 21
59.05160968698481
 31
0.0
  0
LINE
  5
8ED
330
2
100
AcDbEntity
  8
0
100
AcDbLine
 10
98.86180055579462
 20
59.28961568698486
 30
0.0
 11
100.1199035557946
 21
58.95308168698483
 31
0.0
  0
ARC
  5
8EE
330
2
100
AcDbEntity
  8
0
100
AcDbCircle
 10
99.12020855579465
 20
60.25565168698489
 30
0.0
 40
1.0
100
AcDbArc
 50
180.0
 51
255.0243839999991
  0
LINE
  5
8EF
330
2
100
AcDbEntity
  8
0
100
AcDbLine
 10
97.64919855579456
 20
60.93186768698496
 30
0.0
 11
97.79121855579456
 21
60.88017668698483
 31
0.0
  0
ARC
  5
8F0
330
2
100
AcDbEntity
  8
0
100
AcDbCircle
 10
97.62020855579464
 20
60.41033068698488
 30
0.0
 40
0.5
100
AcDbArc
 50
0.0
 51
70.00000000000095
  0
ARC
  5
8F1
330
2
100
AcDbEntity
  8
0
100
AcDbCircle
 10
107.1412045557946
 20
60.35159968698479
 30
0.0
 40
1.3
100
AcDbArc
 50
196.6009060000029
 51
270.0
  0
ARC
  5
8F2
330
2
100
AcDbEntity
  8
0
100
AcDbCircle
 10
108.1202085557946
 20
66.05160968698482
 30
0.0
 40
1.0
100
AcDbArc
 50
0.0
 51
90.0
  0
LINE
  5
8F3
330
2
100
AcDbEntity
  8
0
100
AcDbLine
 10
109.1202095557946
 20
66.05160968698482
 30
0.0
 11
107.1412045557946
 21
66.05160968698482
 31
0.0
  0
LINE
  5
8F4
330
2
100
AcDbEntity
  8
0
100
AcDbLine
 10
98.86180055579462
 20
67.38814368698484
 30
0.0
 11
100.1199035557946
 21
67.05160968698482
 31
0.0
  0
ARC
  5
8F5
330
2
100
AcDbEntity
  8
0
100
AcDbCircle
 10
99.12020855579465
 20
68.35417968698488
 30
0.0
 40
1.0
100
AcDbArc
 50
180.0
 51
255.0243839999991
  0
ARC
  5
8F6
330
2
100
AcDbEntity
  8
0
100
AcDbCircle
 10
107.1412045557946
 20
64.75158968698491
 30
0.0
 40
1.3
100
AcDbArc
 50
90.0
 51
163.3984070000009
  0
LINE
  5
8F7
330
2
100
AcDbEntity
  8
0
100
AcDbLine
 10
100.1199035557946
 20
67.05160968698482
 30
0.0
 11
108.1202085557946
 21
67.05160968698482
 31
0.0
  0
LINE
  5
8F8
330
2
100
AcDbEntity
  8
0
100
AcDbLine
 10
197.6202185557946
 20
61.851609686985
 30
0.0
 11
278.6202035557946
 21
61.851609686985
 31
0.0
  0
LINE
  5
8F9
330
2
100
AcDbEntity
  8
0
100
AcDbLine
 10
195.6202115557946
 20
53.851609686985
 30
0.0
 11
280.6202035557946
 21
53.851609686985
 31
0.0
  0
LINE
  5
8FC
330
2
100
AcDbEntity
  8
CENTER
100
AcDbLine
 10
204.1202115557946
 20
65.351609686985
 30
0.0
 11
204.1202115557946
 21
50.351609686985
 31
0.0
  0
ARC
  5
8FD
330
2
100
AcDbEntity
  8
0
100
AcDbCircle
 10
197.6202185557946
 20
59.85161968698474
 30
0.0
 40
2.0
100
AcDbArc
 50
90.0
 51
180.0
  0
LINE
  5
8FE
330
2
100
AcDbEntity
  8
HIDS
  6
SEKKEI_H
100
AcDbLine
 10
207.3702115557946
 20
61.851609686985
 30
0.0
 11
207.3702115557946
 21
53.851609686985
 31
0.0
  0
LINE
  5
8FF
330
2
100
AcDbEntity
  8
HIDS
  6
SEKKEI_H
100
AcDbLine
 10
200.8702115557946
 20
61.851609686985
 30
0.0
 11
200.8702115557946
 21
53.851609686985
 31
0.0
  0
LINE
  5
900
330
2
100
AcDbEntity
  8
0
100
AcDbLine
 10
231.7452035557946
 20
88.40483368698476
 30
0.0
 11
231.7452035557946
 21
82.85161068698489
 31
0.0
  0
LINE
  5
901
330
2
100
AcDbEntity
  8
0
100
AcDbLine
 10
230.8238015557946
 20
82.85161068698489
 30
0.0
 11
231.7452035557946
 21
82.85161068698489
 31
0.0
  0
LINE
  5
902
330
2
100
AcDbEntity
  8
0
100
AcDbLine
 10
230.8238015557946
 20
87.35893068698505
 30
0.0
 11
230.8238015557946
 21
85.9643996869849
 31
0.0
  0
LINE
  5
903
330
2
100
AcDbEntity
  8
0
100
AcDbLine
 10
230.8238015557946
 20
83.61387168698474
 30
0.0
 11
230.8238015557946
 21
82.85161068698489
 31
0.0
  0
LINE
  5
904
330
2
100
AcDbEntity
  8
0
100
AcDbLine
 10
230.8238015557946
 20
86.36284168698484
 30
0.0
 11
230.8238015557946
 21
87.15971668698484
 31
0.0
  0
LINE
  5
905
330
2
100
AcDbEntity
  8
0
100
AcDbLine
 10
226.6000005557946
 20
82.85161068698489
 30
0.0
 11
229.9153085557946
 21
82.85161068698489
 31
0.0
  0
LINE
  5
906
330
2
100
AcDbEntity
  8
0
100
AcDbLine
 10
225.3702035557946
 20
84.09247068698476
 30
0.0
 11
226.6000005557946
 21
82.85161068698489
 31
0.0
  0
LINE
  5
907
330
2
100
AcDbEntity
  8
0
100
AcDbLine
 10
228.8316145557946
 20
83.97220868698486
 30
0.0
 11
227.1723125557946
 21
83.97220868698486
 31
0.0
  0
LINE
  5
908
330
2
100
AcDbEntity
  8
0
100
AcDbLine
 10
226.4410045557946
 20
84.74252968698483
 30
0.0
 11
227.1723125557946
 21
83.97220868698486
 31
0.0
  0
LINE
  5
909
330
2
100
AcDbEntity
  8
0
100
AcDbLine
 10
229.1554055557945
 20
88.40483368698476
 30
0.0
 11
229.1554055557945
 21
87.35893068698505
 31
0.0
  0
ARC
  5
90A
330
2
100
AcDbEntity
  8
0
100
AcDbCircle
 10
228.8316145557946
 20
85.9643996869849
 30
0.0
 40
1.992186999999999
100
AcDbArc
 50
270.000213999999
 51
0.0001090000031536
  0
LINE
  5
90B
330
2
100
AcDbEntity
  8
0
100
AcDbLine
 10
230.8238015557946
 20
87.35893068698505
 30
0.0
 11
229.1554055557945
 21
87.35893068698505
 31
0.0
  0
LINE
  5
90C
330
2
100
AcDbEntity
  8
0
100
AcDbLine
 10
230.8238015557946
 20
83.61387168698474
 30
0.0
 11
229.9153085557946
 21
82.85161068698489
 31
0.0
  0
LINE
  5
90D
330
2
100
AcDbEntity
  8
0
100
AcDbLine
 10
229.1554055557945
 20
88.40483368698476
 30
0.0
 11
231.7452035557946
 21
88.40483368698476
 31
0.0
  0
LINE
  5
90F
330
2
100
AcDbEntity
  8
0
100
AcDbLine
 10
248.1045025557946
 20
87.32158168698488
 30
0.0
 11
249.5995125557946
 21
83.84770068698498
 31
0.0
  0
LINE
  5
910
330
2
100
AcDbEntity
  8
0
100
AcDbLine
 10
246.0640055557946
 20
87.32158168698488
 30
0.0
 11
248.1045025557946
 21
87.32158168698488
 31
0.0
  0
LINE
  5
911
330
2
100
AcDbEntity
  8
0
100
AcDbLine
 10
246.4998115557946
 20
83.84770068698498
 30
0.0
 11
246.4998115557946
 21
82.85161068698489
 31
0.0
  0
LINE
  5
912
330
2
100
AcDbEntity
  8
0
100
AcDbLine
 10
246.0640055557946
 20
83.84770068698498
 30
0.0
 11
246.4998115557946
 21
83.84770068698498
 31
0.0
  0
LINE
  5
913
330
2
100
AcDbEntity
  8
0
100
AcDbLine
 10
246.0640055557946
 20
87.32158168698488
 30
0.0
 11
246.0640055557946
 21
83.84770068698498
 31
0.0
  0
LINE
  5
914
330
2
100
AcDbEntity
  8
0
100
AcDbLine
 10
246.0640055557946
 20
88.31744668698474
 30
0.0
 11
248.5187025557946
 21
88.31744668698474
 31
0.0
  0
LINE
  5
915
330
2
100
AcDbEntity
  8
0
100
AcDbLine
 10
244.4952035557946
 20
83.84770068698498
 30
0.0
 11
244.4952035557946
 21
82.85161068698489
 31
0.0
  0
LINE
  5
916
330
2
100
AcDbEntity
  8
0
100
AcDbLine
 10
244.4952035557946
 20
83.84770068698498
 30
0.0
 11
244.9683025557945
 21
83.84770068698498
 31
0.0
  0
LINE
  5
917
330
2
100
AcDbEntity
  8
0
100
AcDbLine
 10
237.0245155557946
 20
83.89750968698484
 30
0.0
 11
237.4976145557945
 21
83.89750968698484
 31
0.0
  0
LINE
  5
918
330
2
100
AcDbEntity
  8
0
100
AcDbLine
 10
237.0245155557946
 20
82.85161068698489
 30
0.0
 11
239.0914105557945
 21
82.85161068698489
 31
0.0
  0
LINE
  5
919
330
2
100
AcDbEntity
  8
0
100
AcDbLine
 10
239.0914105557945
 20
83.89750968698484
 30
0.0
 11
239.0914105557945
 21
82.85161068698489
 31
0.0
  0
LINE
  5
91A
330
2
100
AcDbEntity
  8
0
100
AcDbLine
 10
237.0245155557946
 20
83.89750968698484
 30
0.0
 11
237.0245155557946
 21
82.85161068698489
 31
0.0
  0
LINE
  5
91B
330
2
100
AcDbEntity
  8
0
100
AcDbLine
 10
238.6930035557945
 20
83.89750968698484
 30
0.0
 11
239.0914105557945
 21
83.89750968698484
 31
0.0
  0
LINE
  5
91C
330
2
100
AcDbEntity
  8
0
100
AcDbLine
 10
246.4998115557946
 20
82.85161068698489
 30
0.0
 11
244.4952035557946
 21
82.85161068698489
 31
0.0
  0
LINE
  5
91D
330
2
100
AcDbEntity
  8
0
100
AcDbLine
 10
249.4010115557946
 20
83.84770068698498
 30
0.0
 11
249.4010115557946
 21
82.85161068698489
 31
0.0
  0
LINE
  5
91E
330
2
100
AcDbEntity
  8
0
100
AcDbLine
 10
250.8702035557946
 20
83.84770068698498
 30
0.0
 11
250.8702035557946
 21
82.85161068698489
 31
0.0
  0
LINE
  5
91F
330
2
100
AcDbEntity
  8
0
100
AcDbLine
 10
249.4010115557946
 20
82.85161068698489
 30
0.0
 11
250.8702035557946
 21
82.85161068698489
 31
0.0
  0
LINE
  5
920
330
2
100
AcDbEntity
  8
0
100
AcDbLine
 10
250.6019085557945
 20
83.84770068698498
 30
0.0
 11
250.8702035557946
 21
83.84770068698498
 31
0.0
  0
LINE
  5
921
330
2
100
AcDbEntity
  8
0
100
AcDbLine
 10
249.4010115557946
 20
83.84770068698498
 30
0.0
 11
249.5995125557946
 21
83.84770068698498
 31
0.0
  0
LINE
  5
922
330
2
100
AcDbEntity
  8
0
100
AcDbLine
 10
249.0220135557946
 20
87.40823268698495
 30
0.0
 11
250.6019085557945
 21
83.84770068698498
 31
0.0
  0
LINE
  5
923
330
2
100
AcDbEntity
  8
CENTER
100
AcDbLine
 10
272.1202035557946
 20
65.351609686985
 30
0.0
 11
272.1202035557946
 21
50.351609686985
 31
0.0
  0
LINE
  5
924
330
2
100
AcDbEntity
  8
HIDS
  6
SEKKEI_H
100
AcDbLine
 10
268.8702035557946
 20
61.851609686985
 30
0.0
 11
268.8702035557946
 21
53.851609686985
 31
0.0
  0
LINE
  5
925
330
2
100
AcDbEntity
  8
HIDS
  6
SEKKEI_H
100
AcDbLine
 10
275.3702035557946
 20
61.851609686985
 30
0.0
 11
275.3702035557946
 21
53.851609686985
 31
0.0
  0
ARC
  5
926
330
2
100
AcDbEntity
  8
0
100
AcDbCircle
 10
278.6202035557946
 20
59.85159968698479
 30
0.0
 40
2.0
100
AcDbArc
 50
0.0
 51
90.0
  0
LINE
  5
928
330
2
100
AcDbEntity
  8
0
100
AcDbLine
 10
336.4628598463843
 20
59.851609686985
 30
0.0
 11
336.4628598463843
 21
53.851609686985
 31
0.0
  0
LINE
  5
929
330
2
100
AcDbEntity
  8
0
100
AcDbLine
 10
123.1201575557946
 20
126.8005816869849
 30
0.0
 11
195.6201955557945
 21
126.8005816869849
 31
0.0
  0
LINE
  5
92A
330
2
100
AcDbEntity
  8
CENTER
100
AcDbLine
 10
90.32020855579458
 20
96.55161168698505
 30
0.0
 11
214.8702115557946
 21
96.55161168698505
 31
0.0
  0
LINE
  5
92B
330
2
100
AcDbEntity
  8
0
100
AcDbLine
 10
123.1202095557946
 20
134.551611686985
 30
0.0
 11
199.0398885557946
 21
134.551611686985
 31
0.0
  0
LINE
  5
92E
330
2
100
AcDbEntity
  8
0
100
AcDbLine
 10
193.6202195557946
 20
318.8108848946571
 30
0.0
 11
123.1202195557947
 21
318.8108848946571
 31
0.0
  0
LINE
  5
92F
330
2
100
AcDbEntity
  8
0
100
AcDbLine
 10
123.1202195557947
 20
303.8108848946571
 30
0.0
 11
199.0398965557947
 21
303.8108848946571
 31
0.0
  0
LINE
  5
930
330
2
100
AcDbEntity
  8
0
100
AcDbLine
 10
123.1202195557947
 20
242.8108848946571
 30
0.0
 11
193.6202195557946
 21
242.8108848946571
 31
0.0
  0
LINE
  5
931
330
2
100
AcDbEntity
  8
0
100
AcDbLine
 10
123.1202195557947
 20
257.8108848946571
 30
0.0
 11
199.0398965557947
 21
257.8108848946571
 31
0.0
  0
LINE
  5
932
330
2
100
AcDbEntity
  8
CENTER
100
AcDbLine
 10
66.92054491824842
 20
280.8108848946571
 30
0.0
 11
287.6202035557947
 21
280.8108848946571
 31
0.0
  0
LINE
  5
933
330
2
100
AcDbEntity
  8
CENTER
100
AcDbLine
 10
105.6202195557947
 20
310.8108848946571
 30
0.0
 11
105.6202195557946
 21
250.8108848946569
 31
0.0
  0
LINE
  5
934
330
2
100
AcDbEntity
  8
0
100
AcDbLine
 10
123.1202195557947
 20
242.8108848946571
 30
0.0
 11
123.1202195557947
 21
318.8108848946571
 31
0.0
  0
CIRCLE
  5
935
330
2
100
AcDbEntity
  8
0
100
AcDbCircle
 10
93.62021955579463
 20
300.8108848946571
 30
0.0
 40
2.75
  0
ARC
  5
936
330
2
100
AcDbEntity
  8
0
100
AcDbCircle
 10
95.37021955579461
 20
302.5608848946571
 30
0.0
 40
1.35
100
AcDbArc
 50
180.0
 51
270.0
  0
ARC
  5
937
330
2
100
AcDbEntity
  8
0
100
AcDbCircle
 10
91.87021955579462
 20
302.5608848946571
 30
0.0
 40
1.35
100
AcDbArc
 50
270.0
 51
0.0
  0
ARC
  5
938
330
2
100
AcDbEntity
  8
0
100
AcDbCircle
 10
92.62009655579459
 20
301.8108848946571
 30
0.0
 40
2.0
100
AcDbArc
 50
90.0
 51
180.0
  0
LINE
  5
939
330
2
100
AcDbEntity
  8
0
100
AcDbLine
 10
97.12021955579473
 20
302.8108848946571
 30
0.0
 11
97.12021955579473
 21
300.8108848946571
 31
0.0
  0
ARC
  5
93A
330
2
100
AcDbEntity
  8
0
100
AcDbCircle
 10
119.3702195557946
 20
302.5608848946571
 30
0.0
 40
1.35
100
AcDbArc
 50
180.0
 51
270.0
  0
ARC
  5
93B
330
2
100
AcDbEntity
  8
0
100
AcDbCircle
 10
118.6202195557946
 20
301.8108848946571
 30
0.0
 40
2.0
100
AcDbArc
 50
0.0
 51
90.0
  0
CIRCLE
  5
93C
330
2
100
AcDbEntity
  8
0
100
AcDbCircle
 10
117.6202195557946
 20
300.8108848946571
 30
0.0
 40
2.75
  0
ARC
  5
93D
330
2
100
AcDbEntity
  8
0
100
AcDbCircle
 10
115.8702195557946
 20
302.5608848946571
 30
0.0
 40
1.35
100
AcDbArc
 50
270.0
 51
0.0
  0
LINE
  5
93E
330
2
100
AcDbEntity
  8
0
100
AcDbLine
 10
114.1202195557947
 20
302.8108848946571
 30
0.0
 11
114.1202195557947
 21
300.8108848946571
 31
0.0
  0
LINE
  5
941
330
2
100
AcDbEntity
  8
0
100
AcDbLine
 10
74.32332855579466
 20
151.701612686985
 30
0.0
 11
88.62032855579457
 21
151.701612686985
 31
0.0
  0
LINE
  5
942
330
2
100
AcDbEntity
  8
0
100
AcDbLine
 10
73.47152755579464
 20
144.0016086869847
 30
0.0
 11
88.62032855579457
 21
144.0016086869847
 31
0.0
  0
LINE
  5
944
330
2
100
AcDbEntity
  8
HOJO
100
AcDbLine
 10
73.58752855579462
 20
148.866506686985
 30
0.0
 11
74.39962855579461
 21
146.3915086869848
 31
0.0
  0
LINE
  5
945
330
2
100
AcDbEntity
  8
HOJO
100
AcDbLine
 10
74.39962855579461
 20
146.3915086869848
 30
0.0
 11
73.47152755579464
 21
144.0016086869847
 31
0.0
  0
LINE
  5
946
330
2
100
AcDbEntity
  8
HOJO
100
AcDbLine
 10
74.32332855579466
 20
151.701612686985
 30
0.0
 11
73.58752855579462
 21
148.866506686985
 31
0.0
  0
LINE
  5
947
330
2
100
AcDbEntity
  8
0
100
AcDbLine
 10
120.6203275557945
 20
135.5912236869848
 30
0.0
 11
120.6203275557945
 21
147.051611686985
 31
0.0
  0
ARC
  5
948
330
2
100
AcDbEntity
  8
0
100
AcDbCircle
 10
121.6202095557946
 20
143.0858066869847
 30
0.0
 40
1.0
100
AcDbArc
 50
270.0
 51
0.0
  0
LINE
  5
949
330
2
100
AcDbEntity
  8
0
100
AcDbLine
 10
90.62032855579458
 20
129.9982206869849
 30
0.0
 11
90.62032855579458
 21
147.051611686985
 31
0.0
  0
LINE
  5
94A
330
2
100
AcDbEntity
  8
CENTER
100
AcDbLine
 10
105.6202085557946
 20
158.5771246869848
 30
0.0
 11
105.6203285557945
 21
140.7783116869847
 31
0.0
  0
ARC
  5
94B
330
2
100
AcDbEntity
  8
0
100
AcDbCircle
 10
89.62020855579465
 20
143.0858066869847
 30
0.0
 40
1.0
100
AcDbArc
 50
180.0
 51
270.0
  0
LINE
  5
94C
330
2
100
AcDbEntity
  8
0
100
AcDbLine
 10
123.1202095557946
 20
126.8005816869849
 30
0.0
 11
109.1202095557946
 21
126.8005816869849
 31
0.0
  0
ARC
  5
94D
330
2
100
AcDbEntity
  8
0
100
AcDbCircle
 10
97.12020855579465
 20
126.8793546869848
 30
0.0
 40
1.0
100
AcDbArc
 50
0.0
 51
88.50000000000054
  0
ARC
  5
94E
330
2
100
AcDbEntity
  8
0
100
AcDbCircle
 10
97.82020855579458
 20
127.101507686985
 30
0.0
 40
0.5
100
AcDbArc
 50
109.999999999999
 51
180.0
  0
LINE
  5
94F
330
2
100
AcDbEntity
  8
0
100
AcDbLine
 10
90.62032855579458
 20
135.051611686985
 30
0.0
 11
108.1202085557946
 21
135.051611686985
 31
0.0
  0
ARC
  5
950
330
2
100
AcDbEntity
  8
0
100
AcDbCircle
 10
92.62000855579458
 20
129.9982206869849
 30
0.0
 40
2.0
100
AcDbArc
 50
180.0
 51
268.5000000000005
  0
ARC
  5
951
330
2
100
AcDbEntity
  8
0
100
AcDbCircle
 10
90.12000855579458
 20
141.5858066869847
 30
0.0
 40
0.5
100
AcDbArc
 50
0.0
 51
90.0
  0
LINE
  5
952
330
2
100
AcDbEntity
  8
0
100
AcDbLine
 10
90.12000855579458
 20
142.0858066869847
 30
0.0
 11
89.62020855579465
 21
142.0858066869847
 31
0.0
  0
LINE
  5
953
330
2
100
AcDbEntity
  8
0
100
AcDbLine
 10
92.56765455579467
 20
127.9989076869848
 30
0.0
 11
97.14638555579462
 21
127.8790116869849
 31
0.0
  0
LINE
  5
954
330
2
100
AcDbEntity
  8
0
100
AcDbLine
 10
108.1202085557946
 20
127.051611686985
 30
0.0
 11
108.1202085557946
 21
134.051611686985
 31
0.0
  0
LINE
  5
955
330
2
100
AcDbEntity
  8
0
100
AcDbLine
 10
109.1202095557946
 20
126.551611686985
 30
0.0
 11
109.1202095557946
 21
134.051611686985
 31
0.0
  0
ARC
  5
956
330
2
100
AcDbEntity
  8
0
100
AcDbCircle
 10
108.6202085557946
 20
126.551611686985
 30
0.0
 40
0.5
100
AcDbArc
 50
270.0
 51
0.0
  0
LINE
  5
957
330
2
100
AcDbEntity
  8
0
100
AcDbLine
 10
109.1202095557946
 20
127.051611686985
 30
0.0
 11
107.1412045557946
 21
127.051611686985
 31
0.0
  0
ARC
  5
958
330
2
100
AcDbEntity
  8
0
100
AcDbCircle
 10
108.1202085557946
 20
134.051611686985
 30
0.0
 40
1.0
100
AcDbArc
 50
0.0
 51
90.0
  0
LINE
  5
959
330
2
100
AcDbEntity
  8
0
100
AcDbLine
 10
109.1202095557946
 20
134.051611686985
 30
0.0
 11
107.1412045557946
 21
134.051611686985
 31
0.0
  0
ARC
  5
95A
330
2
100
AcDbEntity
  8
0
100
AcDbCircle
 10
114.5201995557946
 20
130.551611686985
 30
0.0
 40
8.999999
100
AcDbArc
 50
163.3990020000018
 51
196.6015010000047
  0
LINE
  5
95B
330
2
100
AcDbEntity
  8
0
100
AcDbLine
 10
98.86180055579462
 20
125.7150786869849
 30
0.0
 11
100.1199035557946
 21
126.051611686985
 31
0.0
  0
ARC
  5
95C
330
2
100
AcDbEntity
  8
0
100
AcDbCircle
 10
99.12020855579465
 20
124.7490376869847
 30
0.0
 40
1.0
100
AcDbArc
 50
104.975616
 51
180.0
  0
LINE
  5
95D
330
2
100
AcDbEntity
  8
0
100
AcDbLine
 10
97.64919855579456
 20
127.5713566869848
 30
0.0
 11
97.7894485557946
 21
127.6223966869849
 31
0.0
  0
ARC
  5
95E
330
2
100
AcDbEntity
  8
0
100
AcDbCircle
 10
107.1412045557946
 20
128.3516296869849
 30
0.0
 40
1.3
100
AcDbArc
 50
196.601592999999
 51
270.0
  0
LINE
  5
95F
330
2
100
AcDbEntity
  8
0
100
AcDbLine
 10
108.6202085557946
 20
126.051611686985
 30
0.0
 11
100.1199035557946
 21
126.051611686985
 31
0.0
  0
ARC
  5
960
330
2
100
AcDbEntity
  8
0
100
AcDbCircle
 10
107.1412045557946
 20
132.7516156869848
 30
0.0
 40
1.3
100
AcDbArc
 50
90.0
 51
163.3990939999971
  0
LINE
  5
961
330
2
100
AcDbEntity
  8
0
100
AcDbLine
 10
121.5939985557946
 20
134.5915896869848
 30
0.0
 11
123.1202095557946
 21
134.551611686985
 31
0.0
  0
ARC
  5
962
330
2
100
AcDbEntity
  8
0
100
AcDbCircle
 10
121.6202095557946
 20
135.5912236869848
 30
0.0
 40
1.0
100
AcDbArc
 50
180.0
 51
268.4999080000003
  0
ARC
  5
963
330
2
100
AcDbEntity
  8
0
100
AcDbCircle
 10
121.1204075557946
 20
141.5858066869847
 30
0.0
 40
0.5
100
AcDbArc
 50
90.0
 51
180.0
  0
LINE
  5
964
330
2
100
AcDbEntity
  8
0
100
AcDbLine
 10
121.1204075557946
 20
142.0858066869847
 30
0.0
 11
121.6202095557946
 21
142.0858066869847
 31
0.0
  0
ARC
  5
965
330
2
100
AcDbEntity
  8
0
100
AcDbCircle
 10
105.6203285557945
 20
-94.44837331301512
 30
0.0
 40
250.0
100
AcDbArc
 50
86.66830399999998
 51
93.33169600000003
  0
LINE
  5
966
330
2
100
AcDbEntity
  8
0
100
AcDbLine
 10
88.62032855579457
 20
147.051611686985
 30
0.0
 11
122.6203275557945
 21
147.051611686985
 31
0.0
  0
LINE
  5
967
330
2
100
AcDbEntity
  8
0
100
AcDbLine
 10
88.62032855579457
 20
148.051611686985
 30
0.0
 11
122.6203275557945
 21
148.051611686985
 31
0.0
  0
ARC
  5
969
330
2
100
AcDbEntity
  8
0
100
AcDbCircle
 10
97.62008755579461
 20
154.9233386869847
 30
0.0
 40
0.5
100
AcDbArc
 50
91.83745600000049
 51
180.0
  0
ARC
  5
96A
330
2
100
AcDbEntity
  8
0
100
AcDbCircle
 10
95.37032855579457
 20
153.4908126869847
 30
0.0
 40
1.0
100
AcDbArc
 50
0.0
 51
73.04309800000169
  0
LINE
  5
96B
330
2
100
AcDbEntity
  8
0
100
AcDbLine
 10
96.37032855579457
 20
152.0514126869849
 30
0.0
 11
96.37032855579457
 21
153.4908126869847
 31
0.0
  0
LINE
  5
96C
330
2
100
AcDbEntity
  8
0
100
AcDbLine
 10
97.12008755579461
 20
152.551611686985
 30
0.0
 11
97.12008755579461
 21
154.9233386869847
 31
0.0
  0
ARC
  5
96D
330
2
100
AcDbEntity
  8
0
100
AcDbCircle
 10
96.62008755579462
 20
152.551611686985
 30
0.0
 40
0.5
100
AcDbArc
 50
270.0
 51
0.0
  0
ARC
  5
96E
330
2
100
AcDbEntity
  8
0
100
AcDbCircle
 10
91.12008755579461
 20
151.551611686985
 30
0.0
 40
0.5
100
AcDbArc
 50
90.0
 51
180.0
  0
LINE
  5
96F
330
2
100
AcDbEntity
  8
0
100
AcDbLine
 10
90.87032855579456
 20
152.051611686985
 30
0.0
 11
90.87032855579456
 21
153.4908126869847
 31
0.0
  0
ARC
  5
970
330
2
100
AcDbEntity
  8
0
100
AcDbCircle
 10
91.12032855579457
 20
154.6299276869849
 30
0.0
 40
0.5
100
AcDbArc
 50
93.33169600000003
 51
180.0
  0
ARC
  5
971
330
2
100
AcDbEntity
  8
0
100
AcDbCircle
 10
90.12032855579457
 20
154.051611686985
 30
0.0
 40
0.5
100
AcDbArc
 50
270.0
 51
0.0
  0
ARC
  5
972
330
2
100
AcDbEntity
  8
0
100
AcDbCircle
 10
89.62032855579456
 20
152.551611686985
 30
0.0
 40
1.0
100
AcDbArc
 50
90.0
 51
180.0
  0
LINE
  5
973
330
2
100
AcDbEntity
  8
0
100
AcDbLine
 10
90.12032855579457
 20
153.551611686985
 30
0.0
 11
89.62032855579456
 21
153.551611686985
 31
0.0
  0
ARC
  5
974
330
2
100
AcDbEntity
  8
0
100
AcDbCircle
 10
91.87032855579458
 20
153.4908126869847
 30
0.0
 40
1.0
100
AcDbArc
 50
106.9581989999983
 51
180.0
  0
LINE
  5
975
330
2
100
AcDbEntity
  8
0
100
AcDbLine
 10
88.62032855579457
 20
147.051611686985
 30
0.0
 11
88.62032855579457
 21
143.0858066869847
 31
0.0
  0
LINE
  5
976
330
2
100
AcDbEntity
  8
0
100
AcDbLine
 10
91.12032855579457
 20
148.051611686985
 30
0.0
 11
91.12032855579457
 21
147.051611686985
 31
0.0
  0
LINE
  5
977
330
2
100
AcDbEntity
  8
0
100
AcDbLine
 10
90.62032855579458
 20
148.051611686985
 30
0.0
 11
90.62032855579458
 21
154.6299276869849
 31
0.0
  0
LINE
  5
978
330
2
100
AcDbEntity
  8
0
100
AcDbLine
 10
88.62032855579457
 20
152.551611686985
 30
0.0
 11
88.62032855579457
 21
148.051611686985
 31
0.0
  0
ARC
  5
979
330
2
100
AcDbEntity
  8
0
100
AcDbCircle
 10
93.62032855579457
 20
147.7516086869847
 30
0.0
 40
7.0
100
AcDbArc
 50
73.04348800000129
 51
106.9579999999986
  0
LINE
  5
97A
330
2
100
AcDbEntity
  8
0
100
AcDbLine
 10
90.87032855579456
 20
152.7516086869847
 30
0.0
 11
96.37032855579457
 21
152.7516086869847
 31
0.0
  0
LINE
  5
97B
330
2
100
AcDbEntity
  8
0
100
AcDbLine
 10
96.62008755579462
 20
152.051611686985
 30
0.0
 11
91.12008755579461
 21
152.051611686985
 31
0.0
  0
ARC
  5
97C
330
2
100
AcDbEntity
  8
0
100
AcDbCircle
 10
121.6203275557945
 20
152.551611686985
 30
0.0
 40
1.0
100
AcDbArc
 50
0.0
 51
90.0
  0
ARC
  5
97D
330
2
100
AcDbEntity
  8
0
100
AcDbCircle
 10
119.3703275557945
 20
153.4908126869847
 30
0.0
 40
1.0
100
AcDbArc
 50
0.0
 51
73.04309800000169
  0
ARC
  5
97E
330
2
100
AcDbEntity
  8
0
100
AcDbCircle
 10
120.1203275557945
 20
151.551611686985
 30
0.0
 40
0.5
100
AcDbArc
 50
0.0
 51
90.0
  0
ARC
  5
97F
330
2
100
AcDbEntity
  8
0
100
AcDbCircle
 10
120.1203275557945
 20
154.6299276869849
 30
0.0
 40
0.5
100
AcDbArc
 50
0.0
 51
86.66830399999998
  0
LINE
  5
980
330
2
100
AcDbEntity
  8
0
100
AcDbLine
 10
120.3703275557945
 20
152.0514126869849
 30
0.0
 11
120.3703275557945
 21
153.4908126869847
 31
0.0
  0
ARC
  5
981
330
2
100
AcDbEntity
  8
0
100
AcDbCircle
 10
121.1203275557945
 20
154.051611686985
 30
0.0
 40
0.5
100
AcDbArc
 50
180.0
 51
270.0
  0
LINE
  5
982
330
2
100
AcDbEntity
  8
0
100
AcDbLine
 10
121.1203275557945
 20
153.551611686985
 30
0.0
 11
121.6203275557945
 21
153.551611686985
 31
0.0
  0
LINE
  5
983
330
2
100
AcDbEntity
  8
0
100
AcDbLine
 10
122.1203275557945
 20
148.051611686985
 30
0.0
 11
122.1203275557945
 21
147.051611686985
 31
0.0
  0
LINE
  5
984
330
2
100
AcDbEntity
  8
0
100
AcDbLine
 10
120.6203275557945
 20
148.051611686985
 30
0.0
 11
120.6203275557945
 21
154.6299276869849
 31
0.0
  0
ARC
  5
985
330
2
100
AcDbEntity
  8
0
100
AcDbCircle
 10
115.8703275557945
 20
153.4908126869847
 30
0.0
 40
1.0
100
AcDbArc
 50
106.9581989999983
 51
180.0
  0
LINE
  5
986
330
2
100
AcDbEntity
  8
0
100
AcDbLine
 10
114.8703275557945
 20
152.051611686985
 30
0.0
 11
114.8703275557945
 21
153.4908126869847
 31
0.0
  0
ARC
  5
987
330
2
100
AcDbEntity
  8
0
100
AcDbCircle
 10
113.6203275557945
 20
154.9233386869847
 30
0.0
 40
0.5
100
AcDbArc
 50
0.0
 51
88.1625439999995
  0
ARC
  5
988
330
2
100
AcDbEntity
  8
0
100
AcDbCircle
 10
114.6203275557945
 20
152.551611686985
 30
0.0
 40
0.5
100
AcDbArc
 50
180.0
 51
270.0
  0
LINE
  5
989
330
2
100
AcDbEntity
  8
0
100
AcDbLine
 10
114.1203275557945
 20
152.551611686985
 30
0.0
 11
114.1203275557945
 21
154.9233386869847
 31
0.0
  0
LINE
  5
98A
330
2
100
AcDbEntity
  8
0
100
AcDbLine
 10
114.8703275557945
 20
152.7516086869847
 30
0.0
 11
120.3703275557945
 21
152.7516086869847
 31
0.0
  0
ARC
  5
98B
330
2
100
AcDbEntity
  8
0
100
AcDbCircle
 10
117.6203275557945
 20
147.7516086869847
 30
0.0
 40
7.0
100
AcDbArc
 50
73.04348800000129
 51
106.9579999999986
  0
LINE
  5
98C
330
2
100
AcDbEntity
  8
0
100
AcDbLine
 10
114.6203275557945
 20
152.051611686985
 30
0.0
 11
120.1203275557945
 21
152.051611686985
 31
0.0
  0
LINE
  5
98D
330
2
100
AcDbEntity
  8
0
100
AcDbLine
 10
122.6203275557945
 20
147.051611686985
 30
0.0
 11
122.6203275557945
 21
143.0858066869847
 31
0.0
  0
LINE
  5
98E
330
2
100
AcDbEntity
  8
0
100
AcDbLine
 10
122.6203275557945
 20
152.551611686985
 30
0.0
 11
122.6203275557945
 21
148.051611686985
 31
0.0
  0
LINE
  5
98F
330
2
100
AcDbEntity
  8
0
100
AcDbLine
 10
74.32334455579473
 20
284.6608908946572
 30
0.0
 11
88.62034155579488
 21
284.6608908946572
 31
0.0
  0
LINE
  5
990
330
2
100
AcDbEntity
  8
0
100
AcDbLine
 10
73.47153755579473
 20
276.9608788946572
 30
0.0
 11
88.62034155579488
 21
276.9608788946572
 31
0.0
  0
LINE
  5
991
330
2
100
AcDbEntity
  8
HOJO
100
AcDbLine
 10
73.58753455579483
 20
281.8257778946571
 30
0.0
 11
74.39963755579481
 21
279.3507868946573
 31
0.0
  0
LINE
  5
992
330
2
100
AcDbEntity
  8
HOJO
100
AcDbLine
 10
74.39963755579481
 20
279.3507868946573
 30
0.0
 11
73.47153755579473
 21
276.9608788946572
 31
0.0
  0
LINE
  5
993
330
2
100
AcDbEntity
  8
HOJO
100
AcDbLine
 10
74.32334455579473
 20
284.6608908946572
 30
0.0
 11
73.58753455579483
 21
281.8257778946571
 31
0.0
  0
LINE
  5
994
330
2
100
AcDbEntity
  8
0
100
AcDbLine
 10
98.12021955579474
 20
244.514986894657
 30
0.0
 11
98.12021955579474
 21
257.8108848946571
 31
0.0
  0
ARC
  5
995
330
2
100
AcDbEntity
  8
0
100
AcDbCircle
 10
97.8202005557946
 20
249.1050128946571
 30
0.0
 40
0.5
100
AcDbArc
 50
180.0
 51
249.9999619999997
  0
LINE
  5
996
330
2
100
AcDbEntity
  8
0
100
AcDbLine
 10
100.1199135557948
 20
243.2123898946571
 30
0.0
 11
123.1202195557947
 21
242.8108848946571
 31
0.0
  0
ARC
  5
997
330
2
100
AcDbEntity
  8
0
100
AcDbCircle
 10
99.12021955579461
 20
244.514986894657
 30
0.0
 40
1.0
100
AcDbArc
 50
180.0
 51
255.025596999998
  0
LINE
  5
998
330
2
100
AcDbEntity
  8
0
100
AcDbLine
 10
98.86179655579475
 20
243.5489828946571
 30
0.0
 11
100.1199135557948
 21
243.2123898946571
 31
0.0
  0
LINE
  5
999
330
2
100
AcDbEntity
  8
0
100
AcDbLine
 10
97.64921055579486
 20
248.6351648946572
 30
0.0
 11
97.79120955579481
 21
248.5834678946573
 31
0.0
  0
ARC
  5
99A
330
2
100
AcDbEntity
  8
0
100
AcDbCircle
 10
97.62021955579463
 20
248.1136188946572
 30
0.0
 40
0.5
100
AcDbArc
 50
0.0
 51
70.00000000000172
  0
LINE
  5
99B
330
2
100
AcDbEntity
  8
0
100
AcDbLine
 10
118.6202195557947
 20
257.8108848946571
 30
0.0
 11
92.6200965557947
 21
257.8108848946571
 31
0.0
  0
LINE
  5
99C
330
2
100
AcDbEntity
  8
0
100
AcDbLine
 10
90.62009655579471
 20
259.8108848946571
 30
0.0
 11
90.62009655579471
 21
301.8108848946571
 31
0.0
  0
ARC
  5
99D
330
2
100
AcDbEntity
  8
0
100
AcDbCircle
 10
89.62021955579462
 20
275.8108848946571
 30
0.0
 40
1.0
100
AcDbArc
 50
180.0
 51
270.0
  0
ARC
  5
99E
330
2
100
AcDbEntity
  8
0
100
AcDbCircle
 10
98.12021955579462
 20
258.8108848946571
 30
0.0
 40
1.0
100
AcDbArc
 50
180.0
 51
270.0
  0
ARC
  5
99F
330
2
100
AcDbEntity
  8
0
100
AcDbCircle
 10
93.62021955579463
 20
260.8108848946571
 30
0.0
 40
3.5
100
AcDbArc
 50
0.0
 51
90.0
  0
LINE
  5
9A0
330
2
100
AcDbEntity
  8
0
100
AcDbLine
 10
97.32020055579472
 20
249.1050128946571
 30
0.0
 11
97.32020055579472
 21
257.8108848946571
 31
0.0
  0
LINE
  5
9A1
330
2
100
AcDbEntity
  8
0
100
AcDbLine
 10
97.12021955579473
 20
258.8108848946571
 30
0.0
 11
97.12021955579473
 21
260.8108848946571
 31
0.0
  0
LINE
  5
9A2
330
2
100
AcDbEntity
  8
0
100
AcDbLine
 10
95.37021955579474
 20
261.2108788946572
 30
0.0
 11
95.37021955579474
 21
260.4108608946571
 31
0.0
  0
LINE
  5
9A3
330
2
100
AcDbEntity
  8
0
100
AcDbLine
 10
91.87021955579472
 20
261.2108788946572
 30
0.0
 11
91.87021955579472
 21
260.4108608946571
 31
0.0
  0
ARC
  5
9A4
330
2
100
AcDbEntity
  8
0
100
AcDbCircle
 10
91.87021955579462
 20
259.0608848946571
 30
0.0
 40
1.35
100
AcDbArc
 50
0.0
 51
90.0
  0
LINE
  5
9A5
330
2
100
AcDbEntity
  8
0
100
AcDbLine
 10
91.62009655579471
 20
264.3108848946571
 30
0.0
 11
93.62021955579473
 21
264.3108848946571
 31
0.0
  0
ARC
  5
9A6
330
2
100
AcDbEntity
  8
0
100
AcDbCircle
 10
91.87021955579462
 20
262.5608848946571
 30
0.0
 40
1.35
100
AcDbArc
 50
270.0
 51
0.0
  0
ARC
  5
9A7
330
2
100
AcDbEntity
  8
0
100
AcDbCircle
 10
92.62009655579459
 20
259.8108848946571
 30
0.0
 40
2.0
100
AcDbArc
 50
180.0
 51
270.0
  0
ARC
  5
9A8
330
2
100
AcDbEntity
  8
0
100
AcDbCircle
 10
91.62009655579458
 20
265.3108848946571
 30
0.0
 40
1.0
100
AcDbArc
 50
180.0
 51
270.0
  0
ARC
  5
9A9
330
2
100
AcDbEntity
  8
0
100
AcDbCircle
 10
90.12021955579461
 20
274.3108848946571
 30
0.0
 40
0.5
100
AcDbArc
 50
0.0
 51
90.0
  0
LINE
  5
9AA
330
2
100
AcDbEntity
  8
0
100
AcDbLine
 10
90.12021955579474
 20
274.8108848946571
 30
0.0
 11
89.62021955579473
 21
274.8108848946571
 31
0.0
  0
CIRCLE
  5
9AB
330
2
100
AcDbEntity
  8
0
100
AcDbCircle
 10
93.62021955579463
 20
260.8108848946571
 30
0.0
 40
2.75
  0
LINE
  5
9AC
330
2
100
AcDbEntity
  8
0
100
AcDbLine
 10
93.22019455579482
 20
259.0608848946571
 30
0.0
 11
94.02021255579473
 21
259.0608848946571
 31
0.0
  0
ARC
  5
9AD
330
2
100
AcDbEntity
  8
0
100
AcDbCircle
 10
95.37021955579461
 20
259.0608848946571
 30
0.0
 40
1.35
100
AcDbArc
 50
90.0
 51
180.0
  0
LINE
  5
9AE
330
2
100
AcDbEntity
  8
0
100
AcDbLine
 10
93.22019455579482
 20
262.5608848946571
 30
0.0
 11
94.02021255579473
 21
262.5608848946571
 31
0.0
  0
ARC
  5
9AF
330
2
100
AcDbEntity
  8
0
100
AcDbCircle
 10
95.37021955579461
 20
262.5608848946571
 30
0.0
 40
1.35
100
AcDbArc
 50
180.0
 51
270.0
  0
ARC
  5
9B0
330
2
100
AcDbEntity
  8
0
100
AcDbCircle
 10
93.62021955579463
 20
300.8108848946571
 30
0.0
 40
3.5
100
AcDbArc
 50
270.0
 51
0.0
  0
LINE
  5
9B1
330
2
100
AcDbEntity
  8
0
100
AcDbLine
 10
95.37021955579474
 20
301.2108788946572
 30
0.0
 11
95.37021955579474
 21
300.4108608946573
 31
0.0
  0
LINE
  5
9B2
330
2
100
AcDbEntity
  8
0
100
AcDbLine
 10
88.62021955579473
 20
285.8108848946571
 30
0.0
 11
88.62021955579473
 21
275.8108848946571
 31
0.0
  0
ARC
  5
9B3
330
2
100
AcDbEntity
  8
0
100
AcDbCircle
 10
90.12021955579461
 20
287.3108848946571
 30
0.0
 40
0.5
100
AcDbArc
 50
270.0
 51
0.0
  0
ARC
  5
9B4
330
2
100
AcDbEntity
  8
0
100
AcDbCircle
 10
89.62021955579462
 20
285.8108848946571
 30
0.0
 40
1.0
100
AcDbArc
 50
90.0
 51
180.0
  0
LINE
  5
9B5
330
2
100
AcDbEntity
  8
0
100
AcDbLine
 10
90.12021955579474
 20
286.8108848946571
 30
0.0
 11
89.62021955579473
 21
286.8108848946571
 31
0.0
  0
LINE
  5
9B6
330
2
100
AcDbEntity
  8
0
100
AcDbLine
 10
91.62009655579471
 20
297.3108848946571
 30
0.0
 11
93.62021955579473
 21
297.3108848946571
 31
0.0
  0
LINE
  5
9B7
330
2
100
AcDbEntity
  8
0
100
AcDbLine
 10
91.87021955579472
 20
301.2108788946572
 30
0.0
 11
91.87021955579472
 21
300.4108608946573
 31
0.0
  0
ARC
  5
9B8
330
2
100
AcDbEntity
  8
0
100
AcDbCircle
 10
91.87021955579462
 20
299.0608848946571
 30
0.0
 40
1.35
100
AcDbArc
 50
0.0
 51
90.0
  0
ARC
  5
9B9
330
2
100
AcDbEntity
  8
0
100
AcDbCircle
 10
91.62009655579458
 20
296.3108848946571
 30
0.0
 40
1.0
100
AcDbArc
 50
90.0
 51
180.0
  0
LINE
  5
9BA
330
2
100
AcDbEntity
  8
0
100
AcDbLine
 10
93.22019455579482
 20
299.0608848946571
 30
0.0
 11
94.02021255579473
 21
299.0608848946571
 31
0.0
  0
ARC
  5
9BB
330
2
100
AcDbEntity
  8
0
100
AcDbCircle
 10
95.37021955579461
 20
299.0608848946571
 30
0.0
 40
1.35
100
AcDbArc
 50
90.0
 51
180.0
  0
LINE
  5
9BC
330
2
100
AcDbEntity
  8
0
100
AcDbLine
 10
120.6202195557947
 20
301.8108848946571
 30
0.0
 11
120.6202195557947
 21
259.8108848946571
 31
0.0
  0
ARC
  5
9BD
330
2
100
AcDbEntity
  8
0
100
AcDbCircle
 10
121.6202195557946
 20
275.8108848946571
 30
0.0
 40
1.0
100
AcDbArc
 50
270.0
 51
0.0
  0
LINE
  5
9BE
330
2
100
AcDbEntity
  8
0
100
AcDbLine
 10
118.9979045557946
 20
257.8468648946572
 30
0.0
 11
123.1202195557947
 21
257.8108848946571
 31
0.0
  0
LINE
  5
9BF
330
2
100
AcDbEntity
  8
0
100
AcDbLine
 10
119.3702195557947
 20
261.2108788946572
 30
0.0
 11
119.3702195557947
 21
260.4108608946571
 31
0.0
  0
ARC
  5
9C0
330
2
100
AcDbEntity
  8
0
100
AcDbCircle
 10
119.6203105557947
 20
265.3108848946571
 30
0.0
 40
1.0
100
AcDbArc
 50
270.0
 51
0.0
  0
ARC
  5
9C1
330
2
100
AcDbEntity
  8
0
100
AcDbCircle
 10
121.1202195557946
 20
274.3108848946571
 30
0.0
 40
0.5
100
AcDbArc
 50
90.0
 51
180.0
  0
LINE
  5
9C2
330
2
100
AcDbEntity
  8
0
100
AcDbLine
 10
121.1202195557947
 20
274.8108848946571
 30
0.0
 11
121.6202195557947
 21
274.8108848946571
 31
0.0
  0
LINE
  5
9C3
330
2
100
AcDbEntity
  8
0
100
AcDbLine
 10
115.8702195557947
 20
261.2108788946572
 30
0.0
 11
115.8702195557947
 21
260.4108608946571
 31
0.0
  0
LINE
  5
9C4
330
2
100
AcDbEntity
  8
0
100
AcDbLine
 10
117.2201945557948
 20
259.0608848946571
 30
0.0
 11
118.0202125557947
 21
259.0608848946571
 31
0.0
  0
ARC
  5
9C5
330
2
100
AcDbEntity
  8
0
100
AcDbCircle
 10
115.8702195557946
 20
259.0608848946571
 30
0.0
 40
1.35
100
AcDbArc
 50
0.0
 51
90.0
  0
LINE
  5
9C6
330
2
100
AcDbEntity
  8
0
100
AcDbLine
 10
117.2201945557948
 20
262.5608848946571
 30
0.0
 11
118.0202125557947
 21
262.5608848946571
 31
0.0
  0
ARC
  5
9C7
330
2
100
AcDbEntity
  8
0
100
AcDbCircle
 10
115.8702195557946
 20
262.5608848946571
 30
0.0
 40
1.35
100
AcDbArc
 50
270.0
 51
0.0
  0
LINE
  5
9C8
330
2
100
AcDbEntity
  8
0
100
AcDbLine
 10
114.1202195557947
 20
258.8108848946571
 30
0.0
 11
114.1202195557947
 21
260.8108848946571
 31
0.0
  0
ARC
  5
9C9
330
2
100
AcDbEntity
  8
0
100
AcDbCircle
 10
113.1202195557946
 20
258.8108848946571
 30
0.0
 40
1.0
100
AcDbArc
 50
270.0
 51
0.0
  0
ARC
  5
9CA
330
2
100
AcDbEntity
  8
0
100
AcDbCircle
 10
117.6202195557946
 20
260.8108848946571
 30
0.0
 40
3.5
100
AcDbArc
 50
90.0
 51
180.0
  0
ARC
  5
9CB
330
2
100
AcDbEntity
  8
0
100
AcDbCircle
 10
119.3702195557946
 20
259.0608848946571
 30
0.0
 40
1.35
100
AcDbArc
 50
90.0
 51
180.0
  0
ARC
  5
9CC
330
2
100
AcDbEntity
  8
0
100
AcDbCircle
 10
118.6202195557946
 20
259.8108848946571
 30
0.0
 40
2.0
100
AcDbArc
 50
270.0
 51
0.0
  0
LINE
  5
9CD
330
2
100
AcDbEntity
  8
0
100
AcDbLine
 10
119.6203105557948
 20
264.3108848946571
 30
0.0
 11
117.6202195557947
 21
264.3108848946571
 31
0.0
  0
ARC
  5
9CE
330
2
100
AcDbEntity
  8
0
100
AcDbCircle
 10
119.3702195557946
 20
262.5608848946571
 30
0.0
 40
1.35
100
AcDbArc
 50
180.0
 51
270.0
  0
CIRCLE
  5
9CF
330
2
100
AcDbEntity
  8
0
100
AcDbCircle
 10
117.6202195557946
 20
260.8108848946571
 30
0.0
 40
2.75
  0
ARC
  5
9D0
330
2
100
AcDbEntity
  8
0
100
AcDbCircle
 10
121.6202195557946
 20
285.8108848946571
 30
0.0
 40
1.0
100
AcDbArc
 50
0.0
 51
90.0
  0
ARC
  5
9D1
330
2
100
AcDbEntity
  8
0
100
AcDbCircle
 10
121.1202195557946
 20
287.3108848946571
 30
0.0
 40
0.5
100
AcDbArc
 50
180.0
 51
270.0
  0
LINE
  5
9D2
330
2
100
AcDbEntity
  8
0
100
AcDbLine
 10
121.1202195557947
 20
286.8108848946571
 30
0.0
 11
121.6202195557947
 21
286.8108848946571
 31
0.0
  0
LINE
  5
9D3
330
2
100
AcDbEntity
  8
0
100
AcDbLine
 10
119.3702195557947
 20
301.2108788946572
 30
0.0
 11
119.3702195557947
 21
300.4108608946573
 31
0.0
  0
ARC
  5
9D4
330
2
100
AcDbEntity
  8
0
100
AcDbCircle
 10
119.6203105557947
 20
296.3108848946571
 30
0.0
 40
1.0
100
AcDbArc
 50
0.0
 51
90.0
  0
LINE
  5
9D5
330
2
100
AcDbEntity
  8
0
100
AcDbLine
 10
115.8702195557947
 20
301.2108788946572
 30
0.0
 11
115.8702195557947
 21
300.4108608946573
 31
0.0
  0
LINE
  5
9D6
330
2
100
AcDbEntity
  8
0
100
AcDbLine
 10
117.2201945557948
 20
299.0608848946571
 30
0.0
 11
118.0202125557947
 21
299.0608848946571
 31
0.0
  0
ARC
  5
9D7
330
2
100
AcDbEntity
  8
0
100
AcDbCircle
 10
115.8702195557946
 20
299.0608848946571
 30
0.0
 40
1.35
100
AcDbArc
 50
0.0
 51
90.0
  0
ARC
  5
9D8
330
2
100
AcDbEntity
  8
0
100
AcDbCircle
 10
117.6202195557946
 20
300.8108848946571
 30
0.0
 40
3.5
100
AcDbArc
 50
180.0
 51
270.0
  0
ARC
  5
9D9
330
2
100
AcDbEntity
  8
0
100
AcDbCircle
 10
119.3702195557946
 20
299.0608848946571
 30
0.0
 40
1.35
100
AcDbArc
 50
90.0
 51
180.0
  0
LINE
  5
9DA
330
2
100
AcDbEntity
  8
0
100
AcDbLine
 10
119.6203105557948
 20
297.3108848946571
 30
0.0
 11
117.6202195557947
 21
297.3108848946571
 31
0.0
  0
LINE
  5
9DB
330
2
100
AcDbEntity
  8
0
100
AcDbLine
 10
122.6202195557947
 20
285.8108848946571
 30
0.0
 11
122.6202195557947
 21
275.8108848946571
 31
0.0
  0
LINE
  5
9DC
330
2
100
AcDbEntity
  8
0
100
AcDbLine
 10
100.1199135557948
 20
318.4092888946572
 30
0.0
 11
123.1202195557947
 21
318.8108848946571
 31
0.0
  0
LINE
  5
9DD
330
2
100
AcDbEntity
  8
0
100
AcDbLine
 10
118.6202195557947
 20
303.8108848946571
 30
0.0
 11
92.6200965557947
 21
303.8108848946571
 31
0.0
  0
ARC
  5
9DE
330
2
100
AcDbEntity
  8
0
100
AcDbCircle
 10
98.12021955579462
 20
302.8108848946571
 30
0.0
 40
1.0
100
AcDbArc
 50
90.0
 51
180.0
  0
ARC
  5
9DF
330
2
100
AcDbEntity
  8
0
100
AcDbCircle
 10
97.8202005557946
 20
312.5167568946571
 30
0.0
 40
0.5
100
AcDbArc
 50
110.0000379999994
 51
180.0
  0
LINE
  5
9E0
330
2
100
AcDbEntity
  8
0
100
AcDbLine
 10
97.32020055579472
 20
312.5167568946571
 30
0.0
 11
97.32020055579472
 21
303.8108848946571
 31
0.0
  0
LINE
  5
9E1
330
2
100
AcDbEntity
  8
0
100
AcDbLine
 10
93.22019455579482
 20
302.5608848946571
 30
0.0
 11
94.02021255579473
 21
302.5608848946571
 31
0.0
  0
LINE
  5
9E2
330
2
100
AcDbEntity
  8
0
100
AcDbLine
 10
98.12021955579474
 20
317.1067828946572
 30
0.0
 11
98.12021955579474
 21
303.8108848946571
 31
0.0
  0
LINE
  5
9E3
330
2
100
AcDbEntity
  8
0
100
AcDbLine
 10
97.64921055579486
 20
312.9866048946571
 30
0.0
 11
97.79120955579481
 21
313.0383018946572
 31
0.0
  0
ARC
  5
9E4
330
2
100
AcDbEntity
  8
0
100
AcDbCircle
 10
97.62021955579463
 20
313.508150894657
 30
0.0
 40
0.5
100
AcDbArc
 50
289.9999999999982
 51
0.0
  0
ARC
  5
9E5
330
2
100
AcDbEntity
  8
0
100
AcDbCircle
 10
99.12021955579461
 20
317.1067828946572
 30
0.0
 40
1.0
100
AcDbArc
 50
104.9744030000019
 51
180.0
  0
LINE
  5
9E6
330
2
100
AcDbEntity
  8
0
100
AcDbLine
 10
98.86179655579475
 20
318.0727868946571
 30
0.0
 11
100.1199135557948
 21
318.4092888946572
 31
0.0
  0
LINE
  5
9E7
330
2
100
AcDbEntity
  8
0
100
AcDbLine
 10
118.9979045557946
 20
303.7749048946572
 30
0.0
 11
123.1202195557947
 21
303.8108848946571
 31
0.0
  0
LINE
  5
9E8
330
2
100
AcDbEntity
  8
0
100
AcDbLine
 10
117.2201945557948
 20
302.5608848946571
 30
0.0
 11
118.0202125557947
 21
302.5608848946571
 31
0.0
  0
ARC
  5
9E9
330
2
100
AcDbEntity
  8
0
100
AcDbCircle
 10
113.1202195557946
 20
302.8108848946571
 30
0.0
 40
1.0
100
AcDbArc
 50
0.0
 51
90.0
  0
LINE
  5
9EA
330
2
100
AcDbEntity
  8
0
100
AcDbLine
 10
223.1202035557947
 20
309.8457968946572
 30
0.0
 11
223.1202035557947
 21
251.7759728946572
 31
0.0
  0
LINE
  5
9EB
330
2
100
AcDbEntity
  8
0
100
AcDbLine
 10
253.1202035557947
 20
309.8457968946572
 30
0.0
 11
253.1202035557947
 21
251.7759728946572
 31
0.0
  0
LINE
  5
9EC
330
2
100
AcDbEntity
  8
CENTER
100
AcDbLine
 10
238.1202035557947
 20
351.8108848946571
 30
0.0
 11
238.1202035557947
 21
226.8108848946571
 31
0.0
  0
LINE
  5
9ED
330
2
100
AcDbEntity
  8
0
100
AcDbLine
 10
279.8512675557947
 20
324.8632378946571
 30
0.0
 11
280.6202035557947
 21
280.8108848946571
 31
0.0
  0
LINE
  5
9EE
330
2
100
AcDbEntity
  8
0
100
AcDbLine
 10
199.3885605557946
 20
233.8108848946571
 30
0.0
 11
238.1202035557947
 21
233.8108848946571
 31
0.0
  0
LINE
  5
9EF
330
2
100
AcDbEntity
  8
0
100
AcDbLine
 10
224.6997015557945
 20
151.451612686985
 30
0.0
 11
251.5407055557945
 21
151.451612686985
 31
0.0
  0
LINE
  5
9F0
330
2
100
AcDbEntity
  8
0
100
AcDbLine
 10
237.4976145557945
 20
91.24369668698472
 30
0.0
 11
235.9827065557946
 21
91.24369668698472
 31
0.0
  0
LINE
  5
9F1
330
2
100
AcDbEntity
  8
0
100
AcDbLine
 10
234.9327035557946
 20
92.4141066869849
 30
0.0
 11
241.3077035557946
 21
92.4141066869849
 31
0.0
  0
ARC
  5
9F2
330
2
100
AcDbEntity
  8
HIDS
100
AcDbCircle
 10
238.1202035557946
 20
118.8516066869848
 30
0.0
 40
7.5
100
AcDbArc
 50
19.47120999999928
 51
340.528809000005
  0
CIRCLE
  5
9F3
330
2
100
AcDbEntity
  8
0
100
AcDbCircle
 10
238.1202035557946
 20
118.8516066869848
 30
0.0
 40
20.0
  0
ARC
  5
9F4
330
2
100
AcDbEntity
  8
0
100
AcDbCircle
 10
238.1202035557946
 20
105.8516066869849
 30
0.0
 40
42.5
100
AcDbArc
 50
19.74990099999923
 51
160.2501070000041
  0
LINE
  5
9F5
330
2
100
AcDbEntity
  8
CENTER
100
AcDbLine
 10
211.3702660433929
 20
118.8516066869848
 30
0.0
 11
265.3701410681964
 21
118.8516066869848
 31
0.0
  0
LINE
  5
9F6
330
2
100
AcDbEntity
  8
0
100
AcDbLine
 10
198.1267195557946
 20
249.8108848946571
 30
0.0
 11
278.1137035557947
 21
249.8108848946571
 31
0.0
  0
LINE
  5
9F7
330
2
100
AcDbEntity
  8
0
100
AcDbLine
 10
197.7478965557945
 20
133.6448736869849
 30
0.0
 11
221.8273115557946
 21
150.5442566869848
 31
0.0
  0
LINE
  5
9F9
330
2
100
AcDbEntity
  8
0
100
AcDbLine
 10
198.1202115557946
 20
120.2128816869848
 30
0.0
 11
198.1202115557946
 21
91.49006868698478
 31
0.0
  0
ARC
  5
9FA
330
2
100
AcDbEntity
  8
0
100
AcDbCircle
 10
200.6202265557945
 20
129.5522296869848
 30
0.0
 40
5.0
100
AcDbArc
 50
125.062301999997
 51
180.0
  0
LINE
  5
9FB
330
2
100
AcDbEntity
  8
0
100
AcDbLine
 10
235.9827065557946
 20
91.24369668698472
 30
0.0
 11
235.6403145557945
 21
90.42192368698506
 31
0.0
  0
LINE
  5
9FC
330
2
100
AcDbEntity
  8
0
100
AcDbLine
 10
234.9327035557946
 20
90.42192368698506
 30
0.0
 11
235.6403145557945
 21
90.42192368698506
 31
0.0
  0
LINE
  5
9FD
330
2
100
AcDbEntity
  8
0
100
AcDbLine
 10
234.9327035557946
 20
90.42192368698506
 30
0.0
 11
234.9327035557946
 21
92.4141066869849
 31
0.0
  0
LINE
  5
9FE
330
2
100
AcDbEntity
  8
0
100
AcDbLine
 10
230.8238015557946
 20
90.57264168698493
 30
0.0
 11
230.8238015557946
 21
90.42192368698506
 31
0.0
  0
LINE
  5
9FF
330
2
100
AcDbEntity
  8
0
100
AcDbLine
 10
231.7452035557946
 20
91.3809646869849
 30
0.0
 11
231.7452035557946
 21
90.42192368698506
 31
0.0
  0
LINE
  5
A00
330
2
100
AcDbEntity
  8
0
100
AcDbLine
 10
230.8238015557946
 20
90.42192368698506
 30
0.0
 11
231.7452035557946
 21
90.42192368698506
 31
0.0
  0
LINE
  5
A01
330
2
100
AcDbEntity
  8
0
100
AcDbLine
 10
230.8142035557946
 20
92.4141066869849
 30
0.0
 11
231.7452035557946
 21
91.3809646869849
 31
0.0
  0
LINE
  5
A02
330
2
100
AcDbEntity
  8
0
100
AcDbLine
 10
230.8238015557946
 20
90.57264168698493
 30
0.0
 11
230.2206065557945
 21
91.14409168698484
 31
0.0
  0
LINE
  5
A03
330
2
100
AcDbEntity
  8
0
100
AcDbLine
 10
226.5276135557946
 20
92.4141066869849
 30
0.0
 11
225.3702035557946
 21
90.93211268698491
 31
0.0
  0
LINE
  5
A04
330
2
100
AcDbEntity
  8
0
100
AcDbLine
 10
227.1608075557945
 20
91.14409168698484
 30
0.0
 11
226.4410045557946
 21
90.25158968698491
 31
0.0
  0
LINE
  5
A05
330
2
100
AcDbEntity
  8
0
100
AcDbLine
 10
226.5276135557946
 20
92.4141066869849
 30
0.0
 11
230.8142035557946
 21
92.4141066869849
 31
0.0
  0
LINE
  5
A06
330
2
100
AcDbEntity
  8
0
100
AcDbLine
 10
230.2327065557946
 20
91.14409168698484
 30
0.0
 11
227.1608075557945
 21
91.14409168698484
 31
0.0
  0
ARC
  5
A07
330
2
100
AcDbEntity
  8
0
100
AcDbCircle
 10
224.6997015557945
 20
146.451620686985
 30
0.0
 40
5.0
100
AcDbArc
 50
90.0
 51
125.0622019999994
  0
LINE
  5
A08
330
2
100
AcDbEntity
  8
0
100
AcDbLine
 10
196.3890175557947
 20
236.7585468946571
 30
0.0
 11
196.1646525557947
 21
249.6149768946572
 31
0.0
  0
ARC
  5
A09
330
2
100
AcDbEntity
  8
0
100
AcDbCircle
 10
197.1202195557946
 20
248.4587268946572
 30
0.0
 40
1.5
100
AcDbArc
 50
73.28734600000197
 51
180.0
  0
ARC
  5
A0A
330
2
100
AcDbEntity
  8
0
100
AcDbCircle
 10
199.3885605557946
 20
236.8108848946571
 30
0.0
 40
3.0
100
AcDbArc
 50
180.999848
 51
270.0
  0
LINE
  5
A0B
330
2
100
AcDbEntity
  8
CENTER
100
AcDbLine
 10
198.2077340569526
 20
240.8108848946571
 30
0.0
 11
210.0326730546367
 21
240.8108848946571
 31
0.0
  0
LINE
  5
A0C
330
2
100
AcDbEntity
  8
0
100
AcDbLine
 10
195.6202195557946
 20
244.8108848946571
 30
0.0
 11
195.6202195557946
 21
248.4587268946572
 31
0.0
  0
ARC
  5
A0D
330
2
100
AcDbEntity
  8
0
100
AcDbCircle
 10
193.6202195557946
 20
244.8108848946571
 30
0.0
 40
2.0
100
AcDbArc
 50
270.0
 51
0.0
  0
LINE
  5
A0E
330
2
100
AcDbEntity
  8
CENTER
100
AcDbLine
 10
204.1202035557946
 20
234.8984153958151
 30
0.0
 11
204.1202035557946
 21
246.7233543934991
 31
0.0
  0
CIRCLE
  5
A0F
330
2
100
AcDbEntity
  8
0
100
AcDbCircle
 10
204.1202035557946
 20
240.8108848946571
 30
0.0
 40
3.25
  0
LINE
  5
A10
330
2
100
AcDbEntity
  8
0
100
AcDbLine
 10
199.0398965557947
 20
259.8108848946571
 30
0.0
 11
199.0398965557947
 21
301.8111598946572
 31
0.0
  0
LINE
  5
A11
330
2
100
AcDbEntity
  8
0
100
AcDbLine
 10
196.1269325557949
 20
251.7759878946571
 30
0.0
 11
196.0216165557947
 21
257.8108848946571
 31
0.0
  0
ARC
  5
A12
330
2
100
AcDbEntity
  8
0
100
AcDbCircle
 10
198.1267195557946
 20
251.8108848946571
 30
0.0
 40
2.0
100
AcDbArc
 50
181.0000000000017
 51
270.0
  0
LINE
  5
A13
330
2
100
AcDbEntity
  8
0
100
AcDbLine
 10
278.4925025557946
 20
133.6448736869849
 30
0.0
 11
254.4130045557945
 21
150.5442716869849
 31
0.0
  0
LINE
  5
A15
330
2
100
AcDbEntity
  8
0
100
AcDbLine
 10
246.0640055557946
 20
91.24369668698472
 30
0.0
 11
249.0389045557946
 21
91.24175868698484
 31
0.0
  0
LINE
  5
A16
330
2
100
AcDbEntity
  8
0
100
AcDbLine
 10
244.4952035557946
 20
91.24369668698472
 30
0.0
 11
244.9683025557945
 21
91.24369668698472
 31
0.0
  0
LINE
  5
A17
330
2
100
AcDbEntity
  8
0
100
AcDbLine
 10
244.4952035557946
 20
92.4141066869849
 30
0.0
 11
244.4952035557946
 21
91.24369668698472
 31
0.0
  0
LINE
  5
A18
330
2
100
AcDbEntity
  8
0
100
AcDbLine
 10
238.6930035557945
 20
91.24369668698472
 30
0.0
 11
240.3540145557946
 21
91.24369668698472
 31
0.0
  0
LINE
  5
A19
330
2
100
AcDbEntity
  8
0
100
AcDbLine
 10
240.3540145557946
 20
91.24369668698472
 30
0.0
 11
240.6427105557946
 21
90.42192368698506
 31
0.0
  0
LINE
  5
A1A
330
2
100
AcDbEntity
  8
0
100
AcDbLine
 10
240.6427105557946
 20
90.42192368698506
 30
0.0
 11
241.3077035557946
 21
90.42192368698506
 31
0.0
  0
LINE
  5
A1B
330
2
100
AcDbEntity
  8
0
100
AcDbLine
 10
241.3077035557946
 20
90.42192368698506
 30
0.0
 11
241.3077035557946
 21
92.4141066869849
 31
0.0
  0
LINE
  5
A1C
330
2
100
AcDbEntity
  8
0
100
AcDbLine
 10
244.4952035557946
 20
92.4141066869849
 30
0.0
 11
248.3177135557946
 21
92.4141066869849
 31
0.0
  0
LINE
  5
A1D
330
2
100
AcDbEntity
  8
HIDS
100
AcDbLine
 10
247.6202035557946
 20
121.3516066869849
 30
0.0
 11
247.6202035557946
 21
116.3516066869848
 31
0.0
  0
LINE
  5
A1E
330
2
100
AcDbEntity
  8
HIDS
100
AcDbLine
 10
242.6202035557946
 20
116.3516066869848
 30
0.0
 11
242.6202035557946
 21
121.3516066869849
 31
0.0
  0
LINE
  5
A1F
330
2
100
AcDbEntity
  8
HIDS
100
AcDbLine
 10
242.6202035557946
 20
116.3516066869848
 30
0.0
 11
247.6202035557946
 21
116.3516066869848
 31
0.0
  0
LINE
  5
A20
330
2
100
AcDbEntity
  8
HIDS
100
AcDbLine
 10
242.6202035557946
 20
121.3516066869849
 30
0.0
 11
247.6202035557946
 21
121.3516066869849
 31
0.0
  0
LINE
  5
A21
330
2
100
AcDbEntity
  8
0
100
AcDbLine
 10
278.1202035557946
 20
120.2130116869849
 30
0.0
 11
278.1202035557946
 21
91.49047368698502
 31
0.0
  0
ARC
  5
A22
330
2
100
AcDbEntity
  8
0
100
AcDbCircle
 10
275.6202035557946
 20
129.5521916869849
 30
0.0
 40
5.0
100
AcDbArc
 50
0.0
 51
54.93837000000248
  0
ARC
  5
A23
330
2
100
AcDbEntity
  8
0
100
AcDbCircle
 10
251.5408125557946
 20
146.4515976869849
 30
0.0
 40
5.0
100
AcDbArc
 50
54.93843100000127
 51
90.0
  0
LINE
  5
A24
330
2
100
AcDbEntity
  8
0
100
AcDbLine
 10
279.8512675557947
 20
236.7585168946572
 30
0.0
 11
280.6202035557947
 21
280.8108848946571
 31
0.0
  0
LINE
  5
A25
330
2
100
AcDbEntity
  8
0
100
AcDbLine
 10
238.1202035557947
 20
233.8108848946571
 30
0.0
 11
276.8517255557947
 21
233.8108848946571
 31
0.0
  0
CIRCLE
  5
A26
330
2
100
AcDbEntity
  8
0
100
AcDbCircle
 10
272.1202035557947
 20
240.8108848946571
 30
0.0
 40
3.25
  0
LINE
  5
A27
330
2
100
AcDbEntity
  8
CENTER
100
AcDbLine
 10
266.2077340569526
 20
240.8108848946571
 30
0.0
 11
278.0326730546367
 21
240.8108848946571
 31
0.0
  0
LINE
  5
A28
330
2
100
AcDbEntity
  8
CENTER
100
AcDbLine
 10
272.1202035557947
 20
234.8984153958151
 30
0.0
 11
272.1202035557947
 21
246.7233543934991
 31
0.0
  0
ARC
  5
A29
330
2
100
AcDbEntity
  8
0
100
AcDbCircle
 10
276.8517255557947
 20
236.8108848946571
 30
0.0
 40
3.0
100
AcDbArc
 50
270.0
 51
358.9999999999982
  0
ARC
  5
A2A
330
2
100
AcDbEntity
  8
0
100
AcDbCircle
 10
278.1137035557947
 20
251.8108848946571
 30
0.0
 40
2.0
100
AcDbArc
 50
270.0
 51
358.9999999999982
  0
LINE
  5
A2B
330
2
100
AcDbEntity
  8
0
100
AcDbLine
 10
230.6202035557947
 20
344.8108848946571
 30
0.0
 11
247.6202035557947
 21
344.8108848946571
 31
0.0
  0
LINE
  5
A2C
330
2
100
AcDbEntity
  8
0
100
AcDbLine
 10
257.1202195557946
 20
315.8108848946571
 30
0.0
 11
219.1202035557947
 21
315.8108848946571
 31
0.0
  0
LINE
  5
A2D
330
2
100
AcDbEntity
  8
0
100
AcDbLine
 10
229.6202035557947
 20
317.8108848946571
 30
0.0
 11
246.6202035557947
 21
317.8108848946571
 31
0.0
  0
LINE
  5
A2E
330
2
100
AcDbEntity
  8
0
100
AcDbLine
 10
198.1267195557946
 20
311.8108848946571
 30
0.0
 11
278.1137035557947
 21
311.8108848946571
 31
0.0
  0
LINE
  5
A2F
330
2
100
AcDbEntity
  8
0
100
AcDbLine
 10
199.3885605557946
 20
327.8108848946571
 30
0.0
 11
230.6202035557947
 21
327.8108848946571
 31
0.0
  0
ARC
  5
A30
330
2
100
AcDbEntity
  8
0
100
AcDbCircle
 10
199.3885605557946
 20
324.8108848946571
 30
0.0
 40
3.0
100
AcDbArc
 50
90.0
 51
179.0001530000037
  0
LINE
  5
A31
330
2
100
AcDbEntity
  8
CENTER
100
AcDbLine
 10
198.2077340569526
 20
320.8108848946571
 30
0.0
 11
210.0326730546367
 21
320.8108848946571
 31
0.0
  0
LINE
  5
A32
330
2
100
AcDbEntity
  8
0
100
AcDbLine
 10
196.3890175557947
 20
324.8632378946571
 30
0.0
 11
196.1646525557947
 21
312.006792894657
 31
0.0
  0
LINE
  5
A33
330
2
100
AcDbEntity
  8
0
100
AcDbLine
 10
196.1269325557949
 20
309.8457818946571
 30
0.0
 11
196.0216165557947
 21
303.8108848946571
 31
0.0
  0
ARC
  5
A34
330
2
100
AcDbEntity
  8
0
100
AcDbCircle
 10
198.1267195557946
 20
309.8108848946571
 30
0.0
 40
2.0
100
AcDbArc
 50
90.0
 51
178.9999999999982
  0
ARC
  5
A35
330
2
100
AcDbEntity
  8
0
100
AcDbCircle
 10
197.1202195557946
 20
313.163042894657
 30
0.0
 40
1.5
100
AcDbArc
 50
180.0
 51
286.712653999998
  0
LINE
  5
A36
330
2
100
AcDbEntity
  8
0
100
AcDbLine
 10
195.6202195557946
 20
316.8108848946571
 30
0.0
 11
195.6202195557946
 21
313.163042894657
 31
0.0
  0
ARC
  5
A37
330
2
100
AcDbEntity
  8
0
100
AcDbCircle
 10
193.6202195557946
 20
316.8108848946571
 30
0.0
 40
2.0
100
AcDbArc
 50
0.0
 51
90.0
  0
LINE
  5
A38
330
2
100
AcDbEntity
  8
CENTER
100
AcDbLine
 10
204.1202035557946
 20
314.8984153958151
 30
0.0
 11
204.1202035557946
 21
326.7233543934991
 31
0.0
  0
CIRCLE
  5
A39
330
2
100
AcDbEntity
  8
0
100
AcDbCircle
 10
204.1202035557946
 20
320.8108848946571
 30
0.0
 40
3.25
  0
LINE
  5
A3A
330
2
100
AcDbEntity
  8
0
100
AcDbLine
 10
230.6202035557947
 20
344.8108848946571
 30
0.0
 11
230.6202035557947
 21
317.8108848946571
 31
0.0
  0
LINE
  5
A3B
330
2
100
AcDbEntity
  8
0
100
AcDbLine
 10
218.1202035557947
 20
314.8108848946571
 30
0.0
 11
218.1202035557947
 21
313.8108888946573
 31
0.0
  0
ARC
  5
A3C
330
2
100
AcDbEntity
  8
0
100
AcDbCircle
 10
219.1202035557947
 20
314.8108848946571
 30
0.0
 40
1.0
100
AcDbArc
 50
90.0
 51
180.0
  0
LINE
  5
A3D
330
2
100
AcDbEntity
  8
0
100
AcDbLine
 10
229.6202035557947
 20
317.8108848946571
 30
0.0
 11
229.6202035557947
 21
315.8108848946571
 31
0.0
  0
LINE
  5
A3E
330
2
100
AcDbEntity
  8
0
100
AcDbLine
 10
247.6202035557947
 20
327.8108848946571
 30
0.0
 11
276.8517255557947
 21
327.8108848946571
 31
0.0
  0
LINE
  5
A3F
330
2
100
AcDbEntity
  8
0
100
AcDbLine
 10
245.1912025557947
 20
323.3108848946571
 30
0.0
 11
245.1912025557947
 21
344.8108848946571
 31
0.0
  0
LINE
  5
A40
330
2
100
AcDbEntity
  8
0
100
AcDbLine
 10
247.6202035557947
 20
323.3108848946571
 30
0.0
 11
247.6202035557947
 21
344.8108848946571
 31
0.0
  0
LINE
  5
A41
330
2
100
AcDbEntity
  8
0
100
AcDbLine
 10
245.6202035557947
 20
323.3108848946571
 30
0.0
 11
245.6202035557947
 21
317.8108848946571
 31
0.0
  0
LINE
  5
A42
330
2
100
AcDbEntity
  8
0
100
AcDbLine
 10
246.6202035557947
 20
317.8108848946571
 30
0.0
 11
246.6202035557947
 21
315.8108848946571
 31
0.0
  0
LINE
  5
A43
330
2
100
AcDbEntity
  8
0
100
AcDbLine
 10
245.1912025557947
 20
323.3108848946571
 30
0.0
 11
247.6202035557947
 21
323.3108848946571
 31
0.0
  0
LINE
  5
A44
330
2
100
AcDbEntity
  8
0
100
AcDbLine
 10
258.1202195557946
 20
314.8108848946571
 30
0.0
 11
258.1202195557946
 21
313.8019446451193
 31
0.0
  0
ARC
  5
A45
330
2
100
AcDbEntity
  8
0
100
AcDbCircle
 10
257.1202195557946
 20
314.8108848946571
 30
0.0
 40
1.0
100
AcDbArc
 50
0.0
 51
90.0
  0
CIRCLE
  5
A46
330
2
100
AcDbEntity
  8
0
100
AcDbCircle
 10
272.1202035557947
 20
320.8108848946571
 30
0.0
 40
3.25
  0
LINE
  5
A47
330
2
100
AcDbEntity
  8
CENTER
100
AcDbLine
 10
266.2077340569526
 20
320.8108848946571
 30
0.0
 11
278.0326730546367
 21
320.8108848946571
 31
0.0
  0
LINE
  5
A48
330
2
100
AcDbEntity
  8
CENTER
100
AcDbLine
 10
272.1202035557947
 20
314.8984153958151
 30
0.0
 11
272.1202035557947
 21
326.7233543934991
 31
0.0
  0
ARC
  5
A49
330
2
100
AcDbEntity
  8
0
100
AcDbCircle
 10
278.1137035557947
 20
309.8108848946571
 30
0.0
 40
2.0
100
AcDbArc
 50
1.000000000001775
 51
90.0
  0
ARC
  5
A4A
330
2
100
AcDbEntity
  8
0
100
AcDbCircle
 10
276.8517255557947
 20
324.8108848946571
 30
0.0
 40
3.0
100
AcDbArc
 50
1.000000000001775
 51
90.0
  0
LINE
  5
A4B
330
2
100
AcDbEntity
  8
0
100
AcDbLine
 10
414.4628628463845
 20
64.851609686985
 30
0.0
 11
414.4628628463845
 21
148.9451196869849
 31
0.0
  0
LINE
  5
A4C
330
2
100
AcDbEntity
  8
0
100
AcDbLine
 10
663.0379508463845
 20
58.55162968698476
 30
0.0
 11
663.0379508463845
 21
134.551611686985
 31
0.0
  0
LINE
  5
A4D
330
2
100
AcDbEntity
  8
CENTER
100
AcDbLine
 10
383.4628588463845
 20
46.85160968698499
 30
0.0
 11
383.4628588463845
 21
162.5516336869847
 31
0.0
  0
LINE
  5
A4E
330
2
100
AcDbEntity
  8
CENTER
100
AcDbLine
 10
548.0379668463845
 20
158.451612686985
 30
0.0
 11
548.0379668463845
 21
46.85160968698499
 31
0.0
  0
ARC
  5
A4F
330
2
100
AcDbEntity
  8
0
100
AcDbCircle
 10
558.2354608463845
 20
89.86162068698485
 30
0.0
 40
2.55249
100
AcDbArc
 50
286.0181269999995
 51
90.00350999999964
  0
ARC
  5
A50
330
2
100
AcDbEntity
  8
0
100
AcDbCircle
 10
383.4628588463845
 20
96.55161168698505
 30
0.0
 40
38.0
100
AcDbArc
 50
324.6655009999989
 51
21.29426199999636
  0
LINE
  5
A51
330
2
100
AcDbEntity
  8
0
100
AcDbLine
 10
505.5379668463845
 20
129.5521906869848
 30
0.0
 11
505.5379668463845
 21
53.851609686985
 31
0.0
  0
LINE
  5
A52
330
2
100
AcDbEntity
  8
0
100
AcDbLine
 10
535.2879668463844
 20
90.93211168698479
 30
0.0
 11
535.2879668463844
 21
84.09247068698476
 31
0.0
  0
LINE
  5
A53
330
2
100
AcDbEntity
  8
0
100
AcDbLine
 10
547.4153618463844
 20
91.24370068698494
 30
0.0
 11
547.4153618463844
 21
83.89750868698497
 31
0.0
  0
LINE
  5
A54
330
2
100
AcDbEntity
  8
0
100
AcDbLine
 10
536.3587668463845
 20
90.25158868698481
 30
0.0
 11
536.3587668463845
 21
84.74252868698494
 31
0.0
  0
ARC
  5
A55
330
2
100
AcDbEntity
  8
0
100
AcDbCircle
 10
558.2354608463845
 20
89.86162068698485
 30
0.0
 40
1.557193
100
AcDbArc
 50
277.4147259999995
 51
62.41184999999839
  0
LINE
  5
A56
330
2
100
AcDbEntity
  8
0
100
AcDbLine
 10
554.8860648463844
 20
91.24370068698494
 30
0.0
 11
554.8860648463844
 21
83.84770068698498
 31
0.0
  0
LINE
  5
A57
330
2
100
AcDbEntity
  8
0
100
AcDbLine
 10
555.9817528463845
 20
91.24370068698494
 30
0.0
 11
555.9817528463845
 21
88.31744568698486
 31
0.0
  0
LINE
  5
A58
330
2
100
AcDbEntity
  8
0
100
AcDbLine
 10
548.6107658463845
 20
91.24370068698494
 30
0.0
 11
548.6107658463845
 21
83.89750868698497
 31
0.0
  0
LINE
  5
A59
330
2
100
AcDbEntity
  8
0
100
AcDbLine
 10
590.5379508463845
 20
129.552206686985
 30
0.0
 11
590.5379508463845
 21
53.851609686985
 31
0.0
  0
LINE
  5
A5A
330
2
100
AcDbEntity
  8
0
100
AcDbLine
 10
688.8379698463845
 20
61.4017146869848
 30
0.0
 11
688.8379698463845
 21
127.101507686985
 31
0.0
  0
LINE
  5
A5B
330
2
100
AcDbEntity
  8
0
100
AcDbLine
 10
688.0379508463845
 20
126.8793546869848
 30
0.0
 11
688.0379508463845
 21
65.30169868698493
 31
0.0
  0
LINE
  5
A5E
330
2
100
AcDbEntity
  8
0
100
AcDbLine
 10
352.4628588463845
 20
64.851609686985
 30
0.0
 11
352.4628588463845
 21
148.9450136869849
 31
0.0
  0
ARC
  5
A5F
330
2
100
AcDbEntity
  8
0
100
AcDbCircle
 10
383.4628588463845
 20
96.55161168698505
 30
0.0
 40
38.0
100
AcDbArc
 50
158.7057340000049
 51
215.3345029999985
  0
LINE
  5
A60
330
2
100
AcDbEntity
  8
0
100
AcDbLine
 10
540.7415648463845
 20
87.35893068698505
 30
0.0
 11
539.0731528463845
 21
87.35893068698505
 31
0.0
  0
LINE
  5
A61
330
2
100
AcDbEntity
  8
0
100
AcDbLine
 10
539.0731528463845
 20
88.40483268698489
 30
0.0
 11
541.6629668463845
 21
88.40483268698489
 31
0.0
  0
LINE
  5
A62
330
2
100
AcDbEntity
  8
0
100
AcDbLine
 10
536.5177638463844
 20
82.85161068698489
 30
0.0
 11
539.8330558463844
 21
82.85161068698489
 31
0.0
  0
ARC
  5
A63
330
2
100
AcDbEntity
  8
0
100
AcDbCircle
 10
538.7493618463845
 20
85.9643996869849
 30
0.0
 40
1.992186999999999
100
AcDbArc
 50
270.0002139999998
 51
0.0001090000031536
  0
LINE
  5
A64
330
2
100
AcDbEntity
  8
0
100
AcDbLine
 10
588.5379508463845
 20
61.851609686985
 30
0.0
 11
507.5379668463845
 21
61.851609686985
 31
0.0
  0
LINE
  5
A65
330
2
100
AcDbEntity
  8
0
100
AcDbLine
 10
590.5379508463845
 20
53.851609686985
 30
0.0
 11
505.5379668463845
 21
53.851609686985
 31
0.0
  0
LINE
  5
A67
330
2
100
AcDbEntity
  8
HIDS
100
AcDbLine
 10
362.4628588463845
 20
58.55161068698492
 30
0.0
 11
404.4628628463844
 21
58.55161068698492
 31
0.0
  0
LINE
  5
A69
330
2
100
AcDbEntity
  8
HIDS
100
AcDbLine
 10
360.4628588463845
 20
60.55161068698493
 30
0.0
 11
360.4628588463845
 21
64.84987468698495
 31
0.0
  0
LINE
  5
A6A
330
2
100
AcDbEntity
  8
CENTER
100
AcDbLine
 10
343.4628598463843
 20
65.35160968698477
 30
0.0
 11
343.4628598463843
 21
50.351609686985
 31
0.0
  0
ARC
  5
A6B
330
2
100
AcDbEntity
  8
0
100
AcDbCircle
 10
349.4628588463845
 20
64.85159968698479
 30
0.0
 40
3.0
100
AcDbArc
 50
270.0
 51
0.0
  0
LINE
  5
A6C
330
2
100
AcDbEntity
  8
HIDS
  6
SEKKEI_H
100
AcDbLine
 10
346.7128588463844
 20
61.851609686985
 30
0.0
 11
346.7128588463844
 21
53.851609686985
 31
0.0
  0
LINE
  5
A6D
330
2
100
AcDbEntity
  8
HIDS
  6
SEKKEI_H
100
AcDbLine
 10
340.2128598463844
 20
61.851609686985
 30
0.0
 11
340.2128598463844
 21
53.851609686985
 31
0.0
  0
LINE
  5
A6E
330
2
100
AcDbEntity
  8
0
100
AcDbLine
 10
349.4628588463845
 20
61.851609686985
 30
0.0
 11
338.4628598463844
 21
61.851609686985
 31
0.0
  0
ARC
  5
A6F
330
2
100
AcDbEntity
  8
HIDS
100
AcDbCircle
 10
362.4628588463845
 20
60.55161068698493
 30
0.0
 40
2.0
100
AcDbArc
 50
180.0
 51
199.2166899999987
  0
ARC
  5
A70
330
2
100
AcDbEntity
  8
HIDS
100
AcDbCircle
 10
362.4628588463845
 20
60.55161068698493
 30
0.0
 40
2.0
100
AcDbArc
 50
199.2166899999987
 51
270.0
  0
ARC
  5
A71
330
2
100
AcDbEntity
  8
HIDS
100
AcDbCircle
 10
357.4628588463845
 20
64.84987468698495
 30
0.0
 40
3.0
100
AcDbArc
 50
0.0
 51
50.64329900000206
  0
ARC
  5
A72
330
2
100
AcDbEntity
  8
HIDS
100
AcDbCircle
 10
383.4628588463845
 20
96.55161168698505
 30
0.0
 40
38.0
100
AcDbArc
 50
215.3345029999985
 51
230.6432949999964
  0
ARC
  5
A73
330
2
100
AcDbEntity
  8
HIDS
100
AcDbCircle
 10
383.4628588463845
 20
96.55161168698505
 30
0.0
 40
38.0
100
AcDbArc
 50
309.3567009999979
 51
324.6654970000014
  0
LINE
  5
A74
330
2
100
AcDbEntity
  8
HIDS
100
AcDbLine
 10
406.4628628463845
 20
60.69447968698495
 30
0.0
 11
406.4628628463845
 21
64.84987468698495
 31
0.0
  0
ARC
  5
A75
330
2
100
AcDbEntity
  8
HIDS
100
AcDbCircle
 10
404.4628628463844
 20
60.55161068698493
 30
0.0
 40
2.0
100
AcDbArc
 50
270.0
 51
0.0
  0
ARC
  5
A76
330
2
100
AcDbEntity
  8
HIDS
100
AcDbCircle
 10
409.4628628463844
 20
64.84987468698495
 30
0.0
 40
3.0
100
AcDbArc
 50
129.3567050000035
 51
180.0
  0
LINE
  5
A77
330
2
100
AcDbEntity
  8
CENTER
100
AcDbLine
 10
423.4628628463845
 20
65.35160968698477
 30
0.0
 11
423.4628628463844
 21
50.351609686985
 31
0.0
  0
ARC
  5
A78
330
2
100
AcDbEntity
  8
0
100
AcDbCircle
 10
417.4628628463844
 20
64.851609686985
 30
0.0
 40
3.0
100
AcDbArc
 50
180.0
 51
270.0
  0
LINE
  5
A79
330
2
100
AcDbEntity
  8
0
100
AcDbLine
 10
417.4628628463844
 20
61.851609686985
 30
0.0
 11
428.4628628463845
 21
61.851609686985
 31
0.0
  0
LINE
  5
A7A
330
2
100
AcDbEntity
  8
HIDS
  6
SEKKEI_H
100
AcDbLine
 10
420.2128628463844
 20
61.851609686985
 30
0.0
 11
420.2128628463844
 21
53.851609686985
 31
0.0
  0
LINE
  5
A7B
330
2
100
AcDbEntity
  8
0
100
AcDbLine
 10
430.4628628463844
 20
59.851609686985
 30
0.0
 11
430.4628628463844
 21
53.851609686985
 31
0.0
  0
ARC
  5
A7C
330
2
100
AcDbEntity
  8
0
100
AcDbCircle
 10
428.4628628463845
 20
59.85159968698479
 30
0.0
 40
2.0
100
AcDbArc
 50
0.0
 51
90.0
  0
LINE
  5
A7D
330
2
100
AcDbEntity
  8
HIDS
  6
SEKKEI_H
100
AcDbLine
 10
426.7128628463844
 20
61.851609686985
 30
0.0
 11
426.7128628463844
 21
53.851609686985
 31
0.0
  0
LINE
  5
A7E
330
2
100
AcDbEntity
  8
HIDS
  6
SEKKEI_H
100
AcDbLine
 10
510.7879668463844
 20
61.851609686985
 30
0.0
 11
510.7879668463844
 21
53.851609686985
 31
0.0
  0
ARC
  5
A7F
330
2
100
AcDbEntity
  8
0
100
AcDbCircle
 10
507.5379668463845
 20
59.85159968698479
 30
0.0
 40
2.0
100
AcDbArc
 50
90.0
 51
180.0
  0
LINE
  5
A80
330
2
100
AcDbEntity
  8
CENTER
100
AcDbLine
 10
514.0379668463845
 20
65.351609686985
 30
0.0
 11
514.0379668463845
 21
50.351609686985
 31
0.0
  0
LINE
  5
A81
330
2
100
AcDbEntity
  8
HIDS
  6
SEKKEI_H
100
AcDbLine
 10
517.2879668463845
 20
61.851609686985
 30
0.0
 11
517.2879668463845
 21
53.851609686985
 31
0.0
  0
LINE
  5
A82
330
2
100
AcDbEntity
  8
0
100
AcDbLine
 10
539.0731528463845
 20
88.40483268698489
 30
0.0
 11
539.0731528463845
 21
87.35893068698505
 31
0.0
  0
LINE
  5
A83
330
2
100
AcDbEntity
  8
0
100
AcDbLine
 10
538.7493618463845
 20
83.97220868698486
 30
0.0
 11
537.0900598463845
 21
83.97220868698486
 31
0.0
  0
LINE
  5
A84
330
2
100
AcDbEntity
  8
0
100
AcDbLine
 10
536.3587668463845
 20
84.74252868698494
 30
0.0
 11
537.0900598463845
 21
83.97220868698486
 31
0.0
  0
LINE
  5
A85
330
2
100
AcDbEntity
  8
0
100
AcDbLine
 10
535.2879668463844
 20
84.09247068698476
 30
0.0
 11
536.5177638463844
 21
82.85161068698489
 31
0.0
  0
LINE
  5
A86
330
2
100
AcDbEntity
  8
0
100
AcDbLine
 10
663.0380118463845
 20
66.30263968698494
 30
0.0
 11
590.5379508463845
 21
66.30263968698494
 31
0.0
  0
LINE
  5
A87
330
2
100
AcDbEntity
  8
0
100
AcDbLine
 10
663.0379508463845
 20
58.55160968698482
 30
0.0
 11
590.5379508463845
 21
58.55160968698482
 31
0.0
  0
ARC
  5
A88
330
2
100
AcDbEntity
  8
0
100
AcDbCircle
 10
588.5379508463845
 20
59.85161968698474
 30
0.0
 40
2.0
100
AcDbArc
 50
0.0
 51
90.0
  0
LINE
  5
A89
330
2
100
AcDbEntity
  8
0
100
AcDbLine
 10
549.0091578463846
 20
83.89750868698497
 30
0.0
 11
549.0091578463846
 21
82.85161068698489
 31
0.0
  0
LINE
  5
A8A
330
2
100
AcDbEntity
  8
0
100
AcDbLine
 10
548.6107658463845
 20
83.89750868698497
 30
0.0
 11
549.0091578463846
 21
83.89750868698497
 31
0.0
  0
LINE
  5
A8B
330
2
100
AcDbEntity
  8
0
100
AcDbLine
 10
541.6629668463845
 20
88.40483268698489
 30
0.0
 11
541.6629668463845
 21
82.85161068698489
 31
0.0
  0
LINE
  5
A8C
330
2
100
AcDbEntity
  8
0
100
AcDbLine
 10
540.7415648463845
 20
83.61387068698485
 30
0.0
 11
539.8330558463844
 21
82.85161068698489
 31
0.0
  0
LINE
  5
A8D
330
2
100
AcDbEntity
  8
0
100
AcDbLine
 10
540.7415648463845
 20
82.85161068698489
 30
0.0
 11
541.6629668463845
 21
82.85161068698489
 31
0.0
  0
LINE
  5
A8E
330
2
100
AcDbEntity
  8
0
100
AcDbLine
 10
540.7415648463845
 20
87.35893068698505
 30
0.0
 11
540.7415648463845
 21
85.9643996869849
 31
0.0
  0
LINE
  5
A8F
330
2
100
AcDbEntity
  8
0
100
AcDbLine
 10
540.7415648463845
 20
83.61387068698485
 30
0.0
 11
540.7415648463845
 21
82.85161068698489
 31
0.0
  0
LINE
  5
A90
330
2
100
AcDbEntity
  8
0
100
AcDbLine
 10
540.7415648463845
 20
86.36284068698495
 30
0.0
 11
540.7415648463845
 21
87.15971568698495
 31
0.0
  0
LINE
  5
A91
330
2
100
AcDbEntity
  8
0
100
AcDbLine
 10
546.9422638463846
 20
83.89750868698497
 30
0.0
 11
547.4153618463844
 21
83.89750868698497
 31
0.0
  0
LINE
  5
A92
330
2
100
AcDbEntity
  8
0
100
AcDbLine
 10
546.9422638463846
 20
83.89750868698497
 30
0.0
 11
546.9422638463846
 21
82.85161068698489
 31
0.0
  0
LINE
  5
A93
330
2
100
AcDbEntity
  8
0
100
AcDbLine
 10
546.9422638463846
 20
82.85161068698489
 30
0.0
 11
549.0091578463846
 21
82.85161068698489
 31
0.0
  0
LINE
  5
A94
330
2
100
AcDbEntity
  8
0
100
AcDbLine
 10
558.0222648463843
 20
87.32158068698499
 30
0.0
 11
559.5172608463845
 21
83.84770068698498
 31
0.0
  0
LINE
  5
A95
330
2
100
AcDbEntity
  8
0
100
AcDbLine
 10
555.9817528463845
 20
87.32158068698499
 30
0.0
 11
558.0222648463843
 21
87.32158068698499
 31
0.0
  0
LINE
  5
A96
330
2
100
AcDbEntity
  8
0
100
AcDbLine
 10
554.4129668463845
 20
83.84770068698498
 30
0.0
 11
554.4129668463845
 21
82.85161068698489
 31
0.0
  0
LINE
  5
A97
330
2
100
AcDbEntity
  8
0
100
AcDbLine
 10
556.4175598463846
 20
83.84770068698498
 30
0.0
 11
556.4175598463846
 21
82.85161068698489
 31
0.0
  0
LINE
  5
A98
330
2
100
AcDbEntity
  8
0
100
AcDbLine
 10
556.4175598463846
 20
82.85161068698489
 30
0.0
 11
554.4129668463845
 21
82.85161068698489
 31
0.0
  0
LINE
  5
A99
330
2
100
AcDbEntity
  8
0
100
AcDbLine
 10
555.9817528463845
 20
83.84770068698498
 30
0.0
 11
556.4175598463846
 21
83.84770068698498
 31
0.0
  0
LINE
  5
A9A
330
2
100
AcDbEntity
  8
0
100
AcDbLine
 10
554.4129668463845
 20
83.84770068698498
 30
0.0
 11
554.8860648463844
 21
83.84770068698498
 31
0.0
  0
LINE
  5
A9B
330
2
100
AcDbEntity
  8
0
100
AcDbLine
 10
555.9817528463845
 20
87.32158068698499
 30
0.0
 11
555.9817528463845
 21
83.84770068698498
 31
0.0
  0
LINE
  5
A9C
330
2
100
AcDbEntity
  8
0
100
AcDbLine
 10
559.3187588463845
 20
83.84770068698498
 30
0.0
 11
559.3187588463845
 21
82.85161068698489
 31
0.0
  0
LINE
  5
A9D
330
2
100
AcDbEntity
  8
0
100
AcDbLine
 10
560.7879668463844
 20
83.84770068698498
 30
0.0
 11
560.7879668463844
 21
82.85161068698489
 31
0.0
  0
LINE
  5
A9E
330
2
100
AcDbEntity
  8
0
100
AcDbLine
 10
559.3187588463845
 20
82.85161068698489
 30
0.0
 11
560.7879668463844
 21
82.85161068698489
 31
0.0
  0
LINE
  5
A9F
330
2
100
AcDbEntity
  8
0
100
AcDbLine
 10
560.5196558463844
 20
83.84770068698498
 30
0.0
 11
560.7879668463844
 21
83.84770068698498
 31
0.0
  0
LINE
  5
AA0
330
2
100
AcDbEntity
  8
0
100
AcDbLine
 10
559.3187588463845
 20
83.84770068698498
 30
0.0
 11
559.5172608463845
 21
83.84770068698498
 31
0.0
  0
LINE
  5
AA1
330
2
100
AcDbEntity
  8
0
100
AcDbLine
 10
558.9397608463843
 20
87.40823168698483
 30
0.0
 11
560.5196558463844
 21
83.84770068698498
 31
0.0
  0
LINE
  5
AA2
330
2
100
AcDbEntity
  8
0
100
AcDbLine
 10
555.9817528463845
 20
88.31744568698486
 30
0.0
 11
558.4364648463845
 21
88.31744568698486
 31
0.0
  0
LINE
  5
AA3
330
2
100
AcDbEntity
  8
CENTER
100
AcDbLine
 10
582.0379668463845
 20
65.351609686985
 30
0.0
 11
582.0379668463845
 21
50.351609686985
 31
0.0
  0
LINE
  5
AA4
330
2
100
AcDbEntity
  8
HIDS
  6
SEKKEI_H
100
AcDbLine
 10
585.2879668463844
 20
61.851609686985
 30
0.0
 11
585.2879668463844
 21
53.851609686985
 31
0.0
  0
LINE
  5
AA5
330
2
100
AcDbEntity
  8
HIDS
  6
SEKKEI_H
100
AcDbLine
 10
578.7879668463845
 20
61.851609686985
 30
0.0
 11
578.7879668463845
 21
53.851609686985
 31
0.0
  0
LINE
  5
AA6
330
2
100
AcDbEntity
  8
0
100
AcDbLine
 10
663.0379508463845
 20
66.30263968698494
 30
0.0
 11
677.0379508463845
 21
66.30263968698494
 31
0.0
  0
LINE
  5
AA7
330
2
100
AcDbEntity
  8
0
100
AcDbLine
 10
686.0382568463844
 20
58.95308168698483
 30
0.0
 11
663.0379508463845
 21
58.55160968698482
 31
0.0
  0
LINE
  5
AA8
330
2
100
AcDbEntity
  8
0
100
AcDbLine
 10
688.0379508463845
 20
60.25565168698489
 30
0.0
 11
688.0379508463845
 21
65.30169868698493
 31
0.0
  0
ARC
  5
AA9
330
2
100
AcDbEntity
  8
0
100
AcDbCircle
 10
671.6379578463845
 20
62.55160968698482
 30
0.0
 40
8.999999
100
AcDbArc
 50
343.3989999999973
 51
16.60150000000051
  0
LINE
  5
AAA
330
2
100
AcDbEntity
  8
0
100
AcDbLine
 10
678.0379508463845
 20
66.05160968698482
 30
0.0
 11
678.0379508463845
 21
59.05160968698481
 31
0.0
  0
LINE
  5
AAB
330
2
100
AcDbEntity
  8
0
100
AcDbLine
 10
677.0379508463845
 20
66.16967968698481
 30
0.0
 11
677.0379508463845
 21
59.05160968698481
 31
0.0
  0
LINE
  5
AAC
330
2
100
AcDbEntity
  8
0
100
AcDbLine
 10
677.0379508463845
 20
66.05160968698482
 30
0.0
 11
677.0379508463845
 21
59.40519968698499
 31
0.0
  0
LINE
  5
AAD
330
2
100
AcDbEntity
  8
0
100
AcDbLine
 10
677.0379508463845
 20
59.05160968698481
 30
0.0
 11
679.0169548463845
 21
59.05160968698481
 31
0.0
  0
ARC
  5
AAE
330
2
100
AcDbEntity
  8
0
100
AcDbCircle
 10
676.5379508463845
 20
59.28732968698494
 30
0.0
 40
0.5
100
AcDbArc
 50
271.0000000000001
 51
0.0
  0
ARC
  5
AAF
330
2
100
AcDbEntity
  8
0
100
AcDbCircle
 10
688.3379698463845
 20
61.4017146869848
 30
0.0
 40
0.5
100
AcDbArc
 50
289.9999999999982
 51
0.0
  0
ARC
  5
AB0
330
2
100
AcDbEntity
  8
0
100
AcDbCircle
 10
688.5379508463845
 20
60.41033068698488
 30
0.0
 40
0.5
100
AcDbArc
 50
109.9999999999982
 51
180.0
  0
LINE
  5
AB1
330
2
100
AcDbEntity
  8
0
100
AcDbLine
 10
688.5089598463844
 20
60.93186768698496
 30
0.0
 11
688.3669608463844
 21
60.88017668698483
 31
0.0
  0
ARC
  5
AB2
330
2
100
AcDbEntity
  8
0
100
AcDbCircle
 10
687.0379508463845
 20
60.25565168698489
 30
0.0
 40
1.0
100
AcDbArc
 50
284.975616
 51
0.0
  0
ARC
  5
AB3
330
2
100
AcDbEntity
  8
0
100
AcDbCircle
 10
679.0169548463845
 20
60.35159968698479
 30
0.0
 40
1.3
100
AcDbArc
 50
270.0
 51
343.3991089999949
  0
LINE
  5
AB4
330
2
100
AcDbEntity
  8
0
100
AcDbLine
 10
687.2963738463845
 20
59.28961568698486
 30
0.0
 11
686.0382568463844
 21
58.95308168698483
 31
0.0
  0
LINE
  5
AB5
330
2
100
AcDbEntity
  8
0
100
AcDbLine
 10
686.0382568463844
 20
67.05160968698482
 30
0.0
 11
678.0379508463845
 21
67.05160968698482
 31
0.0
  0
LINE
  5
AB6
330
2
100
AcDbEntity
  8
0
100
AcDbLine
 10
677.0379508463845
 20
66.05160968698482
 30
0.0
 11
679.0169548463845
 21
66.05160968698482
 31
0.0
  0
ARC
  5
AB7
330
2
100
AcDbEntity
  8
0
100
AcDbCircle
 10
678.0379508463845
 20
66.05160968698482
 30
0.0
 40
1.0
100
AcDbArc
 50
90.0
 51
180.0
  0
ARC
  5
AB8
330
2
100
AcDbEntity
  8
0
100
AcDbCircle
 10
687.0379508463845
 20
68.35417968698488
 30
0.0
 40
1.0
100
AcDbArc
 50
284.975616
 51
0.0
  0
ARC
  5
AB9
330
2
100
AcDbEntity
  8
0
100
AcDbCircle
 10
679.0169548463845
 20
64.75158968698491
 30
0.0
 40
1.3
100
AcDbArc
 50
16.60160100000123
 51
90.0
  0
LINE
  5
ABA
330
2
100
AcDbEntity
  8
0
100
AcDbLine
 10
687.2963738463845
 20
67.38814368698484
 30
0.0
 11
686.0382568463844
 21
67.05160968698482
 31
0.0
  0
LINE
  5
ABB
330
2
100
AcDbEntity
  8
0
100
AcDbLine
 10
543.5379668463845
 20
116.3516066869848
 30
0.0
 11
538.5379668463845
 21
116.3516066869848
 31
0.0
  0
LINE
  5
ABC
330
2
100
AcDbEntity
  8
0
100
AcDbLine
 10
543.5379668463845
 20
121.3516066869849
 30
0.0
 11
538.5379668463845
 21
121.3516066869849
 31
0.0
  0
LINE
  5
ABD
330
2
100
AcDbEntity
  8
0
100
AcDbLine
 10
536.4453608463843
 20
92.41411068698488
 30
0.0
 11
540.7319668463844
 21
92.41411068698488
 31
0.0
  0
LINE
  5
ABE
330
2
100
AcDbEntity
  8
0
100
AcDbLine
 10
540.1504548463845
 20
91.14409068698495
 30
0.0
 11
537.0785548463843
 21
91.14409068698495
 31
0.0
  0
CIRCLE
  5
ABF
330
2
100
AcDbEntity
  8
0
100
AcDbCircle
 10
548.0379668463845
 20
118.851606686985
 30
0.0
 40
20.0
  0
LINE
  5
AC0
330
2
100
AcDbEntity
  8
CENTER
100
AcDbLine
 10
574.7879043587862
 20
118.8516066869848
 30
0.0
 11
520.7880293339827
 21
118.8516066869851
 31
0.0
  0
LINE
  5
AC1
330
2
100
AcDbEntity
  8
0
100
AcDbLine
 10
561.4584528463844
 20
151.451612686985
 30
0.0
 11
534.6174648463845
 21
151.451612686985
 31
0.0
  0
LINE
  5
AC2
330
2
100
AcDbEntity
  8
0
100
AcDbLine
 10
447.4628628463845
 20
116.3516066869848
 30
0.0
 11
425.9628628463844
 21
116.3516066869848
 31
0.0
  0
LINE
  5
AC3
330
2
100
AcDbEntity
  8
0
100
AcDbLine
 10
447.4628628463845
 20
121.3516066869849
 30
0.0
 11
425.9628628463844
 21
121.3516066869849
 31
0.0
  0
LINE
  5
AC4
330
2
100
AcDbEntity
  8
0
100
AcDbLine
 10
447.4628628463845
 20
111.3516106869848
 30
0.0
 11
420.4628628463844
 21
111.3516106869848
 31
0.0
  0
LINE
  5
AC5
330
2
100
AcDbEntity
  8
0
100
AcDbLine
 10
447.4628628463845
 20
126.3516066869849
 30
0.0
 11
420.4628628463844
 21
126.3516066869849
 31
0.0
  0
LINE
  5
AC9
330
2
100
AcDbEntity
  8
CENTER
100
AcDbLine
 10
341.4628588463845
 20
118.8516066869848
 30
0.0
 11
454.4628628463844
 21
118.8516066869848
 31
0.0
  0
ARC
  5
ACA
330
2
100
AcDbEntity
  8
0
100
AcDbCircle
 10
383.4628588463845
 20
147.551611686985
 30
0.0
 40
6.0
100
AcDbArc
 50
39.53427500000454
 51
140.4657289999963
  0
ARC
  5
ACB
330
2
100
AcDbEntity
  8
0
100
AcDbCircle
 10
383.4628588463845
 20
-94.44836631301525
 30
0.0
 40
250.0
100
AcDbArc
 50
84.82601900000059
 51
95.17398099999942
  0
LINE
  5
ACD
330
2
100
AcDbEntity
  8
HIDS
100
AcDbLine
 10
404.4977598463844
 20
134.1844546869848
 30
0.0
 11
383.4628588463845
 21
134.5516036869848
 31
0.0
  0
LINE
  5
ACE
330
2
100
AcDbEntity
  8
0
100
AcDbLine
 10
412.4977598463845
 20
150.9448226869848
 30
0.0
 11
383.4628588463845
 21
151.4516206869849
 31
0.0
  0
LINE
  5
ACF
330
2
100
AcDbEntity
  8
0
100
AcDbLine
 10
354.1365588463845
 20
132.1516176869849
 30
0.0
 11
412.8552578463843
 21
132.1516176869849
 31
0.0
  0
LINE
  5
AD0
330
2
100
AcDbEntity
  8
CENTER
100
AcDbLine
 10
338.4628588463844
 20
96.55161168698505
 30
0.0
 11
428.4628588463845
 21
96.55161168698505
 31
0.0
  0
LINE
  5
AD1
330
2
100
AcDbEntity
  8
HIDS
100
AcDbLine
 10
360.4628588463845
 20
147.051611686985
 30
0.0
 11
360.4628588463845
 21
132.1847436869849
 31
0.0
  0
LINE
  5
AD2
330
2
100
AcDbEntity
  8
HIDS
100
AcDbLine
 10
362.4279578463845
 20
134.1844546869848
 30
0.0
 11
383.4628588463845
 21
134.5516036869848
 31
0.0
  0
LINE
  5
AD3
330
2
100
AcDbEntity
  8
0
100
AcDbLine
 10
348.4628588463845
 20
99.85161068698488
 30
0.0
 11
348.4628588463845
 21
137.8516066869849
 31
0.0
  0
ARC
  5
AD4
330
2
100
AcDbEntity
  8
HIDS
100
AcDbCircle
 10
383.4628588463845
 20
96.55161168698505
 30
0.0
 40
38.0
100
AcDbArc
 50
129.3567050000035
 51
158.7057340000049
  0
LINE
  5
AD5
330
2
100
AcDbEntity
  8
0
100
AcDbLine
 10
349.4628588463845
 20
98.85161068698488
 30
0.0
 11
350.4628548463843
 21
98.85161068698488
 31
0.0
  0
ARC
  5
AD6
330
2
100
AcDbEntity
  8
0
100
AcDbCircle
 10
349.4628588463845
 20
99.8516066869849
 30
0.0
 40
1.0
100
AcDbArc
 50
180.0
 51
270.0
  0
LINE
  5
AD7
330
2
100
AcDbEntity
  8
0
100
AcDbLine
 10
349.4628588463845
 20
138.8516066869849
 30
0.0
 11
350.4628548463843
 21
138.8516066869849
 31
0.0
  0
ARC
  5
AD8
330
2
100
AcDbEntity
  8
0
100
AcDbCircle
 10
349.4628588463845
 20
137.8516066869849
 30
0.0
 40
1.0
100
AcDbArc
 50
90.0
 51
180.0
  0
LINE
  5
AD9
330
2
100
AcDbEntity
  8
HIDS
100
AcDbLine
 10
360.4628588463845
 20
132.1847436869849
 30
0.0
 11
360.4628588463845
 21
128.253347686985
 31
0.0
  0
ARC
  5
ADA
330
2
100
AcDbEntity
  8
HIDS
100
AcDbCircle
 10
357.4628588463845
 20
128.253347686985
 30
0.0
 40
3.0
100
AcDbArc
 50
309.3567009999979
 51
0.0
  0
ARC
  5
ADB
330
2
100
AcDbEntity
  8
HIDS
100
AcDbCircle
 10
362.4628588463845
 20
132.1847436869849
 30
0.0
 40
2.0
100
AcDbArc
 50
90.99986299999994
 51
180.0
  0
LINE
  5
ADC
330
2
100
AcDbEntity
  8
0
100
AcDbLine
 10
360.7128588463845
 20
152.051611686985
 30
0.0
 11
366.4628588463845
 21
152.051611686985
 31
0.0
  0
LINE
  5
ADD
330
2
100
AcDbEntity
  8
0
100
AcDbLine
 10
360.7128588463845
 20
152.7516076869848
 30
0.0
 11
366.2128588463845
 21
152.7516076869848
 31
0.0
  0
ARC
  5
ADE
330
2
100
AcDbEntity
  8
0
100
AcDbCircle
 10
363.4628588463844
 20
147.7516076869848
 30
0.0
 40
7.0
100
AcDbArc
 50
73.04350299999974
 51
106.9580229999995
  0
LINE
  5
ADF
330
2
100
AcDbEntity
  8
0
100
AcDbLine
 10
354.4279598463845
 20
150.9448226869848
 30
0.0
 11
383.4628588463845
 21
151.4516206869849
 31
0.0
  0
LINE
  5
AE0
330
2
100
AcDbEntity
  8
0
100
AcDbLine
 10
360.4628588463845
 20
151.0501536869848
 30
0.0
 11
360.4628588463845
 21
154.0350326869849
 31
0.0
  0
LINE
  5
AE1
330
2
100
AcDbEntity
  8
0
100
AcDbLine
 10
360.7128588463845
 20
152.051611686985
 30
0.0
 11
360.7128588463845
 21
153.4908126869849
 31
0.0
  0
ARC
  5
AE2
330
2
100
AcDbEntity
  8
0
100
AcDbCircle
 10
360.9628588463845
 20
151.551611686985
 30
0.0
 40
0.5
100
AcDbArc
 50
90.0
 51
180.0
  0
ARC
  5
AE3
330
2
100
AcDbEntity
  8
0
100
AcDbCircle
 10
360.9628588463845
 20
154.0350326869849
 30
0.0
 40
0.5
100
AcDbArc
 50
95.17398099999942
 51
180.0
  0
ARC
  5
AE4
330
2
100
AcDbEntity
  8
0
100
AcDbCircle
 10
361.7128588463845
 20
153.4908126869849
 30
0.0
 40
1.0
100
AcDbArc
 50
106.958152999999
 51
180.0
  0
LINE
  5
AE5
330
2
100
AcDbEntity
  8
HIDS
100
AcDbLine
 10
360.9628588463845
 20
147.051611686985
 30
0.0
 11
360.9628588463845
 21
148.051611686985
 31
0.0
  0
LINE
  5
AE6
330
2
100
AcDbEntity
  8
HIDS
100
AcDbLine
 10
360.9628588463845
 20
147.051611686985
 30
0.0
 11
360.4628588463845
 21
147.051611686985
 31
0.0
  0
LINE
  5
AE7
330
2
100
AcDbEntity
  8
HIDS
100
AcDbLine
 10
360.9628588463845
 20
148.051611686985
 30
0.0
 11
360.4628588463845
 21
148.051611686985
 31
0.0
  0
LINE
  5
AE8
330
2
100
AcDbEntity
  8
HIDS
100
AcDbLine
 10
360.4628588463845
 20
148.051611686985
 30
0.0
 11
360.4628588463845
 21
151.0501536869848
 31
0.0
  0
ARC
  5
AE9
330
2
100
AcDbEntity
  8
0
100
AcDbCircle
 10
354.4628588463845
 20
148.9450206869848
 30
0.0
 40
2.0
100
AcDbArc
 50
91.00064099999967
 51
180.0
  0
LINE
  5
AEA
330
2
100
AcDbEntity
  8
0
100
AcDbLine
 10
366.9628588463845
 20
154.538076686985
 30
0.0
 11
366.9628588463845
 21
152.551611686985
 31
0.0
  0
LINE
  5
AEB
330
2
100
AcDbEntity
  8
0
100
AcDbLine
 10
366.2128588463845
 20
152.0514126869849
 30
0.0
 11
366.2128588463845
 21
153.4908126869849
 31
0.0
  0
ARC
  5
AEC
330
2
100
AcDbEntity
  8
0
100
AcDbCircle
 10
366.4628588463845
 20
152.551611686985
 30
0.0
 40
0.5
100
AcDbArc
 50
270.0
 51
0.0
  0
ARC
  5
AED
330
2
100
AcDbEntity
  8
0
100
AcDbCircle
 10
365.2128588463845
 20
153.4908126869849
 30
0.0
 40
1.0
100
AcDbArc
 50
0.0
 51
73.04309800000067
  0
ARC
  5
AEE
330
2
100
AcDbEntity
  8
0
100
AcDbCircle
 10
367.4628588463844
 20
154.538076686985
 30
0.0
 40
0.5
100
AcDbArc
 50
93.67680399999988
 51
180.0
  0
LINE
  5
AEF
330
2
100
AcDbEntity
  8
HIDS
100
AcDbLine
 10
406.4628628463845
 20
147.051611686985
 30
0.0
 11
406.4628628463845
 21
132.1847436869849
 31
0.0
  0
ARC
  5
AF0
330
2
100
AcDbEntity
  8
HIDS
100
AcDbCircle
 10
383.4628588463845
 20
96.55161168698505
 30
0.0
 40
38.0
100
AcDbArc
 50
21.29426000000337
 51
50.64329900000206
  0
LINE
  5
AF1
330
2
100
AcDbEntity
  8
HIDS
100
AcDbLine
 10
406.4628628463845
 20
132.1516176869851
 30
0.0
 11
406.4628628463845
 21
128.253347686985
 31
0.0
  0
ARC
  5
AF2
330
2
100
AcDbEntity
  8
HIDS
100
AcDbCircle
 10
409.4628628463844
 20
128.253347686985
 30
0.0
 40
3.0
100
AcDbArc
 50
180.0
 51
230.6432949999964
  0
ARC
  5
AF3
330
2
100
AcDbEntity
  8
HIDS
100
AcDbCircle
 10
404.4628628463844
 20
132.1847436869849
 30
0.0
 40
2.0
100
AcDbArc
 50
0.0
 51
89.00013700000007
  0
LINE
  5
AF4
330
2
100
AcDbEntity
  8
0
100
AcDbLine
 10
418.4628628463845
 20
99.85161068698488
 30
0.0
 11
418.4628628463845
 21
137.8516066869849
 31
0.0
  0
LINE
  5
AF5
330
2
100
AcDbEntity
  8
0
100
AcDbLine
 10
420.4628628463844
 20
127.3516066869848
 30
0.0
 11
420.4628628463844
 21
110.3516106869848
 31
0.0
  0
ARC
  5
AF6
330
2
100
AcDbEntity
  8
0
100
AcDbCircle
 10
417.4628628463844
 20
99.8516066869849
 30
0.0
 40
1.0
100
AcDbArc
 50
270.0
 51
0.0
  0
LINE
  5
AF7
330
2
100
AcDbEntity
  8
0
100
AcDbLine
 10
417.4628628463844
 20
98.85161068698488
 30
0.0
 11
416.4628628463845
 21
98.85161068698488
 31
0.0
  0
LINE
  5
AF8
330
2
100
AcDbEntity
  8
0
100
AcDbLine
 10
418.4628628463845
 20
110.3516106869848
 30
0.0
 11
420.4628628463844
 21
110.3516106869848
 31
0.0
  0
ARC
  5
AF9
330
2
100
AcDbEntity
  8
0
100
AcDbCircle
 10
425.9628628463844
 20
118.8515986869849
 30
0.0
 40
2.5
100
AcDbArc
 50
90.0
 51
180.0
  0
ARC
  5
AFA
330
2
100
AcDbEntity
  8
0
100
AcDbCircle
 10
425.9628628463844
 20
118.8516066869848
 30
0.0
 40
2.5
100
AcDbArc
 50
180.0
 51
270.0
  0
LINE
  5
AFB
330
2
100
AcDbEntity
  8
0
100
AcDbLine
 10
418.4628628463845
 20
127.3516066869848
 30
0.0
 11
420.4628628463844
 21
127.3516066869848
 31
0.0
  0
ARC
  5
AFC
330
2
100
AcDbEntity
  8
0
100
AcDbCircle
 10
417.4628628463844
 20
137.8516066869849
 30
0.0
 40
1.0
100
AcDbArc
 50
0.0
 51
90.0
  0
LINE
  5
AFD
330
2
100
AcDbEntity
  8
0
100
AcDbLine
 10
417.4628628463844
 20
138.8516066869849
 30
0.0
 11
416.4628628463846
 21
138.8516066869849
 31
0.0
  0
LINE
  5
AFE
330
2
100
AcDbEntity
  8
0
100
AcDbLine
 10
425.9628628463844
 20
121.3516066869849
 30
0.0
 11
425.9628628463844
 21
116.3516066869848
 31
0.0
  0
ARC
  5
AFF
330
2
100
AcDbEntity
  8
0
100
AcDbCircle
 10
412.4628628463844
 20
148.9451196869849
 30
0.0
 40
2.0
100
AcDbArc
 50
0.0
 51
89.00013700000007
  0
ARC
  5
B00
330
2
100
AcDbEntity
  8
0
100
AcDbCircle
 10
400.4628628463844
 20
152.551611686985
 30
0.0
 40
0.5
100
AcDbArc
 50
180.0
 51
270.0
  0
LINE
  5
B01
330
2
100
AcDbEntity
  8
0
100
AcDbLine
 10
399.9628628463844
 20
154.538076686985
 30
0.0
 11
399.9628628463844
 21
152.551611686985
 31
0.0
  0
ARC
  5
B02
330
2
100
AcDbEntity
  8
0
100
AcDbCircle
 10
399.4628628463845
 20
154.538076686985
 30
0.0
 40
0.5
100
AcDbArc
 50
0.0
 51
86.32319600000011
  0
LINE
  5
B03
330
2
100
AcDbEntity
  8
0
100
AcDbLine
 10
406.2128628463844
 20
152.051611686985
 30
0.0
 11
400.4628628463844
 21
152.051611686985
 31
0.0
  0
ARC
  5
B04
330
2
100
AcDbEntity
  8
0
100
AcDbCircle
 10
403.4628628463845
 20
147.7516076869848
 30
0.0
 40
7.0
100
AcDbArc
 50
73.04197699999971
 51
106.9564970000002
  0
LINE
  5
B05
330
2
100
AcDbEntity
  8
0
100
AcDbLine
 10
406.2128628463844
 20
152.7516076869848
 30
0.0
 11
400.7128628463845
 21
152.7516076869848
 31
0.0
  0
LINE
  5
B06
330
2
100
AcDbEntity
  8
0
100
AcDbLine
 10
400.7128628463845
 20
152.0514126869849
 30
0.0
 11
400.7128628463845
 21
153.4908126869849
 31
0.0
  0
ARC
  5
B07
330
2
100
AcDbEntity
  8
0
100
AcDbCircle
 10
401.7128628463844
 20
153.4908126869849
 30
0.0
 40
1.0
100
AcDbArc
 50
106.9569019999993
 51
180.0
  0
LINE
  5
B08
330
2
100
AcDbEntity
  8
0
100
AcDbLine
 10
406.4628628463845
 20
151.0501536869848
 30
0.0
 11
406.4628628463845
 21
154.0350326869849
 31
0.0
  0
LINE
  5
B09
330
2
100
AcDbEntity
  8
0
100
AcDbLine
 10
406.2128628463844
 20
152.051611686985
 30
0.0
 11
406.2128628463844
 21
153.4908126869849
 31
0.0
  0
ARC
  5
B0A
330
2
100
AcDbEntity
  8
0
100
AcDbCircle
 10
405.9628628463845
 20
151.551611686985
 30
0.0
 40
0.5
100
AcDbArc
 50
0.0
 51
90.0
  0
ARC
  5
B0B
330
2
100
AcDbEntity
  8
0
100
AcDbCircle
 10
405.9628628463845
 20
154.0350326869849
 30
0.0
 40
0.5
100
AcDbArc
 50
0.0
 51
84.82601900000059
  0
ARC
  5
B0C
330
2
100
AcDbEntity
  8
0
100
AcDbCircle
 10
405.2128628463845
 20
153.4908126869849
 30
0.0
 40
1.0
100
AcDbArc
 50
0.0
 51
73.04184700000099
  0
LINE
  5
B0D
330
2
100
AcDbEntity
  8
HIDS
100
AcDbLine
 10
405.9628628463845
 20
147.051611686985
 30
0.0
 11
405.9628628463845
 21
148.051611686985
 31
0.0
  0
LINE
  5
B0E
330
2
100
AcDbEntity
  8
HIDS
100
AcDbLine
 10
405.9628628463845
 20
147.051611686985
 30
0.0
 11
406.4628628463845
 21
147.051611686985
 31
0.0
  0
LINE
  5
B0F
330
2
100
AcDbEntity
  8
HIDS
100
AcDbLine
 10
405.9628628463845
 20
148.051611686985
 30
0.0
 11
406.4628628463845
 21
148.051611686985
 31
0.0
  0
LINE
  5
B10
330
2
100
AcDbEntity
  8
HIDS
100
AcDbLine
 10
406.4628628463845
 20
148.051611686985
 30
0.0
 11
406.4628628463845
 21
151.0501536869848
 31
0.0
  0
TEXT
  5
B11
330
2
100
AcDbEntity
  8
TITLE
100
AcDbText
 10
342.0805500786986
 20
266.4321393717549
 30
0.0
 40
5.0
  1
HLW-15L-10~240-S15
100
AcDbText
  0
TEXT
  5
B12
330
2
100
AcDbEntity
  8
TITLE
100
AcDbText
 10
342.0805500786986
 20
274.4321393717549
 30
0.0
 40
5.0
  1
HLW-15L-10~120-T40
100
AcDbText
  0
TEXT
  5
B13
330
2
100
AcDbEntity
  8
TITLE
100
AcDbText
 10
342.0805500786986
 20
290.432139371755
 30
0.0
 40
5.0
  1
HLW-15L-10~240-T15
100
AcDbText
  0
TEXT
  5
B14
330
2
100
AcDbEntity
  8
TITLE
100
AcDbText
 10
342.0805500786986
 20
282.432139371755
 30
0.0
 40
5.0
  1
HLW-15L-10~240-T25
100
AcDbText
  0
TEXT
  5
B15
330
2
100
AcDbEntity
  8
TITLE
100
AcDbText
 10
342.0805500786986
 20
258.432139371755
 30
0.0
 40
5.0
  1
HLW-15L-10~240-S25
100
AcDbText
  0
LINE
  5
B17
330
2
100
AcDbEntity
  8
0
100
AcDbLine
 10
447.4628628463845
 20
126.3516066869849
 30
0.0
 11
447.4628628463845
 21
111.3516106869848
 31
0.0
  0
LINE
  5
B18
330
2
100
AcDbEntity
  8
0
100
AcDbLine
 10
507.6656678463844
 20
133.644872686985
 30
0.0
 11
531.7451658463844
 21
150.5442716869849
 31
0.0
  0
ARC
  5
B19
330
2
100
AcDbEntity
  8
0
100
AcDbCircle
 10
510.5379668463845
 20
129.5521906869848
 30
0.0
 40
5.0
100
AcDbArc
 50
125.0616299999975
 51
180.0
  0
LINE
  5
B1A
330
2
100
AcDbEntity
  8
0
100
AcDbLine
 10
537.0785548463843
 20
91.14409068698495
 30
0.0
 11
536.3587668463845
 21
90.25158868698481
 31
0.0
  0
LINE
  5
B1B
330
2
100
AcDbEntity
  8
0
100
AcDbLine
 10
536.4453608463843
 20
92.41411068698488
 30
0.0
 11
535.2879668463844
 21
90.93211168698479
 31
0.0
  0
LINE
  5
B1C
330
2
100
AcDbEntity
  8
0
100
AcDbLine
 10
538.5379668463845
 20
121.3516066869849
 30
0.0
 11
538.5379668463845
 21
116.3516066869848
 31
0.0
  0
ARC
  5
B1D
330
2
100
AcDbEntity
  8
0
100
AcDbCircle
 10
534.6173578463845
 20
146.4515976869849
 30
0.0
 40
5.0
100
AcDbArc
 50
90.0
 51
125.0615689999987
  0
LINE
  5
B1E
330
2
100
AcDbEntity
  8
0
100
AcDbLine
 10
663.0380118463845
 20
126.8005816869849
 30
0.0
 11
590.5379508463845
 21
126.8005816869849
 31
0.0
  0
LINE
  5
B1F
330
2
100
AcDbEntity
  8
CENTER
100
AcDbLine
 10
695.8379698463846
 20
96.55161168698505
 30
0.0
 11
571.2879668463845
 21
96.55161168698505
 31
0.0
  0
LINE
  5
B20
330
2
100
AcDbEntity
  8
0
100
AcDbLine
 10
663.0379508463845
 20
134.551611686985
 30
0.0
 11
587.1182738463844
 21
134.551611686985
 31
0.0
  0
ARC
  5
B21
330
2
100
AcDbEntity
  8
0
100
AcDbCircle
 10
585.5379668463845
 20
129.5522296869848
 30
0.0
 40
5.0
100
AcDbArc
 50
0.0
 51
54.937698000003
  0
LINE
  5
B22
330
2
100
AcDbEntity
  8
0
100
AcDbLine
 10
588.4102658463846
 20
133.644872686985
 30
0.0
 11
564.3308588463844
 21
150.5442566869848
 31
0.0
  0
ARC
  5
B23
330
2
100
AcDbEntity
  8
0
100
AcDbCircle
 10
548.0379668463845
 20
118.8516066869848
 30
0.0
 40
7.5
100
AcDbArc
 50
199.471207000002
 51
160.5287929999979
  0
LINE
  5
B24
330
2
100
AcDbEntity
  8
0
100
AcDbLine
 10
550.2717618463845
 20
91.24370068698494
 30
0.0
 11
550.5604578463844
 21
90.42192268698494
 31
0.0
  0
LINE
  5
B25
330
2
100
AcDbEntity
  8
0
100
AcDbLine
 10
548.6107658463845
 20
91.24370068698494
 30
0.0
 11
550.2717618463845
 21
91.24370068698494
 31
0.0
  0
LINE
  5
B26
330
2
100
AcDbEntity
  8
0
100
AcDbLine
 10
550.5604578463844
 20
90.42192268698494
 30
0.0
 11
551.2254668463845
 21
90.42192268698494
 31
0.0
  0
LINE
  5
B27
330
2
100
AcDbEntity
  8
0
100
AcDbLine
 10
551.2254668463845
 20
90.42192268698494
 30
0.0
 11
551.2254668463845
 21
92.41411068698488
 31
0.0
  0
LINE
  5
B28
330
2
100
AcDbEntity
  8
0
100
AcDbLine
 10
547.4153618463844
 20
91.24370068698494
 30
0.0
 11
545.9004548463845
 21
91.24370068698494
 31
0.0
  0
LINE
  5
B29
330
2
100
AcDbEntity
  8
0
100
AcDbLine
 10
540.7415648463845
 20
90.5726456869849
 30
0.0
 11
540.7415648463845
 21
90.42192268698494
 31
0.0
  0
LINE
  5
B2A
330
2
100
AcDbEntity
  8
0
100
AcDbLine
 10
541.6629668463845
 20
91.38096868698488
 30
0.0
 11
541.6629668463845
 21
90.42192268698494
 31
0.0
  0
LINE
  5
B2B
330
2
100
AcDbEntity
  8
0
100
AcDbLine
 10
540.7415648463845
 20
90.42192268698494
 30
0.0
 11
541.6629668463845
 21
90.42192268698494
 31
0.0
  0
LINE
  5
B2C
330
2
100
AcDbEntity
  8
0
100
AcDbLine
 10
540.7319668463844
 20
92.41411068698488
 30
0.0
 11
541.6629668463845
 21
91.38096868698488
 31
0.0
  0
LINE
  5
B2D
330
2
100
AcDbEntity
  8
0
100
AcDbLine
 10
540.7415648463845
 20
90.5726456869849
 30
0.0
 11
540.1383538463845
 21
91.14409068698495
 31
0.0
  0
LINE
  5
B2E
330
2
100
AcDbEntity
  8
0
100
AcDbLine
 10
545.9004548463845
 20
91.24370068698494
 30
0.0
 11
545.5580628463844
 21
90.42192268698494
 31
0.0
  0
LINE
  5
B2F
330
2
100
AcDbEntity
  8
0
100
AcDbLine
 10
544.8504668463844
 20
90.42192268698494
 30
0.0
 11
545.5580628463844
 21
90.42192268698494
 31
0.0
  0
LINE
  5
B30
330
2
100
AcDbEntity
  8
0
100
AcDbLine
 10
544.8504668463844
 20
90.42192268698494
 30
0.0
 11
544.8504668463844
 21
92.41411068698488
 31
0.0
  0
LINE
  5
B31
330
2
100
AcDbEntity
  8
0
100
AcDbLine
 10
544.8504668463844
 20
92.41411068698488
 30
0.0
 11
551.2254668463845
 21
92.41411068698488
 31
0.0
  0
LINE
  5
B32
330
2
100
AcDbEntity
  8
0
100
AcDbLine
 10
555.9817528463845
 20
91.24370068698494
 30
0.0
 11
558.9566528463844
 21
91.24176268698482
 31
0.0
  0
LINE
  5
B33
330
2
100
AcDbEntity
  8
0
100
AcDbLine
 10
554.4129668463845
 20
91.24370068698494
 30
0.0
 11
554.8860648463844
 21
91.24370068698494
 31
0.0
  0
LINE
  5
B34
330
2
100
AcDbEntity
  8
0
100
AcDbLine
 10
554.4129668463845
 20
92.41411068698488
 30
0.0
 11
554.4129668463845
 21
91.24370068698494
 31
0.0
  0
LINE
  5
B35
330
2
100
AcDbEntity
  8
0
100
AcDbLine
 10
554.4129668463845
 20
92.41411068698488
 30
0.0
 11
558.2354608463845
 21
92.41411068698488
 31
0.0
  0
LINE
  5
B36
330
2
100
AcDbEntity
  8
0
100
AcDbLine
 10
543.5379668463845
 20
116.3516066869848
 30
0.0
 11
543.5379668463845
 21
121.3516066869849
 31
0.0
  0
ARC
  5
B38
330
2
100
AcDbEntity
  8
0
100
AcDbCircle
 10
561.4584528463844
 20
146.451620686985
 30
0.0
 40
5.0
100
AcDbArc
 50
54.93780099999555
 51
90.0
  0
ARC
  5
B39
330
2
100
AcDbEntity
  8
0
100
AcDbCircle
 10
692.5378288463844
 20
147.7516076869848
 30
0.0
 40
7.0
100
AcDbArc
 50
73.04200000000135
 51
106.9565119999979
  0
LINE
  5
B3A
330
2
100
AcDbEntity
  8
0
100
AcDbLine
 10
695.2878288463844
 20
152.7516076869848
 30
0.0
 11
689.7878288463844
 21
152.7516076869848
 31
0.0
  0
LINE
  5
B3B
330
2
100
AcDbEntity
  8
0
100
AcDbLine
 10
689.5380738463845
 20
152.051611686985
 30
0.0
 11
695.0380738463845
 21
152.051611686985
 31
0.0
  0
ARC
  5
B3C
330
2
100
AcDbEntity
  8
0
100
AcDbCircle
 10
680.5378288463844
 20
-94.44836631301525
 30
0.0
 40
250.0
100
AcDbArc
 50
86.66830399999998
 51
93.33169600000003
  0
LINE
  5
B3D
330
2
100
AcDbEntity
  8
0
100
AcDbLine
 10
697.5378288463844
 20
147.051611686985
 30
0.0
 11
663.5378288463844
 21
147.051611686985
 31
0.0
  0
LINE
  5
B3E
330
2
100
AcDbEntity
  8
0
100
AcDbLine
 10
697.5378288463844
 20
148.051611686985
 30
0.0
 11
663.5378288463844
 21
148.051611686985
 31
0.0
  0
LINE
  5
B3F
330
2
100
AcDbEntity
  8
0
100
AcDbLine
 10
693.5905028463844
 20
127.9989076869848
 30
0.0
 11
689.0117978463845
 21
127.8790116869849
 31
0.0
  0
LINE
  5
B40
330
2
100
AcDbEntity
  8
0
100
AcDbLine
 10
695.5378288463844
 20
135.051611686985
 30
0.0
 11
678.0379508463845
 21
135.051611686985
 31
0.0
  0
LINE
  5
B41
330
2
100
AcDbEntity
  8
CENTER
100
AcDbLine
 10
680.5379508463845
 20
158.5771236869847
 30
0.0
 11
680.5378288463844
 21
140.7783106869848
 31
0.0
  0
LINE
  5
B42
330
2
100
AcDbEntity
  8
0
100
AcDbLine
 10
665.5378288463843
 20
135.5912226869849
 30
0.0
 11
665.5378288463843
 21
147.051611686985
 31
0.0
  0
ARC
  5
B43
330
2
100
AcDbEntity
  8
0
100
AcDbCircle
 10
664.5379508463845
 20
143.0858056869848
 30
0.0
 40
1.0
100
AcDbArc
 50
180.0
 51
270.0
  0
ARC
  5
B44
330
2
100
AcDbEntity
  8
0
100
AcDbCircle
 10
664.5379508463845
 20
135.5912226869849
 30
0.0
 40
1.0
100
AcDbArc
 50
271.500099
 51
0.0
  0
ARC
  5
B45
330
2
100
AcDbEntity
  8
0
100
AcDbCircle
 10
665.0377678463844
 20
141.5858056869848
 30
0.0
 40
0.5
100
AcDbArc
 50
0.0
 51
90.0
  0
LINE
  5
B46
330
2
100
AcDbEntity
  8
0
100
AcDbLine
 10
663.0379508463845
 20
126.8005816869849
 30
0.0
 11
677.0379508463845
 21
126.8005816869849
 31
0.0
  0
LINE
  5
B47
330
2
100
AcDbEntity
  8
0
100
AcDbLine
 10
664.5641658463844
 20
134.5915896869848
 30
0.0
 11
663.0379508463845
 21
134.551611686985
 31
0.0
  0
LINE
  5
B48
330
2
100
AcDbEntity
  8
0
100
AcDbLine
 10
665.0377678463844
 20
142.0858056869848
 30
0.0
 11
664.5379508463845
 21
142.0858056869848
 31
0.0
  0
LINE
  5
B49
330
2
100
AcDbEntity
  8
0
100
AcDbLine
 10
677.5379508463845
 20
126.051611686985
 30
0.0
 11
686.0382568463844
 21
126.051611686985
 31
0.0
  0
LINE
  5
B4A
330
2
100
AcDbEntity
  8
0
100
AcDbLine
 10
677.0379508463845
 20
127.051611686985
 30
0.0
 11
679.0169548463845
 21
127.051611686985
 31
0.0
  0
LINE
  5
B4B
330
2
100
AcDbEntity
  8
0
100
AcDbLine
 10
677.0379508463845
 20
134.051611686985
 30
0.0
 11
679.0169548463845
 21
134.051611686985
 31
0.0
  0
LINE
  5
B4C
330
2
100
AcDbEntity
  8
0
100
AcDbLine
 10
678.0379508463845
 20
127.051611686985
 30
0.0
 11
678.0379508463845
 21
134.051611686985
 31
0.0
  0
LINE
  5
B4D
330
2
100
AcDbEntity
  8
0
100
AcDbLine
 10
677.0379508463845
 20
126.551611686985
 30
0.0
 11
677.0379508463845
 21
134.051611686985
 31
0.0
  0
ARC
  5
B4E
330
2
100
AcDbEntity
  8
0
100
AcDbCircle
 10
677.5379508463845
 20
126.551611686985
 30
0.0
 40
0.5
100
AcDbArc
 50
180.0
 51
270.0
  0
ARC
  5
B4F
330
2
100
AcDbEntity
  8
0
100
AcDbCircle
 10
678.0379508463845
 20
134.051611686985
 30
0.0
 40
1.0
100
AcDbArc
 50
90.0
 51
180.0
  0
ARC
  5
B50
330
2
100
AcDbEntity
  8
0
100
AcDbCircle
 10
687.0379508463845
 20
124.7490366869848
 30
0.0
 40
1.0
100
AcDbArc
 50
0.0
 51
75.02438399999995
  0
ARC
  5
B51
330
2
100
AcDbEntity
  8
0
100
AcDbCircle
 10
689.0379508463845
 20
126.8793546869848
 30
0.0
 40
1.0
100
AcDbArc
 50
91.50000000000027
 51
180.0
  0
ARC
  5
B52
330
2
100
AcDbEntity
  8
0
100
AcDbCircle
 10
688.3379698463845
 20
127.101507686985
 30
0.0
 40
0.5
100
AcDbArc
 50
0.0
 51
70.00000000000172
  0
LINE
  5
B53
330
2
100
AcDbEntity
  8
0
100
AcDbLine
 10
688.5089598463844
 20
127.5713556869847
 30
0.0
 11
688.3687308463845
 21
127.6223966869849
 31
0.0
  0
ARC
  5
B54
330
2
100
AcDbEntity
  8
0
100
AcDbCircle
 10
671.6379578463845
 20
130.551611686985
 30
0.0
 40
8.999999
100
AcDbArc
 50
343.3984999999994
 51
16.60100000000259
  0
ARC
  5
B55
330
2
100
AcDbEntity
  8
0
100
AcDbCircle
 10
679.0169548463845
 20
128.3516296869849
 30
0.0
 40
1.3
100
AcDbArc
 50
270.0
 51
343.3983989999987
  0
ARC
  5
B56
330
2
100
AcDbEntity
  8
0
100
AcDbCircle
 10
679.0169548463845
 20
132.7516236869848
 30
0.0
 40
1.3
100
AcDbArc
 50
16.60090099999514
 51
90.0
  0
LINE
  5
B57
330
2
100
AcDbEntity
  8
0
100
AcDbLine
 10
687.2963738463845
 20
125.7150786869849
 30
0.0
 11
686.0382568463844
 21
126.051611686985
 31
0.0
  0
ARC
  5
B58
330
2
100
AcDbEntity
  8
0
100
AcDbCircle
 10
666.0378288463844
 20
151.551611686985
 30
0.0
 40
0.5
100
AcDbArc
 50
90.0
 51
180.0
  0
ARC
  5
B59
330
2
100
AcDbEntity
  8
0
100
AcDbCircle
 10
666.0378288463844
 20
154.6299266869847
 30
0.0
 40
0.5
100
AcDbArc
 50
93.33169600000003
 51
180.0
  0
ARC
  5
B5A
330
2
100
AcDbEntity
  8
0
100
AcDbCircle
 10
665.0378288463843
 20
154.051611686985
 30
0.0
 40
0.5
100
AcDbArc
 50
270.0
 51
0.0
  0
ARC
  5
B5B
330
2
100
AcDbEntity
  8
0
100
AcDbCircle
 10
664.5378288463843
 20
152.551611686985
 30
0.0
 40
1.0
100
AcDbArc
 50
90.0
 51
180.0
  0
LINE
  5
B5C
330
2
100
AcDbEntity
  8
0
100
AcDbLine
 10
664.0378288463844
 20
148.051611686985
 30
0.0
 11
664.0378288463844
 21
147.051611686985
 31
0.0
  0
LINE
  5
B5D
330
2
100
AcDbEntity
  8
0
100
AcDbLine
 10
663.5378288463844
 20
147.051611686985
 30
0.0
 11
663.5378288463844
 21
143.0858056869848
 31
0.0
  0
LINE
  5
B5E
330
2
100
AcDbEntity
  8
0
100
AcDbLine
 10
663.5378288463844
 20
152.551611686985
 30
0.0
 11
663.5378288463844
 21
148.051611686985
 31
0.0
  0
LINE
  5
B5F
330
2
100
AcDbEntity
  8
0
100
AcDbLine
 10
665.0378288463843
 20
153.551611686985
 30
0.0
 11
664.5378288463843
 21
153.551611686985
 31
0.0
  0
LINE
  5
B60
330
2
100
AcDbEntity
  8
0
100
AcDbLine
 10
671.2878288463843
 20
152.7516076869848
 30
0.0
 11
665.7878288463844
 21
152.7516076869848
 31
0.0
  0
LINE
  5
B61
330
2
100
AcDbEntity
  8
0
100
AcDbLine
 10
671.5378288463844
 20
152.051611686985
 30
0.0
 11
666.0378288463844
 21
152.051611686985
 31
0.0
  0
ARC
  5
B62
330
2
100
AcDbEntity
  8
0
100
AcDbCircle
 10
668.5378288463843
 20
147.7516076869848
 30
0.0
 40
7.0
100
AcDbArc
 50
73.04200000000135
 51
106.9565119999979
  0
LINE
  5
B63
330
2
100
AcDbEntity
  8
0
100
AcDbLine
 10
665.7878288463844
 20
152.0514126869849
 30
0.0
 11
665.7878288463844
 21
153.4908126869849
 31
0.0
  0
LINE
  5
B64
330
2
100
AcDbEntity
  8
0
100
AcDbLine
 10
665.5378288463843
 20
148.051611686985
 30
0.0
 11
665.5378288463843
 21
154.6299266869847
 31
0.0
  0
ARC
  5
B65
330
2
100
AcDbEntity
  8
0
100
AcDbCircle
 10
666.7878288463843
 20
153.4908126869849
 30
0.0
 40
1.0
100
AcDbArc
 50
106.9569019999993
 51
180.0
  0
LINE
  5
B66
330
2
100
AcDbEntity
  8
0
100
AcDbLine
 10
671.2878288463843
 20
152.051611686985
 30
0.0
 11
671.2878288463843
 21
153.4908126869849
 31
0.0
  0
LINE
  5
B67
330
2
100
AcDbEntity
  8
0
100
AcDbLine
 10
672.0378288463844
 20
152.551611686985
 30
0.0
 11
672.0378288463844
 21
154.9233386869847
 31
0.0
  0
ARC
  5
B68
330
2
100
AcDbEntity
  8
0
100
AcDbCircle
 10
671.5378288463844
 20
152.551611686985
 30
0.0
 40
0.5
100
AcDbArc
 50
270.0
 51
0.0
  0
ARC
  5
B69
330
2
100
AcDbEntity
  8
0
100
AcDbCircle
 10
670.2878288463844
 20
153.4908126869849
 30
0.0
 40
1.0
100
AcDbArc
 50
0.0
 51
73.04180100000059
  0
ARC
  5
B6A
330
2
100
AcDbEntity
  8
0
100
AcDbCircle
 10
672.5378288463844
 20
154.9233386869847
 30
0.0
 40
0.5
100
AcDbArc
 50
91.83745599999969
 51
180.0
  0
LINE
  5
B6B
330
2
100
AcDbEntity
  8
0
100
AcDbLine
 10
689.7878288463844
 20
152.0514126869849
 30
0.0
 11
689.7878288463844
 21
153.4908126869849
 31
0.0
  0
LINE
  5
B6C
330
2
100
AcDbEntity
  8
0
100
AcDbLine
 10
689.0380738463846
 20
152.551611686985
 30
0.0
 11
689.0380738463846
 21
154.9233386869847
 31
0.0
  0
ARC
  5
B6D
330
2
100
AcDbEntity
  8
0
100
AcDbCircle
 10
689.5380738463845
 20
152.551611686985
 30
0.0
 40
0.5
100
AcDbArc
 50
180.0
 51
270.0
  0
ARC
  5
B6E
330
2
100
AcDbEntity
  8
0
100
AcDbCircle
 10
688.5380738463846
 20
154.9233386869847
 30
0.0
 40
0.5
100
AcDbArc
 50
0.0
 51
88.16254400000032
  0
ARC
  5
B6F
330
2
100
AcDbEntity
  8
0
100
AcDbCircle
 10
690.7878288463844
 20
153.4908126869849
 30
0.0
 40
1.0
100
AcDbArc
 50
106.9569019999993
 51
180.0
  0
LINE
  5
B70
330
2
100
AcDbEntity
  8
0
100
AcDbLine
 10
695.5378288463844
 20
129.9982206869849
 30
0.0
 11
695.5378288463844
 21
147.051611686985
 31
0.0
  0
ARC
  5
B71
330
2
100
AcDbEntity
  8
0
100
AcDbCircle
 10
696.5379508463845
 20
143.0858056869848
 30
0.0
 40
1.0
100
AcDbArc
 50
270.0
 51
0.0
  0
ARC
  5
B72
330
2
100
AcDbEntity
  8
0
100
AcDbCircle
 10
693.5381648463844
 20
129.9982206869849
 30
0.0
 40
2.0
100
AcDbArc
 50
271.5000000000002
 51
0.0
  0
ARC
  5
B73
330
2
100
AcDbEntity
  8
0
100
AcDbCircle
 10
696.0381648463844
 20
141.5858056869848
 30
0.0
 40
0.5
100
AcDbArc
 50
90.0
 51
180.0
  0
LINE
  5
B74
330
2
100
AcDbEntity
  8
0
100
AcDbLine
 10
696.0381648463844
 20
142.0858056869848
 30
0.0
 11
696.5379508463845
 21
142.0858056869848
 31
0.0
  0
LINE
  5
B75
330
2
100
AcDbEntity
  8
0
100
AcDbLine
 10
711.8348258463846
 20
151.701612686985
 30
0.0
 11
697.5378288463844
 21
151.701612686985
 31
0.0
  0
LINE
  5
B76
330
2
100
AcDbEntity
  8
0
100
AcDbLine
 10
712.6866328463846
 20
144.0016076869848
 30
0.0
 11
697.5378288463844
 21
144.0016076869848
 31
0.0
  0
ARC
  5
B77
330
2
100
AcDbEntity
  8
0
100
AcDbCircle
 10
694.2878288463844
 20
153.4908126869849
 30
0.0
 40
1.0
100
AcDbArc
 50
0.0
 51
73.04180100000059
  0
LINE
  5
B78
330
2
100
AcDbEntity
  8
0
100
AcDbLine
 10
695.2878288463844
 20
152.051611686985
 30
0.0
 11
695.2878288463844
 21
153.4908126869849
 31
0.0
  0
LINE
  5
B79
330
2
100
AcDbEntity
  8
0
100
AcDbLine
 10
695.5378288463844
 20
148.051611686985
 30
0.0
 11
695.5378288463844
 21
154.6299266869847
 31
0.0
  0
ARC
  5
B7A
330
2
100
AcDbEntity
  8
0
100
AcDbCircle
 10
696.5378288463844
 20
152.551611686985
 30
0.0
 40
1.0
100
AcDbArc
 50
0.0
 51
90.0
  0
LINE
  5
B7B
330
2
100
AcDbEntity
  8
0
100
AcDbLine
 10
695.0378288463844
 20
148.051611686985
 30
0.0
 11
695.0378288463844
 21
147.051611686985
 31
0.0
  0
LINE
  5
B7C
330
2
100
AcDbEntity
  8
0
100
AcDbLine
 10
697.5378288463844
 20
147.051611686985
 30
0.0
 11
697.5378288463844
 21
143.0858056869848
 31
0.0
  0
ARC
  5
B7D
330
2
100
AcDbEntity
  8
0
100
AcDbCircle
 10
695.0380738463845
 20
151.551611686985
 30
0.0
 40
0.5
100
AcDbArc
 50
0.0
 51
90.0
  0
LINE
  5
B7E
330
2
100
AcDbEntity
  8
0
100
AcDbLine
 10
697.5378288463844
 20
152.551611686985
 30
0.0
 11
697.5378288463844
 21
148.051611686985
 31
0.0
  0
ARC
  5
B7F
330
2
100
AcDbEntity
  8
0
100
AcDbCircle
 10
695.0378288463844
 20
154.6299266869847
 30
0.0
 40
0.5
100
AcDbArc
 50
0.0
 51
86.66830399999998
  0
ARC
  5
B80
330
2
100
AcDbEntity
  8
0
100
AcDbCircle
 10
696.0378288463844
 20
154.051611686985
 30
0.0
 40
0.5
100
AcDbArc
 50
180.0
 51
270.0
  0
LINE
  5
B81
330
2
100
AcDbEntity
  8
0
100
AcDbLine
 10
696.0378288463844
 20
153.551611686985
 30
0.0
 11
696.5378288463844
 21
153.551611686985
 31
0.0
  0
LINE
  5
B82
330
2
100
AcDbEntity
  8
HOJO
100
AcDbLine
 10
712.5706358463844
 20
148.866506686985
 30
0.0
 11
711.7585328463844
 21
146.3915086869848
 31
0.0
  0
LINE
  5
B83
330
2
100
AcDbEntity
  8
HOJO
100
AcDbLine
 10
711.7585328463844
 20
146.3915086869848
 30
0.0
 11
712.6866328463846
 21
144.0016076869848
 31
0.0
  0
LINE
  5
B84
330
2
100
AcDbEntity
  8
HOJO
100
AcDbLine
 10
711.8348258463846
 20
151.701612686985
 30
0.0
 11
712.5706358463844
 21
148.866506686985
 31
0.0
  0
ARC
  5
129A
330
2
100
AcDbEntity
  8
0
100
AcDbCircle
 10
416.4628628463846
 20
140.8516066869848
 30
0.0
 40
2.0
100
AcDbArc
 50
180.0
 51
270.0
  0
ARC
  5
129D
330
2
100
AcDbEntity
  8
0
100
AcDbCircle
 10
350.4628548463843
 20
140.8516066869848
 30
0.0
 40
2.0
100
AcDbArc
 50
270.0
 51
0.000000000000007
  0
ARC
  5
129F
330
2
100
AcDbEntity
  8
0
100
AcDbCircle
 10
416.4628628463845
 20
96.85161068698489
 30
0.0
 40
2.0
100
AcDbArc
 50
90.0
 51
180.0
  0
ARC
  5
12A0
330
2
100
AcDbEntity
  8
0
100
AcDbCircle
 10
350.4628548463843
 20
96.85161068698489
 30
0.0
 40
2.0
100
AcDbArc
 50
0.000000000000007
 51
90.0
  0
ARC
  5
12A1
330
2
100
AcDbEntity
  8
0
100
AcDbCircle
 10
219.1202035557947
 20
246.8108848946571
 30
0.0
 40
1.0
100
AcDbArc
 50
180.0
 51
270.0
  0
LINE
  5
12A2
330
2
100
AcDbEntity
  8
0
100
AcDbLine
 10
218.1202035557947
 20
246.8108848946571
 30
0.0
 11
218.1202035557947
 21
247.8108808946569
 31
0.0
  0
ARC
  5
12A3
330
2
100
AcDbEntity
  8
0
100
AcDbCircle
 10
216.1202035557947
 20
247.8108808946569
 30
0.0
 40
2.0
100
AcDbArc
 50
0.0
 51
90.00000000000003
  0
LINE
  5
12A4
330
2
100
AcDbEntity
  8
0
100
AcDbLine
 10
257.1201995557947
 20
245.8108848946571
 30
0.0
 11
219.1202035557947
 21
245.8108848946571
 31
0.0
  0
ARC
  5
12A5
330
2
100
AcDbEntity
  8
0
100
AcDbCircle
 10
257.1202035557947
 20
246.8108848946571
 30
0.0
 40
1.0
100
AcDbArc
 50
270.0
 51
0.0
  0
LINE
  5
12A6
330
2
100
AcDbEntity
  8
0
100
AcDbLine
 10
258.1201995557947
 20
246.8108848946571
 30
0.0
 11
258.1201995557947
 21
247.810880894657
 31
0.0
  0
ARC
  5
12A7
330
2
100
AcDbEntity
  8
0
100
AcDbCircle
 10
260.1201995557947
 20
247.8108808946569
 30
0.0
 40
2.0
100
AcDbArc
 50
90.00000000000003
 51
180.0
  0
ARC
  5
12A8
330
2
100
AcDbEntity
  8
0
100
AcDbCircle
 10
216.1202035557947
 20
313.8108888946573
 30
0.0
 40
2.0
100
AcDbArc
 50
270.0
 51
0.0
  0
ARC
  5
12A9
330
2
100
AcDbEntity
  8
0
100
AcDbCircle
 10
260.1201995557947
 20
313.8108888946573
 30
0.0
 40
2.0
100
AcDbArc
 50
180.0
 51
270.0
  0
ENDSEC
  0
SECTION
  2
OBJECTS
  0
DICTIONARY
  5
7
330
0
100
AcDbDictionary
  3
ACAD_GROUP
350
75
  3
ACAD_LAYOUT
350
61
  3
ACAD_MLINESTYLE
350
76
  3
ACAD_PLOTSETTINGS
350
77
  3
ACAD_PLOTSTYLENAME
350
6
  3
ACADDIM
350
480
  3
ACDBHEADERROUNDTRIPXREC
350
12EC
  3
ACDBVARIABLEDICTIONARY
350
102
  3
DWGPROPS
350
1295
  0
DICTIONARY
  5
130D
330
2
100
AcDbDictionary
280
     1
  3
ACAD_LAYOUTSELFREF
360
130E
  0
DICTIONARY
  5
130F
330
12E6
100
AcDbDictionary
280
     1
  3
ACAD_LAYOUTSELFREF
360
1310
  0
DICTIONARY
  5
75
102
{ACAD_REACTORS
330
7
102
}
330
7
100
AcDbDictionary
  0
DICTIONARY
  5
61
102
{ACAD_REACTORS
330
7
102
}
330
7
100
AcDbDictionary
  0
DICTIONARY
  5
76
102
{ACAD_REACTORS
330
7
102
}
330
7
100
AcDbDictionary
  3
STANDARD
350
78
  0
DICTIONARY
  5
77
102
{ACAD_REACTORS
330
7
102
}
330
7
100
AcDbDictionary
  0
ACDBDICTIONARYWDFLT
  5
6
102
{ACAD_REACTORS
330
7
102
}
330
7
100
AcDbDictionary
281
     1
  3
Normal
350
5
100
AcDbDictionaryWithDefault
340
5
  0
XRECORD
  5
480
102
{ACAD_REACTORS
330
7
102
}
330
7
100
AcDbXrecord
 90
   990106
  3

 60
     0
 61
     0
 62
     1
 63
     3
 64
     1
 65
     0
 66
     0
 67
     3
 68
     1
 69
     0
 70
     0
 71
     0
 72
     0
 40
0.0
170
     2
340
0
  0
DICTIONARY
  5
12EC
102
{ACAD_REACTORS
330
7
102
}
330
7
100
AcDbDictionary
  3
CEPSNTYPE
350
12F6
  3
DIMSTYLEDATA
350
12FA
  3
FINGERPRINTGUID
350
12F7
  3
HYPERLINKBASE
350
12EF
  3
INSUNITS
350
12F5
  3
LAYOUTDICT
350
12F1
  3
LWETCUNION
350
12F4
  3
PLOTSETDICT
350
12F2
  3
PLOTSTYLNAMDICT
350
12F3
  3
PSVPSCALE
350
12F9
  3
PUCSBASE
350
12FD
  3
PUCSORGBACK
350
1303
  3
PUCSORGBOTTOM
350
12FF
  3
PUCSORGFRONT
350
1302
  3
PUCSORGLEFT
350
1300
  3
PUCSORGRIGHT
350
1301
  3
PUCSORGTOP
350
12FE
  3
PUCSORTHOREF
350
12FB
  3
PUCSORTHOVIEW
350
12FC
  3
STYLESHEET
350
12F0
  3
TSTACKALIGN
350
12ED
  3
TSTACKSIZE
350
12EE
  3
UCSBASE
350
1306
  3
UCSORGBACK
350
130C
  3
UCSORGBOTTOM
350
1308
  3
UCSORGFRONT
350
130B
  3
UCSORGLEFT
350
1309
  3
UCSORGRIGHT
350
130A
  3
UCSORGTOP
350
1307
  3
UCSORTHOREF
350
1304
  3
UCSORTHOVIEW
350
1305
  3
VERSIONGUID
350
12F8
  0
DICTIONARY
  5
102
102
{ACAD_REACTORS
330
7
102
}
330
7
100
AcDbDictionary
  3
DIMASSOC
350
103
  0
XRECORD
  5
1295
102
{ACAD_REACTORS
330
7
102
}
330
7
100
AcDbXrecord
  1
DWGPROPS COOKIE
  2

  3

  4

  6

  7

  8

  9

300
=
301
=
302
=
303
=
304
=
305
=
306
=
307
=
308
=
309
=
 40
0.1640543634259259
 41
2453761.457355856
 42
2454397.688640948
  1

 90
        0
  0
XRECORD
  5
130E
102
{ACAD_REACTORS
330
130D
102
}
330
130D
100
AcDbXrecord
340
2
  0
XRECORD
  5
1310
102
{ACAD_REACTORS
330
130F
102
}
330
130F
100
AcDbXrecord
340
12E6
  0
MLINESTYLE
  5
78
102
{ACAD_REACTORS
330
76
102
}
330
76
100
AcDbMlineStyle
  2
STANDARD
 70
     0
  3

 62
     0
 51
90.0
 52
90.0
 71
     2
 49
0.5
 62
   256
  6
BYLAYER
 49
-0.5
 62
   256
  6
BYLAYER
  0
ACDBPLACEHOLDER
  5
5
102
{ACAD_REACTORS
330
6
102
}
330
6
100
AcDbPlaceHolder
280
     0
  0
XRECORD
  5
12F6
102
{ACAD_REACTORS
330
12EC
102
}
330
12EC
100
AcDbXrecord
 90
        0
  0
XRECORD
  5
12FA
102
{ACAD_REACTORS
330
12EC
102
}
330
12EC
100
AcDbXrecord
1000
DSTYLE
1002
{
1070
   179
 70
     2
1070
   277
 70
     6
1002
}
  0
XRECORD
  5
12F7
102
{ACAD_REACTORS
330
12EC
102
}
330
12EC
100
AcDbXrecord
  1
{6385560B-F4B1-4644-A7C2-A3E32AC3D232}
  0
XRECORD
  5
12EF
102
{ACAD_REACTORS
330
12EC
102
}
330
12EC
100
AcDbXrecord
  1

  0
XRECORD
  5
12F5
102
{ACAD_REACTORS
330
12EC
102
}
330
12EC
100
AcDbXrecord
 90
        0
  0
XRECORD
  5
12F1
102
{ACAD_REACTORS
330
12EC
102
}
330
12EC
100
AcDbXrecord
340
61
  0
XRECORD
  5
12F4
102
{ACAD_REACTORS
330
12EC
102
}
330
12EC
100
AcDbXrecord
 90
    10781
  0
XRECORD
  5
12F2
102
{ACAD_REACTORS
330
12EC
102
}
330
12EC
100
AcDbXrecord
340
77
  0
XRECORD
  5
12F3
102
{ACAD_REACTORS
330
12EC
102
}
330
12EC
100
AcDbXrecord
340
6
  0
XRECORD
  5
12F9
102
{ACAD_REACTORS
330
12EC
102
}
330
12EC
100
AcDbXrecord
 40
0.0
  0
XRECORD
  5
12FD
102
{ACAD_REACTORS
330
12EC
102
}
330
12EC
100
AcDbXrecord
340
0
  0
XRECORD
  5
1303
102
{ACAD_REACTORS
330
12EC
102
}
330
12EC
100
AcDbXrecord
 10
0.0
 20
0.0
 30
0.0
  0
XRECORD
  5
12FF
102
{ACAD_REACTORS
330
12EC
102
}
330
12EC
100
AcDbXrecord
 10
0.0
 20
0.0
 30
0.0
  0
XRECORD
  5
1302
102
{ACAD_REACTORS
330
12EC
102
}
330
12EC
100
AcDbXrecord
 10
0.0
 20
0.0
 30
0.0
  0
XRECORD
  5
1300
102
{ACAD_REACTORS
330
12EC
102
}
330
12EC
100
AcDbXrecord
 10
0.0
 20
0.0
 30
0.0
  0
XRECORD
  5
1301
102
{ACAD_REACTORS
330
12EC
102
}
330
12EC
100
AcDbXrecord
 10
0.0
 20
0.0
 30
0.0
  0
XRECORD
  5
12FE
102
{ACAD_REACTORS
330
12EC
102
}
330
12EC
100
AcDbXrecord
 10
0.0
 20
0.0
 30
0.0
  0
XRECORD
  5
12FB
102
{ACAD_REACTORS
330
12EC
102
}
330
12EC
100
AcDbXrecord
340
0
  0
XRECORD
  5
12FC
102
{ACAD_REACTORS
330
12EC
102
}
330
12EC
100
AcDbXrecord
 70
     0
  0
XRECORD
  5
12F0
102
{ACAD_REACTORS
330
12EC
102
}
330
12EC
100
AcDbXrecord
  1
Sekkei.ctb
  0
XRECORD
  5
12ED
102
{ACAD_REACTORS
330
12EC
102
}
330
12EC
100
AcDbXrecord
 90
        1
  0
XRECORD
  5
12EE
102
{ACAD_REACTORS
330
12EC
102
}
330
12EC
100
AcDbXrecord
 90
       70
  0
XRECORD
  5
1306
102
{ACAD_REACTORS
330
12EC
102
}
330
12EC
100
AcDbXrecord
340
0
  0
XRECORD
  5
130C
102
{ACAD_REACTORS
330
12EC
102
}
330
12EC
100
AcDbXrecord
 10
0.0
 20
0.0
 30
0.0
  0
XRECORD
  5
1308
102
{ACAD_REACTORS
330
12EC
102
}
330
12EC
100
AcDbXrecord
 10
0.0
 20
0.0
 30
0.0
  0
XRECORD
  5
130B
102
{ACAD_REACTORS
330
12EC
102
}
330
12EC
100
AcDbXrecord
 10
0.0
 20
0.0
 30
0.0
  0
XRECORD
  5
1309
102
{ACAD_REACTORS
330
12EC
102
}
330
12EC
100
AcDbXrecord
 10
0.0
 20
0.0
 30
0.0
  0
XRECORD
  5
130A
102
{ACAD_REACTORS
330
12EC
102
}
330
12EC
100
AcDbXrecord
 10
0.0
 20
0.0
 30
0.0
  0
XRECORD
  5
1307
102
{ACAD_REACTORS
330
12EC
102
}
330
12EC
100
AcDbXrecord
 10
0.0
 20
0.0
 30
0.0
  0
XRECORD
  5
1304
102
{ACAD_REACTORS
330
12EC
102
}
330
12EC
100
AcDbXrecord
340
0
  0
XRECORD
  5
1305
102
{ACAD_REACTORS
330
12EC
102
}
330
12EC
100
AcDbXrecord
 70
     0
  0
XRECORD
  5
12F8
102
{ACAD_REACTORS
330
12EC
102
}
330
12EC
100
AcDbXrecord
  1
{5B23F016-D212-43AC-821B-1203F28A03EE}
  0
DICTIONARYVAR
  5
103
102
{ACAD_REACTORS
330
102
102
}
330
102
100
DictionaryVariables
280
     0
  1
1
  0
ENDSEC
  0
EOF
