  0
SECTION
  2
HEADER
  9
$ACADVER
  1
AC1014
  9
$ACADMAINTVER
 70
     9
  9
$DWGCODEPAGE
  3
ANSI_932
  9
$INSBASE
 10
0.0
 20
0.0
 30
0.0
  9
$EXTMIN
 10
65.45671549807275
 20
48.36391927212492
 30
0.0
  9
$EXTMAX
 10
478.838356145949
 20
347.5611767383658
 30
0.0
  9
$LIMMIN
 10
0.0
 20
0.0
  9
$LIMMAX
 10
297.0
 20
210.0
  9
$ORTHOMODE
 70
     1
  9
$REGENMODE
 70
     1
  9
$FILLMODE
 70
     1
  9
$QTEXTMODE
 70
     0
  9
$MIRRTEXT
 70
     0
  9
$DRAGMODE
 70
     2
  9
$LTSCALE
 40
2.0
  9
$OSMODE
 70
    37
  9
$ATTMODE
 70
     1
  9
$TEXTSIZE
 40
2.0
  9
$TRACEWID
 40
1.0
  9
$TEXTSTYLE
  7
STANDARD
  9
$CLAYER
  8
0
  9
$CELTYPE
  6
BYLAYER
  9
$CECOLOR
 62
   256
  9
$CELTSCALE
 40
1.0
  9
$DELOBJ
 70
     1
  9
$DISPSILH
 70
     0
  9
$DIMSCALE
 40
2.0
  9
$DIMASZ
 40
1.8
  9
$DIMEXO
 40
0.625
  9
$DIMDLI
 40
3.75
  9
$DIMRND
 40
0.0
  9
$DIMDLE
 40
0.0
  9
$DIMEXE
 40
0.8
  9
$DIMTP
 40
0.0
  9
$DIMTM
 40
0.0
  9
$DIMTXT
 40
1.8
  9
$DIMCEN
 40
2.5
  9
$DIMTSZ
 40
0.0
  9
$DIMTOL
 70
     0
  9
$DIMLIM
 70
     0
  9
$DIMTIH
 70
     0
  9
$DIMTOH
 70
     0
  9
$DIMSE1
 70
     0
  9
$DIMSE2
 70
     0
  9
$DIMTAD
 70
     1
  9
$DIMZIN
 70
     8
  9
$DIMBLK
  1

  9
$DIMASO
 70
     1
  9
$DIMSHO
 70
     1
  9
$DIMPOST
  1

  9
$DIMAPOST
  1

  9
$DIMALT
 70
     0
  9
$DIMALTD
 70
     4
  9
$DIMALTF
 40
0.0394
  9
$DIMLFAC
 40
1.0
  9
$DIMTOFL
 70
     1
  9
$DIMTVP
 40
0.0
  9
$DIMTIX
 70
     0
  9
$DIMSOXD
 70
     0
  9
$DIMSAH
 70
     0
  9
$DIMBLK1
  1

  9
$DIMBLK2
  1

  9
$DIMSTYLE
  2
STANDARD
  9
$DIMCLRD
 70
     0
  9
$DIMCLRE
 70
     0
  9
$DIMCLRT
 70
     0
  9
$DIMTFAC
 40
1.0
  9
$DIMGAP
 40
0.75
  9
$DIMJUST
 70
     0
  9
$DIMSD1
 70
     0
  9
$DIMSD2
 70
     0
  9
$DIMTOLJ
 70
     1
  9
$DIMTZIN
 70
     0
  9
$DIMALTZ
 70
     0
  9
$DIMALTTZ
 70
     0
  9
$DIMFIT
 70
     3
  9
$DIMUPT
 70
     0
  9
$DIMUNIT
 70
     8
  9
$DIMDEC
 70
     2
  9
$DIMTDEC
 70
     2
  9
$DIMALTU
 70
     8
  9
$DIMALTTD
 70
     4
  9
$DIMTXSTY
  7
STANDARD
  9
$DIMAUNIT
 70
     0
  9
$LUNITS
 70
     2
  9
$LUPREC
 70
     3
  9
$SKETCHINC
 40
1.0
  9
$FILLETRAD
 40
10.0
  9
$AUNITS
 70
     0
  9
$AUPREC
 70
     2
  9
$MENU
  1
.
  9
$ELEVATION
 40
0.0
  9
$PELEVATION
 40
0.0
  9
$THICKNESS
 40
0.0
  9
$LIMCHECK
 70
     0
  9
$BLIPMODE
 70
     0
  9
$CHAMFERA
 40
0.0
  9
$CHAMFERB
 40
0.0
  9
$CHAMFERC
 40
20.0
  9
$CHAMFERD
 40
0.0
  9
$SKPOLY
 70
     0
  9
$TDCREATE
 40
2453761.461251261
  9
$TDUPDATE
 40
2454399.564296875
  9
$TDINDWG
 40
0.1789709606
  9
$TDUSRTIMER
 40
0.1789709606
  9
$USRTIMER
 70
     1
  9
$ANGBASE
 50
0.0
  9
$ANGDIR
 70
     0
  9
$PDMODE
 70
     0
  9
$PDSIZE
 40
-10.0
  9
$PLINEWID
 40
0.0
  9
$COORDS
 70
     1
  9
$SPLFRAME
 70
     0
  9
$SPLINETYPE
 70
     6
  9
$SPLINESEGS
 70
     8
  9
$ATTDIA
 70
     0
  9
$ATTREQ
 70
     1
  9
$HANDLING
 70
-16383
  9
$HANDSEED
  5
1041
  9
$SURFTAB1
 70
     6
  9
$SURFTAB2
 70
     6
  9
$SURFTYPE
 70
     6
  9
$SURFU
 70
     6
  9
$SURFV
 70
     6
  9
$UCSNAME
  2

  9
$UCSORG
 10
0.0
 20
0.0
 30
0.0
  9
$UCSXDIR
 10
1.0
 20
0.0
 30
0.0
  9
$UCSYDIR
 10
0.0
 20
1.0
 30
0.0
  9
$PUCSNAME
  2

  9
$PUCSORG
 10
0.0
 20
0.0
 30
0.0
  9
$PUCSXDIR
 10
1.0
 20
0.0
 30
0.0
  9
$PUCSYDIR
 10
0.0
 20
1.0
 30
0.0
  9
$USERI1
 70
     0
  9
$USERI2
 70
     0
  9
$USERI3
 70
     0
  9
$USERI4
 70
     0
  9
$USERI5
 70
     0
  9
$USERR1
 40
0.0
  9
$USERR2
 40
0.0
  9
$USERR3
 40
0.0
  9
$USERR4
 40
0.0
  9
$USERR5
 40
0.0
  9
$WORLDVIEW
 70
     1
  9
$SHADEDGE
 70
     3
  9
$SHADEDIF
 70
    70
  9
$TILEMODE
 70
     1
  9
$MAXACTVP
 70
    48
  9
$PINSBASE
 10
0.0
 20
0.0
 30
0.0
  9
$PLIMCHECK
 70
     0
  9
$PEXTMIN
 10
0.0
 20
0.0
 30
0.0
  9
$PEXTMAX
 10
0.0
 20
0.0
 30
0.0
  9
$PLIMMIN
 10
0.0
 20
0.0
  9
$PLIMMAX
 10
12.0
 20
9.0
  9
$UNITMODE
 70
     0
  9
$VISRETAIN
 70
     1
  9
$PLINEGEN
 70
     0
  9
$PSLTSCALE
 70
     1
  9
$TREEDEPTH
 70
  3020
  9
$PICKSTYLE
 70
     1
  9
$CMLSTYLE
  2
STANDARD
  9
$CMLJUST
 70
     0
  9
$CMLSCALE
 40
1.0
  9
$PROXYGRAPHICS
 70
     1
  9
$MEASUREMENT
 70
     0
  0
ENDSEC
  0
SECTION
  2
CLASSES
  0
CLASS
  1
DICTIONARYVAR
  2
AcDbDictionaryVar
  3
AutoCAD 2000
 90
        0
280
     0
281
     0
  0
CLASS
  1
ACDBDICTIONARYWDFLT
  2
AcDbDictionaryWithDefault
  3
AutoCAD 2000
 90
        0
280
     0
281
     0
  0
CLASS
  1
ACDBPLACEHOLDER
  2
AcDbPlaceHolder
  3
AutoCAD 2000
 90
        0
280
     0
281
     0
  0
CLASS
  1
LAYOUT
  2
AcDbLayout
  3
AutoCAD 2000
 90
        0
280
     0
281
     0
  0
CLASS
  1
LONG_TRANSACTION
  2
AcDbLongTransaction
  3
AutoCAD 2000
 90
        0
280
     0
281
     0
  0
CLASS
  1
LWPOLYLINE
  2
AcDbPolyline
  3
AutoCAD 2000
 90
        0
280
     0
281
     1
  0
CLASS
  1
HATCH
  2
AcDbHatch
  3
AutoCAD 2000
 90
        0
280
     0
281
     1
  0
CLASS
  1
XRECORD
  2
AcDbXrecord
  3
AutoCAD 2000
 90
        0
280
     0
281
     0
  0
ENDSEC
  0
SECTION
  2
TABLES
  0
TABLE
  2
VPORT
  5
6E
330
0
100
AcDbSymbolTable
 70
     2
  0
VPORT
  5
101B
330
6E
100
AcDbSymbolTableRecord
100
AcDbViewportTableRecord
  2
*ACTIVE
 70
     0
 10
0.0
 20
0.0
 11
1.0
 21
1.0
 12
252.3411076056682
 22
186.2093991958502
 13
0.0
 23
0.0
 14
10.0
 24
10.0
 15
10.0
 25
10.0
 16
0.0
 26
0.0
 36
1.0
 17
0.0
 27
0.0
 37
0.0
 40
325.2191351879538
 41
1.540920716112531
 42
50.0
 43
0.0
 44
0.0
 50
0.0
 51
0.0
 71
     0
 72
   100
 73
     1
 74
     3
 75
     0
 76
     0
 77
     0
 78
     0
  0
ENDTAB
  0
TABLE
  2
LTYPE
  5
69
330
0
100
AcDbSymbolTable
 70
     4
  0
LTYPE
  5
6A
330
69
100
AcDbSymbolTableRecord
100
AcDbLinetypeTableRecord
  2
BYBLOCK
 70
     0
  3

 72
    65
 73
     0
 40
0.0
  0
LTYPE
  5
6B
330
69
100
AcDbSymbolTableRecord
100
AcDbLinetypeTableRecord
  2
BYLAYER
 70
     0
  3

 72
    65
 73
     0
 40
0.0
  0
LTYPE
  5
8
330
69
100
AcDbSymbolTableRecord
100
AcDbLinetypeTableRecord
  2
CONTINUOUS
 70
     0
  3
Solid line
 72
    65
 73
     0
 40
0.0
  0
LTYPE
  5
27C
330
69
100
AcDbSymbolTableRecord
100
AcDbLinetypeTableRecord
  2
SEKKEI_A2_
 70
     0
  3
center(A2)  ____ _ ____ _ ____ _ ____ _ ____ _ 
 72
    65
 73
     4
 40
14.28749999999999
 49
9.525
 74
     0
 49
-1.587499999999999
 74
     0
 49
1.587499999999999
 74
     0
 49
-1.587499999999999
 74
     0
  0
LTYPE
  5
2B4
330
69
100
AcDbSymbolTableRecord
100
AcDbLinetypeTableRecord
  2
HIDDEN2
 70
     0
  3
Hidden (.5x) _ _ _ _ _ _ _ _ _ _ _ _ _ _ _ _ _
 72
    65
 73
     2
 40
4.762499999999999
 49
3.174999999999999
 74
     0
 49
-1.587499999999999
 74
     0
  0
LTYPE
  5
48F
330
69
100
AcDbSymbolTableRecord
100
AcDbLinetypeTableRecord
  2
SEKKEI_H
 70
     0
  3
Hidden-S _ _ _ _ _ _ _ _ _ _ _ _ _ _ _ _ _
 72
    65
 73
     2
 40
2.381249999999999
 49
1.587499999999999
 74
     0
 49
-0.79375
 74
     0
  0
ENDTAB
  0
TABLE
  2
LAYER
  5
66
330
0
100
AcDbSymbolTable
 70
     9
  0
LAYER
  5
5E
330
66
100
AcDbSymbolTableRecord
100
AcDbLayerTableRecord
  2
0
 70
     0
 62
     7
  6
CONTINUOUS
  0
LAYER
  5
3E
330
66
100
AcDbSymbolTableRecord
100
AcDbLayerTableRecord
  2
CENTER
 70
     0
 62
     3
  6
SEKKEI_A2_
  0
LAYER
  5
2B5
330
66
100
AcDbSymbolTableRecord
100
AcDbLayerTableRecord
  2
HIDS
 70
     0
 62
     1
  6
HIDDEN2
  0
LAYER
  5
2BA
330
66
100
AcDbSymbolTableRecord
100
AcDbLayerTableRecord
  2
HOJO
 70
     0
 62
     4
  6
CONTINUOUS
  0
LAYER
  5
3FA
330
66
100
AcDbSymbolTableRecord
100
AcDbLayerTableRecord
  2
TITLE
 70
     0
 62
     4
  6
CONTINUOUS
  0
ENDTAB
  0
TABLE
  2
STYLE
  5
67
330
0
100
AcDbSymbolTable
 70
     1
  0
STYLE
  5
16
330
67
100
AcDbSymbolTableRecord
100
AcDbTextStyleTableRecord
  2
STANDARD
 70
     0
 40
0.0
 41
1.0
 50
0.0
 71
     0
 42
2.0
  3
simplex.shx
  4
extfont.shx
  0
ENDTAB
  0
TABLE
  2
VIEW
  5
6C
330
0
100
AcDbSymbolTable
 70
     0
  0
ENDTAB
  0
TABLE
  2
UCS
  5
6D
330
0
100
AcDbSymbolTable
 70
     0
  0
ENDTAB
  0
TABLE
  2
APPID
  5
70
330
0
100
AcDbSymbolTable
 70
     1
  0
APPID
  5
71
330
70
100
AcDbSymbolTableRecord
100
AcDbRegAppTableRecord
  2
ACAD
 70
     0
  0
ENDTAB
  0
TABLE
  2
DIMSTYLE
  5
72
330
0
100
AcDbSymbolTable
 70
     1
  0
DIMSTYLE
105
73
102
{ACAD_REACTORS
330
871
330
8E2
102
}
330
72
100
AcDbSymbolTableRecord
100
AcDbDimStyleTableRecord
  2
STANDARD
 70
     0
  3

  4

  5

  6

  7

 40
2.0
 41
1.8
 42
0.625
 43
3.75
 44
0.8
 45
0.0
 46
0.0
 47
0.0
 48
0.0
140
1.8
141
2.5
142
0.0
143
0.0394
144
1.0
145
0.0
146
1.0
147
0.75
 71
     0
 72
     0
 73
     0
 74
     0
 75
     0
 76
     0
 77
     1
 78
     8
170
     0
171
     4
172
     1
173
     0
174
     0
175
     0
176
     0
177
     0
178
     0
270
     8
271
     2
272
     2
273
     8
274
     4
340
16
275
     0
280
     0
281
     0
282
     0
283
     1
284
     0
285
     0
286
     0
287
     3
288
     0
  0
ENDTAB
  0
TABLE
  2
BLOCK_RECORD
  5
1
330
0
100
AcDbSymbolTable
 70
    51
  0
BLOCK_RECORD
  5
2
102
{ACAD_XDICTIONARY
360
103D
102
}
330
1
100
AcDbSymbolTableRecord
100
AcDbBlockTableRecord
  2
*MODEL_SPACE
  0
BLOCK_RECORD
  5
1016
102
{ACAD_XDICTIONARY
360
103F
102
}
330
1
100
AcDbSymbolTableRecord
100
AcDbBlockTableRecord
  2
*PAPER_SPACE
  0
ENDTAB
  0
ENDSEC
  0
SECTION
  2
BLOCKS
  0
BLOCK
  5
5D
330
2
100
AcDbEntity
  8
0
100
AcDbBlockBegin
  2
*MODEL_SPACE
 70
     0
 10
0.0
 20
0.0
 30
0.0
  3
*MODEL_SPACE
  1

  0
ENDBLK
  5
5F
330
2
100
AcDbEntity
  8
0
100
AcDbBlockEnd
  0
BLOCK
  5
1018
330
1016
100
AcDbEntity
 67
     1
  8
0
100
AcDbBlockBegin
  2
*PAPER_SPACE
 70
     0
 10
0.0
 20
0.0
 30
0.0
  3
*PAPER_SPACE
  1

  0
ENDBLK
  5
1019
330
1016
100
AcDbEntity
 67
     1
  8
0
100
AcDbBlockEnd
  0
ENDSEC
  0
SECTION
  2
ENTITIES
  0
LINE
  5
827
330
2
100
AcDbEntity
  8
CENTER
100
AcDbLine
 10
431.4241425835759
 20
48.36391927212492
 30
0.0
 11
431.4241425835759
 21
164.0639362721249
 31
0.0
  0
ARC
  5
828
330
2
100
AcDbEntity
  8
HIDS
100
AcDbCircle
 10
431.4241425835759
 20
98.06392127212497
 30
0.0
 40
38.0
100
AcDbArc
 50
21.29426000000337
 51
50.64329899999686
  0
LINE
  5
829
330
2
100
AcDbEntity
  8
0
100
AcDbLine
 10
466.424142583576
 20
101.3639162721249
 30
0.0
 11
466.424142583576
 21
139.3639162721249
 31
0.0
  0
LINE
  5
82A
330
2
100
AcDbEntity
  8
0
100
AcDbLine
 10
462.424142583576
 20
66.36391827212491
 30
0.0
 11
462.424142583576
 21
150.4574302721249
 31
0.0
  0
LINE
  5
82B
330
2
100
AcDbEntity
  8
0
100
AcDbLine
 10
394.4241425835759
 20
128.8639162721249
 30
0.0
 11
394.4241425835759
 21
111.8639202721249
 31
0.0
  0
ARC
  5
82C
330
2
100
AcDbEntity
  8
HIDS
100
AcDbCircle
 10
431.4241425835759
 20
98.06392127212497
 30
0.0
 40
38.0
100
AcDbArc
 50
129.3567049999989
 51
158.7057339999987
  0
LINE
  5
82D
330
2
100
AcDbEntity
  8
0
100
AcDbLine
 10
396.4241425835759
 20
101.3639162721249
 30
0.0
 11
396.4241425835759
 21
139.3639162721249
 31
0.0
  0
LINE
  5
82E
330
2
100
AcDbEntity
  8
0
100
AcDbLine
 10
400.4241425835759
 20
66.36391827212491
 30
0.0
 11
400.4241425835759
 21
150.4573152721249
 31
0.0
  0
LINE
  5
830
330
2
100
AcDbEntity
  8
0
100
AcDbLine
 10
367.4241425835761
 20
127.8639162721249
 30
0.0
 11
367.4241425835761
 21
112.8639202721249
 31
0.0
  0
LINE
  5
831
330
2
100
AcDbEntity
  8
0
100
AcDbLine
 10
95.85638359677313
 20
62.91402427212495
 30
0.0
 11
95.85638359677313
 21
128.6138172721249
 31
0.0
  0
LINE
  5
832
330
2
100
AcDbEntity
  8
0
100
AcDbLine
 10
121.6563845967731
 20
60.06393927212491
 30
0.0
 11
121.6563845967731
 21
136.0639212721249
 31
0.0
  0
LINE
  5
833
330
2
100
AcDbEntity
  8
0
100
AcDbLine
 10
96.65638359677314
 20
128.3916642721248
 30
0.0
 11
96.65638359677314
 21
66.81400927212497
 31
0.0
  0
CIRCLE
  5
834
330
2
100
AcDbEntity
  8
0
100
AcDbCircle
 10
236.6563785967731
 20
120.3639162721249
 30
0.0
 40
20.0
  0
ARC
  5
835
330
2
100
AcDbEntity
  8
0
100
AcDbCircle
 10
236.6563785967731
 20
107.3639162721249
 30
0.0
 40
42.5
100
AcDbArc
 50
19.74990099999923
 51
160.2501069999981
  0
LINE
  5
836
330
2
100
AcDbEntity
  8
0
100
AcDbLine
 10
194.1563865967731
 20
131.0645162721249
 30
0.0
 11
194.1563865967731
 21
55.36391927212491
 31
0.0
  0
LINE
  5
837
330
2
100
AcDbEntity
  8
0
100
AcDbLine
 10
279.1563785967731
 20
131.0645012721248
 30
0.0
 11
279.1563785967731
 21
55.36391927212491
 31
0.0
  0
ARC
  5
838
330
2
100
AcDbEntity
  8
0
100
AcDbCircle
 10
236.6563785967731
 20
120.3639162721249
 30
0.0
 40
7.5
100
AcDbArc
 50
19.47120999999928
 51
340.5288089999991
  0
LINE
  5
839
330
2
100
AcDbEntity
  8
CENTER
100
AcDbLine
 10
236.6563785967731
 20
159.963922272125
 30
0.0
 11
236.6563785967731
 21
48.36391927212492
 31
0.0
  0
LINE
  5
83D
330
2
100
AcDbEntity
  8
0
100
AcDbLine
 10
121.6563325967731
 20
67.81494927212486
 30
0.0
 11
194.1563705967731
 21
67.81494927212486
 31
0.0
  0
LINE
  5
83E
330
2
100
AcDbEntity
  8
0
100
AcDbLine
 10
121.6563845967731
 20
60.06391927212496
 30
0.0
 11
194.1563865967731
 21
60.06391927212496
 31
0.0
  0
LINE
  5
83F
330
2
100
AcDbEntity
  8
CENTER
100
AcDbLine
 10
88.85638359677313
 20
98.06392127212507
 30
0.0
 11
213.4063865967731
 21
98.06392127212497
 31
0.0
  0
LINE
  5
840
330
2
100
AcDbEntity
  8
0
100
AcDbLine
 10
98.65607859677314
 20
60.46539127212497
 30
0.0
 11
121.6563845967731
 21
60.06391927212496
 31
0.0
  0
LINE
  5
841
330
2
100
AcDbEntity
  8
0
100
AcDbLine
 10
98.65607859677314
 20
68.56391927212496
 30
0.0
 11
106.6563835967731
 21
68.56391927212496
 31
0.0
  0
LINE
  5
842
330
2
100
AcDbEntity
  8
0
100
AcDbLine
 10
97.39797559677313
 20
60.80192527212489
 30
0.0
 11
98.65607859677314
 21
60.46539127212497
 31
0.0
  0
LINE
  5
843
330
2
100
AcDbEntity
  8
0
100
AcDbLine
 10
97.39797559677313
 20
68.90045327212487
 30
0.0
 11
98.65607859677314
 21
68.56391927212496
 31
0.0
  0
ARC
  5
844
330
2
100
AcDbEntity
  8
0
100
AcDbCircle
 10
97.65638359677314
 20
61.76796127212492
 30
0.0
 40
1.0
100
AcDbArc
 50
180.0
 51
255.0243839999991
  0
ARC
  5
845
330
2
100
AcDbEntity
  8
0
100
AcDbCircle
 10
96.35638359677313
 20
62.91402427212495
 30
0.0
 40
0.5
100
AcDbArc
 50
180.0
 51
249.9999999999991
  0
LINE
  5
846
330
2
100
AcDbEntity
  8
0
100
AcDbLine
 10
96.65638359677314
 20
61.76796127212492
 30
0.0
 11
96.65638359677314
 21
66.81400927212497
 31
0.0
  0
LINE
  5
847
330
2
100
AcDbEntity
  8
0
100
AcDbLine
 10
96.18537359677313
 20
62.44417727212487
 30
0.0
 11
96.32739359677314
 21
62.39248627212487
 31
0.0
  0
ARC
  5
848
330
2
100
AcDbEntity
  8
0
100
AcDbCircle
 10
96.15638359677314
 20
61.92264027212491
 30
0.0
 40
0.5
100
AcDbArc
 50
0.0
 51
69.99999999999914
  0
ARC
  5
849
330
2
100
AcDbEntity
  8
0
100
AcDbCircle
 10
97.65638359677314
 20
69.86648927212491
 30
0.0
 40
1.0
100
AcDbArc
 50
180.0
 51
255.0243839999991
  0
LINE
  5
84A
330
2
100
AcDbEntity
  8
0
100
AcDbLine
 10
121.6563845967731
 20
67.81494927212486
 30
0.0
 11
107.6563845967731
 21
67.81494927212486
 31
0.0
  0
ARC
  5
84B
330
2
100
AcDbEntity
  8
0
100
AcDbCircle
 10
113.0563745967731
 20
64.06391927212496
 30
0.0
 40
8.999999
100
AcDbArc
 50
163.3984990000014
 51
196.6009979999981
  0
ARC
  5
84C
330
2
100
AcDbEntity
  8
0
100
AcDbCircle
 10
106.6563835967731
 20
67.56391927212496
 30
0.0
 40
1.0
100
AcDbArc
 50
0.0
 51
90.0
  0
LINE
  5
84D
330
2
100
AcDbEntity
  8
0
100
AcDbLine
 10
106.6563835967731
 20
67.56391927212496
 30
0.0
 11
106.6563835967731
 21
60.56391927212496
 31
0.0
  0
LINE
  5
84E
330
2
100
AcDbEntity
  8
0
100
AcDbLine
 10
107.6563845967731
 20
67.68199027212495
 30
0.0
 11
107.6563845967731
 21
60.56391927212496
 31
0.0
  0
LINE
  5
84F
330
2
100
AcDbEntity
  8
0
100
AcDbLine
 10
107.6563845967731
 20
67.56391927212496
 30
0.0
 11
107.6563845967731
 21
60.91750927212491
 31
0.0
  0
ARC
  5
850
330
2
100
AcDbEntity
  8
0
100
AcDbCircle
 10
108.1563845967731
 20
60.79963927212486
 30
0.0
 40
0.5
100
AcDbArc
 50
180.0
 51
268.9999999999998
  0
LINE
  5
851
330
2
100
AcDbEntity
  8
0
100
AcDbLine
 10
107.6563845967731
 20
60.56391927212496
 30
0.0
 11
105.6773795967731
 21
60.56391927212496
 31
0.0
  0
ARC
  5
852
330
2
100
AcDbEntity
  8
0
100
AcDbCircle
 10
105.6773795967731
 20
61.86390927212494
 30
0.0
 40
1.3
100
AcDbArc
 50
196.6009059999969
 51
270.0
  0
LINE
  5
853
330
2
100
AcDbEntity
  8
0
100
AcDbLine
 10
107.6563845967731
 20
67.56391927212496
 30
0.0
 11
105.6773795967731
 21
67.56391927212496
 31
0.0
  0
ARC
  5
854
330
2
100
AcDbEntity
  8
0
100
AcDbCircle
 10
105.6773795967731
 20
66.26389927212494
 30
0.0
 40
1.3
100
AcDbArc
 50
90.0
 51
163.3984070000009
  0
LINE
  5
857
330
2
100
AcDbEntity
  8
0
100
AcDbLine
 10
229.359976596773
 20
92.08495127212495
 30
0.0
 11
228.7567815967731
 21
92.65640127212497
 31
0.0
  0
ARC
  5
858
330
2
100
AcDbEntity
  8
0
100
AcDbCircle
 10
227.3677895967731
 20
87.47670927212494
 30
0.0
 40
1.992186999999999
100
AcDbArc
 50
270.000213999999
 51
0.0001090000031536
  0
LINE
  5
859
330
2
100
AcDbEntity
  8
0
100
AcDbLine
 10
225.0637885967731
 20
93.92641627212492
 30
0.0
 11
229.3503785967731
 21
93.92641627212492
 31
0.0
  0
LINE
  5
85A
330
2
100
AcDbEntity
  8
0
100
AcDbLine
 10
229.359976596773
 20
88.87124027212497
 30
0.0
 11
227.6915805967731
 21
88.87124027212497
 31
0.0
  0
LINE
  5
85B
330
2
100
AcDbEntity
  8
0
100
AcDbLine
 10
229.359976596773
 20
85.12618127212489
 30
0.0
 11
228.4514835967731
 21
84.36392027212491
 31
0.0
  0
LINE
  5
85C
330
2
100
AcDbEntity
  8
0
100
AcDbLine
 10
227.6915805967731
 20
89.91714327212491
 30
0.0
 11
230.2813785967731
 21
89.91714327212491
 31
0.0
  0
LINE
  5
85D
330
2
100
AcDbEntity
  8
CENTER
100
AcDbLine
 10
209.9064410843713
 20
120.3639162721249
 30
0.0
 11
263.9063161091748
 21
120.3639162721249
 31
0.0
  0
ARC
  5
85E
330
2
100
AcDbEntity
  8
0
100
AcDbCircle
 10
236.6563785967731
 20
107.3639162721249
 30
0.0
 40
42.5
100
AcDbArc
 50
199.7498930000018
 51
340.2500920000017
  0
LINE
  5
85F
330
2
100
AcDbEntity
  8
0
100
AcDbLine
 10
196.1563935967731
 20
63.36391927212492
 30
0.0
 11
277.1563785967731
 21
63.36391927212492
 31
0.0
  0
LINE
  5
860
330
2
100
AcDbEntity
  8
0
100
AcDbLine
 10
194.1563865967731
 20
55.36391927212491
 30
0.0
 11
279.1563785967731
 21
55.36391927212491
 31
0.0
  0
ARC
  5
861
330
2
100
AcDbEntity
  8
0
100
AcDbCircle
 10
196.1563935967731
 20
61.36392927212489
 30
0.0
 40
2.0
100
AcDbArc
 50
90.0
 51
180.0
  0
LINE
  5
862
330
2
100
AcDbEntity
  8
HIDS
  6
SEKKEI_H
100
AcDbLine
 10
199.4063865967731
 20
63.36391927212492
 30
0.0
 11
199.4063865967731
 21
55.36391927212491
 31
0.0
  0
LINE
  5
863
330
2
100
AcDbEntity
  8
CENTER
100
AcDbLine
 10
202.6563865967732
 20
66.86391927212492
 30
0.0
 11
202.6563865967732
 21
51.86391927212503
 31
0.0
  0
LINE
  5
864
330
2
100
AcDbEntity
  8
HIDS
  6
SEKKEI_H
100
AcDbLine
 10
205.9063865967731
 20
63.36391927212492
 30
0.0
 11
205.9063865967731
 21
55.36391927212491
 31
0.0
  0
LINE
  5
866
330
2
100
AcDbEntity
  8
0
100
AcDbLine
 10
196.6563865967731
 20
121.7251912721249
 30
0.0
 11
196.6563865967731
 21
93.00237827212493
 31
0.0
  0
LINE
  5
867
330
2
100
AcDbEntity
  8
0
100
AcDbLine
 10
225.1361755967731
 20
84.36392027212491
 30
0.0
 11
228.4514835967731
 21
84.36392027212491
 31
0.0
  0
LINE
  5
868
330
2
100
AcDbEntity
  8
0
100
AcDbLine
 10
224.9771795967731
 20
91.76389927212495
 30
0.0
 11
224.9771795967731
 21
86.25483927212497
 31
0.0
  0
LINE
  5
869
330
2
100
AcDbEntity
  8
0
100
AcDbLine
 10
223.9063785967731
 20
92.44442227212493
 30
0.0
 11
223.9063785967731
 21
85.60478027212491
 31
0.0
  0
LINE
  5
86A
330
2
100
AcDbEntity
  8
0
100
AcDbLine
 10
223.9063785967731
 20
85.60478027212491
 30
0.0
 11
225.1361755967731
 21
84.36392027212491
 31
0.0
  0
LINE
  5
86B
330
2
100
AcDbEntity
  8
0
100
AcDbLine
 10
227.3677895967731
 20
85.48451827212488
 30
0.0
 11
225.7084875967731
 21
85.48451827212488
 31
0.0
  0
LINE
  5
86C
330
2
100
AcDbEntity
  8
0
100
AcDbLine
 10
224.9771795967731
 20
86.25483927212497
 30
0.0
 11
225.7084875967731
 21
85.48451827212488
 31
0.0
  0
LINE
  5
86D
330
2
100
AcDbEntity
  8
0
100
AcDbLine
 10
225.0637885967731
 20
93.92641627212492
 30
0.0
 11
223.9063785967731
 21
92.44442227212493
 31
0.0
  0
LINE
  5
86E
330
2
100
AcDbEntity
  8
0
100
AcDbLine
 10
225.6969825967731
 20
92.65640127212497
 30
0.0
 11
224.9771795967731
 21
91.76389927212495
 31
0.0
  0
LINE
  5
86F
330
2
100
AcDbEntity
  8
0
100
AcDbLine
 10
227.6915805967731
 20
89.91714327212491
 30
0.0
 11
227.6915805967731
 21
88.87124027212497
 31
0.0
  0
LINE
  5
870
330
2
100
AcDbEntity
  8
0
100
AcDbLine
 10
228.768881596773
 20
92.65640127212497
 30
0.0
 11
225.6969825967731
 21
92.65640127212497
 31
0.0
  0
ARC
  5
872
330
2
100
AcDbEntity
  8
0
100
AcDbCircle
 10
277.1563785967731
 20
61.36390927212494
 30
0.0
 40
2.0
100
AcDbArc
 50
0.0
 51
90.0
  0
LINE
  5
873
330
2
100
AcDbEntity
  8
HIDS
  6
SEKKEI_H
100
AcDbLine
 10
267.4063785967731
 20
63.36391927212492
 30
0.0
 11
267.4063785967731
 21
55.36391927212491
 31
0.0
  0
LINE
  5
874
330
2
100
AcDbEntity
  8
HIDS
  6
SEKKEI_H
100
AcDbLine
 10
273.9063785967731
 20
63.36391927212492
 30
0.0
 11
273.9063785967731
 21
55.36391927212491
 31
0.0
  0
LINE
  5
875
330
2
100
AcDbEntity
  8
CENTER
100
AcDbLine
 10
270.6563785967731
 20
66.86391927212492
 30
0.0
 11
270.6563785967731
 21
51.86391927212492
 31
0.0
  0
LINE
  5
876
330
2
100
AcDbEntity
  8
0
100
AcDbLine
 10
236.0337895967731
 20
92.75600627212487
 30
0.0
 11
234.518881596773
 21
92.75600627212487
 31
0.0
  0
LINE
  5
877
330
2
100
AcDbEntity
  8
0
100
AcDbLine
 10
233.4688785967731
 20
93.92641627212492
 30
0.0
 11
239.8438785967731
 21
93.92641627212492
 31
0.0
  0
LINE
  5
878
330
2
100
AcDbEntity
  8
0
100
AcDbLine
 10
230.2813785967731
 20
89.91714327212491
 30
0.0
 11
230.2813785967731
 21
84.36392027212491
 31
0.0
  0
LINE
  5
879
330
2
100
AcDbEntity
  8
0
100
AcDbLine
 10
229.359976596773
 20
84.36392027212491
 30
0.0
 11
230.2813785967731
 21
84.36392027212491
 31
0.0
  0
LINE
  5
87A
330
2
100
AcDbEntity
  8
0
100
AcDbLine
 10
229.359976596773
 20
88.87124027212497
 30
0.0
 11
229.359976596773
 21
87.47670927212494
 31
0.0
  0
LINE
  5
87B
330
2
100
AcDbEntity
  8
0
100
AcDbLine
 10
229.359976596773
 20
85.12618127212489
 30
0.0
 11
229.359976596773
 21
84.36392027212491
 31
0.0
  0
LINE
  5
87C
330
2
100
AcDbEntity
  8
0
100
AcDbLine
 10
229.359976596773
 20
87.87515127212499
 30
0.0
 11
229.359976596773
 21
88.67202627212497
 31
0.0
  0
LINE
  5
87D
330
2
100
AcDbEntity
  8
0
100
AcDbLine
 10
229.359976596773
 20
92.08495127212495
 30
0.0
 11
229.359976596773
 21
91.93423327212498
 31
0.0
  0
LINE
  5
87E
330
2
100
AcDbEntity
  8
0
100
AcDbLine
 10
230.2813785967731
 20
92.89327427212493
 30
0.0
 11
230.2813785967731
 21
91.93423327212498
 31
0.0
  0
LINE
  5
87F
330
2
100
AcDbEntity
  8
0
100
AcDbLine
 10
229.359976596773
 20
91.93423327212498
 30
0.0
 11
230.2813785967731
 21
91.93423327212498
 31
0.0
  0
LINE
  5
880
330
2
100
AcDbEntity
  8
0
100
AcDbLine
 10
229.3503785967731
 20
93.92641627212492
 30
0.0
 11
230.2813785967731
 21
92.89327427212493
 31
0.0
  0
LINE
  5
881
330
2
100
AcDbEntity
  8
0
100
AcDbLine
 10
234.518881596773
 20
92.75600627212487
 30
0.0
 11
234.1764895967731
 21
91.93423327212498
 31
0.0
  0
LINE
  5
882
330
2
100
AcDbEntity
  8
0
100
AcDbLine
 10
233.4688785967731
 20
91.93423327212498
 30
0.0
 11
234.1764895967731
 21
91.93423327212498
 31
0.0
  0
LINE
  5
883
330
2
100
AcDbEntity
  8
0
100
AcDbLine
 10
233.4688785967731
 20
91.93423327212498
 30
0.0
 11
233.4688785967731
 21
93.92641627212492
 31
0.0
  0
LINE
  5
884
330
2
100
AcDbEntity
  8
0
100
AcDbLine
 10
237.2291785967731
 20
92.75600627212487
 30
0.0
 11
237.2291785967731
 21
85.40981927212488
 31
0.0
  0
LINE
  5
885
330
2
100
AcDbEntity
  8
0
100
AcDbLine
 10
236.0337895967731
 20
92.75600627212487
 30
0.0
 11
236.0337895967731
 21
85.40981927212488
 31
0.0
  0
LINE
  5
886
330
2
100
AcDbEntity
  8
0
100
AcDbLine
 10
235.5606905967731
 20
85.40981927212488
 30
0.0
 11
236.0337895967731
 21
85.40981927212488
 31
0.0
  0
LINE
  5
887
330
2
100
AcDbEntity
  8
0
100
AcDbLine
 10
235.5606905967731
 20
84.36392027212491
 30
0.0
 11
237.6275855967731
 21
84.36392027212491
 31
0.0
  0
LINE
  5
888
330
2
100
AcDbEntity
  8
0
100
AcDbLine
 10
237.6275855967731
 20
85.40981927212488
 30
0.0
 11
237.6275855967731
 21
84.36392027212491
 31
0.0
  0
LINE
  5
889
330
2
100
AcDbEntity
  8
0
100
AcDbLine
 10
235.5606905967731
 20
85.40981927212488
 30
0.0
 11
235.5606905967731
 21
84.36392027212491
 31
0.0
  0
LINE
  5
88A
330
2
100
AcDbEntity
  8
0
100
AcDbLine
 10
237.2291785967731
 20
85.40981927212488
 30
0.0
 11
237.6275855967731
 21
85.40981927212488
 31
0.0
  0
LINE
  5
88B
330
2
100
AcDbEntity
  8
0
100
AcDbLine
 10
237.2291785967731
 20
92.75600627212487
 30
0.0
 11
238.890189596773
 21
92.75600627212487
 31
0.0
  0
LINE
  5
88C
330
2
100
AcDbEntity
  8
0
100
AcDbLine
 10
238.890189596773
 20
92.75600627212487
 30
0.0
 11
239.1788855967731
 21
91.93423327212498
 31
0.0
  0
LINE
  5
88D
330
2
100
AcDbEntity
  8
0
100
AcDbLine
 10
239.1788855967731
 20
91.93423327212498
 30
0.0
 11
239.8438785967731
 21
91.93423327212498
 31
0.0
  0
LINE
  5
88E
330
2
100
AcDbEntity
  8
0
100
AcDbLine
 10
239.8438785967731
 20
91.93423327212498
 30
0.0
 11
239.8438785967731
 21
93.92641627212492
 31
0.0
  0
ARC
  5
88F
330
2
100
AcDbEntity
  8
0
100
AcDbCircle
 10
246.8538885967731
 20
91.37393027212487
 30
0.0
 40
2.55249
100
AcDbArc
 50
286.0181270000005
 51
90.00351000000046
  0
LINE
  5
890
330
2
100
AcDbEntity
  8
0
100
AcDbLine
 10
243.5044775967731
 20
92.75600627212487
 30
0.0
 11
243.5044775967731
 21
85.3600102721249
 31
0.0
  0
LINE
  5
891
330
2
100
AcDbEntity
  8
0
100
AcDbLine
 10
244.6001805967731
 20
88.8338912721249
 30
0.0
 11
246.6406775967731
 21
88.8338912721249
 31
0.0
  0
LINE
  5
892
330
2
100
AcDbEntity
  8
0
100
AcDbLine
 10
243.0313785967731
 20
85.3600102721249
 30
0.0
 11
243.0313785967731
 21
84.36392027212491
 31
0.0
  0
LINE
  5
893
330
2
100
AcDbEntity
  8
0
100
AcDbLine
 10
245.0359865967731
 20
85.3600102721249
 30
0.0
 11
245.0359865967731
 21
84.36392027212491
 31
0.0
  0
LINE
  5
894
330
2
100
AcDbEntity
  8
0
100
AcDbLine
 10
245.0359865967731
 20
84.36392027212491
 30
0.0
 11
243.0313785967731
 21
84.36392027212491
 31
0.0
  0
LINE
  5
895
330
2
100
AcDbEntity
  8
0
100
AcDbLine
 10
244.6001805967731
 20
85.3600102721249
 30
0.0
 11
245.0359865967731
 21
85.3600102721249
 31
0.0
  0
LINE
  5
896
330
2
100
AcDbEntity
  8
0
100
AcDbLine
 10
243.0313785967731
 20
85.3600102721249
 30
0.0
 11
243.5044775967731
 21
85.3600102721249
 31
0.0
  0
LINE
  5
897
330
2
100
AcDbEntity
  8
0
100
AcDbLine
 10
244.6001805967731
 20
88.8338912721249
 30
0.0
 11
244.6001805967731
 21
85.3600102721249
 31
0.0
  0
LINE
  5
898
330
2
100
AcDbEntity
  8
0
100
AcDbLine
 10
247.9371865967731
 20
85.3600102721249
 30
0.0
 11
247.9371865967731
 21
84.36392027212491
 31
0.0
  0
LINE
  5
899
330
2
100
AcDbEntity
  8
0
100
AcDbLine
 10
249.4063785967731
 20
85.3600102721249
 30
0.0
 11
249.4063785967731
 21
84.36392027212491
 31
0.0
  0
LINE
  5
89A
330
2
100
AcDbEntity
  8
0
100
AcDbLine
 10
247.9371865967731
 20
84.36392027212491
 30
0.0
 11
249.4063785967731
 21
84.36392027212491
 31
0.0
  0
LINE
  5
89B
330
2
100
AcDbEntity
  8
0
100
AcDbLine
 10
249.1380835967731
 20
85.3600102721249
 30
0.0
 11
249.4063785967731
 21
85.3600102721249
 31
0.0
  0
LINE
  5
89C
330
2
100
AcDbEntity
  8
0
100
AcDbLine
 10
247.9371865967731
 20
85.3600102721249
 30
0.0
 11
248.1356875967731
 21
85.3600102721249
 31
0.0
  0
LINE
  5
89D
330
2
100
AcDbEntity
  8
0
100
AcDbLine
 10
246.6406775967731
 20
88.8338912721249
 30
0.0
 11
248.1356875967731
 21
85.3600102721249
 31
0.0
  0
LINE
  5
89E
330
2
100
AcDbEntity
  8
0
100
AcDbLine
 10
247.5581885967731
 20
88.92054227212486
 30
0.0
 11
249.1380835967731
 21
85.3600102721249
 31
0.0
  0
LINE
  5
89F
330
2
100
AcDbEntity
  8
0
100
AcDbLine
 10
244.6001805967731
 20
89.82975627212487
 30
0.0
 11
247.0548775967731
 21
89.82975627212487
 31
0.0
  0
LINE
  5
8A0
330
2
100
AcDbEntity
  8
0
100
AcDbLine
 10
244.6001805967731
 20
92.75600627212487
 30
0.0
 11
247.575079596773
 21
92.75406827212487
 31
0.0
  0
LINE
  5
8A1
330
2
100
AcDbEntity
  8
0
100
AcDbLine
 10
243.0313785967731
 20
93.92641627212492
 30
0.0
 11
246.8538885967731
 21
93.92641627212492
 31
0.0
  0
LINE
  5
8A2
330
2
100
AcDbEntity
  8
0
100
AcDbLine
 10
243.0313785967731
 20
92.75600627212487
 30
0.0
 11
243.5044775967731
 21
92.75600627212487
 31
0.0
  0
LINE
  5
8A3
330
2
100
AcDbEntity
  8
0
100
AcDbLine
 10
244.6001805967731
 20
92.75600627212487
 30
0.0
 11
244.6001805967731
 21
89.82975627212487
 31
0.0
  0
LINE
  5
8A4
330
2
100
AcDbEntity
  8
0
100
AcDbLine
 10
243.0313785967731
 20
93.92641627212492
 30
0.0
 11
243.0313785967731
 21
92.75600627212487
 31
0.0
  0
ARC
  5
8A5
330
2
100
AcDbEntity
  8
0
100
AcDbCircle
 10
246.8538885967731
 20
91.37393027212487
 30
0.0
 40
1.557193
100
AcDbArc
 50
277.4147260000004
 51
62.41184999999696
  0
LINE
  5
8A6
330
2
100
AcDbEntity
  8
0
100
AcDbLine
 10
241.1563785967731
 20
117.8639162721249
 30
0.0
 11
246.1563785967731
 21
117.8639162721249
 31
0.0
  0
LINE
  5
8A7
330
2
100
AcDbEntity
  8
0
100
AcDbLine
 10
241.1563785967731
 20
122.8639162721249
 30
0.0
 11
246.1563785967731
 21
122.8639162721249
 31
0.0
  0
LINE
  5
8A8
330
2
100
AcDbEntity
  8
0
100
AcDbLine
 10
241.1563785967731
 20
117.8639162721249
 30
0.0
 11
241.1563785967731
 21
122.8639162721249
 31
0.0
  0
LINE
  5
8A9
330
2
100
AcDbEntity
  8
0
100
AcDbLine
 10
246.1563785967731
 20
122.8639162721249
 30
0.0
 11
246.1563785967731
 21
117.8639162721249
 31
0.0
  0
LINE
  5
8AA
330
2
100
AcDbEntity
  8
0
100
AcDbLine
 10
276.6563785967731
 20
121.7253212721249
 30
0.0
 11
276.6563785967731
 21
93.00278327212494
 31
0.0
  0
LINE
  5
8AE
330
2
100
AcDbEntity
  8
CENTER
100
AcDbLine
 10
360.424142583576
 20
120.3639162721249
 30
0.0
 11
473.424142583576
 21
120.3639162721249
 31
0.0
  0
LINE
  5
8AF
330
2
100
AcDbEntity
  8
CENTER
100
AcDbLine
 10
386.4241425835759
 20
98.06392127212497
 30
0.0
 11
476.4241425835759
 21
98.06392127212497
 31
0.0
  0
LINE
  5
8B0
330
2
100
AcDbEntity
  8
HIDS
100
AcDbLine
 10
410.4241425835759
 20
60.06392027212496
 30
0.0
 11
452.424142583576
 21
60.06392027212496
 31
0.0
  0
LINE
  5
8B1
330
2
100
AcDbEntity
  8
0
100
AcDbLine
 10
384.4241425835761
 20
55.36391927212491
 30
0.0
 11
478.424142583576
 21
55.36391927212491
 31
0.0
  0
LINE
  5
8B4
330
2
100
AcDbEntity
  8
0
100
AcDbLine
 10
367.4241425835761
 20
112.8639202721249
 30
0.0
 11
394.4241425835759
 21
112.8639202721249
 31
0.0
  0
LINE
  5
8B5
330
2
100
AcDbEntity
  8
0
100
AcDbLine
 10
367.4241425835761
 20
122.8639162721249
 30
0.0
 11
388.9241425835761
 21
122.8639162721249
 31
0.0
  0
LINE
  5
8B6
330
2
100
AcDbEntity
  8
0
100
AcDbLine
 10
367.4241425835761
 20
117.8639162721249
 30
0.0
 11
388.9241425835761
 21
117.8639162721249
 31
0.0
  0
ARC
  5
8B8
330
2
100
AcDbEntity
  8
HIDS
100
AcDbCircle
 10
431.4241425835759
 20
98.06392127212497
 30
0.0
 40
38.0
100
AcDbArc
 50
215.3345029999978
 51
230.643295000001
  0
LINE
  5
8B9
330
2
100
AcDbEntity
  8
0
100
AcDbLine
 10
397.424142583576
 20
63.36391927212492
 30
0.0
 11
386.4241425835761
 21
63.36391927212492
 31
0.0
  0
LINE
  5
8BA
330
2
100
AcDbEntity
  8
CENTER
100
AcDbLine
 10
391.424142583576
 20
66.86391927212492
 30
0.0
 11
391.424142583576
 21
51.8639192721248
 31
0.0
  0
LINE
  5
8BB
330
2
100
AcDbEntity
  8
HIDS
  6
SEKKEI_H
100
AcDbLine
 10
388.1741425835761
 20
63.36391927212492
 30
0.0
 11
388.1741425835761
 21
55.36391927212491
 31
0.0
  0
LINE
  5
8BC
330
2
100
AcDbEntity
  8
0
100
AcDbLine
 10
384.4241425835761
 20
61.36391927212492
 30
0.0
 11
384.4241425835761
 21
55.36391927212491
 31
0.0
  0
ARC
  5
8BD
330
2
100
AcDbEntity
  8
0
100
AcDbCircle
 10
386.4241425835761
 20
61.36392927212489
 30
0.0
 40
2.0
100
AcDbArc
 50
90.0
 51
180.0
  0
ARC
  5
8BE
330
2
100
AcDbEntity
  8
0
100
AcDbCircle
 10
397.424142583576
 20
66.36390927212494
 30
0.0
 40
3.0
100
AcDbArc
 50
270.0
 51
0.0
  0
LINE
  5
8BF
330
2
100
AcDbEntity
  8
HIDS
  6
SEKKEI_H
100
AcDbLine
 10
394.6741425835759
 20
63.36391927212492
 30
0.0
 11
394.6741425835759
 21
55.36391927212491
 31
0.0
  0
ARC
  5
8C0
330
2
100
AcDbEntity
  8
HIDS
100
AcDbCircle
 10
410.4241425835759
 20
62.06392027212496
 30
0.0
 40
2.0
100
AcDbArc
 50
180.0
 51
199.2166899999987
  0
LINE
  5
8C1
330
2
100
AcDbEntity
  8
HIDS
100
AcDbLine
 10
408.4241425835759
 20
62.06392027212496
 30
0.0
 11
408.4241425835759
 21
66.36218427212487
 31
0.0
  0
ARC
  5
8C2
330
2
100
AcDbEntity
  8
HIDS
100
AcDbCircle
 10
405.4241425835759
 20
66.36218427212487
 30
0.0
 40
3.0
100
AcDbArc
 50
0.0
 51
50.64329899999686
  0
ARC
  5
8C3
330
2
100
AcDbEntity
  8
HIDS
100
AcDbCircle
 10
410.4241425835759
 20
62.06392027212496
 30
0.0
 40
2.0
100
AcDbArc
 50
199.2166899999987
 51
270.0
  0
ARC
  5
8C4
330
2
100
AcDbEntity
  8
0
100
AcDbCircle
 10
431.4241425835759
 20
98.06392127212497
 30
0.0
 40
38.0
100
AcDbArc
 50
158.7057339999987
 51
215.3345029999978
  0
ARC
  5
8C5
330
2
100
AcDbEntity
  8
0
100
AcDbCircle
 10
388.9241425835761
 20
120.3639162721249
 30
0.0
 40
2.5
100
AcDbArc
 50
270.0
 51
0.0
  0
ARC
  5
8C6
330
2
100
AcDbEntity
  8
0
100
AcDbCircle
 10
388.9241425835761
 20
120.3639092721249
 30
0.0
 40
2.5
100
AcDbArc
 50
0.0
 51
90.0
  0
LINE
  5
8C7
330
2
100
AcDbEntity
  8
0
100
AcDbLine
 10
388.9241425835761
 20
122.8639162721249
 30
0.0
 11
388.9241425835761
 21
117.8639162721249
 31
0.0
  0
LINE
  5
8C8
330
2
100
AcDbEntity
  8
0
100
AcDbLine
 10
397.424142583576
 20
100.3639162721249
 30
0.0
 11
398.4241425835758
 21
100.3639162721249
 31
0.0
  0
LINE
  5
8C9
330
2
100
AcDbEntity
  8
0
100
AcDbLine
 10
394.4241425835759
 20
111.8639202721249
 30
0.0
 11
396.4241425835759
 21
111.8639202721249
 31
0.0
  0
ARC
  5
8CA
330
2
100
AcDbEntity
  8
0
100
AcDbCircle
 10
397.424142583576
 20
101.3639162721249
 30
0.0
 40
1.0
100
AcDbArc
 50
180.0
 51
270.0
  0
ARC
  5
8CB
330
2
100
AcDbEntity
  8
HIDS
100
AcDbCircle
 10
431.4241425835759
 20
98.06392127212497
 30
0.0
 40
38.0
100
AcDbArc
 50
309.3567010000031
 51
324.665497000002
  0
LINE
  5
8CC
330
2
100
AcDbEntity
  8
HIDS
100
AcDbLine
 10
454.4241425835759
 20
62.20678927212486
 30
0.0
 11
454.4241425835759
 21
66.36218427212487
 31
0.0
  0
ARC
  5
8CD
330
2
100
AcDbEntity
  8
HIDS
100
AcDbCircle
 10
457.424142583576
 20
66.36218427212487
 30
0.0
 40
3.0
100
AcDbArc
 50
129.3567049999989
 51
180.0
  0
ARC
  5
8CE
330
2
100
AcDbEntity
  8
HIDS
100
AcDbCircle
 10
452.424142583576
 20
62.06392027212496
 30
0.0
 40
2.0
100
AcDbArc
 50
270.0
 51
0.0
  0
LINE
  5
8CF
330
2
100
AcDbEntity
  8
0
100
AcDbLine
 10
465.424142583576
 20
63.36391927212492
 30
0.0
 11
476.4241425835759
 21
63.36391927212492
 31
0.0
  0
LINE
  5
8D0
330
2
100
AcDbEntity
  8
HIDS
  6
SEKKEI_H
100
AcDbLine
 10
468.174142583576
 20
63.36391927212492
 30
0.0
 11
468.174142583576
 21
55.36391927212491
 31
0.0
  0
ARC
  5
8D1
330
2
100
AcDbEntity
  8
0
100
AcDbCircle
 10
465.424142583576
 20
66.36391827212491
 30
0.0
 40
3.0
100
AcDbArc
 50
180.0
 51
270.0
  0
LINE
  5
8D2
330
2
100
AcDbEntity
  8
HIDS
  6
SEKKEI_H
100
AcDbLine
 10
474.6741425835759
 20
63.36391927212492
 30
0.0
 11
474.6741425835759
 21
55.36391927212491
 31
0.0
  0
LINE
  5
8D3
330
2
100
AcDbEntity
  8
0
100
AcDbLine
 10
478.424142583576
 20
61.36391927212492
 30
0.0
 11
478.424142583576
 21
55.36391927212491
 31
0.0
  0
ARC
  5
8D4
330
2
100
AcDbEntity
  8
0
100
AcDbCircle
 10
476.4241425835759
 20
61.36390927212494
 30
0.0
 40
2.0
100
AcDbArc
 50
0.0
 51
90.0
  0
LINE
  5
8D5
330
2
100
AcDbEntity
  8
CENTER
100
AcDbLine
 10
471.424142583576
 20
66.86391927212492
 30
0.0
 11
471.4241425835759
 21
51.86391927212492
 31
0.0
  0
ARC
  5
8D6
330
2
100
AcDbEntity
  8
0
100
AcDbCircle
 10
431.4241425835759
 20
98.06392127212497
 30
0.0
 40
38.0
100
AcDbArc
 50
324.6655009999977
 51
21.29426200000255
  0
LINE
  5
8D7
330
2
100
AcDbEntity
  8
0
100
AcDbLine
 10
465.424142583576
 20
100.3639162721249
 30
0.0
 11
464.4241425835761
 21
100.3639162721249
 31
0.0
  0
ARC
  5
8D8
330
2
100
AcDbEntity
  8
0
100
AcDbCircle
 10
465.424142583576
 20
101.3639162721249
 30
0.0
 40
1.0
100
AcDbArc
 50
270.0
 51
0.0
  0
LINE
  5
8DB
330
2
100
AcDbEntity
  8
0
100
AcDbLine
 10
121.6563845967731
 20
255.5611767383656
 30
0.0
 11
192.1563865967731
 21
255.5611767383656
 31
0.0
  0
LINE
  5
8DC
330
2
100
AcDbEntity
  8
0
100
AcDbLine
 10
192.1563865967731
 20
331.5611767383658
 30
0.0
 11
121.6563845967731
 21
331.5611767383658
 31
0.0
  0
LINE
  5
8DD
330
2
100
AcDbEntity
  8
0
100
AcDbLine
 10
121.6563845967731
 20
316.5611767383658
 30
0.0
 11
197.5760635967731
 21
316.5611767383658
 31
0.0
  0
LINE
  5
8DE
330
2
100
AcDbEntity
  8
0
100
AcDbLine
 10
121.6563845967731
 20
270.5611767383657
 30
0.0
 11
197.5760635967731
 21
270.5611767383657
 31
0.0
  0
LINE
  5
8DF
330
2
100
AcDbEntity
  8
0
100
AcDbLine
 10
121.6563325967731
 20
128.3128912721249
 30
0.0
 11
194.1563705967731
 21
128.3128912721249
 31
0.0
  0
LINE
  5
8E0
330
2
100
AcDbEntity
  8
0
100
AcDbLine
 10
121.6563845967731
 20
136.0639212721249
 30
0.0
 11
197.5760635967731
 21
136.0639212721249
 31
0.0
  0
LINE
  5
8E1
330
2
100
AcDbEntity
  8
CENTER
100
AcDbLine
 10
65.45671549807275
 20
293.5611767383658
 30
0.0
 11
286.1563785967732
 21
293.5611767383659
 31
0.0
  0
LINE
  5
8E3
330
2
100
AcDbEntity
  8
0
100
AcDbLine
 10
72.85950359677312
 20
153.2139222721249
 30
0.0
 11
87.15650359677312
 21
153.2139222721249
 31
0.0
  0
LINE
  5
8E4
330
2
100
AcDbEntity
  8
0
100
AcDbLine
 10
72.00770259677312
 20
145.5139182721248
 30
0.0
 11
87.15650359677312
 21
145.5139182721248
 31
0.0
  0
LINE
  5
8E6
330
2
100
AcDbEntity
  8
HOJO
100
AcDbLine
 10
72.85950359677312
 20
153.2139222721249
 30
0.0
 11
72.12370359677314
 21
150.3788162721249
 31
0.0
  0
LINE
  5
8E7
330
2
100
AcDbEntity
  8
HOJO
100
AcDbLine
 10
72.12370359677314
 20
150.3788162721249
 30
0.0
 11
72.93580359677313
 21
147.9038182721249
 31
0.0
  0
LINE
  5
8E8
330
2
100
AcDbEntity
  8
HOJO
100
AcDbLine
 10
72.93580359677313
 20
147.9038182721249
 30
0.0
 11
72.00770259677312
 21
145.5139182721248
 31
0.0
  0
LINE
  5
8EA
330
2
100
AcDbEntity
  8
0
100
AcDbLine
 10
89.15650359677313
 20
136.5639212721249
 30
0.0
 11
106.6563835967731
 21
136.5639212721249
 31
0.0
  0
ARC
  5
8EB
330
2
100
AcDbEntity
  8
0
100
AcDbCircle
 10
104.1565035967731
 20
-92.93606372787508
 30
0.0
 40
250.0
100
AcDbArc
 50
86.66830399999998
 51
93.33169600000003
  0
LINE
  5
8EC
330
2
100
AcDbEntity
  8
0
100
AcDbLine
 10
87.15650359677312
 20
148.5639212721249
 30
0.0
 11
121.1565025967731
 21
148.5639212721249
 31
0.0
  0
LINE
  5
8ED
330
2
100
AcDbEntity
  8
0
100
AcDbLine
 10
87.15650359677312
 20
149.5639212721249
 30
0.0
 11
121.1565025967731
 21
149.5639212721249
 31
0.0
  0
LINE
  5
8EE
330
2
100
AcDbEntity
  8
0
100
AcDbLine
 10
107.1563835967731
 20
127.5639212721249
 30
0.0
 11
98.65607859677314
 21
127.5639212721249
 31
0.0
  0
LINE
  5
8EF
330
2
100
AcDbEntity
  8
0
100
AcDbLine
 10
89.15650359677313
 20
149.5639212721249
 30
0.0
 11
89.15650359677313
 21
156.1422372721249
 31
0.0
  0
LINE
  5
8F0
330
2
100
AcDbEntity
  8
0
100
AcDbLine
 10
87.15650359677312
 20
154.0639212721249
 30
0.0
 11
87.15650359677312
 21
149.5639212721249
 31
0.0
  0
ARC
  5
8F1
330
2
100
AcDbEntity
  8
0
100
AcDbCircle
 10
91.15618359677313
 20
131.5105302721249
 30
0.0
 40
2.0
100
AcDbArc
 50
180.0
 51
268.5000000000005
  0
LINE
  5
8F2
330
2
100
AcDbEntity
  8
0
100
AcDbLine
 10
89.15650359677313
 20
131.5105302721249
 30
0.0
 11
89.15650359677313
 21
148.5639212721249
 31
0.0
  0
LINE
  5
8F3
330
2
100
AcDbEntity
  8
0
100
AcDbLine
 10
87.15650359677312
 20
148.5639212721249
 30
0.0
 11
87.15650359677312
 21
144.5981162721249
 31
0.0
  0
ARC
  5
8F4
330
2
100
AcDbEntity
  8
0
100
AcDbCircle
 10
88.65618359677313
 20
143.0981162721249
 30
0.0
 40
0.5
100
AcDbArc
 50
0.0
 51
90.0
  0
ARC
  5
8F5
330
2
100
AcDbEntity
  8
0
100
AcDbCircle
 10
88.15638359677313
 20
144.5981162721249
 30
0.0
 40
1.0
100
AcDbArc
 50
180.0
 51
270.0
  0
LINE
  5
8F6
330
2
100
AcDbEntity
  8
0
100
AcDbLine
 10
88.65618359677313
 20
143.5981162721249
 30
0.0
 11
88.15638359677313
 21
143.5981162721249
 31
0.0
  0
LINE
  5
8F7
330
2
100
AcDbEntity
  8
0
100
AcDbLine
 10
89.65650359677312
 20
149.5639212721249
 30
0.0
 11
89.65650359677312
 21
148.5639212721249
 31
0.0
  0
LINE
  5
8F8
330
2
100
AcDbEntity
  8
0
100
AcDbLine
 10
97.39797559677313
 20
127.2273882721249
 30
0.0
 11
98.65607859677314
 21
127.5639212721249
 31
0.0
  0
ARC
  5
8F9
330
2
100
AcDbEntity
  8
0
100
AcDbCircle
 10
97.65638359677314
 20
126.2613472721249
 30
0.0
 40
1.0
100
AcDbArc
 50
104.975616
 51
180.0
  0
LINE
  5
8FA
330
2
100
AcDbEntity
  8
0
100
AcDbLine
 10
91.10382959677313
 20
129.5112172721248
 30
0.0
 11
95.68256059677313
 21
129.3913212721249
 31
0.0
  0
ARC
  5
8FB
330
2
100
AcDbEntity
  8
0
100
AcDbCircle
 10
95.65638359677313
 20
128.3916642721248
 30
0.0
 40
1.0
100
AcDbArc
 50
0.0
 51
88.50000000000054
  0
ARC
  5
8FC
330
2
100
AcDbEntity
  8
0
100
AcDbCircle
 10
96.35638359677313
 20
128.6138172721249
 30
0.0
 40
0.5
100
AcDbArc
 50
110.0000000000008
 51
180.0
  0
LINE
  5
8FD
330
2
100
AcDbEntity
  8
0
100
AcDbLine
 10
96.18537359677313
 20
129.0836662721249
 30
0.0
 11
96.32562359677315
 21
129.1347062721249
 31
0.0
  0
ARC
  5
8FE
330
2
100
AcDbEntity
  8
0
100
AcDbCircle
 10
90.40650359677313
 20
155.0031222721248
 30
0.0
 40
1.0
100
AcDbArc
 50
106.9581989999994
 51
180.0
  0
LINE
  5
8FF
330
2
100
AcDbEntity
  8
0
100
AcDbLine
 10
89.40650359677311
 20
154.2639182721249
 30
0.0
 11
94.90650359677312
 21
154.2639182721249
 31
0.0
  0
LINE
  5
900
330
2
100
AcDbEntity
  8
0
100
AcDbLine
 10
95.15626259677313
 20
153.5639212721249
 30
0.0
 11
89.65626259677312
 21
153.5639212721249
 31
0.0
  0
ARC
  5
901
330
2
100
AcDbEntity
  8
0
100
AcDbCircle
 10
89.65626259677312
 20
153.0639212721249
 30
0.0
 40
0.5
100
AcDbArc
 50
90.0
 51
180.0
  0
LINE
  5
902
330
2
100
AcDbEntity
  8
0
100
AcDbLine
 10
89.40650359677311
 20
153.5639212721249
 30
0.0
 11
89.40650359677311
 21
155.0031222721248
 31
0.0
  0
ARC
  5
903
330
2
100
AcDbEntity
  8
0
100
AcDbCircle
 10
89.65650359677312
 20
156.1422372721249
 30
0.0
 40
0.5
100
AcDbArc
 50
93.33169600000003
 51
180.0
  0
ARC
  5
904
330
2
100
AcDbEntity
  8
0
100
AcDbCircle
 10
88.65650359677312
 20
155.5639212721249
 30
0.0
 40
0.5
100
AcDbArc
 50
270.0
 51
0.0
  0
ARC
  5
905
330
2
100
AcDbEntity
  8
0
100
AcDbCircle
 10
88.15650359677311
 20
154.0639212721249
 30
0.0
 40
1.0
100
AcDbArc
 50
90.0
 51
180.0
  0
LINE
  5
906
330
2
100
AcDbEntity
  8
0
100
AcDbLine
 10
88.65650359677312
 20
155.0639212721249
 30
0.0
 11
88.15650359677311
 21
155.0639212721249
 31
0.0
  0
ARC
  5
907
330
2
100
AcDbEntity
  8
0
100
AcDbCircle
 10
92.15650359677312
 20
149.2639182721249
 30
0.0
 40
7.0
100
AcDbArc
 50
73.04348799999949
 51
106.9580000000002
  0
ARC
  5
908
330
2
100
AcDbEntity
  8
0
100
AcDbCircle
 10
93.90650359677312
 20
155.0031222721248
 30
0.0
 40
1.0
100
AcDbArc
 50
0.0
 51
73.04309800000145
  0
LINE
  5
909
330
2
100
AcDbEntity
  8
0
100
AcDbLine
 10
94.90650359677312
 20
153.5637222721248
 30
0.0
 11
94.90650359677312
 21
155.0031222721248
 31
0.0
  0
ARC
  5
90A
330
2
100
AcDbEntity
  8
0
100
AcDbCircle
 10
96.15626259677313
 20
156.4356482721249
 30
0.0
 40
0.5
100
AcDbArc
 50
91.83745600000049
 51
180.0
  0
LINE
  5
90B
330
2
100
AcDbEntity
  8
0
100
AcDbLine
 10
95.65626259677314
 20
154.0639212721249
 30
0.0
 11
95.65626259677314
 21
156.4356482721249
 31
0.0
  0
ARC
  5
90C
330
2
100
AcDbEntity
  8
0
100
AcDbCircle
 10
95.15626259677313
 20
154.0639212721249
 30
0.0
 40
0.5
100
AcDbArc
 50
270.0
 51
0.0
  0
LINE
  5
90D
330
2
100
AcDbEntity
  8
0
100
AcDbLine
 10
119.1565025967731
 20
149.5639212721249
 30
0.0
 11
119.1565025967731
 21
156.1422372721249
 31
0.0
  0
LINE
  5
90E
330
2
100
AcDbEntity
  8
0
100
AcDbLine
 10
121.1565025967731
 20
154.0639212721249
 30
0.0
 11
121.1565025967731
 21
149.5639212721249
 31
0.0
  0
LINE
  5
90F
330
2
100
AcDbEntity
  8
CENTER
100
AcDbLine
 10
104.1563835967731
 20
160.0894342721248
 30
0.0
 11
104.1565035967731
 21
142.2906212721249
 31
0.0
  0
LINE
  5
910
330
2
100
AcDbEntity
  8
0
100
AcDbLine
 10
121.6563845967731
 20
128.3128912721249
 30
0.0
 11
107.6563845967731
 21
128.3128912721249
 31
0.0
  0
ARC
  5
911
330
2
100
AcDbEntity
  8
0
100
AcDbCircle
 10
113.0563745967731
 20
132.0639212721249
 30
0.0
 40
8.999999
100
AcDbArc
 50
163.3990020000018
 51
196.6015009999986
  0
LINE
  5
912
330
2
100
AcDbEntity
  8
0
100
AcDbLine
 10
106.6563835967731
 20
128.5639212721249
 30
0.0
 11
106.6563835967731
 21
135.5639212721249
 31
0.0
  0
LINE
  5
913
330
2
100
AcDbEntity
  8
0
100
AcDbLine
 10
107.6563845967731
 20
128.0639212721249
 30
0.0
 11
107.6563845967731
 21
135.5639212721249
 31
0.0
  0
ARC
  5
914
330
2
100
AcDbEntity
  8
0
100
AcDbCircle
 10
107.1563835967731
 20
128.0639212721249
 30
0.0
 40
0.5
100
AcDbArc
 50
270.0
 51
0.0
  0
ARC
  5
915
330
2
100
AcDbEntity
  8
0
100
AcDbCircle
 10
105.6773795967731
 20
129.8639392721248
 30
0.0
 40
1.3
100
AcDbArc
 50
196.601592999999
 51
270.0
  0
LINE
  5
916
330
2
100
AcDbEntity
  8
0
100
AcDbLine
 10
107.6563845967731
 20
128.5639212721249
 30
0.0
 11
105.6773795967731
 21
128.5639212721249
 31
0.0
  0
ARC
  5
917
330
2
100
AcDbEntity
  8
0
100
AcDbCircle
 10
106.6563835967731
 20
135.5639212721249
 30
0.0
 40
1.0
100
AcDbArc
 50
0.0
 51
90.0
  0
ARC
  5
918
330
2
100
AcDbEntity
  8
0
100
AcDbCircle
 10
105.6773795967731
 20
134.2639252721248
 30
0.0
 40
1.3
100
AcDbArc
 50
90.0
 51
163.399094000003
  0
LINE
  5
919
330
2
100
AcDbEntity
  8
0
100
AcDbLine
 10
107.6563845967731
 20
135.5639212721249
 30
0.0
 11
105.6773795967731
 21
135.5639212721249
 31
0.0
  0
LINE
  5
91A
330
2
100
AcDbEntity
  8
0
100
AcDbLine
 10
119.1565025967731
 20
137.1035332721248
 30
0.0
 11
119.1565025967731
 21
148.5639212721249
 31
0.0
  0
ARC
  5
91B
330
2
100
AcDbEntity
  8
0
100
AcDbCircle
 10
120.1563845967731
 20
137.1035332721248
 30
0.0
 40
1.0
100
AcDbArc
 50
180.0
 51
268.4999080000003
  0
LINE
  5
91C
330
2
100
AcDbEntity
  8
0
100
AcDbLine
 10
120.1301735967731
 20
136.1038992721249
 30
0.0
 11
121.6563845967731
 21
136.0639212721249
 31
0.0
  0
LINE
  5
91D
330
2
100
AcDbEntity
  8
0
100
AcDbLine
 10
121.1565025967731
 20
148.5639212721249
 30
0.0
 11
121.1565025967731
 21
144.5981162721249
 31
0.0
  0
ARC
  5
91E
330
2
100
AcDbEntity
  8
0
100
AcDbCircle
 10
119.6565825967731
 20
143.0981162721249
 30
0.0
 40
0.5
100
AcDbArc
 50
90.0
 51
180.0
  0
ARC
  5
91F
330
2
100
AcDbEntity
  8
0
100
AcDbCircle
 10
120.1563845967731
 20
144.5981162721249
 30
0.0
 40
1.0
100
AcDbArc
 50
270.0
 51
0.0
  0
LINE
  5
920
330
2
100
AcDbEntity
  8
0
100
AcDbLine
 10
119.6565825967731
 20
143.5981162721249
 30
0.0
 11
120.1563845967731
 21
143.5981162721249
 31
0.0
  0
LINE
  5
921
330
2
100
AcDbEntity
  8
0
100
AcDbLine
 10
120.6565025967731
 20
149.5639212721249
 30
0.0
 11
120.6565025967731
 21
148.5639212721249
 31
0.0
  0
LINE
  5
922
330
2
100
AcDbEntity
  8
0
100
AcDbLine
 10
113.4065025967731
 20
154.2639182721249
 30
0.0
 11
118.9065025967731
 21
154.2639182721249
 31
0.0
  0
ARC
  5
923
330
2
100
AcDbEntity
  8
0
100
AcDbCircle
 10
116.1565025967731
 20
149.2639182721249
 30
0.0
 40
7.0
100
AcDbArc
 50
73.04348799999949
 51
106.9580000000002
  0
LINE
  5
924
330
2
100
AcDbEntity
  8
0
100
AcDbLine
 10
113.1565025967731
 20
153.5639212721249
 30
0.0
 11
118.6565025967731
 21
153.5639212721249
 31
0.0
  0
ARC
  5
925
330
2
100
AcDbEntity
  8
0
100
AcDbCircle
 10
114.4065025967731
 20
155.0031222721248
 30
0.0
 40
1.0
100
AcDbArc
 50
106.9581989999994
 51
180.0
  0
LINE
  5
926
330
2
100
AcDbEntity
  8
0
100
AcDbLine
 10
113.4065025967731
 20
153.5639212721249
 30
0.0
 11
113.4065025967731
 21
155.0031222721248
 31
0.0
  0
ARC
  5
927
330
2
100
AcDbEntity
  8
0
100
AcDbCircle
 10
112.1565025967731
 20
156.4356482721249
 30
0.0
 40
0.5
100
AcDbArc
 50
0.0
 51
88.1625439999995
  0
ARC
  5
928
330
2
100
AcDbEntity
  8
0
100
AcDbCircle
 10
113.1565025967731
 20
154.0639212721249
 30
0.0
 40
0.5
100
AcDbArc
 50
180.0
 51
270.0
  0
LINE
  5
929
330
2
100
AcDbEntity
  8
0
100
AcDbLine
 10
112.6565025967731
 20
154.0639212721249
 30
0.0
 11
112.6565025967731
 21
156.4356482721249
 31
0.0
  0
ARC
  5
92A
330
2
100
AcDbEntity
  8
0
100
AcDbCircle
 10
117.9065025967731
 20
155.0031222721248
 30
0.0
 40
1.0
100
AcDbArc
 50
0.0
 51
73.04309800000145
  0
ARC
  5
92B
330
2
100
AcDbEntity
  8
0
100
AcDbCircle
 10
118.6565025967731
 20
153.0639212721249
 30
0.0
 40
0.5
100
AcDbArc
 50
0.0
 51
90.0
  0
ARC
  5
92C
330
2
100
AcDbEntity
  8
0
100
AcDbCircle
 10
118.6565025967731
 20
156.1422372721249
 30
0.0
 40
0.5
100
AcDbArc
 50
0.0
 51
86.66830399999998
  0
LINE
  5
92D
330
2
100
AcDbEntity
  8
0
100
AcDbLine
 10
118.9065025967731
 20
153.5637222721248
 30
0.0
 11
118.9065025967731
 21
155.0031222721248
 31
0.0
  0
ARC
  5
92E
330
2
100
AcDbEntity
  8
0
100
AcDbCircle
 10
119.6565025967731
 20
155.5639212721249
 30
0.0
 40
0.5
100
AcDbArc
 50
180.0
 51
270.0
  0
ARC
  5
92F
330
2
100
AcDbEntity
  8
0
100
AcDbCircle
 10
120.1565025967731
 20
154.0639212721249
 30
0.0
 40
1.0
100
AcDbArc
 50
0.0
 51
90.0
  0
LINE
  5
930
330
2
100
AcDbEntity
  8
0
100
AcDbLine
 10
119.6565025967731
 20
155.0639212721249
 30
0.0
 11
120.1565025967731
 21
155.0639212721249
 31
0.0
  0
LINE
  5
931
330
2
100
AcDbEntity
  8
0
100
AcDbLine
 10
72.00770259677312
 20
289.7111857383657
 30
0.0
 11
87.15650359677312
 21
289.7111857383657
 31
0.0
  0
LINE
  5
932
330
2
100
AcDbEntity
  8
0
100
AcDbLine
 10
72.85950359677315
 20
297.4111827383657
 30
0.0
 11
87.15650359677312
 21
297.4111827383657
 31
0.0
  0
LINE
  5
933
330
2
100
AcDbEntity
  8
HOJO
100
AcDbLine
 10
72.85950359677315
 20
297.4111827383657
 30
0.0
 11
72.12370359677311
 21
294.5760847383656
 31
0.0
  0
LINE
  5
934
330
2
100
AcDbEntity
  8
HOJO
100
AcDbLine
 10
72.9358035967731
 20
292.1010777383656
 30
0.0
 11
72.00770259677312
 21
289.7111857383657
 31
0.0
  0
LINE
  5
935
330
2
100
AcDbEntity
  8
HOJO
100
AcDbLine
 10
72.12370359677311
 20
294.5760847383656
 30
0.0
 11
72.9358035967731
 21
292.1010777383656
 31
0.0
  0
LINE
  5
936
330
2
100
AcDbEntity
  8
0
100
AcDbLine
 10
121.6563845967731
 20
255.5611767383656
 30
0.0
 11
121.6563845967731
 21
331.5611767383658
 31
0.0
  0
LINE
  5
937
330
2
100
AcDbEntity
  8
CENTER
100
AcDbLine
 10
104.1563835967731
 20
323.5611767383659
 30
0.0
 11
104.1563835967731
 21
263.5611767383656
 31
0.0
  0
LINE
  5
938
330
2
100
AcDbEntity
  8
0
100
AcDbLine
 10
119.1563845967731
 20
314.5611767383658
 30
0.0
 11
119.1563845967731
 21
272.5611767383657
 31
0.0
  0
LINE
  5
939
330
2
100
AcDbEntity
  8
0
100
AcDbLine
 10
89.15628359677317
 20
272.5611767383657
 30
0.0
 11
89.15628359677317
 21
314.5611767383658
 31
0.0
  0
LINE
  5
93A
330
2
100
AcDbEntity
  8
0
100
AcDbLine
 10
98.6560835967731
 20
255.9626807383657
 30
0.0
 11
121.6563845967731
 21
255.5611767383656
 31
0.0
  0
LINE
  5
93B
330
2
100
AcDbEntity
  8
0
100
AcDbLine
 10
117.1563845967731
 20
270.5611767383657
 30
0.0
 11
91.15628359677316
 21
270.5611767383657
 31
0.0
  0
LINE
  5
93C
330
2
100
AcDbEntity
  8
0
100
AcDbLine
 10
96.65638359677314
 20
257.2652777383657
 30
0.0
 11
96.65638359677314
 21
270.5611767383657
 31
0.0
  0
ARC
  5
93D
330
2
100
AcDbEntity
  8
0
100
AcDbCircle
 10
97.65638359677314
 20
257.2652777383657
 30
0.0
 40
1.0
100
AcDbArc
 50
180.0
 51
255.0256040000005
  0
LINE
  5
93E
330
2
100
AcDbEntity
  8
0
100
AcDbLine
 10
97.39798359677315
 20
256.2992897383657
 30
0.0
 11
98.6560835967731
 21
255.9626807383657
 31
0.0
  0
ARC
  5
93F
330
2
100
AcDbEntity
  8
0
100
AcDbCircle
 10
91.15628359677316
 20
272.5611767383657
 30
0.0
 40
2.0
100
AcDbArc
 50
180.0
 51
270.0
  0
CIRCLE
  5
940
330
2
100
AcDbEntity
  8
0
100
AcDbCircle
 10
92.15638359677313
 20
273.5611767383657
 30
0.0
 40
2.75
  0
ARC
  5
941
330
2
100
AcDbEntity
  8
0
100
AcDbCircle
 10
90.15628359677316
 20
278.0611767383657
 30
0.0
 40
1.0
100
AcDbArc
 50
180.0
 51
270.0
  0
LINE
  5
942
330
2
100
AcDbEntity
  8
0
100
AcDbLine
 10
90.15628359677316
 20
277.0611767383657
 30
0.0
 11
92.15638359677313
 21
277.0611767383657
 31
0.0
  0
LINE
  5
943
330
2
100
AcDbEntity
  8
0
100
AcDbLine
 10
93.90638359677314
 20
273.9611707383657
 30
0.0
 11
93.90638359677314
 21
273.1611677383657
 31
0.0
  0
LINE
  5
944
330
2
100
AcDbEntity
  8
0
100
AcDbLine
 10
91.75635959677311
 20
275.3111767383657
 30
0.0
 11
92.55637759677313
 21
275.3111767383657
 31
0.0
  0
LINE
  5
945
330
2
100
AcDbEntity
  8
0
100
AcDbLine
 10
91.75635959677311
 20
271.8111767383657
 30
0.0
 11
92.55637759677313
 21
271.8111767383657
 31
0.0
  0
LINE
  5
946
330
2
100
AcDbEntity
  8
0
100
AcDbLine
 10
90.40638359677314
 20
273.9611707383657
 30
0.0
 11
90.40638359677314
 21
273.1611677383657
 31
0.0
  0
ARC
  5
947
330
2
100
AcDbEntity
  8
0
100
AcDbCircle
 10
90.40638359677314
 20
275.3111767383657
 30
0.0
 40
1.35
100
AcDbArc
 50
270.0
 51
0.0
  0
ARC
  5
948
330
2
100
AcDbEntity
  8
0
100
AcDbCircle
 10
90.40638359677314
 20
271.8111767383657
 30
0.0
 40
1.35
100
AcDbArc
 50
0.0
 51
90.0
  0
ARC
  5
949
330
2
100
AcDbEntity
  8
0
100
AcDbCircle
 10
93.90638359677314
 20
275.3111767383657
 30
0.0
 40
1.35
100
AcDbArc
 50
180.0
 51
270.0
  0
ARC
  5
94A
330
2
100
AcDbEntity
  8
0
100
AcDbCircle
 10
93.90638359677314
 20
271.8111767383657
 30
0.0
 40
1.35
100
AcDbArc
 50
90.0
 51
180.0
  0
ARC
  5
94B
330
2
100
AcDbEntity
  8
0
100
AcDbCircle
 10
96.65638359677314
 20
271.5611767383657
 30
0.0
 40
1.0
100
AcDbArc
 50
180.0
 51
270.0
  0
LINE
  5
94C
330
2
100
AcDbEntity
  8
0
100
AcDbLine
 10
95.65638359677313
 20
271.5611767383657
 30
0.0
 11
95.65638359677313
 21
273.5611767383657
 31
0.0
  0
LINE
  5
94D
330
2
100
AcDbEntity
  8
0
100
AcDbLine
 10
96.18537359677317
 20
261.3854557383657
 30
0.0
 11
96.32739359677316
 21
261.3337747383657
 31
0.0
  0
ARC
  5
94E
330
2
100
AcDbEntity
  8
0
100
AcDbCircle
 10
96.35638359677313
 20
261.8553047383656
 30
0.0
 40
0.5
100
AcDbArc
 50
180.0
 51
249.9999539999977
  0
ARC
  5
94F
330
2
100
AcDbEntity
  8
0
100
AcDbCircle
 10
96.15638359677314
 20
260.8639257383657
 30
0.0
 40
0.5
100
AcDbArc
 50
0.0
 51
69.99999999999914
  0
LINE
  5
950
330
2
100
AcDbEntity
  8
0
100
AcDbLine
 10
95.85638359677313
 20
261.8553047383656
 30
0.0
 11
95.85638359677313
 21
270.5611767383657
 31
0.0
  0
ARC
  5
951
330
2
100
AcDbEntity
  8
0
100
AcDbCircle
 10
92.15638359677313
 20
273.5611767383657
 30
0.0
 40
3.5
100
AcDbArc
 50
0.0
 51
90.0
  0
ARC
  5
952
330
2
100
AcDbEntity
  8
0
100
AcDbCircle
 10
114.4063845967731
 20
275.3111767383657
 30
0.0
 40
1.35
100
AcDbArc
 50
270.0
 51
0.0
  0
ARC
  5
953
330
2
100
AcDbEntity
  8
0
100
AcDbCircle
 10
114.4063845967731
 20
271.8111767383657
 30
0.0
 40
1.35
100
AcDbArc
 50
0.0
 51
90.0
  0
CIRCLE
  5
954
330
2
100
AcDbEntity
  8
0
100
AcDbCircle
 10
116.1563845967731
 20
273.5611767383657
 30
0.0
 40
2.75
  0
ARC
  5
955
330
2
100
AcDbEntity
  8
0
100
AcDbCircle
 10
116.1563845967731
 20
273.5611767383657
 30
0.0
 40
3.5
100
AcDbArc
 50
90.0
 51
180.0
  0
LINE
  5
956
330
2
100
AcDbEntity
  8
0
100
AcDbLine
 10
114.4063845967731
 20
273.9611707383657
 30
0.0
 11
114.4063845967731
 21
273.1611677383657
 31
0.0
  0
ARC
  5
957
330
2
100
AcDbEntity
  8
0
100
AcDbCircle
 10
111.6563845967731
 20
271.5611767383657
 30
0.0
 40
1.0
100
AcDbArc
 50
270.0
 51
0.0
  0
LINE
  5
958
330
2
100
AcDbEntity
  8
0
100
AcDbLine
 10
112.6563845967731
 20
271.5611767383657
 30
0.0
 11
112.6563845967731
 21
273.5611767383657
 31
0.0
  0
LINE
  5
959
330
2
100
AcDbEntity
  8
0
100
AcDbLine
 10
118.1564835967731
 20
277.0611767383657
 30
0.0
 11
116.1563845967731
 21
277.0611767383657
 31
0.0
  0
LINE
  5
95A
330
2
100
AcDbEntity
  8
0
100
AcDbLine
 10
117.9063845967731
 20
273.9611707383657
 30
0.0
 11
117.9063845967731
 21
273.1611677383657
 31
0.0
  0
LINE
  5
95B
330
2
100
AcDbEntity
  8
0
100
AcDbLine
 10
115.7563595967731
 20
275.3111767383657
 30
0.0
 11
116.5563785967731
 21
275.3111767383657
 31
0.0
  0
LINE
  5
95C
330
2
100
AcDbEntity
  8
0
100
AcDbLine
 10
115.7563595967731
 20
271.8111767383657
 30
0.0
 11
116.5563785967731
 21
271.8111767383657
 31
0.0
  0
ARC
  5
95D
330
2
100
AcDbEntity
  8
0
100
AcDbCircle
 10
117.9063845967731
 20
275.3111767383657
 30
0.0
 40
1.35
100
AcDbArc
 50
180.0
 51
270.0
  0
ARC
  5
95E
330
2
100
AcDbEntity
  8
0
100
AcDbCircle
 10
117.9063845967731
 20
271.8111767383657
 30
0.0
 40
1.35
100
AcDbArc
 50
90.0
 51
180.0
  0
ARC
  5
95F
330
2
100
AcDbEntity
  8
0
100
AcDbCircle
 10
117.1563845967731
 20
272.5611767383657
 30
0.0
 40
2.0
100
AcDbArc
 50
270.0
 51
0.0
  0
LINE
  5
960
330
2
100
AcDbEntity
  8
0
100
AcDbLine
 10
117.5340675967731
 20
270.5971717383657
 30
0.0
 11
121.6563845967731
 21
270.5611767383657
 31
0.0
  0
ARC
  5
961
330
2
100
AcDbEntity
  8
0
100
AcDbCircle
 10
118.1564835967731
 20
278.0611767383657
 30
0.0
 40
1.0
100
AcDbArc
 50
270.0
 51
0.0
  0
LINE
  5
962
330
2
100
AcDbEntity
  8
0
100
AcDbLine
 10
98.6560835967731
 20
331.1595807383657
 30
0.0
 11
121.6563845967731
 21
331.5611767383658
 31
0.0
  0
LINE
  5
963
330
2
100
AcDbEntity
  8
0
100
AcDbLine
 10
117.1563845967731
 20
316.5611767383658
 30
0.0
 11
91.15628359677316
 21
316.5611767383658
 31
0.0
  0
ARC
  5
964
330
2
100
AcDbEntity
  8
0
100
AcDbCircle
 10
90.40638359677314
 20
311.8111767383658
 30
0.0
 40
1.35
100
AcDbArc
 50
0.0
 51
90.0
  0
ARC
  5
965
330
2
100
AcDbEntity
  8
0
100
AcDbCircle
 10
92.15638359677313
 20
313.5611767383658
 30
0.0
 40
3.5
100
AcDbArc
 50
270.0
 51
0.0
  0
ARC
  5
966
330
2
100
AcDbEntity
  8
0
100
AcDbCircle
 10
93.90638359677314
 20
311.8111767383658
 30
0.0
 40
1.35
100
AcDbArc
 50
90.0
 51
180.0
  0
CIRCLE
  5
967
330
2
100
AcDbEntity
  8
0
100
AcDbCircle
 10
92.15638359677313
 20
313.5611767383658
 30
0.0
 40
2.75
  0
ARC
  5
968
330
2
100
AcDbEntity
  8
0
100
AcDbCircle
 10
90.15628359677316
 20
309.0611767383658
 30
0.0
 40
1.0
100
AcDbArc
 50
90.0
 51
180.0
  0
LINE
  5
969
330
2
100
AcDbEntity
  8
0
100
AcDbLine
 10
88.65638359677314
 20
299.5611767383658
 30
0.0
 11
88.15638359677313
 21
299.5611767383658
 31
0.0
  0
ARC
  5
96A
330
2
100
AcDbEntity
  8
0
100
AcDbCircle
 10
88.15638359677313
 20
298.5611767383658
 30
0.0
 40
1.0
100
AcDbArc
 50
90.0
 51
180.0
  0
ARC
  5
96B
330
2
100
AcDbEntity
  8
0
100
AcDbCircle
 10
88.65638359677314
 20
300.0611767383658
 30
0.0
 40
0.5
100
AcDbArc
 50
270.0
 51
0.0
  0
LINE
  5
96C
330
2
100
AcDbEntity
  8
0
100
AcDbLine
 10
88.65638359677314
 20
287.5611767383658
 30
0.0
 11
88.15638359677313
 21
287.5611767383658
 31
0.0
  0
ARC
  5
96D
330
2
100
AcDbEntity
  8
0
100
AcDbCircle
 10
88.15638359677313
 20
288.5611767383658
 30
0.0
 40
1.0
100
AcDbArc
 50
180.0
 51
270.0
  0
ARC
  5
96E
330
2
100
AcDbEntity
  8
0
100
AcDbCircle
 10
88.65638359677314
 20
287.0611767383658
 30
0.0
 40
0.5
100
AcDbArc
 50
0.0
 51
90.0
  0
LINE
  5
96F
330
2
100
AcDbEntity
  8
0
100
AcDbLine
 10
87.15638359677313
 20
298.5611767383658
 30
0.0
 11
87.15638359677313
 21
288.5611767383658
 31
0.0
  0
LINE
  5
970
330
2
100
AcDbEntity
  8
0
100
AcDbLine
 10
90.15628359677316
 20
310.0611767383658
 30
0.0
 11
92.15638359677313
 21
310.0611767383658
 31
0.0
  0
LINE
  5
971
330
2
100
AcDbEntity
  8
0
100
AcDbLine
 10
91.75635959677311
 20
311.8111767383658
 30
0.0
 11
92.55637759677313
 21
311.8111767383658
 31
0.0
  0
ARC
  5
972
330
2
100
AcDbEntity
  8
0
100
AcDbCircle
 10
91.15628359677316
 20
314.5611767383658
 30
0.0
 40
2.0
100
AcDbArc
 50
90.0
 51
180.0
  0
LINE
  5
973
330
2
100
AcDbEntity
  8
0
100
AcDbLine
 10
96.18537359677317
 20
325.7369117383657
 30
0.0
 11
96.32739359677316
 21
325.7885937383657
 31
0.0
  0
ARC
  5
974
330
2
100
AcDbEntity
  8
0
100
AcDbCircle
 10
96.15638359677314
 20
326.2584417383657
 30
0.0
 40
0.5
100
AcDbArc
 50
290.0000000000008
 51
0.0
  0
ARC
  5
975
330
2
100
AcDbEntity
  8
0
100
AcDbCircle
 10
96.35638359677313
 20
325.2670637383656
 30
0.0
 40
0.5
100
AcDbArc
 50
110.0000379999994
 51
180.0
  0
ARC
  5
976
330
2
100
AcDbEntity
  8
0
100
AcDbCircle
 10
97.65638359677314
 20
329.8570897383657
 30
0.0
 40
1.0
100
AcDbArc
 50
104.9743959999994
 51
180.0
  0
ARC
  5
977
330
2
100
AcDbEntity
  8
0
100
AcDbCircle
 10
96.65638359677314
 20
315.5611767383658
 30
0.0
 40
1.0
100
AcDbArc
 50
90.0
 51
180.0
  0
LINE
  5
978
330
2
100
AcDbEntity
  8
0
100
AcDbLine
 10
91.75635959677311
 20
315.3111767383658
 30
0.0
 11
92.55637759677313
 21
315.3111767383658
 31
0.0
  0
LINE
  5
979
330
2
100
AcDbEntity
  8
0
100
AcDbLine
 10
93.90638359677314
 20
313.9611707383656
 30
0.0
 11
93.90638359677314
 21
313.1611677383657
 31
0.0
  0
LINE
  5
97A
330
2
100
AcDbEntity
  8
0
100
AcDbLine
 10
90.40638359677314
 20
313.9611707383656
 30
0.0
 11
90.40638359677314
 21
313.1611677383657
 31
0.0
  0
LINE
  5
97B
330
2
100
AcDbEntity
  8
0
100
AcDbLine
 10
95.65638359677313
 20
315.5611767383658
 30
0.0
 11
95.65638359677313
 21
313.5611767383658
 31
0.0
  0
ARC
  5
97C
330
2
100
AcDbEntity
  8
0
100
AcDbCircle
 10
90.40638359677314
 20
315.3111767383658
 30
0.0
 40
1.35
100
AcDbArc
 50
270.0
 51
0.0
  0
ARC
  5
97D
330
2
100
AcDbEntity
  8
0
100
AcDbCircle
 10
93.90638359677314
 20
315.3111767383658
 30
0.0
 40
1.35
100
AcDbArc
 50
180.0
 51
270.0
  0
LINE
  5
97E
330
2
100
AcDbEntity
  8
0
100
AcDbLine
 10
96.65638359677314
 20
329.8570897383657
 30
0.0
 11
96.65638359677314
 21
316.5611767383658
 31
0.0
  0
LINE
  5
97F
330
2
100
AcDbEntity
  8
0
100
AcDbLine
 10
95.85638359677313
 20
325.2670637383656
 30
0.0
 11
95.85638359677313
 21
316.5611767383658
 31
0.0
  0
LINE
  5
980
330
2
100
AcDbEntity
  8
0
100
AcDbLine
 10
97.39798359677315
 20
330.8230787383657
 30
0.0
 11
98.6560835967731
 21
331.1595807383657
 31
0.0
  0
ARC
  5
981
330
2
100
AcDbEntity
  8
0
100
AcDbCircle
 10
117.9063845967731
 20
311.8111767383658
 30
0.0
 40
1.35
100
AcDbArc
 50
90.0
 51
180.0
  0
ARC
  5
982
330
2
100
AcDbEntity
  8
0
100
AcDbCircle
 10
116.1563845967731
 20
313.5611767383658
 30
0.0
 40
3.5
100
AcDbArc
 50
180.0
 51
270.0
  0
ARC
  5
983
330
2
100
AcDbEntity
  8
0
100
AcDbCircle
 10
114.4063845967731
 20
311.8111767383658
 30
0.0
 40
1.35
100
AcDbArc
 50
0.0
 51
90.0
  0
CIRCLE
  5
984
330
2
100
AcDbEntity
  8
0
100
AcDbCircle
 10
116.1563845967731
 20
313.5611767383658
 30
0.0
 40
2.75
  0
LINE
  5
985
330
2
100
AcDbEntity
  8
0
100
AcDbLine
 10
118.1564835967731
 20
310.0611767383658
 30
0.0
 11
116.1563845967731
 21
310.0611767383658
 31
0.0
  0
LINE
  5
986
330
2
100
AcDbEntity
  8
0
100
AcDbLine
 10
115.7563595967731
 20
311.8111767383658
 30
0.0
 11
116.5563785967731
 21
311.8111767383658
 31
0.0
  0
LINE
  5
987
330
2
100
AcDbEntity
  8
0
100
AcDbLine
 10
119.6563845967731
 20
299.5611767383658
 30
0.0
 11
120.1563845967731
 21
299.5611767383658
 31
0.0
  0
ARC
  5
988
330
2
100
AcDbEntity
  8
0
100
AcDbCircle
 10
120.1563845967731
 20
298.5611767383658
 30
0.0
 40
1.0
100
AcDbArc
 50
0.0
 51
90.0
  0
ARC
  5
989
330
2
100
AcDbEntity
  8
0
100
AcDbCircle
 10
119.6563845967731
 20
300.0611767383658
 30
0.0
 40
0.5
100
AcDbArc
 50
180.0
 51
270.0
  0
LINE
  5
98A
330
2
100
AcDbEntity
  8
0
100
AcDbLine
 10
119.6563845967731
 20
287.5611767383658
 30
0.0
 11
120.1563845967731
 21
287.5611767383658
 31
0.0
  0
ARC
  5
98B
330
2
100
AcDbEntity
  8
0
100
AcDbCircle
 10
120.1563845967731
 20
288.5611767383658
 30
0.0
 40
1.0
100
AcDbArc
 50
270.0
 51
0.0
  0
ARC
  5
98C
330
2
100
AcDbEntity
  8
0
100
AcDbCircle
 10
119.6563845967731
 20
287.0611767383658
 30
0.0
 40
0.5
100
AcDbArc
 50
90.0
 51
180.0
  0
LINE
  5
98D
330
2
100
AcDbEntity
  8
0
100
AcDbLine
 10
121.1563845967731
 20
298.5611767383658
 30
0.0
 11
121.1563845967731
 21
288.5611767383658
 31
0.0
  0
ARC
  5
98E
330
2
100
AcDbEntity
  8
0
100
AcDbCircle
 10
118.1564835967731
 20
309.0611767383658
 30
0.0
 40
1.0
100
AcDbArc
 50
0.0
 51
90.0
  0
ARC
  5
98F
330
2
100
AcDbEntity
  8
0
100
AcDbCircle
 10
114.4063845967731
 20
315.3111767383658
 30
0.0
 40
1.35
100
AcDbArc
 50
270.0
 51
0.0
  0
ARC
  5
990
330
2
100
AcDbEntity
  8
0
100
AcDbCircle
 10
111.6563845967731
 20
315.5611767383658
 30
0.0
 40
1.0
100
AcDbArc
 50
0.0
 51
90.0
  0
LINE
  5
991
330
2
100
AcDbEntity
  8
0
100
AcDbLine
 10
114.4063845967731
 20
313.9611707383656
 30
0.0
 11
114.4063845967731
 21
313.1611677383657
 31
0.0
  0
LINE
  5
992
330
2
100
AcDbEntity
  8
0
100
AcDbLine
 10
112.6563845967731
 20
315.5611767383658
 30
0.0
 11
112.6563845967731
 21
313.5611767383658
 31
0.0
  0
LINE
  5
993
330
2
100
AcDbEntity
  8
0
100
AcDbLine
 10
115.7563595967731
 20
315.3111767383658
 30
0.0
 11
116.5563785967731
 21
315.3111767383658
 31
0.0
  0
LINE
  5
994
330
2
100
AcDbEntity
  8
0
100
AcDbLine
 10
117.9063845967731
 20
313.9611707383656
 30
0.0
 11
117.9063845967731
 21
313.1611677383657
 31
0.0
  0
ARC
  5
995
330
2
100
AcDbEntity
  8
0
100
AcDbCircle
 10
117.9063845967731
 20
315.3111767383658
 30
0.0
 40
1.35
100
AcDbArc
 50
180.0
 51
270.0
  0
ARC
  5
996
330
2
100
AcDbEntity
  8
0
100
AcDbCircle
 10
117.1563845967731
 20
314.5611767383658
 30
0.0
 40
2.0
100
AcDbArc
 50
0.0
 51
90.0
  0
LINE
  5
997
330
2
100
AcDbEntity
  8
0
100
AcDbLine
 10
117.5340675967731
 20
316.5251957383657
 30
0.0
 11
121.6563845967731
 21
316.5611767383658
 31
0.0
  0
LINE
  5
998
330
2
100
AcDbEntity
  8
CENTER
100
AcDbLine
 10
202.6563785967731
 20
339.4736462372079
 30
0.0
 11
202.6563785967731
 21
327.6487072395239
 31
0.0
  0
ARC
  5
999
330
2
100
AcDbEntity
  8
0
100
AcDbCircle
 10
197.9247505967731
 20
337.5611767383658
 30
0.0
 40
3.0
100
AcDbArc
 50
90.0
 51
179.0001529999972
  0
LINE
  5
99A
330
2
100
AcDbEntity
  8
CENTER
100
AcDbLine
 10
236.6563785967731
 20
347.5611767383658
 30
0.0
 11
236.6563785967731
 21
222.5611767383658
 31
0.0
  0
LINE
  5
99B
330
2
100
AcDbEntity
  8
CENTER
100
AcDbLine
 10
270.6563785967731
 20
339.4736462372079
 30
0.0
 11
270.6563785967731
 21
327.6487072395239
 31
0.0
  0
ARC
  5
99C
330
2
100
AcDbEntity
  8
0
100
AcDbCircle
 10
275.3879005967731
 20
337.5611767383658
 30
0.0
 40
3.0
100
AcDbArc
 50
1.000000000001775
 51
90.0
  0
LINE
  5
99D
330
2
100
AcDbEntity
  8
0
100
AcDbLine
 10
228.1563785967731
 20
256.5611767383657
 30
0.0
 11
245.1563785967731
 21
256.5611767383657
 31
0.0
  0
LINE
  5
99E
330
2
100
AcDbEntity
  8
0
100
AcDbLine
 10
255.6563785967731
 20
258.5611767383657
 30
0.0
 11
217.6563865967731
 21
258.5611767383657
 31
0.0
  0
LINE
  5
99F
330
2
100
AcDbEntity
  8
0
100
AcDbLine
 10
223.2358765967731
 20
152.9639222721249
 30
0.0
 11
250.0768805967731
 21
152.9639222721249
 31
0.0
  0
LINE
  5
9A0
330
2
100
AcDbEntity
  8
0
100
AcDbLine
 10
196.6628865967731
 20
324.5611767383658
 30
0.0
 11
276.6498785967731
 21
324.5611767383658
 31
0.0
  0
LINE
  5
9A1
330
2
100
AcDbEntity
  8
0
100
AcDbLine
 10
197.9247505967731
 20
246.5611767383657
 30
0.0
 11
229.1563785967731
 21
246.5611767383657
 31
0.0
  0
LINE
  5
9A2
330
2
100
AcDbEntity
  8
0
100
AcDbLine
 10
196.6628865967731
 20
262.5611767383657
 30
0.0
 11
276.6498785967731
 21
262.5611767383657
 31
0.0
  0
LINE
  5
9A3
330
2
100
AcDbEntity
  8
0
100
AcDbLine
 10
196.2840715967731
 20
135.1571832721249
 30
0.0
 11
220.363486596773
 21
152.0565662721248
 31
0.0
  0
ARC
  5
9A4
330
2
100
AcDbEntity
  8
0
100
AcDbCircle
 10
199.156401596773
 20
131.0645392721248
 30
0.0
 40
5.0
100
AcDbArc
 50
125.0623020000005
 51
180.0
  0
ARC
  5
9A5
330
2
100
AcDbEntity
  8
0
100
AcDbCircle
 10
223.2358765967731
 20
147.9639302721249
 30
0.0
 40
5.0
100
AcDbArc
 50
90.0
 51
125.0622019999994
  0
LINE
  5
9A6
330
2
100
AcDbEntity
  8
0
100
AcDbLine
 10
221.6563785967731
 20
322.5960887383656
 30
0.0
 11
221.6563785967731
 21
264.5262797383657
 31
0.0
  0
LINE
  5
9A7
330
2
100
AcDbEntity
  8
0
100
AcDbLine
 10
197.5760635967731
 20
272.5611767383657
 30
0.0
 11
197.5760635967731
 21
314.5614507383656
 31
0.0
  0
LINE
  5
9A8
330
2
100
AcDbEntity
  8
CENTER
100
AcDbLine
 10
208.5688480956152
 20
253.5611767383659
 30
0.0
 11
196.7439090979311
 21
253.5611767383659
 31
0.0
  0
CIRCLE
  5
9A9
330
2
100
AcDbEntity
  8
0
100
AcDbCircle
 10
202.6563865967731
 20
253.5611767383656
 30
0.0
 40
3.25
  0
LINE
  5
9AA
330
2
100
AcDbEntity
  8
CENTER
100
AcDbLine
 10
202.6563785967731
 20
259.4736462372079
 30
0.0
 11
202.6563785967731
 21
247.6487072395239
 31
0.0
  0
LINE
  5
9AB
330
2
100
AcDbEntity
  8
0
100
AcDbLine
 10
194.1563865967731
 20
257.5611767383656
 30
0.0
 11
194.1563865967731
 21
261.2090337383657
 31
0.0
  0
LINE
  5
9AC
330
2
100
AcDbEntity
  8
0
100
AcDbLine
 10
194.9252005967731
 20
249.5088387383657
 30
0.0
 11
194.7008275967731
 21
262.3652837383657
 31
0.0
  0
ARC
  5
9AD
330
2
100
AcDbEntity
  8
0
100
AcDbCircle
 10
192.1563865967731
 20
257.5611767383656
 30
0.0
 40
2.0
100
AcDbArc
 50
270.0
 51
0.0
  0
ARC
  5
9AE
330
2
100
AcDbEntity
  8
0
100
AcDbCircle
 10
197.9247505967731
 20
249.5611767383656
 30
0.0
 40
3.0
100
AcDbArc
 50
180.9998470000027
 51
270.0
  0
ARC
  5
9AF
330
2
100
AcDbEntity
  8
0
100
AcDbCircle
 10
196.6628865967731
 20
264.5611767383657
 30
0.0
 40
2.0
100
AcDbArc
 50
181.0000000000017
 51
270.0
  0
ARC
  5
9B0
330
2
100
AcDbEntity
  8
0
100
AcDbCircle
 10
195.6563865967731
 20
261.2090337383657
 30
0.0
 40
1.5
100
AcDbArc
 50
73.28735399999814
 51
180.0
  0
LINE
  5
9B1
330
2
100
AcDbEntity
  8
0
100
AcDbLine
 10
194.6631155967731
 20
264.5262797383657
 30
0.0
 11
194.5577915967731
 21
270.5611767383657
 31
0.0
  0
ARC
  5
9B2
330
2
100
AcDbEntity
  8
0
100
AcDbCircle
 10
217.6563865967731
 20
259.5611767383656
 30
0.0
 40
1.0
100
AcDbArc
 50
180.0
 51
270.0
  0
LINE
  5
9B3
330
2
100
AcDbEntity
  8
0
100
AcDbLine
 10
228.1563785967731
 20
256.5611767383657
 30
0.0
 11
228.1563785967731
 21
258.5611767383657
 31
0.0
  0
LINE
  5
9B4
330
2
100
AcDbEntity
  8
0
100
AcDbLine
 10
216.6563865967731
 20
259.5611767383656
 30
0.0
 11
216.6563865967731
 21
260.5611767383657
 31
0.0
  0
LINE
  5
9B5
330
2
100
AcDbEntity
  8
CENTER
100
AcDbLine
 10
208.5688480956152
 20
333.5611767383659
 30
0.0
 11
196.7439090979311
 21
333.5611767383659
 31
0.0
  0
CIRCLE
  5
9B6
330
2
100
AcDbEntity
  8
0
100
AcDbCircle
 10
202.6563865967731
 20
333.5611767383658
 30
0.0
 40
3.25
  0
LINE
  5
9B7
330
2
100
AcDbEntity
  8
0
100
AcDbLine
 10
194.1563865967731
 20
329.5611767383658
 30
0.0
 11
194.1563865967731
 21
325.9133337383657
 31
0.0
  0
ARC
  5
9B8
330
2
100
AcDbEntity
  8
0
100
AcDbCircle
 10
196.6628865967731
 20
322.5611767383658
 30
0.0
 40
2.0
100
AcDbArc
 50
90.0
 51
178.9999999999982
  0
ARC
  5
9B9
330
2
100
AcDbEntity
  8
0
100
AcDbCircle
 10
195.6563865967731
 20
325.9133337383657
 30
0.0
 40
1.5
100
AcDbArc
 50
180.0
 51
286.7126460000018
  0
LINE
  5
9BA
330
2
100
AcDbEntity
  8
0
100
AcDbLine
 10
194.9252005967731
 20
337.6135447383656
 30
0.0
 11
194.7008275967731
 21
324.7570837383657
 31
0.0
  0
ARC
  5
9BB
330
2
100
AcDbEntity
  8
0
100
AcDbCircle
 10
192.1563865967731
 20
329.5611767383658
 30
0.0
 40
2.0
100
AcDbArc
 50
0.0
 51
90.0
  0
LINE
  5
9BC
330
2
100
AcDbEntity
  8
0
100
AcDbLine
 10
194.6631155967731
 20
322.5960887383656
 30
0.0
 11
194.5577915967731
 21
316.5611767383658
 31
0.0
  0
LINE
  5
9BD
330
2
100
AcDbEntity
  8
0
100
AcDbLine
 10
246.1563785967731
 20
251.0611767383656
 30
0.0
 11
246.1563785967731
 21
229.5611767383657
 31
0.0
  0
LINE
  5
9BE
330
2
100
AcDbEntity
  8
0
100
AcDbLine
 10
243.7273775967731
 20
251.0611767383656
 30
0.0
 11
243.7273775967731
 21
229.5611767383657
 31
0.0
  0
LINE
  5
9BF
330
2
100
AcDbEntity
  8
0
100
AcDbLine
 10
229.1563785967731
 20
229.5611767383657
 30
0.0
 11
229.1563785967731
 21
256.5611767383657
 31
0.0
  0
ARC
  5
9C0
330
2
100
AcDbEntity
  8
0
100
AcDbCircle
 10
274.1563785967731
 20
131.0645012721248
 30
0.0
 40
5.0
100
AcDbArc
 50
0.0
 51
54.93836999999775
  0
LINE
  5
9C2
330
2
100
AcDbEntity
  8
0
100
AcDbLine
 10
277.0286775967731
 20
135.1571832721249
 30
0.0
 11
252.949179596773
 21
152.0565812721249
 31
0.0
  0
ARC
  5
9C3
330
2
100
AcDbEntity
  8
0
100
AcDbCircle
 10
250.0769875967731
 20
147.9639072721249
 30
0.0
 40
5.0
100
AcDbArc
 50
54.93843100000127
 51
90.0
  0
LINE
  5
9C4
330
2
100
AcDbEntity
  8
0
100
AcDbLine
 10
229.1563785967731
 20
229.5611767383657
 30
0.0
 11
246.1563785967731
 21
229.5611767383657
 31
0.0
  0
LINE
  5
9C5
330
2
100
AcDbEntity
  8
0
100
AcDbLine
 10
278.3874425967731
 20
249.5088237383658
 30
0.0
 11
279.1563785967731
 21
293.5611767383658
 31
0.0
  0
LINE
  5
9C6
330
2
100
AcDbEntity
  8
0
100
AcDbLine
 10
251.6563785967731
 20
322.5960887383656
 30
0.0
 11
251.6563785967731
 21
264.5262797383657
 31
0.0
  0
LINE
  5
9C7
330
2
100
AcDbEntity
  8
0
100
AcDbLine
 10
246.1563785967731
 20
246.5611767383657
 30
0.0
 11
275.3879005967731
 21
246.5611767383657
 31
0.0
  0
LINE
  5
9C8
330
2
100
AcDbEntity
  8
0
100
AcDbLine
 10
245.1563785967731
 20
256.5611767383657
 30
0.0
 11
245.1563785967731
 21
258.5611767383657
 31
0.0
  0
LINE
  5
9C9
330
2
100
AcDbEntity
  8
0
100
AcDbLine
 10
243.7273775967731
 20
251.0611767383656
 30
0.0
 11
246.1563785967731
 21
251.0611767383656
 31
0.0
  0
LINE
  5
9CA
330
2
100
AcDbEntity
  8
0
100
AcDbLine
 10
244.1563785967731
 20
251.0611767383656
 30
0.0
 11
244.1563785967731
 21
256.5611767383657
 31
0.0
  0
LINE
  5
9CB
330
2
100
AcDbEntity
  8
CENTER
100
AcDbLine
 10
270.6563785967731
 20
259.4736462372079
 30
0.0
 11
270.6563785967731
 21
247.6487072395239
 31
0.0
  0
ARC
  5
9CC
330
2
100
AcDbEntity
  8
0
100
AcDbCircle
 10
255.6563935967731
 20
259.5611767383656
 30
0.0
 40
1.0
100
AcDbArc
 50
270.0
 51
0.0
  0
LINE
  5
9CD
330
2
100
AcDbEntity
  8
CENTER
100
AcDbLine
 10
276.5688480956151
 20
253.5611767383659
 30
0.0
 11
264.7439090979311
 21
253.5611767383659
 31
0.0
  0
CIRCLE
  5
9CE
330
2
100
AcDbEntity
  8
0
100
AcDbCircle
 10
270.6563785967731
 20
253.5611767383656
 30
0.0
 40
3.25
  0
ARC
  5
9CF
330
2
100
AcDbEntity
  8
0
100
AcDbCircle
 10
275.3879005967731
 20
249.5611767383656
 30
0.0
 40
3.0
100
AcDbArc
 50
270.0
 51
358.9999999999982
  0
LINE
  5
9D0
330
2
100
AcDbEntity
  8
0
100
AcDbLine
 10
256.6563785967731
 20
259.5611767383656
 30
0.0
 11
256.6563785967731
 21
260.5611767383657
 31
0.0
  0
ARC
  5
9D1
330
2
100
AcDbEntity
  8
0
100
AcDbCircle
 10
276.6498785967731
 20
264.5611767383657
 30
0.0
 40
2.0
100
AcDbArc
 50
270.0
 51
358.9999999999982
  0
LINE
  5
9D2
330
2
100
AcDbEntity
  8
0
100
AcDbLine
 10
278.3874425967731
 20
337.6135447383656
 30
0.0
 11
279.1563785967731
 21
293.5611767383658
 31
0.0
  0
LINE
  5
9D3
330
2
100
AcDbEntity
  8
CENTER
100
AcDbLine
 10
276.5688480956151
 20
333.5611767383659
 30
0.0
 11
264.7439090979311
 21
333.5611767383659
 31
0.0
  0
CIRCLE
  5
9D4
330
2
100
AcDbEntity
  8
0
100
AcDbCircle
 10
270.6563785967731
 20
333.5611767383658
 30
0.0
 40
3.25
  0
ARC
  5
9D5
330
2
100
AcDbEntity
  8
0
100
AcDbCircle
 10
276.6498785967731
 20
322.5611767383658
 30
0.0
 40
2.0
100
AcDbArc
 50
1.000000000001775
 51
90.0
  0
LINE
  5
9D6
330
2
100
AcDbEntity
  8
0
100
AcDbLine
 10
197.9247505967731
 20
340.5611767383658
 30
0.0
 11
236.6563785967731
 21
340.5611767383658
 31
0.0
  0
LINE
  5
9D7
330
2
100
AcDbEntity
  8
0
100
AcDbLine
 10
236.6563785967731
 20
340.5611767383658
 30
0.0
 11
275.3879005967731
 21
340.5611767383658
 31
0.0
  0
TEXT
  5
9D8
330
2
100
AcDbEntity
  8
TITLE
100
AcDbText
 10
342.7803900096018
 20
271.1824312154636
 30
0.0
 40
5.0
  1
HLW-15R-10~240-S25
100
AcDbText
  0
TEXT
  5
9D9
330
2
100
AcDbEntity
  8
TITLE
100
AcDbText
 10
342.7803900096018
 20
295.1824312154636
 30
0.0
 40
5.0
  1
HLW-15R-10~240-T25
100
AcDbText
  0
ARC
  5
9DA
330
2
100
AcDbEntity
  8
0
100
AcDbCircle
 10
431.4241425835759
 20
149.0639212721249
 30
0.0
 40
6.0
100
AcDbArc
 50
39.53427499999932
 51
140.4657290000008
  0
LINE
  5
9DC
330
2
100
AcDbEntity
  8
0
100
AcDbLine
 10
402.097848583576
 20
133.6639272721249
 30
0.0
 11
460.816537583576
 21
133.6639272721249
 31
0.0
  0
ARC
  5
9DD
330
2
100
AcDbEntity
  8
0
100
AcDbCircle
 10
431.4241425835759
 20
-92.93606372787508
 30
0.0
 40
250.0
100
AcDbArc
 50
84.82601900000059
 51
95.17398099999942
  0
LINE
  5
9DF
330
2
100
AcDbEntity
  8
HIDS
100
AcDbLine
 10
410.3892305835761
 20
135.6967642721249
 30
0.0
 11
431.4241425835759
 21
136.0639132721249
 31
0.0
  0
LINE
  5
9E0
330
2
100
AcDbEntity
  8
0
100
AcDbLine
 10
402.3892305835761
 20
152.4571322721249
 30
0.0
 11
431.4241425835759
 21
152.9639302721249
 31
0.0
  0
LINE
  5
9E2
330
2
100
AcDbEntity
  8
0
100
AcDbLine
 10
367.4241425835761
 20
127.8639162721249
 30
0.0
 11
394.4241425835759
 21
127.8639162721249
 31
0.0
  0
ARC
  5
9E3
330
2
100
AcDbEntity
  8
0
100
AcDbCircle
 10
402.4241425835759
 20
150.4573312721248
 30
0.0
 40
2.0
100
AcDbArc
 50
91.00064100000045
 51
180.0
  0
LINE
  5
9E4
330
2
100
AcDbEntity
  8
0
100
AcDbLine
 10
397.424142583576
 20
140.3639162721249
 30
0.0
 11
398.4241425835758
 21
140.3639162721249
 31
0.0
  0
LINE
  5
9E5
330
2
100
AcDbEntity
  8
0
100
AcDbLine
 10
394.4241425835759
 20
128.8639162721249
 30
0.0
 11
396.4241425835759
 21
128.8639162721249
 31
0.0
  0
ARC
  5
9E6
330
2
100
AcDbEntity
  8
0
100
AcDbCircle
 10
397.424142583576
 20
139.3639162721249
 30
0.0
 40
1.0
100
AcDbArc
 50
90.0
 51
180.0
  0
LINE
  5
9E7
330
2
100
AcDbEntity
  8
HIDS
100
AcDbLine
 10
408.4241425835759
 20
149.5639212721249
 30
0.0
 11
408.4241425835759
 21
152.5624642721249
 31
0.0
  0
LINE
  5
9E8
330
2
100
AcDbEntity
  8
HIDS
100
AcDbLine
 10
408.9241425835759
 20
149.5639212721249
 30
0.0
 11
408.4241425835759
 21
149.5639212721249
 31
0.0
  0
LINE
  5
9E9
330
2
100
AcDbEntity
  8
HIDS
100
AcDbLine
 10
408.9241425835759
 20
148.5639212721249
 30
0.0
 11
408.9241425835759
 21
149.5639212721249
 31
0.0
  0
LINE
  5
9EA
330
2
100
AcDbEntity
  8
HIDS
100
AcDbLine
 10
408.9241425835759
 20
148.5639212721249
 30
0.0
 11
408.4241425835759
 21
148.5639212721249
 31
0.0
  0
LINE
  5
9EB
330
2
100
AcDbEntity
  8
HIDS
100
AcDbLine
 10
408.4241425835759
 20
148.5639212721249
 30
0.0
 11
408.4241425835759
 21
133.6970542721248
 31
0.0
  0
ARC
  5
9EC
330
2
100
AcDbEntity
  8
HIDS
100
AcDbCircle
 10
405.4241425835759
 20
129.7656572721249
 30
0.0
 40
3.0
100
AcDbArc
 50
309.3567010000031
 51
0.0
  0
LINE
  5
9ED
330
2
100
AcDbEntity
  8
HIDS
100
AcDbLine
 10
408.4241425835759
 20
133.6970542721248
 30
0.0
 11
408.4241425835759
 21
129.7656572721249
 31
0.0
  0
ARC
  5
9EE
330
2
100
AcDbEntity
  8
HIDS
100
AcDbCircle
 10
410.4241425835759
 20
133.6970542721248
 30
0.0
 40
2.0
100
AcDbArc
 50
90.99986300000075
 51
180.0
  0
ARC
  5
9EF
330
2
100
AcDbEntity
  8
0
100
AcDbCircle
 10
411.424142583576
 20
149.2639182721249
 30
0.0
 40
7.0
100
AcDbArc
 50
73.04350300000075
 51
106.9580229999995
  0
LINE
  5
9F0
330
2
100
AcDbEntity
  8
0
100
AcDbLine
 10
414.174142583576
 20
153.5637222721248
 30
0.0
 11
414.174142583576
 21
155.0031222721248
 31
0.0
  0
LINE
  5
9F1
330
2
100
AcDbEntity
  8
0
100
AcDbLine
 10
414.9241425835759
 20
156.0503862721249
 30
0.0
 11
414.9241425835759
 21
154.0639212721249
 31
0.0
  0
ARC
  5
9F2
330
2
100
AcDbEntity
  8
0
100
AcDbCircle
 10
415.424142583576
 20
156.0503862721249
 30
0.0
 40
0.5
100
AcDbArc
 50
93.67680399999908
 51
180.0
  0
ARC
  5
9F3
330
2
100
AcDbEntity
  8
0
100
AcDbCircle
 10
414.4241425835759
 20
154.0639212721249
 30
0.0
 40
0.5
100
AcDbArc
 50
270.0
 51
0.0
  0
ARC
  5
9F4
330
2
100
AcDbEntity
  8
0
100
AcDbCircle
 10
413.174142583576
 20
155.0031222721248
 30
0.0
 40
1.0
100
AcDbArc
 50
0.0
 51
73.04309800000145
  0
LINE
  5
9F5
330
2
100
AcDbEntity
  8
0
100
AcDbLine
 10
408.6741425835759
 20
153.5639212721249
 30
0.0
 11
408.6741425835759
 21
155.0031222721248
 31
0.0
  0
ARC
  5
9F6
330
2
100
AcDbEntity
  8
0
100
AcDbCircle
 10
408.9241425835759
 20
155.5473422721248
 30
0.0
 40
0.5
100
AcDbArc
 50
95.17398099999942
 51
180.0
  0
ARC
  5
9F7
330
2
100
AcDbEntity
  8
0
100
AcDbCircle
 10
408.9241425835759
 20
153.0639212721249
 30
0.0
 40
0.5
100
AcDbArc
 50
90.0
 51
180.0
  0
LINE
  5
9F8
330
2
100
AcDbEntity
  8
0
100
AcDbLine
 10
408.4241425835759
 20
152.5624642721249
 30
0.0
 11
408.4241425835759
 21
155.5473422721248
 31
0.0
  0
LINE
  5
9F9
330
2
100
AcDbEntity
  8
0
100
AcDbLine
 10
408.6741425835759
 20
154.2639182721249
 30
0.0
 11
414.174142583576
 21
154.2639182721249
 31
0.0
  0
LINE
  5
9FA
330
2
100
AcDbEntity
  8
0
100
AcDbLine
 10
408.6741425835759
 20
153.5639212721249
 30
0.0
 11
414.4241425835759
 21
153.5639212721249
 31
0.0
  0
ARC
  5
9FB
330
2
100
AcDbEntity
  8
0
100
AcDbCircle
 10
409.674142583576
 20
155.0031222721248
 30
0.0
 40
1.0
100
AcDbArc
 50
106.958152999998
 51
180.0
  0
TEXT
  5
9FC
330
2
100
AcDbEntity
  8
TITLE
100
AcDbText
 10
342.7803900096018
 20
303.1824312154636
 30
0.0
 40
5.0
  1
HLW-15R-10~240-T15
100
AcDbText
  0
TEXT
  5
9FD
330
2
100
AcDbEntity
  8
TITLE
100
AcDbText
 10
342.7803900096018
 20
287.1824312154636
 30
0.0
 40
5.0
  1
HLW-15R-10~120-T40
100
AcDbText
  0
TEXT
  5
9FE
330
2
100
AcDbEntity
  8
TITLE
100
AcDbText
 10
342.7803900096018
 20
279.1824312154636
 30
0.0
 40
5.0
  1
HLW-15R-10~240-S15
100
AcDbText
  0
LINE
  5
9FF
330
2
100
AcDbEntity
  8
0
100
AcDbLine
 10
460.459024583576
 20
152.4571322721249
 30
0.0
 11
431.4241425835759
 21
152.9639302721249
 31
0.0
  0
LINE
  5
A00
330
2
100
AcDbEntity
  8
HIDS
100
AcDbLine
 10
454.4241425835759
 20
149.5639212721249
 30
0.0
 11
454.4241425835759
 21
152.5624642721249
 31
0.0
  0
LINE
  5
A01
330
2
100
AcDbEntity
  8
HIDS
100
AcDbLine
 10
452.459024583576
 20
135.6967642721249
 30
0.0
 11
431.4241425835759
 21
136.0639132721249
 31
0.0
  0
LINE
  5
A02
330
2
100
AcDbEntity
  8
HIDS
100
AcDbLine
 10
454.4241425835759
 20
133.6639272721249
 30
0.0
 11
454.4241425835759
 21
129.7656572721249
 31
0.0
  0
LINE
  5
A03
330
2
100
AcDbEntity
  8
HIDS
100
AcDbLine
 10
453.924142583576
 20
148.5639212721249
 30
0.0
 11
453.924142583576
 21
149.5639212721249
 31
0.0
  0
LINE
  5
A04
330
2
100
AcDbEntity
  8
HIDS
100
AcDbLine
 10
453.924142583576
 20
149.5639212721249
 30
0.0
 11
454.4241425835759
 21
149.5639212721249
 31
0.0
  0
LINE
  5
A05
330
2
100
AcDbEntity
  8
HIDS
100
AcDbLine
 10
453.924142583576
 20
148.5639212721249
 30
0.0
 11
454.4241425835759
 21
148.5639212721249
 31
0.0
  0
LINE
  5
A06
330
2
100
AcDbEntity
  8
HIDS
100
AcDbLine
 10
454.4241425835759
 20
148.5639212721249
 30
0.0
 11
454.4241425835759
 21
133.6970542721248
 31
0.0
  0
ARC
  5
A07
330
2
100
AcDbEntity
  8
HIDS
100
AcDbCircle
 10
457.424142583576
 20
129.7656572721249
 30
0.0
 40
3.0
100
AcDbArc
 50
180.0
 51
230.643295000001
  0
ARC
  5
A08
330
2
100
AcDbEntity
  8
HIDS
100
AcDbCircle
 10
452.424142583576
 20
133.6970542721248
 30
0.0
 40
2.0
100
AcDbArc
 50
0.0
 51
89.00013699999925
  0
ARC
  5
A09
330
2
100
AcDbEntity
  8
0
100
AcDbCircle
 10
449.6741425835759
 20
155.0031222721248
 30
0.0
 40
1.0
100
AcDbArc
 50
106.9569019999985
 51
180.0
  0
LINE
  5
A0A
330
2
100
AcDbEntity
  8
0
100
AcDbLine
 10
454.1741425835759
 20
153.5639212721249
 30
0.0
 11
448.424142583576
 21
153.5639212721249
 31
0.0
  0
LINE
  5
A0B
330
2
100
AcDbEntity
  8
0
100
AcDbLine
 10
447.9241425835759
 20
156.0503862721249
 30
0.0
 11
447.9241425835759
 21
154.0639212721249
 31
0.0
  0
ARC
  5
A0C
330
2
100
AcDbEntity
  8
0
100
AcDbCircle
 10
447.4241425835759
 20
156.0503862721249
 30
0.0
 40
0.5
100
AcDbArc
 50
0.0
 51
86.32319600000093
  0
ARC
  5
A0D
330
2
100
AcDbEntity
  8
0
100
AcDbCircle
 10
448.424142583576
 20
154.0639212721249
 30
0.0
 40
0.5
100
AcDbArc
 50
180.0
 51
270.0
  0
LINE
  5
A0E
330
2
100
AcDbEntity
  8
0
100
AcDbLine
 10
454.1741425835759
 20
153.5639212721249
 30
0.0
 11
454.1741425835759
 21
155.0031222721248
 31
0.0
  0
ARC
  5
A0F
330
2
100
AcDbEntity
  8
0
100
AcDbCircle
 10
453.1741425835759
 20
155.0031222721248
 30
0.0
 40
1.0
100
AcDbArc
 50
0.0
 51
73.04184700000201
  0
ARC
  5
A10
330
2
100
AcDbEntity
  8
0
100
AcDbCircle
 10
453.924142583576
 20
155.5473422721248
 30
0.0
 40
0.5
100
AcDbArc
 50
0.0
 51
84.82601900000059
  0
ARC
  5
A11
330
2
100
AcDbEntity
  8
0
100
AcDbCircle
 10
453.924142583576
 20
153.0639212721249
 30
0.0
 40
0.5
100
AcDbArc
 50
0.0
 51
90.0
  0
LINE
  5
A12
330
2
100
AcDbEntity
  8
0
100
AcDbLine
 10
454.4241425835759
 20
152.5624642721249
 30
0.0
 11
454.4241425835759
 21
155.5473422721248
 31
0.0
  0
LINE
  5
A13
330
2
100
AcDbEntity
  8
0
100
AcDbLine
 10
448.6741425835759
 20
153.5637222721248
 30
0.0
 11
448.6741425835759
 21
155.0031222721248
 31
0.0
  0
LINE
  5
A14
330
2
100
AcDbEntity
  8
0
100
AcDbLine
 10
454.1741425835759
 20
154.2639182721249
 30
0.0
 11
448.6741425835759
 21
154.2639182721249
 31
0.0
  0
ARC
  5
A15
330
2
100
AcDbEntity
  8
0
100
AcDbCircle
 10
451.4241425835759
 20
149.2639182721249
 30
0.0
 40
7.0
100
AcDbArc
 50
73.04197700000047
 51
106.9564969999992
  0
ARC
  5
A16
330
2
100
AcDbEntity
  8
0
100
AcDbCircle
 10
460.4241425835759
 20
150.4574302721249
 30
0.0
 40
2.0
100
AcDbArc
 50
0.0
 51
89.00013699999925
  0
LINE
  5
A17
330
2
100
AcDbEntity
  8
0
100
AcDbLine
 10
465.424142583576
 20
140.3639162721249
 30
0.0
 11
464.4241425835761
 21
140.3639162721249
 31
0.0
  0
ARC
  5
A18
330
2
100
AcDbEntity
  8
0
100
AcDbCircle
 10
465.424142583576
 20
139.3639162721249
 30
0.0
 40
1.0
100
AcDbArc
 50
0.0
 51
90.0
  0
ARC
  5
FCC
330
2
100
AcDbEntity
  8
0
100
AcDbCircle
 10
464.4241425835761
 20
142.3639162721249
 30
0.0
 40
2.0
100
AcDbArc
 50
180.0
 51
270.0
  0
ARC
  5
FCD
330
2
100
AcDbEntity
  8
0
100
AcDbCircle
 10
464.4241425835761
 20
98.36391627212492
 30
0.0
 40
2.0
100
AcDbArc
 50
90.00000000000003
 51
180.0
  0
ARC
  5
FCE
330
2
100
AcDbEntity
  8
0
100
AcDbCircle
 10
398.4241425835758
 20
98.36391627212492
 30
0.0
 40
2.0
100
AcDbArc
 50
0.000000000000007
 51
89.99999999999998
  0
ARC
  5
FCF
330
2
100
AcDbEntity
  8
0
100
AcDbCircle
 10
398.4241425835758
 20
142.3639162721249
 30
0.0
 40
2.0
100
AcDbArc
 50
270.0
 51
0.000000000000007
  0
ARC
  5
FD0
330
2
100
AcDbEntity
  8
0
100
AcDbCircle
 10
214.6563785967731
 20
326.561176738366
 30
0.0
 40
2.0
100
AcDbArc
 50
270.0
 51
0.0
  0
ARC
  5
FD1
330
2
100
AcDbEntity
  8
0
100
AcDbCircle
 10
217.6563785967732
 20
327.5611767383659
 30
0.0
 40
1.0
100
AcDbArc
 50
90.0
 51
180.0
  0
LINE
  5
FD2
330
2
100
AcDbEntity
  8
0
100
AcDbLine
 10
216.6563785967731
 20
327.5611767383659
 30
0.0
 11
216.6563785967731
 21
326.561176738366
 31
0.0
  0
LINE
  5
FD3
330
2
100
AcDbEntity
  8
0
100
AcDbLine
 10
255.6563785967731
 20
328.5611767383659
 30
0.0
 11
217.6563785967731
 21
328.5611767383659
 31
0.0
  0
ARC
  5
FD4
330
2
100
AcDbEntity
  8
0
100
AcDbCircle
 10
258.6563785967731
 20
326.561176738366
 30
0.0
 40
2.0
100
AcDbArc
 50
180.0
 51
270.0
  0
LINE
  5
FD5
330
2
100
AcDbEntity
  8
0
100
AcDbLine
 10
256.6563785967731
 20
327.5611767383659
 30
0.0
 11
256.6563785967731
 21
326.561176738366
 31
0.0
  0
ARC
  5
FD6
330
2
100
AcDbEntity
  8
0
100
AcDbCircle
 10
255.6563785967731
 20
327.5611767383659
 30
0.0
 40
1.0
100
AcDbArc
 50
0.0
 51
90.0
  0
ARC
  5
FD8
330
2
100
AcDbEntity
  8
0
100
AcDbCircle
 10
258.6563785967731
 20
260.5611767383657
 30
0.0
 40
2.0
100
AcDbArc
 50
90.00000000000003
 51
179.9999999999999
  0
ARC
  5
FD9
330
2
100
AcDbEntity
  8
0
100
AcDbCircle
 10
214.6563865967731
 20
260.5611767383657
 30
0.0
 40
2.0
100
AcDbArc
 50
0.0
 51
90.0
  0
ENDSEC
  0
SECTION
  2
OBJECTS
  0
DICTIONARY
  5
7
330
0
100
AcDbDictionary
  3
ACAD_GROUP
350
75
  3
ACAD_LAYOUT
350
61
  3
ACAD_MLINESTYLE
350
76
  3
ACAD_PLOTSETTINGS
350
77
  3
ACAD_PLOTSTYLENAME
350
6
  3
ACADDIM
350
480
  3
ACDBHEADERROUNDTRIPXREC
350
101C
  3
ACDBVARIABLEDICTIONARY
350
102
  3
DWGPROPS
350
FC2
  0
DICTIONARY
  5
103D
330
2
100
AcDbDictionary
280
     1
  3
ACAD_LAYOUTSELFREF
360
103E
  0
DICTIONARY
  5
103F
330
1016
100
AcDbDictionary
280
     1
  3
ACAD_LAYOUTSELFREF
360
1040
  0
DICTIONARY
  5
75
102
{ACAD_REACTORS
330
7
102
}
330
7
100
AcDbDictionary
  0
DICTIONARY
  5
61
102
{ACAD_REACTORS
330
7
102
}
330
7
100
AcDbDictionary
  0
DICTIONARY
  5
76
102
{ACAD_REACTORS
330
7
102
}
330
7
100
AcDbDictionary
  3
STANDARD
350
78
  0
DICTIONARY
  5
77
102
{ACAD_REACTORS
330
7
102
}
330
7
100
AcDbDictionary
  0
ACDBDICTIONARYWDFLT
  5
6
102
{ACAD_REACTORS
330
7
102
}
330
7
100
AcDbDictionary
281
     1
  3
Normal
350
5
100
AcDbDictionaryWithDefault
340
5
  0
XRECORD
  5
480
102
{ACAD_REACTORS
330
7
102
}
330
7
100
AcDbXrecord
 90
   990106
  3

 60
     0
 61
     0
 62
     1
 63
     3
 64
     1
 65
     0
 66
     0
 67
     3
 68
     1
 69
     0
 70
     0
 71
     0
 72
     0
 40
0.0
170
     2
340
0
  0
DICTIONARY
  5
101C
102
{ACAD_REACTORS
330
7
102
}
330
7
100
AcDbDictionary
  3
CEPSNTYPE
350
1026
  3
DIMSTYLEDATA
350
102A
  3
FINGERPRINTGUID
350
1027
  3
HYPERLINKBASE
350
101F
  3
INSUNITS
350
1025
  3
LAYOUTDICT
350
1021
  3
LWETCUNION
350
1024
  3
PLOTSETDICT
350
1022
  3
PLOTSTYLNAMDICT
350
1023
  3
PSVPSCALE
350
1029
  3
PUCSBASE
350
102D
  3
PUCSORGBACK
350
1033
  3
PUCSORGBOTTOM
350
102F
  3
PUCSORGFRONT
350
1032
  3
PUCSORGLEFT
350
1030
  3
PUCSORGRIGHT
350
1031
  3
PUCSORGTOP
350
102E
  3
PUCSORTHOREF
350
102B
  3
PUCSORTHOVIEW
350
102C
  3
STYLESHEET
350
1020
  3
TSTACKALIGN
350
101D
  3
TSTACKSIZE
350
101E
  3
UCSBASE
350
1036
  3
UCSORGBACK
350
103C
  3
UCSORGBOTTOM
350
1038
  3
UCSORGFRONT
350
103B
  3
UCSORGLEFT
350
1039
  3
UCSORGRIGHT
350
103A
  3
UCSORGTOP
350
1037
  3
UCSORTHOREF
350
1034
  3
UCSORTHOVIEW
350
1035
  3
VERSIONGUID
350
1028
  0
DICTIONARY
  5
102
102
{ACAD_REACTORS
330
7
102
}
330
7
100
AcDbDictionary
  3
DIMASSOC
350
103
  0
XRECORD
  5
FC2
102
{ACAD_REACTORS
330
7
102
}
330
7
100
AcDbXrecord
  1
DWGPROPS COOKIE
  2

  3

  4

  6

  7

  8

  9

300
=
301
=
302
=
303
=
304
=
305
=
306
=
307
=
308
=
309
=
 40
0.1759660416666666
 41
2453761.461251261
 42
2454397.68995243
  1

 90
        0
  0
XRECORD
  5
103E
102
{ACAD_REACTORS
330
103D
102
}
330
103D
100
AcDbXrecord
340
2
  0
XRECORD
  5
1040
102
{ACAD_REACTORS
330
103F
102
}
330
103F
100
AcDbXrecord
340
1016
  0
MLINESTYLE
  5
78
102
{ACAD_REACTORS
330
76
102
}
330
76
100
AcDbMlineStyle
  2
STANDARD
 70
     0
  3

 62
     0
 51
90.0
 52
90.0
 71
     2
 49
0.5
 62
   256
  6
BYLAYER
 49
-0.5
 62
   256
  6
BYLAYER
  0
ACDBPLACEHOLDER
  5
5
102
{ACAD_REACTORS
330
6
102
}
330
6
100
AcDbPlaceHolder
280
     0
  0
XRECORD
  5
1026
102
{ACAD_REACTORS
330
101C
102
}
330
101C
100
AcDbXrecord
 90
        0
  0
XRECORD
  5
102A
102
{ACAD_REACTORS
330
101C
102
}
330
101C
100
AcDbXrecord
1000
DSTYLE
1002
{
1070
   179
 70
     2
1070
   277
 70
     6
1002
}
  0
XRECORD
  5
1027
102
{ACAD_REACTORS
330
101C
102
}
330
101C
100
AcDbXrecord
  1
{6385560B-F4B1-4644-A7C2-A3E32AC3D232}
  0
XRECORD
  5
101F
102
{ACAD_REACTORS
330
101C
102
}
330
101C
100
AcDbXrecord
  1

  0
XRECORD
  5
1025
102
{ACAD_REACTORS
330
101C
102
}
330
101C
100
AcDbXrecord
 90
        0
  0
XRECORD
  5
1021
102
{ACAD_REACTORS
330
101C
102
}
330
101C
100
AcDbXrecord
340
61
  0
XRECORD
  5
1024
102
{ACAD_REACTORS
330
101C
102
}
330
101C
100
AcDbXrecord
 90
    10781
  0
XRECORD
  5
1022
102
{ACAD_REACTORS
330
101C
102
}
330
101C
100
AcDbXrecord
340
77
  0
XRECORD
  5
1023
102
{ACAD_REACTORS
330
101C
102
}
330
101C
100
AcDbXrecord
340
6
  0
XRECORD
  5
1029
102
{ACAD_REACTORS
330
101C
102
}
330
101C
100
AcDbXrecord
 40
0.0
  0
XRECORD
  5
102D
102
{ACAD_REACTORS
330
101C
102
}
330
101C
100
AcDbXrecord
340
0
  0
XRECORD
  5
1033
102
{ACAD_REACTORS
330
101C
102
}
330
101C
100
AcDbXrecord
 10
0.0
 20
0.0
 30
0.0
  0
XRECORD
  5
102F
102
{ACAD_REACTORS
330
101C
102
}
330
101C
100
AcDbXrecord
 10
0.0
 20
0.0
 30
0.0
  0
XRECORD
  5
1032
102
{ACAD_REACTORS
330
101C
102
}
330
101C
100
AcDbXrecord
 10
0.0
 20
0.0
 30
0.0
  0
XRECORD
  5
1030
102
{ACAD_REACTORS
330
101C
102
}
330
101C
100
AcDbXrecord
 10
0.0
 20
0.0
 30
0.0
  0
XRECORD
  5
1031
102
{ACAD_REACTORS
330
101C
102
}
330
101C
100
AcDbXrecord
 10
0.0
 20
0.0
 30
0.0
  0
XRECORD
  5
102E
102
{ACAD_REACTORS
330
101C
102
}
330
101C
100
AcDbXrecord
 10
0.0
 20
0.0
 30
0.0
  0
XRECORD
  5
102B
102
{ACAD_REACTORS
330
101C
102
}
330
101C
100
AcDbXrecord
340
0
  0
XRECORD
  5
102C
102
{ACAD_REACTORS
330
101C
102
}
330
101C
100
AcDbXrecord
 70
     0
  0
XRECORD
  5
1020
102
{ACAD_REACTORS
330
101C
102
}
330
101C
100
AcDbXrecord
  1
Sekkei.ctb
  0
XRECORD
  5
101D
102
{ACAD_REACTORS
330
101C
102
}
330
101C
100
AcDbXrecord
 90
        1
  0
XRECORD
  5
101E
102
{ACAD_REACTORS
330
101C
102
}
330
101C
100
AcDbXrecord
 90
       70
  0
XRECORD
  5
1036
102
{ACAD_REACTORS
330
101C
102
}
330
101C
100
AcDbXrecord
340
0
  0
XRECORD
  5
103C
102
{ACAD_REACTORS
330
101C
102
}
330
101C
100
AcDbXrecord
 10
0.0
 20
0.0
 30
0.0
  0
XRECORD
  5
1038
102
{ACAD_REACTORS
330
101C
102
}
330
101C
100
AcDbXrecord
 10
0.0
 20
0.0
 30
0.0
  0
XRECORD
  5
103B
102
{ACAD_REACTORS
330
101C
102
}
330
101C
100
AcDbXrecord
 10
0.0
 20
0.0
 30
0.0
  0
XRECORD
  5
1039
102
{ACAD_REACTORS
330
101C
102
}
330
101C
100
AcDbXrecord
 10
0.0
 20
0.0
 30
0.0
  0
XRECORD
  5
103A
102
{ACAD_REACTORS
330
101C
102
}
330
101C
100
AcDbXrecord
 10
0.0
 20
0.0
 30
0.0
  0
XRECORD
  5
1037
102
{ACAD_REACTORS
330
101C
102
}
330
101C
100
AcDbXrecord
 10
0.0
 20
0.0
 30
0.0
  0
XRECORD
  5
1034
102
{ACAD_REACTORS
330
101C
102
}
330
101C
100
AcDbXrecord
340
0
  0
XRECORD
  5
1035
102
{ACAD_REACTORS
330
101C
102
}
330
101C
100
AcDbXrecord
 70
     0
  0
XRECORD
  5
1028
102
{ACAD_REACTORS
330
101C
102
}
330
101C
100
AcDbXrecord
  1
{6875E15F-61E7-40D8-B8D7-1C62E72BBD5F}
  0
DICTIONARYVAR
  5
103
102
{ACAD_REACTORS
330
102
102
}
330
102
100
DictionaryVariables
280
     0
  1
1
  0
ENDSEC
  0
EOF
