  0
SECTION
  2
HEADER
  9
$ACADVER
  1
AC1015
  9
$ACADMAINTVER
 70
    20
  9
$DWGCODEPAGE
  3
ANSI_932
  9
$INSBASE
 10
0.0
 20
0.0
 30
0.0
  9
$EXTMIN
 10
25.843728101
 20
24.8486608362
 30
0.0
  9
$EXTMAX
 10
478.4241465836
 20
347.5611767384
 30
0.0
  9
$LIMMIN
 10
0.0
 20
0.0
  9
$LIMMAX
 10
297.0
 20
210.0
  9
$ORTHOMODE
 70
     0
  9
$REGENMODE
 70
     1
  9
$FILLMODE
 70
     1
  9
$QTEXTMODE
 70
     0
  9
$MIRRTEXT
 70
     0
  9
$LTSCALE
 40
2.0
  9
$ATTMODE
 70
     1
  9
$TEXTSIZE
 40
2.0
  9
$TRACEWID
 40
1.0
  9
$TEXTSTYLE
  7
STANDARD
  9
$CLAYER
  8
0
  9
$CELTYPE
  6
BYLAYER
  9
$CECOLOR
 62
   256
  9
$CELTSCALE
 40
1.0
  9
$DISPSILH
 70
     0
  9
$DIMSCALE
 40
2.0
  9
$DIMASZ
 40
1.8
  9
$DIMEXO
 40
0.625
  9
$DIMDLI
 40
3.75
  9
$DIMRND
 40
0.0
  9
$DIMDLE
 40
0.0
  9
$DIMEXE
 40
0.8
  9
$DIMTP
 40
0.0
  9
$DIMTM
 40
0.0
  9
$DIMTXT
 40
1.8
  9
$DIMCEN
 40
2.5
  9
$DIMTSZ
 40
0.0
  9
$DIMTOL
 70
     0
  9
$DIMLIM
 70
     0
  9
$DIMTIH
 70
     0
  9
$DIMTOH
 70
     0
  9
$DIMSE1
 70
     0
  9
$DIMSE2
 70
     0
  9
$DIMTAD
 70
     1
  9
$DIMZIN
 70
     8
  9
$DIMBLK
  1

  9
$DIMASO
 70
     1
  9
$DIMSHO
 70
     1
  9
$DIMPOST
  1

  9
$DIMAPOST
  1

  9
$DIMALT
 70
     0
  9
$DIMALTD
 70
     4
  9
$DIMALTF
 40
0.0394
  9
$DIMLFAC
 40
1.0
  9
$DIMTOFL
 70
     1
  9
$DIMTVP
 40
0.0
  9
$DIMTIX
 70
     0
  9
$DIMSOXD
 70
     0
  9
$DIMSAH
 70
     0
  9
$DIMBLK1
  1

  9
$DIMBLK2
  1

  9
$DIMSTYLE
  2
STANDARD
  9
$DIMCLRD
 70
     0
  9
$DIMCLRE
 70
     0
  9
$DIMCLRT
 70
     0
  9
$DIMTFAC
 40
1.0
  9
$DIMGAP
 40
0.75
  9
$DIMJUST
 70
     0
  9
$DIMSD1
 70
     0
  9
$DIMSD2
 70
     0
  9
$DIMTOLJ
 70
     1
  9
$DIMTZIN
 70
     0
  9
$DIMALTZ
 70
     0
  9
$DIMALTTZ
 70
     0
  9
$DIMUPT
 70
     0
  9
$DIMDEC
 70
     2
  9
$DIMTDEC
 70
     2
  9
$DIMALTU
 70
     8
  9
$DIMALTTD
 70
     4
  9
$DIMTXSTY
  7
STANDARD
  9
$DIMAUNIT
 70
     0
  9
$DIMADEC
 70
     2
  9
$DIMALTRND
 40
0.0
  9
$DIMAZIN
 70
     0
  9
$DIMDSEP
 70
    46
  9
$DIMATFIT
 70
     3
  9
$DIMFRAC
 70
     0
  9
$DIMLDRBLK
  1

  9
$DIMLUNIT
 70
     6
  9
$DIMLWD
 70
    -2
  9
$DIMLWE
 70
    -2
  9
$DIMTMOVE
 70
     0
  9
$LUNITS
 70
     2
  9
$LUPREC
 70
     3
  9
$SKETCHINC
 40
1.0
  9
$FILLETRAD
 40
10.0
  9
$AUNITS
 70
     0
  9
$AUPREC
 70
     2
  9
$MENU
  1
.
  9
$ELEVATION
 40
0.0
  9
$PELEVATION
 40
0.0
  9
$THICKNESS
 40
0.0
  9
$LIMCHECK
 70
     0
  9
$CHAMFERA
 40
0.0
  9
$CHAMFERB
 40
0.0
  9
$CHAMFERC
 40
20.0
  9
$CHAMFERD
 40
0.0
  9
$SKPOLY
 70
     0
  9
$TDCREATE
 40
2453761.461250000
  9
$TDUCREATE
 40
2453761.086251262
  9
$TDUPDATE
 40
2460516.514386574
  9
$TDUUPDATE
 40
2460516.139386574
  9
$TDINDWG
 40
0.1879925694
  9
$TDUSRTIMER
 40
0.1879925694
  9
$USRTIMER
 70
     1
  9
$ANGBASE
 50
0.0
  9
$ANGDIR
 70
     0
  9
$PDMODE
 70
     0
  9
$PDSIZE
 40
-10.0
  9
$PLINEWID
 40
0.0
  9
$SPLFRAME
 70
     0
  9
$SPLINETYPE
 70
     6
  9
$SPLINESEGS
 70
     8
  9
$HANDSEED
  5
1379
  9
$SURFTAB1
 70
     6
  9
$SURFTAB2
 70
     6
  9
$SURFTYPE
 70
     6
  9
$SURFU
 70
     6
  9
$SURFV
 70
     6
  9
$UCSBASE
  2

  9
$UCSNAME
  2

  9
$UCSORG
 10
0.0
 20
0.0
 30
0.0
  9
$UCSXDIR
 10
1.0
 20
0.0
 30
0.0
  9
$UCSYDIR
 10
0.0
 20
1.0
 30
0.0
  9
$UCSORTHOREF
  2

  9
$UCSORTHOVIEW
 70
     0
  9
$UCSORGTOP
 10
0.0
 20
0.0
 30
0.0
  9
$UCSORGBOTTOM
 10
0.0
 20
0.0
 30
0.0
  9
$UCSORGLEFT
 10
0.0
 20
0.0
 30
0.0
  9
$UCSORGRIGHT
 10
0.0
 20
0.0
 30
0.0
  9
$UCSORGFRONT
 10
0.0
 20
0.0
 30
0.0
  9
$UCSORGBACK
 10
0.0
 20
0.0
 30
0.0
  9
$PUCSBASE
  2

  9
$PUCSNAME
  2

  9
$PUCSORG
 10
0.0
 20
0.0
 30
0.0
  9
$PUCSXDIR
 10
1.0
 20
0.0
 30
0.0
  9
$PUCSYDIR
 10
0.0
 20
1.0
 30
0.0
  9
$PUCSORTHOREF
  2

  9
$PUCSORTHOVIEW
 70
     0
  9
$PUCSORGTOP
 10
0.0
 20
0.0
 30
0.0
  9
$PUCSORGBOTTOM
 10
0.0
 20
0.0
 30
0.0
  9
$PUCSORGLEFT
 10
0.0
 20
0.0
 30
0.0
  9
$PUCSORGRIGHT
 10
0.0
 20
0.0
 30
0.0
  9
$PUCSORGFRONT
 10
0.0
 20
0.0
 30
0.0
  9
$PUCSORGBACK
 10
0.0
 20
0.0
 30
0.0
  9
$USERI1
 70
     0
  9
$USERI2
 70
     0
  9
$USERI3
 70
     0
  9
$USERI4
 70
     0
  9
$USERI5
 70
     0
  9
$USERR1
 40
0.0
  9
$USERR2
 40
0.0
  9
$USERR3
 40
0.0
  9
$USERR4
 40
0.0
  9
$USERR5
 40
0.0
  9
$WORLDVIEW
 70
     1
  9
$SHADEDGE
 70
     3
  9
$SHADEDIF
 70
    70
  9
$TILEMODE
 70
     1
  9
$MAXACTVP
 70
    48
  9
$PINSBASE
 10
0.0
 20
0.0
 30
0.0
  9
$PLIMCHECK
 70
     0
  9
$PEXTMIN
 10
0.0
 20
0.0
 30
0.0
  9
$PEXTMAX
 10
0.0
 20
0.0
 30
0.0
  9
$PLIMMIN
 10
0.0
 20
0.0
  9
$PLIMMAX
 10
12.0
 20
9.0
  9
$UNITMODE
 70
     0
  9
$VISRETAIN
 70
     1
  9
$PLINEGEN
 70
     0
  9
$PSLTSCALE
 70
     1
  9
$TREEDEPTH
 70
  3020
  9
$CMLSTYLE
  2
STANDARD
  9
$CMLJUST
 70
     0
  9
$CMLSCALE
 40
1.0
  9
$PROXYGRAPHICS
 70
     1
  9
$MEASUREMENT
 70
     0
  9
$CELWEIGHT
370
    -1
  9
$ENDCAPS
280
     0
  9
$JOINSTYLE
280
     0
  9
$LWDISPLAY
290
     0
  9
$INSUNITS
 70
     0
  9
$HYPERLINKBASE
  1

  9
$STYLESHEET
  1
SEKKEI.CTB
  9
$XEDIT
290
     1
  9
$CEPSNTYPE
380
     0
  9
$PSTYLEMODE
290
     1
  9
$FINGERPRINTGUID
  2
{6385560B-F4B1-4644-A7C2-A3E32AC3D232}
  9
$VERSIONGUID
  2
{7F85A620-B0EB-7944-9415-E09824400C6A}
  9
$EXTNAMES
290
     1
  9
$PSVPSCALE
 40
0.0
  9
$OLESTARTUP
290
     0
  0
ENDSEC
  0
SECTION
  2
CLASSES
  0
CLASS
  1
DICTIONARYVAR
  2
AcDbDictionaryVar
  3
ObjectDBX Classes
 90
        0
280
     0
281
     0
  0
CLASS
  1
ACDBDICTIONARYWDFLT
  2
AcDbDictionaryWithDefault
  3
ObjectDBX Classes
 90
        0
280
     0
281
     0
  0
CLASS
  1
MATERIAL
  2
AcDbMaterial
  3
ObjectDBX Classes
 90
     1153
280
     0
281
     0
  0
CLASS
  1
VISUALSTYLE
  2
AcDbVisualStyle
  3
ObjectDBX Classes
 90
     4095
280
     0
281
     0
  0
CLASS
  1
TABLESTYLE
  2
AcDbTableStyle
  3
ObjectDBX Classes
 90
     4095
280
     0
281
     0
  0
CLASS
  1
SCALE
  2
AcDbScale
  3
ObjectDBX Classes
 90
     1153
280
     0
281
     0
  0
CLASS
  1
MLEADERSTYLE
  2
AcDbMLeaderStyle
  3
ACDB_MLEADERSTYLE_CLASS
 90
     4095
280
     0
281
     0
  0
CLASS
  1
CELLSTYLEMAP
  2
AcDbCellStyleMap
  3
ObjectDBX Classes
 90
     1152
280
     0
281
     0
  0
CLASS
  1
ACDBPLACEHOLDER
  2
AcDbPlaceHolder
  3
ObjectDBX Classes
 90
        0
280
     0
281
     0
  0
CLASS
  1
LAYOUT
  2
AcDbLayout
  3
ObjectDBX Classes
 90
        0
280
     0
281
     0
  0
CLASS
  1
ACDBSECTIONVIEWSTYLE
  2
AcDbSectionViewStyle
  3
ObjectDBX Classes
 90
     1025
280
     0
281
     0
  0
CLASS
  1
ACDBDETAILVIEWSTYLE
  2
AcDbDetailViewStyle
  3
ObjectDBX Classes
 90
     1025
280
     0
281
     0
  0
CLASS
  1
SORTENTSTABLE
  2
AcDbSortentsTable
  3
ObjectDBX Classes
 90
        0
280
     0
281
     0
  0
ENDSEC
  0
SECTION
  2
TABLES
  0
TABLE
  2
VPORT
  5
6E
102
{ACAD_XDICTIONARY
360
105A
102
}
330
0
100
AcDbSymbolTable
 70
     1
  0
VPORT
  5
FDA
330
6E
100
AcDbSymbolTableRecord
100
AcDbViewportTableRecord
  2
*Active
 70
     0
 10
0.0
 20
0.0
 11
1.0
 21
1.0
 12
279.5162270615
 22
192.2223332384
 13
0.0
 23
0.0
 14
10.0
 24
10.0
 15
10.0
 25
10.0
 16
0.0
 26
0.0
 36
1.0
 17
0.0
 27
0.0
 37
0.0
 40
325.1278972001
 41
2.2984693878
 42
50.0
 43
0.0
 44
0.0
 50
0.0
 51
0.0
 71
     0
 72
   100
 73
     1
 74
     3
 75
     0
 76
     0
 77
     0
 78
     0
281
     0
 65
     1
110
0.0
120
0.0
130
0.0
111
1.0
121
0.0
131
0.0
112
0.0
122
1.0
132
0.0
 79
     0
146
0.0
1001
ACAD_NAV_VCDISPLAY
1070
     3
  0
ENDTAB
  0
TABLE
  2
LTYPE
  5
69
330
0
100
AcDbSymbolTable
 70
     4
  0
LTYPE
  5
6A
330
69
100
AcDbSymbolTableRecord
100
AcDbLinetypeTableRecord
  2
BYBLOCK
 70
     0
  3

 72
    65
 73
     0
 40
0.0
  0
LTYPE
  5
6B
330
69
100
AcDbSymbolTableRecord
100
AcDbLinetypeTableRecord
  2
BYLAYER
 70
     0
  3

 72
    65
 73
     0
 40
0.0
  0
LTYPE
  5
8
330
69
100
AcDbSymbolTableRecord
100
AcDbLinetypeTableRecord
  2
CONTINUOUS
 70
     0
  3
Solid line
 72
    65
 73
     0
 40
0.0
  0
LTYPE
  5
27C
330
69
100
AcDbSymbolTableRecord
100
AcDbLinetypeTableRecord
  2
sekkei(A2)
 70
     0
  3
center(A2)  ____ _ ____ _ ____ _ ____ _ ____ _ 
 72
    65
 73
     4
 40
14.2875
 49
9.525
 74
     0
 49
-1.5875
 74
     0
 49
1.5875
 74
     0
 49
-1.5875
 74
     0
  0
LTYPE
  5
2B4
330
69
100
AcDbSymbolTableRecord
100
AcDbLinetypeTableRecord
  2
HIDDEN2
 70
     0
  3
Hidden (.5x) _ _ _ _ _ _ _ _ _ _ _ _ _ _ _ _ _
 72
    65
 73
     2
 40
4.7625
 49
3.175
 74
     0
 49
-1.5875
 74
     0
  0
LTYPE
  5
48F
330
69
100
AcDbSymbolTableRecord
100
AcDbLinetypeTableRecord
  2
sekkei_H
 70
     0
  3
Hidden-S _ _ _ _ _ _ _ _ _ _ _ _ _ _ _ _ _
 72
    65
 73
     2
 40
2.38125
 49
1.5875
 74
     0
 49
-0.79375
 74
     0
  0
ENDTAB
  0
TABLE
  2
LAYER
  5
66
102
{ACAD_XDICTIONARY
360
11A0
102
}
330
0
100
AcDbSymbolTable
 70
     9
  0
LAYER
  5
5E
102
{ACAD_XDICTIONARY
360
1030
102
}
330
66
100
AcDbSymbolTableRecord
100
AcDbLayerTableRecord
  2
0
 70
     0
 62
     7
  6
CONTINUOUS
370
    -3
390
5
  0
LAYER
  5
3E
102
{ACAD_XDICTIONARY
360
1032
102
}
330
66
100
AcDbSymbolTableRecord
100
AcDbLayerTableRecord
  2
CENTER
 70
     0
 62
     3
  6
sekkei(A2)
370
    -3
390
5
  0
LAYER
  5
135
330
66
100
AcDbSymbolTableRecord
100
AcDbLayerTableRecord
  2
DEFPOINTS
 70
     0
 62
     7
  6
CONTINUOUS
290
     0
370
    -3
390
5
  0
LAYER
  5
2B5
102
{ACAD_XDICTIONARY
360
1038
102
}
330
66
100
AcDbSymbolTableRecord
100
AcDbLayerTableRecord
  2
HIDS
 70
     0
 62
     1
  6
HIDDEN2
370
    -3
390
5
  0
LAYER
  5
2BA
102
{ACAD_XDICTIONARY
360
103A
102
}
330
66
100
AcDbSymbolTableRecord
100
AcDbLayerTableRecord
  2
HOJO
 70
     0
 62
     4
  6
CONTINUOUS
370
    -3
390
5
  0
LAYER
  5
3FA
102
{ACAD_XDICTIONARY
360
103E
102
}
330
66
100
AcDbSymbolTableRecord
100
AcDbLayerTableRecord
  2
TITLE
 70
     0
 62
     4
  6
CONTINUOUS
290
     0
370
    -3
390
5
  0
ENDTAB
  0
TABLE
  2
STYLE
  5
67
330
0
100
AcDbSymbolTable
 70
     1
  0
STYLE
  5
16
330
67
100
AcDbSymbolTableRecord
100
AcDbTextStyleTableRecord
  2
STANDARD
 70
     0
 40
0.0
 41
1.0
 50
0.0
 71
     0
 42
2.0
  3
simplex.shx
  4
extfont.shx
  0
ENDTAB
  0
TABLE
  2
VIEW
  5
6C
330
0
100
AcDbSymbolTable
 70
     0
  0
ENDTAB
  0
TABLE
  2
UCS
  5
6D
330
0
100
AcDbSymbolTable
 70
     0
  0
ENDTAB
  0
TABLE
  2
APPID
  5
70
330
0
100
AcDbSymbolTable
 70
     4
  0
APPID
  5
71
330
70
100
AcDbSymbolTableRecord
100
AcDbRegAppTableRecord
  2
ACAD
 70
     0
  0
APPID
  5
102D
330
70
100
AcDbSymbolTableRecord
100
AcDbRegAppTableRecord
  2
ACAD_MLEADERVER
 70
     0
  0
APPID
  5
10D1
330
70
100
AcDbSymbolTableRecord
100
AcDbRegAppTableRecord
  2
ACAD_NAV_VCDISPLAY
 70
     0
  0
APPID
  5
1283
330
70
100
AcDbSymbolTableRecord
100
AcDbRegAppTableRecord
  2
ACAD_EXEMPT_FROM_CAD_STANDARDS
 70
     0
  0
ENDTAB
  0
TABLE
  2
DIMSTYLE
  5
72
330
0
100
AcDbSymbolTable
 70
     1
100
AcDbDimStyleTable
 71
     1
340
73
  0
DIMSTYLE
105
73
102
{ACAD_REACTORS
330
871
330
8E2
102
}
330
72
100
AcDbSymbolTableRecord
100
AcDbDimStyleTableRecord
  2
STANDARD
 70
     0
 40
2.0
 41
1.8
 42
0.625
 43
3.75
 44
0.8
 73
     0
 74
     0
 77
     1
 78
     8
140
1.8
141
2.5
143
0.0394
147
0.75
171
     4
172
     1
179
     2
271
     2
272
     2
273
     8
274
     4
277
     6
340
16
  0
ENDTAB
  0
TABLE
  2
BLOCK_RECORD
  5
1
330
0
100
AcDbSymbolTable
 70
    53
  0
BLOCK_RECORD
  5
2
330
1
100
AcDbSymbolTableRecord
100
AcDbBlockTableRecord
  2
*MODEL_SPACE
340
60
  0
BLOCK_RECORD
  5
131C
330
1
100
AcDbSymbolTableRecord
100
AcDbBlockTableRecord
  2
*Paper_Space
340
131D
  0
BLOCK_RECORD
  5
4AC
330
1
100
AcDbSymbolTableRecord
100
AcDbBlockTableRecord
  2
黒丸矢印1
340
0
  0
BLOCK_RECORD
  5
A19
330
1
100
AcDbSymbolTableRecord
100
AcDbBlockTableRecord
  2
*D3
340
0
  0
BLOCK_RECORD
  5
A25
330
1
100
AcDbSymbolTableRecord
100
AcDbBlockTableRecord
  2
*D4
340
0
  0
BLOCK_RECORD
  5
A31
330
1
100
AcDbSymbolTableRecord
100
AcDbBlockTableRecord
  2
*D5
340
0
  0
BLOCK_RECORD
  5
A3D
330
1
100
AcDbSymbolTableRecord
100
AcDbBlockTableRecord
  2
*D6
340
0
  0
BLOCK_RECORD
  5
A49
330
1
100
AcDbSymbolTableRecord
100
AcDbBlockTableRecord
  2
*D7
340
0
  0
BLOCK_RECORD
  5
A55
330
1
100
AcDbSymbolTableRecord
100
AcDbBlockTableRecord
  2
*D8
340
0
  0
BLOCK_RECORD
  5
A61
330
1
100
AcDbSymbolTableRecord
100
AcDbBlockTableRecord
  2
*D9
340
0
  0
BLOCK_RECORD
  5
A6D
330
1
100
AcDbSymbolTableRecord
100
AcDbBlockTableRecord
  2
*D10
340
0
  0
BLOCK_RECORD
  5
A79
330
1
100
AcDbSymbolTableRecord
100
AcDbBlockTableRecord
  2
*D11
340
0
  0
BLOCK_RECORD
  5
A85
330
1
100
AcDbSymbolTableRecord
100
AcDbBlockTableRecord
  2
*D12
340
0
  0
BLOCK_RECORD
  5
A91
330
1
100
AcDbSymbolTableRecord
100
AcDbBlockTableRecord
  2
*D13
340
0
  0
BLOCK_RECORD
  5
A9D
330
1
100
AcDbSymbolTableRecord
100
AcDbBlockTableRecord
  2
*D14
340
0
  0
BLOCK_RECORD
  5
AAB
330
1
100
AcDbSymbolTableRecord
100
AcDbBlockTableRecord
  2
*D15
340
0
  0
BLOCK_RECORD
  5
AB7
330
1
100
AcDbSymbolTableRecord
100
AcDbBlockTableRecord
  2
*D16
340
0
  0
BLOCK_RECORD
  5
AC3
330
1
100
AcDbSymbolTableRecord
100
AcDbBlockTableRecord
  2
*D17
340
0
  0
BLOCK_RECORD
  5
ACF
330
1
100
AcDbSymbolTableRecord
100
AcDbBlockTableRecord
  2
*D18
340
0
  0
BLOCK_RECORD
  5
ADB
330
1
100
AcDbSymbolTableRecord
100
AcDbBlockTableRecord
  2
*D19
340
0
  0
BLOCK_RECORD
  5
AE7
330
1
100
AcDbSymbolTableRecord
100
AcDbBlockTableRecord
  2
*D20
340
0
  0
BLOCK_RECORD
  5
AF3
330
1
100
AcDbSymbolTableRecord
100
AcDbBlockTableRecord
  2
*D21
340
0
  0
BLOCK_RECORD
  5
AFF
330
1
100
AcDbSymbolTableRecord
100
AcDbBlockTableRecord
  2
*D22
340
0
  0
BLOCK_RECORD
  5
B0B
330
1
100
AcDbSymbolTableRecord
100
AcDbBlockTableRecord
  2
*D23
340
0
  0
BLOCK_RECORD
  5
B17
330
1
100
AcDbSymbolTableRecord
100
AcDbBlockTableRecord
  2
*D24
340
0
  0
BLOCK_RECORD
  5
B23
330
1
100
AcDbSymbolTableRecord
100
AcDbBlockTableRecord
  2
*D25
340
0
  0
BLOCK_RECORD
  5
B2F
330
1
100
AcDbSymbolTableRecord
100
AcDbBlockTableRecord
  2
*D26
340
0
  0
BLOCK_RECORD
  5
B3B
330
1
100
AcDbSymbolTableRecord
100
AcDbBlockTableRecord
  2
*D27
340
0
  0
BLOCK_RECORD
  5
1138
102
{ACAD_XDICTIONARY
360
1139
102
}
330
1
100
AcDbSymbolTableRecord
100
AcDbBlockTableRecord
  2
A$C57c306b1
340
0
102
{BLKREFS
331
119B
331
119C
331
119D
331
119E
102
}
  0
BLOCK_RECORD
  5
114F
102
{ACAD_XDICTIONARY
360
1150
102
}
330
1
100
AcDbSymbolTableRecord
100
AcDbBlockTableRecord
  2
G$C828323CB
340
0
102
{BLKREFS
331
11A7
102
}
  0
BLOCK_RECORD
  5
11A8
102
{ACAD_XDICTIONARY
360
11A9
102
}
330
1
100
AcDbSymbolTableRecord
100
AcDbBlockTableRecord
  2
G$C8ED97162
340
0
102
{BLKREFS
331
121E
102
}
  0
ENDTAB
  0
ENDSEC
  0
SECTION
  2
BLOCKS
  0
BLOCK
  5
5D
330
2
100
AcDbEntity
  8
0
100
AcDbBlockBegin
  2
*MODEL_SPACE
 70
     0
 10
0.0
 20
0.0
 30
0.0
  3
*MODEL_SPACE
  1

  0
ENDBLK
  5
5F
330
2
100
AcDbEntity
  8
0
100
AcDbBlockEnd
  0
BLOCK
  5
131E
330
131C
100
AcDbEntity
 67
     1
  8
0
100
AcDbBlockBegin
  2
*Paper_Space
 70
     0
 10
0.0
 20
0.0
 30
0.0
  3
*Paper_Space
  1

  0
ENDBLK
  5
131F
330
131C
100
AcDbEntity
 67
     1
  8
0
100
AcDbBlockEnd
  0
BLOCK
  5
4B0
330
4AC
100
AcDbEntity
  8
0
100
AcDbBlockBegin
  2
黒丸矢印1
 70
     0
 10
0.0
 20
0.0
 30
0.0
  3
黒丸矢印1
  1

  0
HATCH
  5
4AD
330
4AC
100
AcDbEntity
  8
0
100
AcDbHatch
 10
0.0
 20
0.0
 30
0.0
210
0.0
220
0.0
230
1.0
  2
SOLID
 70
     1
 71
     1
 91
        1
 92
        7
 72
     1
 73
     1
 93
        2
 10
-0.25
 20
0.0
 42
1.0
 10
0.25
 20
0.0
 42
1.0
 97
        1
330
4AE
 75
     0
 76
     1
 47
0.0031599728
 98
        1
 10
-0.0919668375711354
 20
0.0618998464179867
  0
CIRCLE
  5
4AE
102
{ACAD_REACTORS
330
4AD
102
}
330
4AC
100
AcDbEntity
  8
0
100
AcDbCircle
 10
0.0
 20
0.0
 30
0.0
 40
0.25
  0
LINE
  5
4AF
330
4AC
100
AcDbEntity
  8
0
100
AcDbLine
 10
0.0
 20
0.0
 30
0.0
 11
-1.0
 21
0.0
 31
0.0
  0
ENDBLK
  5
4B1
330
4AC
100
AcDbEntity
  8
0
100
AcDbBlockEnd
  0
BLOCK
  5
A23
330
A19
100
AcDbEntity
  8
0
100
AcDbBlockBegin
  2
*D3
 70
     1
 10
0.0
 20
0.0
 30
0.0
  3
*D3
  1

  0
POINT
  5
DF8
330
A19
100
AcDbEntity
  8
DEFPOINTS
 62
     0
100
AcDbPoint
 10
408.4241425836
 20
155.5473432721
 30
0.0
  0
POINT
  5
DF9
330
A19
100
AcDbEntity
  8
DEFPOINTS
 62
     0
100
AcDbPoint
 10
454.4241465836
 20
155.5473432721
 30
0.0
  0
POINT
  5
DFA
330
A19
100
AcDbEntity
  8
DEFPOINTS
 62
     0
100
AcDbPoint
 10
454.4241465836
 20
174.122404273
 30
0.0
  0
ENDBLK
  5
A24
330
A19
100
AcDbEntity
  8
0
100
AcDbBlockEnd
  0
BLOCK
  5
A2F
330
A25
100
AcDbEntity
  8
0
100
AcDbBlockBegin
  2
*D4
 70
     1
 10
0.0
 20
0.0
 30
0.0
  3
*D4
  1

  0
POINT
  5
DAC
330
A25
100
AcDbEntity
  8
DEFPOINTS
 62
     0
100
AcDbPoint
 10
431.4241425836
 20
164.0639442721
 30
0.0
  0
POINT
  5
DAD
330
A25
100
AcDbEntity
  8
DEFPOINTS
 62
     0
100
AcDbPoint
 10
367.4241385836
 20
127.8639252721
 30
0.0
  0
POINT
  5
DAE
330
A25
100
AcDbEntity
  8
DEFPOINTS
 62
     0
100
AcDbPoint
 10
367.4241385836
 20
185.946319953
 30
0.0
  0
ENDBLK
  5
A30
330
A25
100
AcDbEntity
  8
0
100
AcDbBlockEnd
  0
BLOCK
  5
A3B
330
A31
100
AcDbEntity
  8
0
100
AcDbBlockBegin
  2
*D5
 70
     1
 10
0.0
 20
0.0
 30
0.0
  3
*D5
  1

  0
POINT
  5
DA3
330
A31
100
AcDbEntity
  8
DEFPOINTS
 62
     0
100
AcDbPoint
 10
394.4241385836
 20
128.8639252721
 30
0.0
  0
POINT
  5
DA4
330
A31
100
AcDbEntity
  8
DEFPOINTS
 62
     0
100
AcDbPoint
 10
367.4241385836
 20
127.8639252721
 30
0.0
  0
POINT
  5
DA5
330
A31
100
AcDbEntity
  8
DEFPOINTS
 62
     0
100
AcDbPoint
 10
367.4241385836
 20
174.122404273
 30
0.0
  0
ENDBLK
  5
A3C
330
A31
100
AcDbEntity
  8
0
100
AcDbBlockEnd
  0
BLOCK
  5
A47
330
A3D
100
AcDbEntity
  8
0
100
AcDbBlockBegin
  2
*D6
 70
     1
 10
0.0
 20
0.0
 30
0.0
  3
*D6
  1

  0
POINT
  5
D5A
330
A3D
100
AcDbEntity
  8
DEFPOINTS
 62
     0
100
AcDbPoint
 10
144.1202080461
 20
136.0639132721
 30
0.0
  0
POINT
  5
D5B
330
A3D
100
AcDbEntity
  8
DEFPOINTS
 62
     0
100
AcDbPoint
 10
144.1202080461
 20
60.0639362721
 30
0.0
  0
POINT
  5
D5C
330
A3D
100
AcDbEntity
  8
DEFPOINTS
 62
     0
100
AcDbPoint
 10
143.9054073957
 20
60.0639362721
 30
0.0
  0
ENDBLK
  5
A48
330
A3D
100
AcDbEntity
  8
0
100
AcDbBlockEnd
  0
BLOCK
  5
A53
330
A49
100
AcDbEntity
  8
0
100
AcDbBlockBegin
  2
*D7
 70
     1
 10
0.0
 20
0.0
 30
0.0
  3
*D7
  1

  0
POINT
  5
D51
330
A49
100
AcDbEntity
  8
DEFPOINTS
 62
     0
100
AcDbPoint
 10
96.6563835968
 20
61.7679612721
 30
0.0
  0
POINT
  5
D52
330
A49
100
AcDbEntity
  8
DEFPOINTS
 62
     0
100
AcDbPoint
 10
87.1565035968
 20
144.5981162721
 30
0.0
  0
POINT
  5
D53
330
A49
100
AcDbEntity
  8
DEFPOINTS
 62
     0
100
AcDbPoint
 10
87.1565035968
 20
38.4588323593
 30
0.0
  0
ENDBLK
  5
A54
330
A49
100
AcDbEntity
  8
0
100
AcDbBlockEnd
  0
BLOCK
  5
A5F
330
A55
100
AcDbEntity
  8
0
100
AcDbBlockBegin
  2
*D8
 70
     1
 10
0.0
 20
0.0
 30
0.0
  3
*D8
  1

  0
POINT
  5
D46
330
A55
100
AcDbEntity
  8
DEFPOINTS
 62
     0
100
AcDbPoint
 10
104.1564039947
 20
157.0639362721
 30
0.0
  0
POINT
  5
D47
330
A55
100
AcDbEntity
  8
DEFPOINTS
 62
     0
100
AcDbPoint
 10
88.8563835968
 20
98.0639212721
 30
0.0
  0
POINT
  5
D48
330
A55
100
AcDbEntity
  8
DEFPOINTS
 62
     0
100
AcDbPoint
 10
64.2214754113
 20
98.0639212721
 30
0.0
  0
ENDBLK
  5
A60
330
A55
100
AcDbEntity
  8
0
100
AcDbBlockEnd
  0
BLOCK
  5
A6B
330
A61
100
AcDbEntity
  8
0
100
AcDbBlockBegin
  2
*D9
 70
     1
 10
0.0
 20
0.0
 30
0.0
  3
*D9
  1

  0
POINT
  5
D9A
330
A61
100
AcDbEntity
  8
DEFPOINTS
 62
     0
100
AcDbPoint
 10
388.9241385836
 20
122.8639092721
 30
0.0
  0
POINT
  5
D9B
330
A61
100
AcDbEntity
  8
DEFPOINTS
 62
     0
100
AcDbPoint
 10
367.4241385836
 20
127.8639252721
 30
0.0
  0
POINT
  5
D9C
330
A61
100
AcDbEntity
  8
DEFPOINTS
 62
     0
100
AcDbPoint
 10
367.4241385836
 20
162.158774323
 30
0.0
  0
ENDBLK
  5
A6C
330
A61
100
AcDbEntity
  8
0
100
AcDbBlockEnd
  0
BLOCK
  5
A77
330
A6D
100
AcDbEntity
  8
0
100
AcDbBlockBegin
  2
*D10
 70
     1
 10
0.0
 20
0.0
 30
0.0
  3
*D10
  1

  0
POINT
  5
D91
330
A6D
100
AcDbEntity
  8
DEFPOINTS
 62
     0
100
AcDbPoint
 10
431.4241425836
 20
164.0639442721
 30
0.0
  0
POINT
  5
D92
330
A6D
100
AcDbEntity
  8
DEFPOINTS
 62
     0
100
AcDbPoint
 10
478.4241425836
 20
61.3639232721
 30
0.0
  0
POINT
  5
D93
330
A6D
100
AcDbEntity
  8
DEFPOINTS
 62
     0
100
AcDbPoint
 10
478.4241425836
 20
185.946319953
 30
0.0
  0
ENDBLK
  5
A78
330
A6D
100
AcDbEntity
  8
0
100
AcDbBlockEnd
  0
BLOCK
  5
A83
330
A79
100
AcDbEntity
  8
0
100
AcDbBlockBegin
  2
*D11
 70
     1
 10
0.0
 20
0.0
 30
0.0
  3
*D11
  1

  0
POINT
  5
D88
330
A79
100
AcDbEntity
  8
DEFPOINTS
 62
     0
100
AcDbPoint
 10
478.4241425836
 20
61.3639232721
 30
0.0
  0
POINT
  5
D89
330
A79
100
AcDbEntity
  8
DEFPOINTS
 62
     0
100
AcDbPoint
 10
367.4241385836
 20
127.8639252721
 30
0.0
  0
POINT
  5
D8A
330
A79
100
AcDbEntity
  8
DEFPOINTS
 62
     0
100
AcDbPoint
 10
367.4241385836
 20
198.0184789721
 30
0.0
  0
ENDBLK
  5
A84
330
A79
100
AcDbEntity
  8
0
100
AcDbBlockEnd
  0
BLOCK
  5
A8F
330
A85
100
AcDbEntity
  8
0
100
AcDbBlockBegin
  2
*D12
 70
     1
 10
0.0
 20
0.0
 30
0.0
  3
*D12
  1

  0
POINT
  5
D7F
330
A85
100
AcDbEntity
  8
DEFPOINTS
 62
     0
100
AcDbPoint
 10
367.4241385836
 20
112.8639252721
 30
0.0
  0
POINT
  5
D80
330
A85
100
AcDbEntity
  8
DEFPOINTS
 62
     0
100
AcDbPoint
 10
367.4241385836
 20
127.8639252721
 30
0.0
  0
POINT
  5
D81
330
A85
100
AcDbEntity
  8
DEFPOINTS
 62
     0
100
AcDbPoint
 10
355.1611416448
 20
127.8639252721
 30
0.0
  0
ENDBLK
  5
A90
330
A85
100
AcDbEntity
  8
0
100
AcDbBlockEnd
  0
BLOCK
  5
A9B
330
A91
100
AcDbEntity
  8
0
100
AcDbBlockBegin
  2
*D13
 70
     1
 10
0.0
 20
0.0
 30
0.0
  3
*D13
  1

  0
POINT
  5
D75
330
A91
100
AcDbEntity
  8
DEFPOINTS
 62
     0
100
AcDbPoint
 10
229.1563785968
 20
120.3639162721
 30
0.0
  0
POINT
  5
D76
330
A91
100
AcDbEntity
  8
DEFPOINTS
 62
     0
100
AcDbPoint
 10
246.1563785968
 20
122.8639162721
 30
0.0
  0
POINT
  5
D77
330
A91
100
AcDbEntity
  8
DEFPOINTS
 62
     0
100
AcDbPoint
 10
246.1563785968
 20
174.122395273
 30
0.0
  0
ENDBLK
  5
A9C
330
A91
100
AcDbEntity
  8
0
100
AcDbBlockEnd
  0
BLOCK
  5
AA9
330
A9D
100
AcDbEntity
  8
0
100
AcDbBlockBegin
  2
*D14
 70
     1
 10
0.0
 20
0.0
 30
0.0
  3
*D14
  1

  0
POINT
  5
DDD
330
A9D
100
AcDbEntity
  8
DEFPOINTS
 62
     0
100
AcDbPoint
 10
246.1563785968
 20
117.8639162721
 30
0.0
  0
POINT
  5
DDE
330
A9D
100
AcDbEntity
  8
DEFPOINTS
 62
     0
100
AcDbPoint
 10
246.1563785968
 20
122.8639162721
 30
0.0
  0
POINT
  5
DDF
330
A9D
100
AcDbEntity
  8
DEFPOINTS
 62
     0
100
AcDbPoint
 10
291.4355525468
 20
122.8639162721
 30
0.0
  0
ENDBLK
  5
AAA
330
A9D
100
AcDbEntity
  8
0
100
AcDbBlockEnd
  0
BLOCK
  5
AB5
330
AAB
100
AcDbEntity
  8
0
100
AcDbBlockBegin
  2
*D15
 70
     1
 10
0.0
 20
0.0
 30
0.0
  3
*D15
  1

  0
POINT
  5
D6C
330
AAB
100
AcDbEntity
  8
DEFPOINTS
 62
     0
100
AcDbPoint
 10
250.0768805968
 20
152.9639152721
 30
0.0
  0
POINT
  5
D6D
330
AAB
100
AcDbEntity
  8
DEFPOINTS
 62
     0
100
AcDbPoint
 10
279.1563785968
 20
55.3639162721
 30
0.0
  0
POINT
  5
D6E
330
AAB
100
AcDbEntity
  8
DEFPOINTS
 62
     0
100
AcDbPoint
 10
303.3997968381
 20
55.3639162721
 30
0.0
  0
ENDBLK
  5
AB6
330
AAB
100
AcDbEntity
  8
0
100
AcDbBlockEnd
  0
BLOCK
  5
AC1
330
AB7
100
AcDbEntity
  8
0
100
AcDbBlockBegin
  2
*D16
 70
     1
 10
0.0
 20
0.0
 30
0.0
  3
*D16
  1

  0
POINT
  5
D3D
330
AB7
100
AcDbEntity
  8
DEFPOINTS
 62
     0
100
AcDbPoint
 10
202.6563785968
 20
51.8639162721
 30
0.0
  0
POINT
  5
D3E
330
AB7
100
AcDbEntity
  8
DEFPOINTS
 62
     0
100
AcDbPoint
 10
270.6563785968
 20
51.8639162721
 30
0.0
  0
POINT
  5
D3F
330
AB7
100
AcDbEntity
  8
DEFPOINTS
 62
     0
100
AcDbPoint
 10
270.6563785968
 20
38.4588323593
 30
0.0
  0
ENDBLK
  5
AC2
330
AB7
100
AcDbEntity
  8
0
100
AcDbBlockEnd
  0
BLOCK
  5
ACD
330
AC3
100
AcDbEntity
  8
0
100
AcDbBlockBegin
  2
*D17
 70
     1
 10
0.0
 20
0.0
 30
0.0
  3
*D17
  1

  0
POINT
  5
D34
330
AC3
100
AcDbEntity
  8
DEFPOINTS
 62
     0
100
AcDbPoint
 10
194.1563865968
 20
55.3639162721
 30
0.0
  0
POINT
  5
D35
330
AC3
100
AcDbEntity
  8
DEFPOINTS
 62
     0
100
AcDbPoint
 10
279.1563785968
 20
55.3639162721
 30
0.0
  0
POINT
  5
D36
330
AC3
100
AcDbEntity
  8
DEFPOINTS
 62
     0
100
AcDbPoint
 10
279.1563785968
 20
26.4486608362
 30
0.0
  0
ENDBLK
  5
ACE
330
AC3
100
AcDbEntity
  8
0
100
AcDbBlockEnd
  0
BLOCK
  5
AD9
330
ACF
100
AcDbEntity
  8
0
100
AcDbBlockBegin
  2
*D18
 70
     1
 10
0.0
 20
0.0
 30
0.0
  3
*D18
  1

  0
POINT
  5
D2B
330
ACF
100
AcDbEntity
  8
DEFPOINTS
 62
     0
100
AcDbPoint
 10
209.9064411044
 20
120.3639162721
 30
0.0
  0
POINT
  5
D2C
330
ACF
100
AcDbEntity
  8
DEFPOINTS
 62
     0
100
AcDbPoint
 10
213.4063785968
 20
98.0639172721
 30
0.0
  0
POINT
  5
D2D
330
ACF
100
AcDbEntity
  8
DEFPOINTS
 62
     0
100
AcDbPoint
 10
208.3814913337
 20
98.0639172721
 30
0.0
  0
ENDBLK
  5
ADA
330
ACF
100
AcDbEntity
  8
0
100
AcDbBlockEnd
  0
BLOCK
  5
AE5
330
ADB
100
AcDbEntity
  8
0
100
AcDbBlockBegin
  2
*D19
 70
     1
 10
0.0
 20
0.0
 30
0.0
  3
*D19
  1

  0
POINT
  5
DEF
330
ADB
100
AcDbEntity
  8
DEFPOINTS
 62
     0
100
AcDbPoint
 10
384.4241425836
 20
55.3639232721
 30
0.0
  0
POINT
  5
DF0
330
ADB
100
AcDbEntity
  8
DEFPOINTS
 62
     0
100
AcDbPoint
 10
478.4241465836
 20
55.3639232721
 30
0.0
  0
POINT
  5
DF1
330
ADB
100
AcDbEntity
  8
DEFPOINTS
 62
     0
100
AcDbPoint
 10
478.4241465836
 20
26.4486698362
 30
0.0
  0
ENDBLK
  5
AE6
330
ADB
100
AcDbEntity
  8
0
100
AcDbBlockEnd
  0
BLOCK
  5
AF1
330
AE7
100
AcDbEntity
  8
0
100
AcDbBlockBegin
  2
*D20
 70
     1
 10
0.0
 20
0.0
 30
0.0
  3
*D20
  1

  0
POINT
  5
DE6
330
AE7
100
AcDbEntity
  8
DEFPOINTS
 62
     0
100
AcDbPoint
 10
391.4241425836
 20
51.8639232721
 30
0.0
  0
POINT
  5
DE7
330
AE7
100
AcDbEntity
  8
DEFPOINTS
 62
     0
100
AcDbPoint
 10
471.4241465836
 20
51.8639232721
 30
0.0
  0
POINT
  5
DE8
330
AE7
100
AcDbEntity
  8
DEFPOINTS
 62
     0
100
AcDbPoint
 10
471.4241465836
 20
38.4588413593
 30
0.0
  0
ENDBLK
  5
AF2
330
AE7
100
AcDbEntity
  8
0
100
AcDbBlockEnd
  0
BLOCK
  5
AFD
330
AF3
100
AcDbEntity
  8
0
100
AcDbBlockBegin
  2
*D21
 70
     1
 10
0.0
 20
0.0
 30
0.0
  3
*D21
  1

  0
POINT
  5
DD2
330
AF3
100
AcDbEntity
  8
DEFPOINTS
 62
     0
100
AcDbPoint
 10
391.4241385836
 20
51.8639232721
 30
0.0
  0
POINT
  5
DD3
330
AF3
100
AcDbEntity
  8
DEFPOINTS
 62
     0
100
AcDbPoint
 10
367.4241385836
 20
112.8639252721
 30
0.0
  0
POINT
  5
DD4
330
AF3
100
AcDbEntity
  8
DEFPOINTS
 62
     0
100
AcDbPoint
 10
367.4241385836
 20
38.4588413593
 30
0.0
  0
ENDBLK
  5
AFE
330
AF3
100
AcDbEntity
  8
0
100
AcDbBlockEnd
  0
BLOCK
  5
B09
330
AFF
100
AcDbEntity
  8
0
100
AcDbBlockBegin
  2
*D22
 70
     1
 10
0.0
 20
0.0
 30
0.0
  3
*D22
  1

  0
POINT
  5
DC9
330
AFF
100
AcDbEntity
  8
DEFPOINTS
 62
     0
100
AcDbPoint
 10
384.4241385836
 20
55.3639232721
 30
0.0
  0
POINT
  5
DCA
330
AFF
100
AcDbEntity
  8
DEFPOINTS
 62
     0
100
AcDbPoint
 10
386.4241385836
 20
63.3639232721
 30
0.0
  0
POINT
  5
DCB
330
AFF
100
AcDbEntity
  8
DEFPOINTS
 62
     0
100
AcDbPoint
 10
374.3784449946
 20
63.3639232721
 30
0.0
  0
ENDBLK
  5
B0A
330
AFF
100
AcDbEntity
  8
0
100
AcDbBlockEnd
  0
BLOCK
  5
B15
330
B0B
100
AcDbEntity
  8
0
100
AcDbBlockBegin
  2
*D23
 70
     1
 10
0.0
 20
0.0
 30
0.0
  3
*D23
  1

  0
POINT
  5
DBE
330
B0B
100
AcDbEntity
  8
DEFPOINTS
 62
     0
100
AcDbPoint
 10
360.4241385836
 20
120.3639252721
 30
0.0
  0
POINT
  5
DBF
330
B0B
100
AcDbEntity
  8
DEFPOINTS
 62
     0
100
AcDbPoint
 10
384.4241385836
 20
55.3639232721
 30
0.0
  0
POINT
  5
DC0
330
B0B
100
AcDbEntity
  8
DEFPOINTS
 62
     0
100
AcDbPoint
 10
343.2139054696
 20
55.3639232721
 30
0.0
  0
ENDBLK
  5
B16
330
B0B
100
AcDbEntity
  8
0
100
AcDbBlockEnd
  0
BLOCK
  5
B21
330
B17
100
AcDbEntity
  8
0
100
AcDbBlockBegin
  2
*D24
 70
     1
 10
0.0
 20
0.0
 30
0.0
  3
*D24
  1

  0
POINT
  5
D22
330
B17
100
AcDbEntity
  8
DEFPOINTS
 62
     0
100
AcDbPoint
 10
236.6563785968
 20
159.9639152721
 30
0.0
  0
POINT
  5
D23
330
B17
100
AcDbEntity
  8
DEFPOINTS
 62
     0
100
AcDbPoint
 10
87.1565035968
 20
154.0639212721
 30
0.0
  0
POINT
  5
D24
330
B17
100
AcDbEntity
  8
DEFPOINTS
 62
     0
100
AcDbPoint
 10
87.1565035968
 20
186.1477315033
 30
0.0
  0
ENDBLK
  5
B22
330
B17
100
AcDbEntity
  8
0
100
AcDbBlockEnd
  0
BLOCK
  5
B2D
330
B23
100
AcDbEntity
  8
0
100
AcDbBlockBegin
  2
*D25
 70
     1
 10
0.0
 20
0.0
 30
0.0
  3
*D25
  1

  0
POINT
  5
D19
330
B23
100
AcDbEntity
  8
DEFPOINTS
 62
     0
100
AcDbPoint
 10
279.1563785968
 20
131.0644932721
 30
0.0
  0
POINT
  5
D1A
330
B23
100
AcDbEntity
  8
DEFPOINTS
 62
     0
100
AcDbPoint
 10
87.1565035968
 20
154.0639212721
 30
0.0
  0
POINT
  5
D1B
330
B23
100
AcDbEntity
  8
DEFPOINTS
 62
     0
100
AcDbPoint
 10
87.1565035968
 20
198.0819148623
 30
0.0
  0
ENDBLK
  5
B2E
330
B23
100
AcDbEntity
  8
0
100
AcDbBlockEnd
  0
BLOCK
  5
B39
330
B2F
100
AcDbEntity
  8
0
100
AcDbBlockBegin
  2
*D26
 70
     1
 10
0.0
 20
0.0
 30
0.0
  3
*D26
  1

  0
POINT
  5
D63
330
B2F
100
AcDbEntity
  8
DEFPOINTS
 62
     0
100
AcDbPoint
 10
87.1565019367
 20
154.0639132721
 30
0.0
  0
POINT
  5
D64
330
B2F
100
AcDbEntity
  8
DEFPOINTS
 62
     0
100
AcDbPoint
 10
121.1565019367
 20
154.0639132721
 30
0.0
  0
POINT
  5
D65
330
B2F
100
AcDbEntity
  8
DEFPOINTS
 62
     0
100
AcDbPoint
 10
121.1565019367
 20
174.122395273
 30
0.0
  0
ENDBLK
  5
B3A
330
B2F
100
AcDbEntity
  8
0
100
AcDbBlockEnd
  0
BLOCK
  5
B45
330
B3B
100
AcDbEntity
  8
0
100
AcDbBlockBegin
  2
*D27
 70
     1
 10
0.0
 20
0.0
 30
0.0
  3
*D27
  1

  0
POINT
  5
DB5
330
B3B
100
AcDbEntity
  8
DEFPOINTS
 62
     0
100
AcDbPoint
 10
236.6563785968
 20
159.9639152721
 30
0.0
  0
POINT
  5
DB6
330
B3B
100
AcDbEntity
  8
DEFPOINTS
 62
     0
100
AcDbPoint
 10
279.1563785968
 20
131.0644932721
 30
0.0
  0
POINT
  5
DB7
330
B3B
100
AcDbEntity
  8
DEFPOINTS
 62
     0
100
AcDbPoint
 10
279.1563785968
 20
186.1477315033
 30
0.0
  0
ENDBLK
  5
B46
330
B3B
100
AcDbEntity
  8
0
100
AcDbBlockEnd
  0
BLOCK
  5
113B
330
1138
100
AcDbEntity
  8
0
100
AcDbBlockBegin
  2
A$C57c306b1
 70
     0
 10
0.0
 20
0.0
 30
0.0
  3
A$C57c306b1
  1

  0
ARC
  5
113C
330
1138
100
AcDbEntity
  8
0
100
AcDbCircle
 10
0.0
 20
1.56
 30
0.0
 40
0.3900000000000001
100
AcDbArc
 50
17.2352852571
 51
162.7647147429
  0
ARC
  5
113D
330
1138
100
AcDbEntity
  8
0
100
AcDbCircle
 10
-1.117462403
 20
1.9066666667
 30
0.0
 40
0.7800000000000002
100
AcDbArc
 50
300.3737861998
 51
342.7647147429
  0
ARC
  5
113E
330
1138
100
AcDbEntity
  8
0
100
AcDbCircle
 10
1.117462403
 20
1.9066666667
 30
0.0
 40
0.7800000000000002
100
AcDbArc
 50
197.2352852571
 51
239.6262138002
  0
ARC
  5
113F
330
1138
100
AcDbEntity
  8
0
100
AcDbCircle
 10
-1.3509996299
 20
0.78
 30
0.0
 40
0.3900000000000001
100
AcDbArc
 50
77.2352852571
 51
222.7647147429
  0
ARC
  5
1140
330
1138
100
AcDbEntity
  8
0
100
AcDbCircle
 10
-2.2099529714
 20
-0.0144174955
 30
0.0
 40
0.7800000000000002
100
AcDbArc
 50
0.3737861998
 51
42.7647147429
  0
ARC
  5
1141
330
1138
100
AcDbEntity
  8
0
100
AcDbCircle
 10
-1.0924905684
 20
1.9210841621
 30
0.0
 40
0.7800000000000002
100
AcDbArc
 50
257.2352852571
 51
299.6262138002
  0
ARC
  5
1142
330
1138
100
AcDbEntity
  8
0
100
AcDbCircle
 10
1.3509996299
 20
0.78
 30
0.0
 40
0.3900000000000001
100
AcDbArc
 50
317.2352852571
 51
102.7647147429
  0
ARC
  5
1143
330
1138
100
AcDbEntity
  8
0
100
AcDbCircle
 10
2.2099529714
 20
-0.0144174955
 30
0.0
 40
0.7800000000000002
100
AcDbArc
 50
137.2352852571
 51
179.6262138002
  0
ARC
  5
1144
330
1138
100
AcDbEntity
  8
0
100
AcDbCircle
 10
1.0924905684
 20
1.9210841621
 30
0.0
 40
0.7800000000000002
100
AcDbArc
 50
240.3737861998
 51
282.7647147429
  0
ARC
  5
1145
330
1138
100
AcDbEntity
  8
0
100
AcDbCircle
 10
0.0
 20
-1.56
 30
0.0
 40
0.3900000000000001
100
AcDbArc
 50
197.2352852571
 51
342.7647147429
  0
ARC
  5
1146
330
1138
100
AcDbEntity
  8
0
100
AcDbCircle
 10
-1.117462403
 20
-1.9066666667
 30
0.0
 40
0.7800000000000002
100
AcDbArc
 50
17.2352852571
 51
59.6262138002
  0
ARC
  5
1147
330
1138
100
AcDbEntity
  8
0
100
AcDbCircle
 10
1.117462403
 20
-1.9066666667
 30
0.0
 40
0.7800000000000002
100
AcDbArc
 50
120.3737861998
 51
162.7647147429
  0
ARC
  5
1148
330
1138
100
AcDbEntity
  8
0
100
AcDbCircle
 10
-1.3509996299
 20
-0.78
 30
0.0
 40
0.3900000000000001
100
AcDbArc
 50
137.2352852571
 51
282.7647147429
  0
ARC
  5
1149
330
1138
100
AcDbEntity
  8
0
100
AcDbCircle
 10
-2.2099529714
 20
0.0144174955
 30
0.0
 40
0.7800000000000002
100
AcDbArc
 50
317.2352852571
 51
359.6262138002
  0
ARC
  5
114A
330
1138
100
AcDbEntity
  8
0
100
AcDbCircle
 10
-1.0924905684
 20
-1.9210841621
 30
0.0
 40
0.7800000000000002
100
AcDbArc
 50
60.3737861998
 51
102.7647147429
  0
ARC
  5
114B
330
1138
100
AcDbEntity
  8
0
100
AcDbCircle
 10
1.3509996299
 20
-0.78
 30
0.0
 40
0.3900000000000001
100
AcDbArc
 50
257.2352852571
 51
42.7647147429
  0
ARC
  5
114C
330
1138
100
AcDbEntity
  8
0
100
AcDbCircle
 10
1.0924905684
 20
-1.9210841621
 30
0.0
 40
0.7800000000000002
100
AcDbArc
 50
77.2352852571
 51
119.6262138002
  0
ARC
  5
114D
330
1138
100
AcDbEntity
  8
0
100
AcDbCircle
 10
2.2099529714
 20
0.0144174955
 30
0.0
 40
0.7800000000000002
100
AcDbArc
 50
180.3737861998
 51
222.7647147429
  0
ENDBLK
  5
114E
330
1138
100
AcDbEntity
  8
0
100
AcDbBlockEnd
  0
BLOCK
  5
1152
330
114F
100
AcDbEntity
  8
0
100
AcDbBlockBegin
  2
G$C828323CB
 70
     0
 10
0.0
 20
0.0
 30
0.0
  3
G$C828323CB
  1

  0
LINE
  5
1153
330
114F
100
AcDbEntity
  8
0
100
AcDbLine
 10
-2.5
 20
21.0
 30
0.0
 11
-2.5
 21
-21.0
 31
0.0
  0
LINE
  5
1154
330
114F
100
AcDbEntity
  8
0
100
AcDbLine
 10
-32.500099
 20
-21.0
 30
0.0
 11
-32.500099
 21
21.0
 31
0.0
  0
LINE
  5
1155
330
114F
100
AcDbEntity
  8
0
100
AcDbLine
 10
0.0
 20
-38.0
 30
0.0
 11
0.0
 21
38.0
 31
0.0
  0
LINE
  5
1156
330
114F
100
AcDbEntity
  8
CENTER
100
AcDbLine
 10
-17.5
 20
28.50856
 30
0.0
 11
-17.5
 21
-28.50856
 31
0.0
  0
ARC
  5
1157
330
114F
100
AcDbEntity
  8
0
100
AcDbCircle
 10
-30.500099
 20
-21.0
 30
0.0
 40
2.0
100
AcDbArc
 50
180.0
 51
270.0
  0
ARC
  5
1158
330
114F
100
AcDbEntity
  8
0
100
AcDbCircle
 10
-31.500099
 20
-15.5
 30
0.0
 40
1.0
100
AcDbArc
 50
180.0
 51
270.0
  0
LINE
  5
1159
330
114F
100
AcDbEntity
  8
0
100
AcDbLine
 10
-48.796883
 20
3.850006
 30
0.0
 11
-34.499878
 21
3.850006
 31
0.0
  0
LINE
  5
115A
330
114F
100
AcDbEntity
  8
0
100
AcDbLine
 10
-49.648682
 20
-3.849976
 30
0.0
 11
-34.499878
 21
-3.849976
 31
0.0
  0
LINE
  5
115B
330
114F
100
AcDbEntity
  8
HOJO
100
AcDbLine
 10
-48.720581
 20
-1.460083
 30
0.0
 11
-49.648682
 21
-3.849976
 31
0.0
  0
LINE
  5
115C
330
114F
100
AcDbEntity
  8
HOJO
100
AcDbLine
 10
-49.532677
 20
1.014923
 30
0.0
 11
-48.720581
 21
-1.460083
 31
0.0
  0
LINE
  5
115D
330
114F
100
AcDbEntity
  8
HOJO
100
AcDbLine
 10
-48.796883
 20
3.850006
 30
0.0
 11
-49.532677
 21
1.014923
 31
0.0
  0
ARC
  5
115E
330
114F
100
AcDbEntity
  8
0
100
AcDbCircle
 10
-4.5
 20
-21.0
 30
0.0
 40
2.0
100
AcDbArc
 50
270.0
 51
0.0
  0
ARC
  5
115F
330
114F
100
AcDbEntity
  8
0
100
AcDbCircle
 10
-25.0
 20
-22.0
 30
0.0
 40
1.0
100
AcDbArc
 50
180.0
 51
270.0
  0
ARC
  5
1160
330
114F
100
AcDbEntity
  8
0
100
AcDbCircle
 10
-10.0
 20
-22.0
 30
0.0
 40
1.0
100
AcDbArc
 50
270.0
 51
0.0
  0
LINE
  5
1161
330
114F
100
AcDbEntity
  8
0
100
AcDbLine
 10
-4.5
 20
-23.0
 30
0.0
 11
-30.500099
 21
-23.0
 31
0.0
  0
LINE
  5
1162
330
114F
100
AcDbEntity
  8
0
100
AcDbLine
 10
-23.000298
 20
-37.59848
 30
0.0
 11
0.0
 21
-38.0
 31
0.0
  0
ARC
  5
1163
330
114F
100
AcDbEntity
  8
0
100
AcDbCircle
 10
-25.300003
 20
-31.705872
 30
0.0
 40
0.5
100
AcDbArc
 50
180.0
 51
249.999954
  0
ARC
  5
1164
330
114F
100
AcDbEntity
  8
0
100
AcDbCircle
 10
-25.5
 20
-32.697235
 30
0.0
 40
0.5
100
AcDbArc
 50
0.0
 51
70.0
  0
LINE
  5
1165
330
114F
100
AcDbEntity
  8
0
100
AcDbLine
 10
-25.471008
 20
-32.17572
 30
0.0
 11
-25.328987
 21
-32.227417
 31
0.0
  0
LINE
  5
1166
330
114F
100
AcDbEntity
  8
0
100
AcDbLine
 10
-25.800003
 20
-31.705872
 30
0.0
 11
-25.800003
 21
-23.0
 31
0.0
  0
ARC
  5
1167
330
114F
100
AcDbEntity
  8
0
100
AcDbCircle
 10
-24.0
 20
-36.295898
 30
0.0
 40
1.0
100
AcDbArc
 50
180.0
 51
255.025604
  0
LINE
  5
1168
330
114F
100
AcDbEntity
  8
0
100
AcDbLine
 10
-24.2584
 20
-37.261902
 30
0.0
 11
-23.000298
 21
-37.59848
 31
0.0
  0
LINE
  5
1169
330
114F
100
AcDbEntity
  8
0
100
AcDbLine
 10
-25.0
 20
-36.295898
 30
0.0
 11
-25.0
 21
-23.0
 31
0.0
  0
LINE
  5
116A
330
114F
100
AcDbEntity
  8
0
100
AcDbLine
 10
-4.122314
 20
-22.963989
 30
0.0
 11
0.0
 21
-23.0
 31
0.0
  0
ARC
  5
116B
330
114F
100
AcDbEntity
  8
0
100
AcDbCircle
 10
-5.5
 20
-20.0
 30
0.0
 40
3.5
100
AcDbArc
 50
90.0
 51
180.0
  0
LINE
  5
116C
330
114F
100
AcDbEntity
  8
0
100
AcDbLine
 10
-26.0
 20
-22.0
 30
0.0
 11
-26.0
 21
-20.0
 31
0.0
  0
LINE
  5
116D
330
114F
100
AcDbEntity
  8
0
100
AcDbLine
 10
-31.500099
 20
-16.5
 30
0.0
 11
-29.5
 21
-16.5
 31
0.0
  0
ARC
  5
116E
330
114F
100
AcDbEntity
  8
0
100
AcDbCircle
 10
-29.5
 20
-20.0
 30
0.0
 40
3.5
100
AcDbArc
 50
0.0
 51
90.0
  0
ARC
  5
116F
330
114F
100
AcDbEntity
  8
0
100
AcDbCircle
 10
-3.499901
 20
-15.5
 30
0.0
 40
1.0
100
AcDbArc
 50
270.0
 51
0.0
  0
LINE
  5
1170
330
114F
100
AcDbEntity
  8
0
100
AcDbLine
 10
-3.499901
 20
-16.5
 30
0.0
 11
-5.5
 21
-16.5
 31
0.0
  0
LINE
  5
1171
330
114F
100
AcDbEntity
  8
0
100
AcDbLine
 10
-9.0
 20
-22.0
 30
0.0
 11
-9.0
 21
-20.0
 31
0.0
  0
ARC
  5
1172
330
114F
100
AcDbEntity
  8
0
100
AcDbCircle
 10
-30.500099
 20
21.0
 30
0.0
 40
2.0
100
AcDbArc
 50
90.0
 51
180.0
  0
ARC
  5
1173
330
114F
100
AcDbEntity
  8
0
100
AcDbCircle
 10
-31.500099
 20
15.5
 30
0.0
 40
1.0
100
AcDbArc
 50
90.0
 51
180.0
  0
ARC
  5
1174
330
114F
100
AcDbEntity
  8
0
100
AcDbCircle
 10
-10.0
 20
22.0
 30
0.0
 40
1.0
100
AcDbArc
 50
0.0
 51
90.0
  0
LINE
  5
1175
330
114F
100
AcDbEntity
  8
0
100
AcDbLine
 10
-4.5
 20
23.0
 30
0.0
 11
-30.500099
 21
23.0
 31
0.0
  0
ARC
  5
1176
330
114F
100
AcDbEntity
  8
0
100
AcDbCircle
 10
-5.5
 20
20.0
 30
0.0
 40
3.5
100
AcDbArc
 50
180.0
 51
270.0
  0
LINE
  5
1177
330
114F
100
AcDbEntity
  8
0
100
AcDbLine
 10
-23.000298
 20
37.598419
 30
0.0
 11
0.0
 21
38.0
 31
0.0
  0
LINE
  5
1178
330
114F
100
AcDbEntity
  8
0
100
AcDbLine
 10
-25.800003
 20
31.705902
 30
0.0
 11
-25.800003
 21
23.0
 31
0.0
  0
LINE
  5
1179
330
114F
100
AcDbEntity
  8
0
100
AcDbLine
 10
-25.0
 20
36.295898
 30
0.0
 11
-25.0
 21
23.0
 31
0.0
  0
ARC
  5
117A
330
114F
100
AcDbEntity
  8
0
100
AcDbCircle
 10
-25.0
 20
22.0
 30
0.0
 40
1.0
100
AcDbArc
 50
90.0
 51
180.0
  0
LINE
  5
117B
330
114F
100
AcDbEntity
  8
0
100
AcDbLine
 10
-26.0
 20
22.0
 30
0.0
 11
-26.0
 21
20.0
 31
0.0
  0
LINE
  5
117C
330
114F
100
AcDbEntity
  8
0
100
AcDbLine
 10
-31.500099
 20
16.5
 30
0.0
 11
-29.5
 21
16.5
 31
0.0
  0
ARC
  5
117D
330
114F
100
AcDbEntity
  8
0
100
AcDbCircle
 10
-29.5
 20
20.0
 30
0.0
 40
3.5
100
AcDbArc
 50
270.0
 51
0.0
  0
ARC
  5
117E
330
114F
100
AcDbEntity
  8
0
100
AcDbCircle
 10
-25.300003
 20
31.705902
 30
0.0
 40
0.5
100
AcDbArc
 50
110.000038
 51
180.0
  0
ARC
  5
117F
330
114F
100
AcDbEntity
  8
0
100
AcDbCircle
 10
-25.5
 20
32.697266
 30
0.0
 40
0.5
100
AcDbArc
 50
290.0
 51
0.0
  0
LINE
  5
1180
330
114F
100
AcDbEntity
  8
0
100
AcDbLine
 10
-25.471008
 20
32.17572
 30
0.0
 11
-25.328987
 21
32.227417
 31
0.0
  0
ARC
  5
1181
330
114F
100
AcDbEntity
  8
0
100
AcDbCircle
 10
-24.0
 20
36.295898
 30
0.0
 40
1.0
100
AcDbArc
 50
104.974396
 51
180.0
  0
LINE
  5
1182
330
114F
100
AcDbEntity
  8
0
100
AcDbLine
 10
-24.2584
 20
37.261902
 30
0.0
 11
-23.000298
 21
37.598419
 31
0.0
  0
LINE
  5
1183
330
114F
100
AcDbEntity
  8
0
100
AcDbLine
 10
-4.122314
 20
22.96402
 30
0.0
 11
0.0
 21
23.0
 31
0.0
  0
ARC
  5
1184
330
114F
100
AcDbEntity
  8
0
100
AcDbCircle
 10
-4.5
 20
21.0
 30
0.0
 40
2.0
100
AcDbArc
 50
0.0
 51
90.0
  0
ARC
  5
1185
330
114F
100
AcDbEntity
  8
0
100
AcDbCircle
 10
-3.499901
 20
15.5
 30
0.0
 40
1.0
100
AcDbArc
 50
0.0
 51
90.0
  0
LINE
  5
1186
330
114F
100
AcDbEntity
  8
0
100
AcDbLine
 10
-3.499901
 20
16.5
 30
0.0
 11
-5.5
 21
16.5
 31
0.0
  0
LINE
  5
1187
330
114F
100
AcDbEntity
  8
0
100
AcDbLine
 10
-9.0
 20
22.0
 30
0.0
 11
-9.0
 21
20.0
 31
0.0
  0
CIRCLE
  5
1188
330
114F
100
AcDbEntity
  8
0
100
AcDbCircle
 10
-5.5
 20
-20.0
 30
0.0
 40
2.75
  0
CIRCLE
  5
1189
330
114F
100
AcDbEntity
  8
0
100
AcDbCircle
 10
-29.5
 20
-20.0
 30
0.0
 40
2.75
  0
LINE
  5
118A
330
114F
100
AcDbEntity
  8
0
100
AcDbLine
 10
-34.5
 20
6.0
 30
0.0
 11
-34.5
 21
-6.0
 31
0.0
  0
ARC
  5
118B
330
114F
100
AcDbEntity
  8
0
100
AcDbCircle
 10
-33.0
 20
-7.5
 30
0.0
 40
0.5
100
AcDbArc
 50
0.0
 51
90.0
  0
ARC
  5
118C
330
114F
100
AcDbEntity
  8
0
100
AcDbCircle
 10
-33.5
 20
-6.0
 30
0.0
 40
1.0
100
AcDbArc
 50
180.0
 51
270.0
  0
LINE
  5
118D
330
114F
100
AcDbEntity
  8
0
100
AcDbLine
 10
-33.0
 20
-7.0
 30
0.0
 11
-33.5
 21
-7.0
 31
0.0
  0
ARC
  5
118E
330
114F
100
AcDbEntity
  8
0
100
AcDbCircle
 10
-33.0
 20
7.5
 30
0.0
 40
0.5
100
AcDbArc
 50
270.0
 51
0.0
  0
ARC
  5
118F
330
114F
100
AcDbEntity
  8
0
100
AcDbCircle
 10
-33.5
 20
6.0
 30
0.0
 40
1.0
100
AcDbArc
 50
90.0
 51
180.0
  0
LINE
  5
1190
330
114F
100
AcDbEntity
  8
0
100
AcDbLine
 10
-33.0
 20
7.0
 30
0.0
 11
-33.5
 21
7.0
 31
0.0
  0
LINE
  5
1191
330
114F
100
AcDbEntity
  8
0
100
AcDbLine
 10
-0.500004
 20
6.0
 30
0.0
 11
-0.500004
 21
-6.0
 31
0.0
  0
LINE
  5
1192
330
114F
100
AcDbEntity
  8
0
100
AcDbLine
 10
-0.500004
 20
4.883698
 30
0.0
 11
-0.500004
 21
-4.883697
 31
0.0
  0
ARC
  5
1193
330
114F
100
AcDbEntity
  8
0
100
AcDbCircle
 10
-2.000004
 20
-7.5
 30
0.0
 40
0.5
100
AcDbArc
 50
90.0
 51
180.0
  0
ARC
  5
1194
330
114F
100
AcDbEntity
  8
0
100
AcDbCircle
 10
-1.500004
 20
-6.0
 30
0.0
 40
1.0
100
AcDbArc
 50
270.0
 51
0.0
  0
LINE
  5
1195
330
114F
100
AcDbEntity
  8
0
100
AcDbLine
 10
-2.000004
 20
-7.0
 30
0.0
 11
-1.500004
 21
-7.0
 31
0.0
  0
ARC
  5
1196
330
114F
100
AcDbEntity
  8
0
100
AcDbCircle
 10
-2.000004
 20
7.5
 30
0.0
 40
0.5
100
AcDbArc
 50
180.0
 51
270.0
  0
ARC
  5
1197
330
114F
100
AcDbEntity
  8
0
100
AcDbCircle
 10
-1.500004
 20
6.0
 30
0.0
 40
1.0
100
AcDbArc
 50
0.0
 51
90.0
  0
LINE
  5
1198
330
114F
100
AcDbEntity
  8
0
100
AcDbLine
 10
-2.000004
 20
7.0
 30
0.0
 11
-1.500004
 21
7.0
 31
0.0
  0
CIRCLE
  5
1199
330
114F
100
AcDbEntity
  8
0
100
AcDbCircle
 10
-29.5
 20
20.0
 30
0.0
 40
2.75
  0
CIRCLE
  5
119A
330
114F
100
AcDbEntity
  8
0
100
AcDbCircle
 10
-5.5
 20
20.0
 30
0.0
 40
2.75
  0
INSERT
  5
119B
330
114F
100
AcDbEntity
  8
0
100
AcDbBlockReference
  2
A$C57c306b1
 10
-5.5
 20
20.0
 30
0.0
  0
INSERT
  5
119C
330
114F
100
AcDbEntity
  8
0
100
AcDbBlockReference
  2
A$C57c306b1
 10
-29.5
 20
20.0093289677
 30
0.0
  0
INSERT
  5
119D
330
114F
100
AcDbEntity
  8
0
100
AcDbBlockReference
  2
A$C57c306b1
 10
-5.5
 20
-19.9906710323
 30
0.0
  0
INSERT
  5
119E
330
114F
100
AcDbEntity
  8
0
100
AcDbBlockReference
  2
A$C57c306b1
 10
-29.5
 20
-19.9906710323
 30
0.0
  0
ENDBLK
  5
119F
330
114F
100
AcDbEntity
  8
0
100
AcDbBlockEnd
  0
BLOCK
  5
11AB
330
11A8
100
AcDbEntity
  8
0
100
AcDbBlockBegin
  2
G$C8ED97162
 70
     0
 10
0.0
 20
0.0
 30
0.0
  3
G$C8ED97162
  1

  0
LINE
  5
11AC
330
11A8
100
AcDbEntity
  8
0
100
AcDbLine
 10
-25.800003
 20
-35.149887
 30
0.0
 11
-25.800003
 21
30.549896
 31
0.0
  0
LINE
  5
11AD
330
11A8
100
AcDbEntity
  8
0
100
AcDbLine
 10
0.0
 20
-37.999969
 30
0.0
 11
0.0
 21
38.0
 31
0.0
  0
LINE
  5
11AE
330
11A8
100
AcDbEntity
  8
0
100
AcDbLine
 10
-25.0
 20
30.327759
 30
0.0
 11
-25.0
 21
-31.249893
 31
0.0
  0
LINE
  5
11AF
330
11A8
100
AcDbEntity
  8
0
100
AcDbLine
 10
-23.000305
 20
-37.598511
 30
0.0
 11
0.0
 21
-37.999985
 31
0.0
  0
LINE
  5
11B0
330
11A8
100
AcDbEntity
  8
0
100
AcDbLine
 10
0.0
 20
-30.248962
 30
0.0
 11
-14.0
 21
-30.248962
 31
0.0
  0
LINE
  5
11B1
330
11A8
100
AcDbEntity
  8
0
100
AcDbLine
 10
-23.000305
 20
-29.499985
 30
0.0
 11
-15.0
 21
-29.499985
 31
0.0
  0
ARC
  5
11B2
330
11A8
100
AcDbEntity
  8
0
100
AcDbCircle
 10
-25.5
 20
-36.141266
 30
0.0
 40
0.5
100
AcDbArc
 50
0.0
 51
70.0
  0
ARC
  5
11B3
330
11A8
100
AcDbEntity
  8
0
100
AcDbCircle
 10
-25.300003
 20
-35.149887
 30
0.0
 40
0.5
100
AcDbArc
 50
180.0
 51
250.0
  0
LINE
  5
11B4
330
11A8
100
AcDbEntity
  8
0
100
AcDbLine
 10
-25.471008
 20
-35.619736
 30
0.0
 11
-25.328987
 21
-35.671417
 31
0.0
  0
ARC
  5
11B5
330
11A8
100
AcDbEntity
  8
0
100
AcDbCircle
 10
-24.0
 20
-36.295944
 30
0.0
 40
1.0
100
AcDbArc
 50
180.0
 51
255.024384
  0
LINE
  5
11B6
330
11A8
100
AcDbEntity
  8
0
100
AcDbLine
 10
-24.258408
 20
-37.261978
 30
0.0
 11
-23.000305
 21
-37.598511
 31
0.0
  0
ARC
  5
11B7
330
11A8
100
AcDbEntity
  8
0
100
AcDbCircle
 10
-24.0
 20
-28.197418
 30
0.0
 40
1.0
100
AcDbArc
 50
180.0
 51
255.024384
  0
LINE
  5
11B8
330
11A8
100
AcDbEntity
  8
0
100
AcDbLine
 10
-24.258408
 20
-29.163452
 30
0.0
 11
-23.000305
 21
-29.499985
 31
0.0
  0
LINE
  5
11B9
330
11A8
100
AcDbEntity
  8
0
100
AcDbLine
 10
-25.0
 20
-36.295944
 30
0.0
 11
-25.0
 21
-31.249893
 31
0.0
  0
ARC
  5
11BA
330
11A8
100
AcDbEntity
  8
0
100
AcDbCircle
 10
-13.5
 20
-37.264267
 30
0.0
 40
0.5
100
AcDbArc
 50
180.0
 51
269.0
  0
ARC
  5
11BB
330
11A8
100
AcDbEntity
  8
0
100
AcDbCircle
 10
-15.979004
 20
-36.199997
 30
0.0
 40
1.3
100
AcDbArc
 50
196.600906
 51
270.0
  0
ARC
  5
11BC
330
11A8
100
AcDbEntity
  8
0
100
AcDbCircle
 10
-15.979004
 20
-31.800003
 30
0.0
 40
1.3
100
AcDbArc
 50
90.0
 51
163.398407
  0
ARC
  5
11BD
330
11A8
100
AcDbEntity
  8
0
100
AcDbCircle
 10
-8.600014
 20
-33.999985
 30
0.0
 40
8.999999
100
AcDbArc
 50
163.398499
 51
196.600998
  0
LINE
  5
11BE
330
11A8
100
AcDbEntity
  8
0
100
AcDbLine
 10
-14.0
 20
-37.499985
 30
0.0
 11
-15.979004
 21
-37.499985
 31
0.0
  0
LINE
  5
11BF
330
11A8
100
AcDbEntity
  8
0
100
AcDbLine
 10
-14.0
 20
-30.499985
 30
0.0
 11
-15.979004
 21
-30.499985
 31
0.0
  0
LINE
  5
11C0
330
11A8
100
AcDbEntity
  8
0
100
AcDbLine
 10
-15.0
 20
-30.499985
 30
0.0
 11
-15.0
 21
-37.499985
 31
0.0
  0
LINE
  5
11C1
330
11A8
100
AcDbEntity
  8
0
100
AcDbLine
 10
-14.0
 20
-30.381912
 30
0.0
 11
-14.0
 21
-37.499985
 31
0.0
  0
ARC
  5
11C2
330
11A8
100
AcDbEntity
  8
0
100
AcDbCircle
 10
-15.0
 20
-30.499985
 30
0.0
 40
1.0
100
AcDbArc
 50
0.0
 51
90.0
  0
LINE
  5
11C3
330
11A8
100
AcDbEntity
  8
0
100
AcDbLine
 10
-14.0
 20
-30.499985
 30
0.0
 11
-14.0
 21
-37.146393
 31
0.0
  0
ARC
  5
11C4
330
11A8
100
AcDbEntity
  8
0
100
AcDbCircle
 10
-30.500198
 20
33.446625
 30
0.0
 40
2.0
100
AcDbArc
 50
180.0
 51
268.5
  0
ARC
  5
11C5
330
11A8
100
AcDbEntity
  8
0
100
AcDbCircle
 10
-32.000122
 20
55.0
 30
0.0
 40
0.5
100
AcDbArc
 50
90.0
 51
180.0
  0
ARC
  5
11C6
330
11A8
100
AcDbEntity
  8
0
100
AcDbCircle
 10
-31.999878
 20
58.078339
 30
0.0
 40
0.5
100
AcDbArc
 50
93.331696
 51
180.0
  0
LINE
  5
11C7
330
11A8
100
AcDbEntity
  8
HOJO
100
AcDbLine
 10
-48.796883
 20
55.150024
 30
0.0
 11
-49.532677
 21
52.314911
 31
0.0
  0
LINE
  5
11C8
330
11A8
100
AcDbEntity
  8
0
100
AcDbLine
 10
-49.648682
 20
47.450012
 30
0.0
 11
-34.499878
 21
47.450012
 31
0.0
  0
LINE
  5
11C9
330
11A8
100
AcDbEntity
  8
HOJO
100
AcDbLine
 10
-48.720581
 20
49.839905
 30
0.0
 11
-49.648682
 21
47.450012
 31
0.0
  0
LINE
  5
11CA
330
11A8
100
AcDbEntity
  8
HOJO
100
AcDbLine
 10
-49.532677
 20
52.314911
 30
0.0
 11
-48.720581
 21
49.839905
 31
0.0
  0
LINE
  5
11CB
330
11A8
100
AcDbEntity
  8
0
100
AcDbLine
 10
-48.796883
 20
55.150024
 30
0.0
 11
-34.499878
 21
55.150024
 31
0.0
  0
LINE
  5
11CC
330
11A8
100
AcDbEntity
  8
0
100
AcDbLine
 10
-32.499878
 20
51.5
 30
0.0
 11
-32.499878
 21
58.078339
 31
0.0
  0
LINE
  5
11CD
330
11A8
100
AcDbEntity
  8
0
100
AcDbLine
 10
-2.499878
 20
51.5
 30
0.0
 11
-2.499878
 21
58.078339
 31
0.0
  0
LINE
  5
11CE
330
11A8
100
AcDbEntity
  8
CENTER
100
AcDbLine
 10
-17.5
 20
62.025513
 30
0.0
 11
-17.499878
 21
44.226715
 31
0.0
  0
LINE
  5
11CF
330
11A8
100
AcDbEntity
  8
0
100
AcDbLine
 10
0.0
 20
30.248993
 30
0.0
 11
-14.0
 21
30.248993
 31
0.0
  0
LINE
  5
11D0
330
11A8
100
AcDbEntity
  8
0
100
AcDbLine
 10
-32.499878
 20
33.446625
 30
0.0
 11
-32.499878
 21
50.5
 31
0.0
  0
ARC
  5
11D1
330
11A8
100
AcDbEntity
  8
0
100
AcDbCircle
 10
-15.0
 20
37.5
 30
0.0
 40
1.0
100
AcDbArc
 50
0.0
 51
90.0
  0
LINE
  5
11D2
330
11A8
100
AcDbEntity
  8
0
100
AcDbLine
 10
-14.5
 20
29.5
 30
0.0
 11
-23.000305
 21
29.5
 31
0.0
  0
ARC
  5
11D3
330
11A8
100
AcDbEntity
  8
0
100
AcDbCircle
 10
-26.0
 20
30.327759
 30
0.0
 40
1.0
100
AcDbArc
 50
0.0
 51
88.5
  0
LINE
  5
11D4
330
11A8
100
AcDbEntity
  8
0
100
AcDbLine
 10
-30.552551
 20
31.447296
 30
0.0
 11
-25.973824
 21
31.327423
 31
0.0
  0
ARC
  5
11D5
330
11A8
100
AcDbEntity
  8
0
100
AcDbCircle
 10
-25.300003
 20
30.549896
 30
0.0
 40
0.5
100
AcDbArc
 50
110.0
 51
180.0
  0
LINE
  5
11D6
330
11A8
100
AcDbEntity
  8
0
100
AcDbLine
 10
-25.471008
 20
31.019745
 30
0.0
 11
-25.330757
 21
31.070801
 31
0.0
  0
ARC
  5
11D7
330
11A8
100
AcDbEntity
  8
0
100
AcDbCircle
 10
-24.0
 20
28.197449
 30
0.0
 40
1.0
100
AcDbArc
 50
104.975616
 51
180.0
  0
LINE
  5
11D8
330
11A8
100
AcDbEntity
  8
0
100
AcDbLine
 10
-24.258408
 20
29.163483
 30
0.0
 11
-23.000305
 21
29.5
 31
0.0
  0
ARC
  5
11D9
330
11A8
100
AcDbEntity
  8
0
100
AcDbCircle
 10
-14.5
 20
30.0
 30
0.0
 40
0.5
100
AcDbArc
 50
270.0
 51
0.0
  0
ARC
  5
11DA
330
11A8
100
AcDbEntity
  8
0
100
AcDbCircle
 10
-15.979004
 20
36.200012
 30
0.0
 40
1.3
100
AcDbArc
 50
90.0
 51
163.399094
  0
ARC
  5
11DB
330
11A8
100
AcDbEntity
  8
0
100
AcDbCircle
 10
-15.979004
 20
31.800018
 30
0.0
 40
1.3
100
AcDbArc
 50
196.601593
 51
270.0
  0
ARC
  5
11DC
330
11A8
100
AcDbEntity
  8
0
100
AcDbCircle
 10
-8.600014
 20
34.0
 30
0.0
 40
8.999999
100
AcDbArc
 50
163.399002
 51
196.601501
  0
LINE
  5
11DD
330
11A8
100
AcDbEntity
  8
0
100
AcDbLine
 10
-14.0
 20
37.5
 30
0.0
 11
-15.979004
 21
37.5
 31
0.0
  0
LINE
  5
11DE
330
11A8
100
AcDbEntity
  8
0
100
AcDbLine
 10
-14.0
 20
30.5
 30
0.0
 11
-15.979004
 21
30.5
 31
0.0
  0
LINE
  5
11DF
330
11A8
100
AcDbEntity
  8
0
100
AcDbLine
 10
-15.0
 20
30.5
 30
0.0
 11
-15.0
 21
37.5
 31
0.0
  0
LINE
  5
11E0
330
11A8
100
AcDbEntity
  8
0
100
AcDbLine
 10
-14.0
 20
30.0
 30
0.0
 11
-14.0
 21
37.5
 31
0.0
  0
LINE
  5
11E1
330
11A8
100
AcDbEntity
  8
0
100
AcDbLine
 10
-32.499878
 20
38.5
 30
0.0
 11
-15.0
 21
38.5
 31
0.0
  0
LINE
  5
11E2
330
11A8
100
AcDbEntity
  8
0
100
AcDbLine
 10
-2.499878
 20
39.039612
 30
0.0
 11
-2.499878
 21
50.5
 31
0.0
  0
ARC
  5
11E3
330
11A8
100
AcDbEntity
  8
0
100
AcDbCircle
 10
-1.5
 20
39.039612
 30
0.0
 40
1.0
100
AcDbArc
 50
180.0
 51
268.499908
  0
LINE
  5
11E4
330
11A8
100
AcDbEntity
  8
0
100
AcDbLine
 10
-1.526207
 20
38.039978
 30
0.0
 11
0.0
 21
38.0
 31
0.0
  0
ARC
  5
11E5
330
11A8
100
AcDbEntity
  8
0
100
AcDbCircle
 10
-9.499878
 20
58.371735
 30
0.0
 40
0.5
100
AcDbArc
 50
0.0
 51
88.162544
  0
ARC
  5
11E6
330
11A8
100
AcDbEntity
  8
0
100
AcDbCircle
 10
-17.499878
 20
-190.999969
 30
0.0
 40
250.0
100
AcDbArc
 50
86.668304
 51
93.331696
  0
ARC
  5
11E7
330
11A8
100
AcDbEntity
  8
0
100
AcDbCircle
 10
-31.249878
 20
56.939209
 30
0.0
 40
1.0
100
AcDbArc
 50
106.958199
 51
180.0
  0
ARC
  5
11E8
330
11A8
100
AcDbEntity
  8
0
100
AcDbCircle
 10
-27.749878
 20
56.939209
 30
0.0
 40
1.0
100
AcDbArc
 50
0.0
 51
73.043098
  0
ARC
  5
11E9
330
11A8
100
AcDbEntity
  8
0
100
AcDbCircle
 10
-29.499878
 20
51.200012
 30
0.0
 40
7.0
100
AcDbArc
 50
73.043488
 51
106.958
  0
LINE
  5
11EA
330
11A8
100
AcDbEntity
  8
0
100
AcDbLine
 10
-32.249878
 20
56.200012
 30
0.0
 11
-26.749878
 21
56.200012
 31
0.0
  0
LINE
  5
11EB
330
11A8
100
AcDbEntity
  8
0
100
AcDbLine
 10
-26.749878
 20
55.499817
 30
0.0
 11
-26.749878
 21
56.939209
 31
0.0
  0
LINE
  5
11EC
330
11A8
100
AcDbEntity
  8
0
100
AcDbLine
 10
-32.249878
 20
55.5
 30
0.0
 11
-32.249878
 21
56.939209
 31
0.0
  0
ARC
  5
11ED
330
11A8
100
AcDbEntity
  8
0
100
AcDbCircle
 10
-25.500122
 20
58.371735
 30
0.0
 40
0.5
100
AcDbArc
 50
91.837456
 51
180.0
  0
LINE
  5
11EE
330
11A8
100
AcDbEntity
  8
0
100
AcDbLine
 10
-26.000122
 20
56.0
 30
0.0
 11
-26.000122
 21
58.371735
 31
0.0
  0
ARC
  5
11EF
330
11A8
100
AcDbEntity
  8
0
100
AcDbCircle
 10
-26.500122
 20
56.0
 30
0.0
 40
0.5
100
AcDbArc
 50
270.0
 51
0.0
  0
LINE
  5
11F0
330
11A8
100
AcDbEntity
  8
0
100
AcDbLine
 10
-26.500122
 20
55.5
 30
0.0
 11
-32.000122
 21
55.5
 31
0.0
  0
ARC
  5
11F1
330
11A8
100
AcDbEntity
  8
0
100
AcDbCircle
 10
-7.249878
 20
56.939209
 30
0.0
 40
1.0
100
AcDbArc
 50
106.958199
 51
180.0
  0
ARC
  5
11F2
330
11A8
100
AcDbEntity
  8
0
100
AcDbCircle
 10
-3.749878
 20
56.939209
 30
0.0
 40
1.0
100
AcDbArc
 50
0.0
 51
73.043098
  0
ARC
  5
11F3
330
11A8
100
AcDbEntity
  8
0
100
AcDbCircle
 10
-5.499878
 20
51.200012
 30
0.0
 40
7.0
100
AcDbArc
 50
73.043488
 51
106.958
  0
LINE
  5
11F4
330
11A8
100
AcDbEntity
  8
0
100
AcDbLine
 10
-8.249878
 20
56.200012
 30
0.0
 11
-2.749878
 21
56.200012
 31
0.0
  0
LINE
  5
11F5
330
11A8
100
AcDbEntity
  8
0
100
AcDbLine
 10
-2.749878
 20
55.499817
 30
0.0
 11
-2.749878
 21
56.939209
 31
0.0
  0
LINE
  5
11F6
330
11A8
100
AcDbEntity
  8
0
100
AcDbLine
 10
-8.249878
 20
55.5
 30
0.0
 11
-8.249878
 21
56.939209
 31
0.0
  0
ARC
  5
11F7
330
11A8
100
AcDbEntity
  8
0
100
AcDbCircle
 10
-2.999878
 20
55.0
 30
0.0
 40
0.5
100
AcDbArc
 50
0.0
 51
90.0
  0
ARC
  5
11F8
330
11A8
100
AcDbEntity
  8
0
100
AcDbCircle
 10
-8.499878
 20
56.0
 30
0.0
 40
0.5
100
AcDbArc
 50
180.0
 51
270.0
  0
LINE
  5
11F9
330
11A8
100
AcDbEntity
  8
0
100
AcDbLine
 10
-8.999878
 20
56.0
 30
0.0
 11
-8.999878
 21
58.371735
 31
0.0
  0
LINE
  5
11FA
330
11A8
100
AcDbEntity
  8
0
100
AcDbLine
 10
-8.499878
 20
55.5
 30
0.0
 11
-2.999878
 21
55.5
 31
0.0
  0
ARC
  5
11FB
330
11A8
100
AcDbEntity
  8
0
100
AcDbCircle
 10
-2.999878
 20
58.078339
 30
0.0
 40
0.5
100
AcDbArc
 50
0.0
 51
86.668304
  0
ARC
  5
11FC
330
11A8
100
AcDbEntity
  8
0
100
AcDbCircle
 10
-1.999878
 20
43.500024
 30
0.0
 40
0.5
100
AcDbArc
 50
90.0
 51
180.0
  0
ARC
  5
11FD
330
11A8
100
AcDbEntity
  8
0
100
AcDbCircle
 10
-32.9997082848
 20
43.500024
 30
0.0
 40
0.5
100
AcDbArc
 50
359.9985816336
 51
90.0
  0
LINE
  5
11FE
330
11A8
100
AcDbEntity
  8
0
100
AcDbLine
 10
-34.499878
 20
50.500024
 30
0.0
 11
-0.499882
 21
50.500024
 31
0.0
  0
LINE
  5
11FF
330
11A8
100
AcDbEntity
  8
0
100
AcDbLine
 10
-34.499878
 20
51.500024
 30
0.0
 11
-32.500084
 21
51.500024
 31
0.0
  0
LINE
  5
1200
330
11A8
100
AcDbEntity
  8
0
100
AcDbLine
 10
-24.500084
 20
51.500024
 30
0.0
 11
-10.499878
 21
51.500024
 31
0.0
  0
LINE
  5
1201
330
11A8
100
AcDbEntity
  8
0
100
AcDbLine
 10
-2.499878
 20
51.500024
 30
0.0
 11
-0.499882
 21
51.500024
 31
0.0
  0
ARC
  5
1202
330
11A8
100
AcDbEntity
  8
0
100
AcDbCircle
 10
-32.906617134
 20
58.500024
 30
0.0
 40
0.5
100
AcDbArc
 50
270.0
 51
335.0585433099
  0
LINE
  5
1203
330
11A8
100
AcDbEntity
  8
0
100
AcDbLine
 10
-34.499878
 20
50.500024
 30
0.0
 11
-34.499878
 21
44.500024
 31
0.0
  0
ARC
  5
1204
330
11A8
100
AcDbEntity
  8
0
100
AcDbCircle
 10
-33.999878
 20
44.500024
 30
0.0
 40
0.5
100
AcDbArc
 50
180.0
 51
270.0
  0
LINE
  5
1205
330
11A8
100
AcDbEntity
  8
0
100
AcDbLine
 10
-32.999878
 20
44.000024
 30
0.0
 11
-33.999878
 21
44.000024
 31
0.0
  0
LINE
  5
1206
330
11A8
100
AcDbEntity
  8
0
100
AcDbLine
 10
-32.906617134
 20
58.000024
 30
0.0
 11
-33.999878
 21
58.000024
 31
0.0
  0
LINE
  5
1207
330
11A8
100
AcDbEntity
  8
0
100
AcDbLine
 10
-34.499878
 20
55.250024
 30
0.0
 11
-34.499878
 21
51.500024
 31
0.0
  0
LINE
  5
1208
330
11A8
100
AcDbEntity
  8
0
100
AcDbLine
 10
-34.499878
 20
57.500024
 30
0.0
 11
-34.499878
 21
55.250024
 31
0.0
  0
ARC
  5
1209
330
11A8
100
AcDbEntity
  8
0
100
AcDbCircle
 10
-33.999878
 20
57.500024
 30
0.0
 40
0.5
100
AcDbArc
 50
90.0
 51
180.0
  0
ARC
  5
120A
330
11A8
100
AcDbEntity
  8
0
100
AcDbCircle
 10
-2.093138866
 20
58.500024
 30
0.0
 40
0.5
100
AcDbArc
 50
204.9414566901
 51
270.0
  0
LINE
  5
120B
330
11A8
100
AcDbEntity
  8
0
100
AcDbLine
 10
-0.499882
 20
50.500024
 30
0.0
 11
-0.499882
 21
44.500024
 31
0.0
  0
LINE
  5
120C
330
11A8
100
AcDbEntity
  8
0
100
AcDbLine
 10
-1.999882
 20
44.000024
 30
0.0
 11
-0.999882
 21
44.000024
 31
0.0
  0
ARC
  5
120D
330
11A8
100
AcDbEntity
  8
0
100
AcDbCircle
 10
-0.999882
 20
44.500024
 30
0.0
 40
0.5
100
AcDbArc
 50
270.0
 51
0.0
  0
LINE
  5
120E
330
11A8
100
AcDbEntity
  8
0
100
AcDbLine
 10
-2.093138866
 20
58.000024
 30
0.0
 11
-0.999882
 21
58.000024
 31
0.0
  0
ARC
  5
120F
330
11A8
100
AcDbEntity
  8
0
100
AcDbCircle
 10
-0.999882
 20
57.500024
 30
0.0
 40
0.5
100
AcDbArc
 50
0.0
 51
90.0
  0
LINE
  5
1210
330
11A8
100
AcDbEntity
  8
0
100
AcDbLine
 10
-0.499882
 20
57.500024
 30
0.0
 11
-0.499882
 21
51.500024
 31
0.0
  0
LINE
  5
1211
330
11A8
100
AcDbEntity
  8
0
100
AcDbLine
 10
-32.500084
 20
51.500024
 30
0.0
 11
-32.500084
 21
50.500024
 31
0.0
  0
LINE
  5
1212
330
11A8
100
AcDbEntity
  8
0
100
AcDbLine
 10
-24.500084
 20
51.500024
 30
0.0
 11
-24.500084
 21
50.500024
 31
0.0
  0
LINE
  5
1213
330
11A8
100
AcDbEntity
  8
0
100
AcDbLine
 10
-34.199878
 20
51.500024
 30
0.0
 11
-34.199878
 21
50.500024
 31
0.0
  0
LINE
  5
1214
330
11A8
100
AcDbEntity
  8
0
100
AcDbLine
 10
-10.499878
 20
51.500024
 30
0.0
 11
-10.499878
 21
50.500024
 31
0.0
  0
LINE
  5
1215
330
11A8
100
AcDbEntity
  8
0
100
AcDbLine
 10
-2.499878
 20
51.500024
 30
0.0
 11
-2.499878
 21
50.500024
 31
0.0
  0
LINE
  5
1216
330
11A8
100
AcDbEntity
  8
0
100
AcDbLine
 10
-0.799882
 20
51.500024
 30
0.0
 11
-0.799882
 21
50.500024
 31
0.0
  0
LINE
  5
1217
330
11A8
100
AcDbEntity
  8
0
100
AcDbLine
 10
-0.499882
 20
51.500024
 30
0.0
 11
-0.499882
 21
50.500024
 31
0.0
  0
ENDBLK
  5
1218
330
11A8
100
AcDbEntity
  8
0
100
AcDbBlockEnd
  0
ENDSEC
  0
SECTION
  2
ENTITIES
  0
LINE
  5
827
330
2
100
AcDbEntity
  8
CENTER
100
AcDbLine
 10
431.4241425836
 20
48.3639192721
 30
0.0
 11
431.4241425836
 21
164.0639362721
 31
0.0
  0
ARC
  5
828
330
2
100
AcDbEntity
  8
HIDS
100
AcDbCircle
 10
431.4241425836
 20
98.0639212721
 30
0.0
 40
38.0
100
AcDbArc
 50
21.29426
 51
50.643299
  0
LINE
  5
829
330
2
100
AcDbEntity
  8
0
100
AcDbLine
 10
466.4241425836
 20
101.3639162721
 30
0.0
 11
466.4241425836
 21
139.3639162721
 31
0.0
  0
LINE
  5
82A
330
2
100
AcDbEntity
  8
0
100
AcDbLine
 10
462.4241425836
 20
66.3639182721
 30
0.0
 11
462.4241425836
 21
150.4574302721
 31
0.0
  0
LINE
  5
82B
330
2
100
AcDbEntity
  8
0
100
AcDbLine
 10
394.4241425836
 20
128.8639162721
 30
0.0
 11
394.4241425836
 21
111.8639202721
 31
0.0
  0
ARC
  5
82C
330
2
100
AcDbEntity
  8
HIDS
100
AcDbCircle
 10
431.4241425836
 20
98.0639212721
 30
0.0
 40
38.0
100
AcDbArc
 50
129.356705
 51
158.705734
  0
LINE
  5
82D
330
2
100
AcDbEntity
  8
0
100
AcDbLine
 10
396.4241425836
 20
101.3639162721
 30
0.0
 11
396.4241425836
 21
139.3639162721
 31
0.0
  0
LINE
  5
82E
330
2
100
AcDbEntity
  8
0
100
AcDbLine
 10
400.4241425836
 20
66.3639182721
 30
0.0
 11
400.4241425836
 21
150.4573152721
 31
0.0
  0
LINE
  5
830
330
2
100
AcDbEntity
  8
0
100
AcDbLine
 10
367.4241425836
 20
127.8639162721
 30
0.0
 11
367.4241425836
 21
112.8639202721
 31
0.0
  0
LINE
  5
832
330
2
100
AcDbEntity
  8
0
100
AcDbLine
 10
121.6563845968
 20
60.0639392721
 30
0.0
 11
121.6563845968
 21
136.0639212721
 31
0.0
  0
CIRCLE
  5
834
330
2
100
AcDbEntity
  8
0
100
AcDbCircle
 10
236.6563785968
 20
120.3639162721
 30
0.0
 40
20.0
  0
ARC
  5
835
330
2
100
AcDbEntity
  8
0
100
AcDbCircle
 10
236.6563785968
 20
107.3639162721
 30
0.0
 40
42.5
100
AcDbArc
 50
19.749901
 51
160.250107
  0
LINE
  5
836
330
2
100
AcDbEntity
  8
0
100
AcDbLine
 10
194.1563865968
 20
131.0645162721
 30
0.0
 11
194.1563865968
 21
55.3639192721
 31
0.0
  0
LINE
  5
837
330
2
100
AcDbEntity
  8
0
100
AcDbLine
 10
279.1563785968
 20
131.0645012721
 30
0.0
 11
279.1563785968
 21
55.3639192721
 31
0.0
  0
ARC
  5
838
330
2
100
AcDbEntity
  8
0
100
AcDbCircle
 10
236.6563785968
 20
120.3639162721
 30
0.0
 40
7.5
100
AcDbArc
 50
19.47121
 51
340.528809
  0
LINE
  5
839
330
2
100
AcDbEntity
  8
CENTER
100
AcDbLine
 10
236.6563785968
 20
159.9639222721
 30
0.0
 11
236.6563785968
 21
48.3639192721
 31
0.0
  0
LINE
  5
83D
330
2
100
AcDbEntity
  8
0
100
AcDbLine
 10
121.6563325968
 20
67.8149492721
 30
0.0
 11
194.1563705968
 21
67.8149492721
 31
0.0
  0
LINE
  5
83E
330
2
100
AcDbEntity
  8
0
100
AcDbLine
 10
121.6563845968
 20
60.0639192721
 30
0.0
 11
194.1563865968
 21
60.0639192721
 31
0.0
  0
LINE
  5
83F
330
2
100
AcDbEntity
  8
CENTER
100
AcDbLine
 10
88.8563835968
 20
98.0639212721
 30
0.0
 11
213.4063865968
 21
98.0639212721
 31
0.0
  0
LINE
  5
85D
330
2
100
AcDbEntity
  8
CENTER
100
AcDbLine
 10
209.9064410844
 20
120.3639162721
 30
0.0
 11
263.9063161092
 21
120.3639162721
 31
0.0
  0
ARC
  5
85E
330
2
100
AcDbEntity
  8
0
100
AcDbCircle
 10
236.6563785968
 20
107.3639162721
 30
0.0
 40
42.5
100
AcDbArc
 50
199.749893
 51
340.250092
  0
LINE
  5
85F
330
2
100
AcDbEntity
  8
0
100
AcDbLine
 10
196.1563935968
 20
63.3639192721
 30
0.0
 11
277.1563785968
 21
63.3639192721
 31
0.0
  0
LINE
  5
860
330
2
100
AcDbEntity
  8
0
100
AcDbLine
 10
194.1563865968
 20
55.3639192721
 30
0.0
 11
279.1563785968
 21
55.3639192721
 31
0.0
  0
ARC
  5
861
330
2
100
AcDbEntity
  8
0
100
AcDbCircle
 10
196.1563935968
 20
61.3639292721
 30
0.0
 40
2.0
100
AcDbArc
 50
90.0
 51
180.0
  0
LINE
  5
862
330
2
100
AcDbEntity
  8
HIDS
  6
sekkei_H
100
AcDbLine
 10
199.4063865968
 20
63.3639192721
 30
0.0
 11
199.4063865968
 21
55.3639192721
 31
0.0
  0
LINE
  5
863
330
2
100
AcDbEntity
  8
CENTER
100
AcDbLine
 10
202.6563865968
 20
66.8639192721
 30
0.0
 11
202.6563865968
 21
51.8639192721
 31
0.0
  0
LINE
  5
864
330
2
100
AcDbEntity
  8
HIDS
  6
sekkei_H
100
AcDbLine
 10
205.9063865968
 20
63.3639192721
 30
0.0
 11
205.9063865968
 21
55.3639192721
 31
0.0
  0
LINE
  5
866
330
2
100
AcDbEntity
  8
0
100
AcDbLine
 10
196.6563865968
 20
121.7251912721
 30
0.0
 11
196.6563865968
 21
93.0023782721
 31
0.0
  0
ARC
  5
872
330
2
100
AcDbEntity
  8
0
100
AcDbCircle
 10
277.1563785968
 20
61.3639092721
 30
0.0
 40
2.0
100
AcDbArc
 50
0.0
 51
90.0
  0
LINE
  5
873
330
2
100
AcDbEntity
  8
HIDS
  6
sekkei_H
100
AcDbLine
 10
267.4063785968
 20
63.3639192721
 30
0.0
 11
267.4063785968
 21
55.3639192721
 31
0.0
  0
LINE
  5
874
330
2
100
AcDbEntity
  8
HIDS
  6
sekkei_H
100
AcDbLine
 10
273.9063785968
 20
63.3639192721
 30
0.0
 11
273.9063785968
 21
55.3639192721
 31
0.0
  0
LINE
  5
875
330
2
100
AcDbEntity
  8
CENTER
100
AcDbLine
 10
270.6563785968
 20
66.8639192721
 30
0.0
 11
270.6563785968
 21
51.8639192721
 31
0.0
  0
LINE
  5
8A6
330
2
100
AcDbEntity
  8
0
100
AcDbLine
 10
241.1563785968
 20
117.8639162721
 30
0.0
 11
246.1563785968
 21
117.8639162721
 31
0.0
  0
LINE
  5
8A7
330
2
100
AcDbEntity
  8
0
100
AcDbLine
 10
241.1563785968
 20
122.8639162721
 30
0.0
 11
246.1563785968
 21
122.8639162721
 31
0.0
  0
LINE
  5
8A8
330
2
100
AcDbEntity
  8
0
100
AcDbLine
 10
241.1563785968
 20
117.8639162721
 30
0.0
 11
241.1563785968
 21
122.8639162721
 31
0.0
  0
LINE
  5
8A9
330
2
100
AcDbEntity
  8
0
100
AcDbLine
 10
246.1563785968
 20
122.8639162721
 30
0.0
 11
246.1563785968
 21
117.8639162721
 31
0.0
  0
LINE
  5
8AA
330
2
100
AcDbEntity
  8
0
100
AcDbLine
 10
276.6563785968
 20
121.7253212721
 30
0.0
 11
276.6563785968
 21
93.0027832721
 31
0.0
  0
LINE
  5
8AE
330
2
100
AcDbEntity
  8
CENTER
100
AcDbLine
 10
360.4241425836
 20
120.3639162721
 30
0.0
 11
473.4241425836
 21
120.3639162721
 31
0.0
  0
LINE
  5
8AF
330
2
100
AcDbEntity
  8
CENTER
100
AcDbLine
 10
386.4241425836
 20
98.0639212721
 30
0.0
 11
476.4241425836
 21
98.0639212721
 31
0.0
  0
LINE
  5
8B0
330
2
100
AcDbEntity
  8
HIDS
100
AcDbLine
 10
410.4241425836
 20
60.0639202721
 30
0.0
 11
452.4241425836
 21
60.0639202721
 31
0.0
  0
LINE
  5
8B1
330
2
100
AcDbEntity
  8
0
100
AcDbLine
 10
384.4241425836
 20
55.3639192721
 30
0.0
 11
478.4241425836
 21
55.3639192721
 31
0.0
  0
LINE
  5
8B4
330
2
100
AcDbEntity
  8
0
100
AcDbLine
 10
367.4241425836
 20
112.8639202721
 30
0.0
 11
394.4241425836
 21
112.8639202721
 31
0.0
  0
LINE
  5
8B5
330
2
100
AcDbEntity
  8
0
100
AcDbLine
 10
367.4241425836
 20
122.8639162721
 30
0.0
 11
388.9241425836
 21
122.8639162721
 31
0.0
  0
LINE
  5
8B6
330
2
100
AcDbEntity
  8
0
100
AcDbLine
 10
367.4241425836
 20
117.8639162721
 30
0.0
 11
388.9241425836
 21
117.8639162721
 31
0.0
  0
ARC
  5
8B8
330
2
100
AcDbEntity
  8
HIDS
100
AcDbCircle
 10
431.4241425836
 20
98.0639212721
 30
0.0
 40
38.0
100
AcDbArc
 50
215.334503
 51
230.643295
  0
LINE
  5
8B9
330
2
100
AcDbEntity
  8
0
100
AcDbLine
 10
397.4241425836
 20
63.3639192721
 30
0.0
 11
386.4241425836
 21
63.3639192721
 31
0.0
  0
LINE
  5
8BA
330
2
100
AcDbEntity
  8
CENTER
100
AcDbLine
 10
391.4241425836
 20
66.8639192721
 30
0.0
 11
391.4241425836
 21
51.8639192721
 31
0.0
  0
LINE
  5
8BB
330
2
100
AcDbEntity
  8
HIDS
  6
sekkei_H
100
AcDbLine
 10
388.1741425836
 20
63.3639192721
 30
0.0
 11
388.1741425836
 21
55.3639192721
 31
0.0
  0
LINE
  5
8BC
330
2
100
AcDbEntity
  8
0
100
AcDbLine
 10
384.4241425836
 20
61.3639192721
 30
0.0
 11
384.4241425836
 21
55.3639192721
 31
0.0
  0
ARC
  5
8BD
330
2
100
AcDbEntity
  8
0
100
AcDbCircle
 10
386.4241425836
 20
61.3639292721
 30
0.0
 40
2.0
100
AcDbArc
 50
90.0
 51
180.0
  0
ARC
  5
8BE
330
2
100
AcDbEntity
  8
0
100
AcDbCircle
 10
397.4241425836
 20
66.3639092721
 30
0.0
 40
3.0
100
AcDbArc
 50
270.0
 51
0.0
  0
LINE
  5
8BF
330
2
100
AcDbEntity
  8
HIDS
  6
sekkei_H
100
AcDbLine
 10
394.6741425836
 20
63.3639192721
 30
0.0
 11
394.6741425836
 21
55.3639192721
 31
0.0
  0
ARC
  5
8C0
330
2
100
AcDbEntity
  8
HIDS
100
AcDbCircle
 10
410.4241425836
 20
62.0639202721
 30
0.0
 40
2.0
100
AcDbArc
 50
180.0
 51
199.21669
  0
LINE
  5
8C1
330
2
100
AcDbEntity
  8
HIDS
100
AcDbLine
 10
408.4241425836
 20
62.0639202721
 30
0.0
 11
408.4241425836
 21
66.3621842721
 31
0.0
  0
ARC
  5
8C2
330
2
100
AcDbEntity
  8
HIDS
100
AcDbCircle
 10
405.4241425836
 20
66.3621842721
 30
0.0
 40
3.0
100
AcDbArc
 50
0.0
 51
50.643299
  0
ARC
  5
8C3
330
2
100
AcDbEntity
  8
HIDS
100
AcDbCircle
 10
410.4241425836
 20
62.0639202721
 30
0.0
 40
2.0
100
AcDbArc
 50
199.21669
 51
270.0
  0
ARC
  5
8C4
330
2
100
AcDbEntity
  8
0
100
AcDbCircle
 10
431.4241425836
 20
98.0639212721
 30
0.0
 40
38.0
100
AcDbArc
 50
158.705734
 51
215.334503
  0
ARC
  5
8C5
330
2
100
AcDbEntity
  8
0
100
AcDbCircle
 10
388.9241425836
 20
120.3639162721
 30
0.0
 40
2.5
100
AcDbArc
 50
270.0
 51
0.0
  0
ARC
  5
8C6
330
2
100
AcDbEntity
  8
0
100
AcDbCircle
 10
388.9241425836
 20
120.3639092721
 30
0.0
 40
2.5
100
AcDbArc
 50
0.0
 51
90.0
  0
LINE
  5
8C7
330
2
100
AcDbEntity
  8
0
100
AcDbLine
 10
388.9241425836
 20
122.8639162721
 30
0.0
 11
388.9241425836
 21
117.8639162721
 31
0.0
  0
LINE
  5
8C8
330
2
100
AcDbEntity
  8
0
100
AcDbLine
 10
397.4241425836
 20
100.3639162721
 30
0.0
 11
398.4241425836
 21
100.3639162721
 31
0.0
  0
LINE
  5
8C9
330
2
100
AcDbEntity
  8
0
100
AcDbLine
 10
394.4241425836
 20
111.8639202721
 30
0.0
 11
396.4241425836
 21
111.8639202721
 31
0.0
  0
ARC
  5
8CA
330
2
100
AcDbEntity
  8
0
100
AcDbCircle
 10
397.4241425836
 20
101.3639162721
 30
0.0
 40
1.0
100
AcDbArc
 50
180.0
 51
270.0
  0
ARC
  5
8CB
330
2
100
AcDbEntity
  8
HIDS
100
AcDbCircle
 10
431.4241425836
 20
98.0639212721
 30
0.0
 40
38.0
100
AcDbArc
 50
309.356701
 51
324.665497
  0
LINE
  5
8CC
330
2
100
AcDbEntity
  8
HIDS
100
AcDbLine
 10
454.4241425836
 20
62.2067892721
 30
0.0
 11
454.4241425836
 21
66.3621842721
 31
0.0
  0
ARC
  5
8CD
330
2
100
AcDbEntity
  8
HIDS
100
AcDbCircle
 10
457.4241425836
 20
66.3621842721
 30
0.0
 40
3.0
100
AcDbArc
 50
129.356705
 51
180.0
  0
ARC
  5
8CE
330
2
100
AcDbEntity
  8
HIDS
100
AcDbCircle
 10
452.4241425836
 20
62.0639202721
 30
0.0
 40
2.0
100
AcDbArc
 50
270.0
 51
0.0
  0
LINE
  5
8CF
330
2
100
AcDbEntity
  8
0
100
AcDbLine
 10
465.4241425836
 20
63.3639192721
 30
0.0
 11
476.4241425836
 21
63.3639192721
 31
0.0
  0
LINE
  5
8D0
330
2
100
AcDbEntity
  8
HIDS
  6
sekkei_H
100
AcDbLine
 10
468.1741425836
 20
63.3639192721
 30
0.0
 11
468.1741425836
 21
55.3639192721
 31
0.0
  0
ARC
  5
8D1
330
2
100
AcDbEntity
  8
0
100
AcDbCircle
 10
465.4241425836
 20
66.3639182721
 30
0.0
 40
3.0
100
AcDbArc
 50
180.0
 51
270.0
  0
LINE
  5
8D2
330
2
100
AcDbEntity
  8
HIDS
  6
sekkei_H
100
AcDbLine
 10
474.6741425836
 20
63.3639192721
 30
0.0
 11
474.6741425836
 21
55.3639192721
 31
0.0
  0
LINE
  5
8D3
330
2
100
AcDbEntity
  8
0
100
AcDbLine
 10
478.4241425836
 20
61.3639192721
 30
0.0
 11
478.4241425836
 21
55.3639192721
 31
0.0
  0
ARC
  5
8D4
330
2
100
AcDbEntity
  8
0
100
AcDbCircle
 10
476.4241425836
 20
61.3639092721
 30
0.0
 40
2.0
100
AcDbArc
 50
0.0
 51
90.0
  0
LINE
  5
8D5
330
2
100
AcDbEntity
  8
CENTER
100
AcDbLine
 10
471.4241425836
 20
66.8639192721
 30
0.0
 11
471.4241425836
 21
51.8639192721
 31
0.0
  0
ARC
  5
8D6
330
2
100
AcDbEntity
  8
0
100
AcDbCircle
 10
431.4241425836
 20
98.0639212721
 30
0.0
 40
38.0
100
AcDbArc
 50
324.665501
 51
21.294262
  0
LINE
  5
8D7
330
2
100
AcDbEntity
  8
0
100
AcDbLine
 10
465.4241425836
 20
100.3639162721
 30
0.0
 11
464.4241425836
 21
100.3639162721
 31
0.0
  0
ARC
  5
8D8
330
2
100
AcDbEntity
  8
0
100
AcDbCircle
 10
465.4241425836
 20
101.3639162721
 30
0.0
 40
1.0
100
AcDbArc
 50
270.0
 51
0.0
  0
LINE
  5
8DB
330
2
100
AcDbEntity
  8
0
100
AcDbLine
 10
121.6563845968
 20
255.5611767384
 30
0.0
 11
192.1563865968
 21
255.5611767384
 31
0.0
  0
LINE
  5
8DC
330
2
100
AcDbEntity
  8
0
100
AcDbLine
 10
192.1563865968
 20
331.5611767384
 30
0.0
 11
121.6563845968
 21
331.5611767384
 31
0.0
  0
LINE
  5
8DD
330
2
100
AcDbEntity
  8
0
100
AcDbLine
 10
121.6563845968
 20
316.5611767384
 30
0.0
 11
197.5760635968
 21
316.5611767384
 31
0.0
  0
LINE
  5
8DE
330
2
100
AcDbEntity
  8
0
100
AcDbLine
 10
121.6563845968
 20
270.5611767384
 30
0.0
 11
197.5760635968
 21
270.5611767384
 31
0.0
  0
LINE
  5
8DF
330
2
100
AcDbEntity
  8
0
100
AcDbLine
 10
121.6563325968
 20
128.3128912721
 30
0.0
 11
194.1563705968
 21
128.3128912721
 31
0.0
  0
LINE
  5
8E0
330
2
100
AcDbEntity
  8
0
100
AcDbLine
 10
121.6563845968
 20
136.0639212721
 30
0.0
 11
197.5760635968
 21
136.0639212721
 31
0.0
  0
LINE
  5
8E1
330
2
100
AcDbEntity
  8
CENTER
100
AcDbLine
 10
65.4567154981
 20
293.5611767384
 30
0.0
 11
286.1563785968
 21
293.5611767384
 31
0.0
  0
LINE
  5
936
330
2
100
AcDbEntity
  8
0
100
AcDbLine
 10
121.6563845968
 20
255.5611767384
 30
0.0
 11
121.6563845968
 21
331.5611767384
 31
0.0
  0
LINE
  5
998
330
2
100
AcDbEntity
  8
CENTER
100
AcDbLine
 10
202.6563785968
 20
339.4736462372
 30
0.0
 11
202.6563785968
 21
327.6487072395
 31
0.0
  0
ARC
  5
999
330
2
100
AcDbEntity
  8
0
100
AcDbCircle
 10
197.9247505968
 20
337.5611767384
 30
0.0
 40
3.0
100
AcDbArc
 50
90.0
 51
179.000153
  0
LINE
  5
99A
330
2
100
AcDbEntity
  8
CENTER
100
AcDbLine
 10
236.6563785968
 20
347.5611767384
 30
0.0
 11
236.6563785968
 21
222.5611767384
 31
0.0
  0
LINE
  5
99B
330
2
100
AcDbEntity
  8
CENTER
100
AcDbLine
 10
270.6563785968
 20
339.4736462372
 30
0.0
 11
270.6563785968
 21
327.6487072395
 31
0.0
  0
ARC
  5
99C
330
2
100
AcDbEntity
  8
0
100
AcDbCircle
 10
275.3879005968
 20
337.5611767384
 30
0.0
 40
3.0
100
AcDbArc
 50
1.0
 51
90.0
  0
LINE
  5
99D
330
2
100
AcDbEntity
  8
0
100
AcDbLine
 10
228.1563785968
 20
256.5611767384
 30
0.0
 11
245.1563785968
 21
256.5611767384
 31
0.0
  0
LINE
  5
99E
330
2
100
AcDbEntity
  8
0
100
AcDbLine
 10
255.6563785968
 20
258.5611767384
 30
0.0
 11
217.6563865968
 21
258.5611767384
 31
0.0
  0
LINE
  5
99F
330
2
100
AcDbEntity
  8
0
100
AcDbLine
 10
223.2358765968
 20
152.9639222721
 30
0.0
 11
250.0768805968
 21
152.9639222721
 31
0.0
  0
LINE
  5
9A0
330
2
100
AcDbEntity
  8
0
100
AcDbLine
 10
196.6628865968
 20
324.5611767384
 30
0.0
 11
276.6498785968
 21
324.5611767384
 31
0.0
  0
LINE
  5
9A1
330
2
100
AcDbEntity
  8
0
100
AcDbLine
 10
197.9247505968
 20
246.5611767384
 30
0.0
 11
229.1563785968
 21
246.5611767384
 31
0.0
  0
LINE
  5
9A2
330
2
100
AcDbEntity
  8
0
100
AcDbLine
 10
196.6628865968
 20
262.5611767384
 30
0.0
 11
276.6498785968
 21
262.5611767384
 31
0.0
  0
LINE
  5
9A3
330
2
100
AcDbEntity
  8
0
100
AcDbLine
 10
196.2840715968
 20
135.1571832721
 30
0.0
 11
220.3634865968
 21
152.0565662721
 31
0.0
  0
ARC
  5
9A4
330
2
100
AcDbEntity
  8
0
100
AcDbCircle
 10
199.1564015968
 20
131.0645392721
 30
0.0
 40
5.0
100
AcDbArc
 50
125.062302
 51
180.0
  0
ARC
  5
9A5
330
2
100
AcDbEntity
  8
0
100
AcDbCircle
 10
223.2358765968
 20
147.9639302721
 30
0.0
 40
5.0
100
AcDbArc
 50
90.0
 51
125.062202
  0
LINE
  5
9A6
330
2
100
AcDbEntity
  8
0
100
AcDbLine
 10
221.6563785968
 20
322.5960887384
 30
0.0
 11
221.6563785968
 21
264.5262797384
 31
0.0
  0
LINE
  5
9A7
330
2
100
AcDbEntity
  8
0
100
AcDbLine
 10
197.5760635968
 20
272.5611767384
 30
0.0
 11
197.5760635968
 21
314.5614507384
 31
0.0
  0
LINE
  5
9A8
330
2
100
AcDbEntity
  8
CENTER
100
AcDbLine
 10
208.5688480956
 20
253.5611767384
 30
0.0
 11
196.7439090979
 21
253.5611767384
 31
0.0
  0
CIRCLE
  5
9A9
330
2
100
AcDbEntity
  8
0
100
AcDbCircle
 10
202.6563865968
 20
253.5611767384
 30
0.0
 40
3.25
  0
LINE
  5
9AA
330
2
100
AcDbEntity
  8
CENTER
100
AcDbLine
 10
202.6563785968
 20
259.4736462372
 30
0.0
 11
202.6563785968
 21
247.6487072395
 31
0.0
  0
LINE
  5
9AB
330
2
100
AcDbEntity
  8
0
100
AcDbLine
 10
194.1563865968
 20
257.5611767384
 30
0.0
 11
194.1563865968
 21
261.2090337384
 31
0.0
  0
LINE
  5
9AC
330
2
100
AcDbEntity
  8
0
100
AcDbLine
 10
194.9252005968
 20
249.5088387384
 30
0.0
 11
194.7008275968
 21
262.3652837384
 31
0.0
  0
ARC
  5
9AD
330
2
100
AcDbEntity
  8
0
100
AcDbCircle
 10
192.1563865968
 20
257.5611767384
 30
0.0
 40
2.0
100
AcDbArc
 50
270.0
 51
0.0
  0
ARC
  5
9AE
330
2
100
AcDbEntity
  8
0
100
AcDbCircle
 10
197.9247505968
 20
249.5611767384
 30
0.0
 40
3.0
100
AcDbArc
 50
180.999847
 51
270.0
  0
ARC
  5
9AF
330
2
100
AcDbEntity
  8
0
100
AcDbCircle
 10
196.6628865968
 20
264.5611767384
 30
0.0
 40
2.0
100
AcDbArc
 50
181.0
 51
270.0
  0
ARC
  5
9B0
330
2
100
AcDbEntity
  8
0
100
AcDbCircle
 10
195.6563865968
 20
261.2090337384
 30
0.0
 40
1.5
100
AcDbArc
 50
73.287354
 51
180.0
  0
LINE
  5
9B1
330
2
100
AcDbEntity
  8
0
100
AcDbLine
 10
194.6631155968
 20
264.5262797384
 30
0.0
 11
194.5577915968
 21
270.5611767384
 31
0.0
  0
ARC
  5
9B2
330
2
100
AcDbEntity
  8
0
100
AcDbCircle
 10
217.6563865968
 20
259.5611767384
 30
0.0
 40
1.0
100
AcDbArc
 50
180.0
 51
270.0
  0
LINE
  5
9B3
330
2
100
AcDbEntity
  8
0
100
AcDbLine
 10
228.1563785968
 20
256.5611767384
 30
0.0
 11
228.1563785968
 21
258.5611767384
 31
0.0
  0
LINE
  5
9B4
330
2
100
AcDbEntity
  8
0
100
AcDbLine
 10
216.6563865968
 20
259.5611767384
 30
0.0
 11
216.6563865968
 21
260.5611767384
 31
0.0
  0
LINE
  5
9B5
330
2
100
AcDbEntity
  8
CENTER
100
AcDbLine
 10
208.5688480956
 20
333.5611767384
 30
0.0
 11
196.7439090979
 21
333.5611767384
 31
0.0
  0
CIRCLE
  5
9B6
330
2
100
AcDbEntity
  8
0
100
AcDbCircle
 10
202.6563865968
 20
333.5611767384
 30
0.0
 40
3.25
  0
LINE
  5
9B7
330
2
100
AcDbEntity
  8
0
100
AcDbLine
 10
194.1563865968
 20
329.5611767384
 30
0.0
 11
194.1563865968
 21
325.9133337384
 31
0.0
  0
ARC
  5
9B8
330
2
100
AcDbEntity
  8
0
100
AcDbCircle
 10
196.6628865968
 20
322.5611767384
 30
0.0
 40
2.0
100
AcDbArc
 50
90.0
 51
179.0
  0
ARC
  5
9B9
330
2
100
AcDbEntity
  8
0
100
AcDbCircle
 10
195.6563865968
 20
325.9133337384
 30
0.0
 40
1.5
100
AcDbArc
 50
180.0
 51
286.712646
  0
LINE
  5
9BA
330
2
100
AcDbEntity
  8
0
100
AcDbLine
 10
194.9252005968
 20
337.6135447384
 30
0.0
 11
194.7008275968
 21
324.7570837384
 31
0.0
  0
ARC
  5
9BB
330
2
100
AcDbEntity
  8
0
100
AcDbCircle
 10
192.1563865968
 20
329.5611767384
 30
0.0
 40
2.0
100
AcDbArc
 50
0.0
 51
90.0
  0
LINE
  5
9BC
330
2
100
AcDbEntity
  8
0
100
AcDbLine
 10
194.6631155968
 20
322.5960887384
 30
0.0
 11
194.5577915968
 21
316.5611767384
 31
0.0
  0
LINE
  5
9BD
330
2
100
AcDbEntity
  8
0
100
AcDbLine
 10
246.1563785968
 20
251.0611767384
 30
0.0
 11
246.1563785968
 21
229.5611767384
 31
0.0
  0
LINE
  5
9BE
330
2
100
AcDbEntity
  8
0
100
AcDbLine
 10
243.7273775968
 20
251.0611767384
 30
0.0
 11
243.7273775968
 21
229.5611767384
 31
0.0
  0
LINE
  5
9BF
330
2
100
AcDbEntity
  8
0
100
AcDbLine
 10
229.1563785968
 20
229.5611767384
 30
0.0
 11
229.1563785968
 21
256.5611767384
 31
0.0
  0
ARC
  5
9C0
330
2
100
AcDbEntity
  8
0
100
AcDbCircle
 10
274.1563785968
 20
131.0645012721
 30
0.0
 40
5.0
100
AcDbArc
 50
0.0
 51
54.93837
  0
LINE
  5
9C2
330
2
100
AcDbEntity
  8
0
100
AcDbLine
 10
277.0286775968
 20
135.1571832721
 30
0.0
 11
252.9491795968
 21
152.0565812721
 31
0.0
  0
ARC
  5
9C3
330
2
100
AcDbEntity
  8
0
100
AcDbCircle
 10
250.0769875968
 20
147.9639072721
 30
0.0
 40
5.0
100
AcDbArc
 50
54.938431
 51
90.0
  0
LINE
  5
9C4
330
2
100
AcDbEntity
  8
0
100
AcDbLine
 10
229.1563785968
 20
229.5611767384
 30
0.0
 11
246.1563785968
 21
229.5611767384
 31
0.0
  0
LINE
  5
9C5
330
2
100
AcDbEntity
  8
0
100
AcDbLine
 10
278.3874425968
 20
249.5088237384
 30
0.0
 11
279.1563785968
 21
293.5611767384
 31
0.0
  0
LINE
  5
9C6
330
2
100
AcDbEntity
  8
0
100
AcDbLine
 10
251.6563785968
 20
322.5960887384
 30
0.0
 11
251.6563785968
 21
264.5262797384
 31
0.0
  0
LINE
  5
9C7
330
2
100
AcDbEntity
  8
0
100
AcDbLine
 10
246.1563785968
 20
246.5611767384
 30
0.0
 11
275.3879005968
 21
246.5611767384
 31
0.0
  0
LINE
  5
9C8
330
2
100
AcDbEntity
  8
0
100
AcDbLine
 10
245.1563785968
 20
256.5611767384
 30
0.0
 11
245.1563785968
 21
258.5611767384
 31
0.0
  0
LINE
  5
9C9
330
2
100
AcDbEntity
  8
0
100
AcDbLine
 10
243.7273775968
 20
251.0611767384
 30
0.0
 11
246.1563785968
 21
251.0611767384
 31
0.0
  0
LINE
  5
9CA
330
2
100
AcDbEntity
  8
0
100
AcDbLine
 10
244.1563785968
 20
251.0611767384
 30
0.0
 11
244.1563785968
 21
256.5611767384
 31
0.0
  0
LINE
  5
9CB
330
2
100
AcDbEntity
  8
CENTER
100
AcDbLine
 10
270.6563785968
 20
259.4736462372
 30
0.0
 11
270.6563785968
 21
247.6487072395
 31
0.0
  0
ARC
  5
9CC
330
2
100
AcDbEntity
  8
0
100
AcDbCircle
 10
255.6563935968
 20
259.5611767384
 30
0.0
 40
1.0
100
AcDbArc
 50
270.0
 51
0.0
  0
LINE
  5
9CD
330
2
100
AcDbEntity
  8
CENTER
100
AcDbLine
 10
276.5688480956
 20
253.5611767384
 30
0.0
 11
264.7439090979
 21
253.5611767384
 31
0.0
  0
CIRCLE
  5
9CE
330
2
100
AcDbEntity
  8
0
100
AcDbCircle
 10
270.6563785968
 20
253.5611767384
 30
0.0
 40
3.25
  0
ARC
  5
9CF
330
2
100
AcDbEntity
  8
0
100
AcDbCircle
 10
275.3879005968
 20
249.5611767384
 30
0.0
 40
3.0
100
AcDbArc
 50
270.0
 51
359.0
  0
LINE
  5
9D0
330
2
100
AcDbEntity
  8
0
100
AcDbLine
 10
256.6563785968
 20
259.5611767384
 30
0.0
 11
256.6563785968
 21
260.5611767384
 31
0.0
  0
ARC
  5
9D1
330
2
100
AcDbEntity
  8
0
100
AcDbCircle
 10
276.6498785968
 20
264.5611767384
 30
0.0
 40
2.0
100
AcDbArc
 50
270.0
 51
359.0
  0
LINE
  5
9D2
330
2
100
AcDbEntity
  8
0
100
AcDbLine
 10
278.3874425968
 20
337.6135447384
 30
0.0
 11
279.1563785968
 21
293.5611767384
 31
0.0
  0
LINE
  5
9D3
330
2
100
AcDbEntity
  8
CENTER
100
AcDbLine
 10
276.5688480956
 20
333.5611767384
 30
0.0
 11
264.7439090979
 21
333.5611767384
 31
0.0
  0
CIRCLE
  5
9D4
330
2
100
AcDbEntity
  8
0
100
AcDbCircle
 10
270.6563785968
 20
333.5611767384
 30
0.0
 40
3.25
  0
ARC
  5
9D5
330
2
100
AcDbEntity
  8
0
100
AcDbCircle
 10
276.6498785968
 20
322.5611767384
 30
0.0
 40
2.0
100
AcDbArc
 50
1.0
 51
90.0
  0
LINE
  5
9D6
330
2
100
AcDbEntity
  8
0
100
AcDbLine
 10
197.9247505968
 20
340.5611767384
 30
0.0
 11
236.6563785968
 21
340.5611767384
 31
0.0
  0
LINE
  5
9D7
330
2
100
AcDbEntity
  8
0
100
AcDbLine
 10
236.6563785968
 20
340.5611767384
 30
0.0
 11
275.3879005968
 21
340.5611767384
 31
0.0
  0
TEXT
  5
9D8
330
2
100
AcDbEntity
  8
TITLE
100
AcDbText
 10
342.7803900096
 20
271.1824312155
 30
0.0
 40
5.0
  1
HLW-15R-10~240-S25
100
AcDbText
  0
TEXT
  5
9D9
330
2
100
AcDbEntity
  8
TITLE
100
AcDbText
 10
342.7803900096
 20
295.1824312155
 30
0.0
 40
5.0
  1
HLW-15R-10~240-T25
100
AcDbText
  0
ARC
  5
9DA
330
2
100
AcDbEntity
  8
0
100
AcDbCircle
 10
431.4241425836
 20
149.0639212721
 30
0.0
 40
6.0
100
AcDbArc
 50
39.534275
 51
140.465729
  0
LINE
  5
9DC
330
2
100
AcDbEntity
  8
0
100
AcDbLine
 10
402.0978485836
 20
133.6639272721
 30
0.0
 11
460.8165375836
 21
133.6639272721
 31
0.0
  0
ARC
  5
9DD
330
2
100
AcDbEntity
  8
0
100
AcDbCircle
 10
431.4241425836
 20
-92.9360637279
 30
0.0
 40
250.0
100
AcDbArc
 50
84.826019
 51
95.173981
  0
LINE
  5
9DF
330
2
100
AcDbEntity
  8
HIDS
100
AcDbLine
 10
410.3892305836
 20
135.6967642721
 30
0.0
 11
431.4241425836
 21
136.0639132721
 31
0.0
  0
LINE
  5
9E0
330
2
100
AcDbEntity
  8
0
100
AcDbLine
 10
402.3892305836
 20
152.4571322721
 30
0.0
 11
431.4241425836
 21
152.9639302721
 31
0.0
  0
LINE
  5
9E2
330
2
100
AcDbEntity
  8
0
100
AcDbLine
 10
367.4241425836
 20
127.8639162721
 30
0.0
 11
394.4241425836
 21
127.8639162721
 31
0.0
  0
ARC
  5
9E3
330
2
100
AcDbEntity
  8
0
100
AcDbCircle
 10
402.4241425836
 20
150.4573312721
 30
0.0
 40
2.0
100
AcDbArc
 50
91.000641
 51
180.0
  0
LINE
  5
9E4
330
2
100
AcDbEntity
  8
0
100
AcDbLine
 10
397.4241425836
 20
140.3639162721
 30
0.0
 11
398.4241425836
 21
140.3639162721
 31
0.0
  0
LINE
  5
9E5
330
2
100
AcDbEntity
  8
0
100
AcDbLine
 10
394.4241425836
 20
128.8639162721
 30
0.0
 11
396.4241425836
 21
128.8639162721
 31
0.0
  0
ARC
  5
9E6
330
2
100
AcDbEntity
  8
0
100
AcDbCircle
 10
397.4241425836
 20
139.3639162721
 30
0.0
 40
1.0
100
AcDbArc
 50
90.0
 51
180.0
  0
LINE
  5
9EB
330
2
100
AcDbEntity
  8
HIDS
100
AcDbLine
 10
408.4241425836
 20
152.5624703331
 30
0.0
 11
408.4241425836
 21
133.6970542721
 31
0.0
  0
ARC
  5
9EC
330
2
100
AcDbEntity
  8
HIDS
100
AcDbCircle
 10
405.4241425836
 20
129.7656572721
 30
0.0
 40
3.0
100
AcDbArc
 50
309.356701
 51
0.0
  0
LINE
  5
9ED
330
2
100
AcDbEntity
  8
HIDS
100
AcDbLine
 10
408.4241425836
 20
133.6970542721
 30
0.0
 11
408.4241425836
 21
129.7656572721
 31
0.0
  0
ARC
  5
9EE
330
2
100
AcDbEntity
  8
HIDS
100
AcDbCircle
 10
410.4241425836
 20
133.6970542721
 30
0.0
 40
2.0
100
AcDbArc
 50
90.999863
 51
180.0
  0
ARC
  5
9EF
330
2
100
AcDbEntity
  8
0
100
AcDbCircle
 10
411.4241425836
 20
149.2639182721
 30
0.0
 40
7.0
100
AcDbArc
 50
73.043503
 51
106.958023
  0
LINE
  5
9F0
330
2
100
AcDbEntity
  8
0
100
AcDbLine
 10
414.1741425836
 20
153.5637222721
 30
0.0
 11
414.1741425836
 21
155.0031222721
 31
0.0
  0
LINE
  5
9F1
330
2
100
AcDbEntity
  8
0
100
AcDbLine
 10
414.9241425836
 20
156.0503862721
 30
0.0
 11
414.9241425836
 21
154.0639212721
 31
0.0
  0
ARC
  5
9F2
330
2
100
AcDbEntity
  8
0
100
AcDbCircle
 10
415.4241425836
 20
156.0503862721
 30
0.0
 40
0.5
100
AcDbArc
 50
93.676804
 51
180.0
  0
ARC
  5
9F3
330
2
100
AcDbEntity
  8
0
100
AcDbCircle
 10
414.4241425836
 20
154.0639212721
 30
0.0
 40
0.5
100
AcDbArc
 50
270.0
 51
0.0
  0
ARC
  5
9F4
330
2
100
AcDbEntity
  8
0
100
AcDbCircle
 10
413.1741425836
 20
155.0031222721
 30
0.0
 40
1.0
100
AcDbArc
 50
0.0
 51
73.043098
  0
LINE
  5
9F5
330
2
100
AcDbEntity
  8
0
100
AcDbLine
 10
408.6741425836
 20
153.5639212721
 30
0.0
 11
408.6741425836
 21
155.0031222721
 31
0.0
  0
ARC
  5
9F6
330
2
100
AcDbEntity
  8
0
100
AcDbCircle
 10
408.9241425836
 20
155.5473422721
 30
0.0
 40
0.5
100
AcDbArc
 50
95.173981
 51
180.0
  0
ARC
  5
9F7
330
2
100
AcDbEntity
  8
0
100
AcDbCircle
 10
408.9241425836
 20
153.0639212721
 30
0.0
 40
0.5
100
AcDbArc
 50
90.0
 51
180.0
  0
LINE
  5
9F8
330
2
100
AcDbEntity
  8
0
100
AcDbLine
 10
408.4241425836
 20
152.5624642721
 30
0.0
 11
408.4241425836
 21
155.5473422721
 31
0.0
  0
LINE
  5
9F9
330
2
100
AcDbEntity
  8
0
100
AcDbLine
 10
408.6741425836
 20
154.2639182721
 30
0.0
 11
414.1741425836
 21
154.2639182721
 31
0.0
  0
LINE
  5
9FA
330
2
100
AcDbEntity
  8
0
100
AcDbLine
 10
408.6741425836
 20
153.5639212721
 30
0.0
 11
414.4241425836
 21
153.5639212721
 31
0.0
  0
ARC
  5
9FB
330
2
100
AcDbEntity
  8
0
100
AcDbCircle
 10
409.6741425836
 20
155.0031222721
 30
0.0
 40
1.0
100
AcDbArc
 50
106.958153
 51
180.0
  0
TEXT
  5
9FC
330
2
100
AcDbEntity
  8
TITLE
100
AcDbText
 10
342.7803900096
 20
303.1824312155
 30
0.0
 40
5.0
  1
HLW-15R-10~240-T15
100
AcDbText
  0
TEXT
  5
9FD
330
2
100
AcDbEntity
  8
TITLE
100
AcDbText
 10
342.7803900096
 20
287.1824312155
 30
0.0
 40
5.0
  1
HLW-15R-10~120-T40
100
AcDbText
  0
TEXT
  5
9FE
330
2
100
AcDbEntity
  8
TITLE
100
AcDbText
 10
342.7803900096
 20
279.1824312155
 30
0.0
 40
5.0
  1
HLW-15R-10~240-S15
100
AcDbText
  0
LINE
  5
9FF
330
2
100
AcDbEntity
  8
0
100
AcDbLine
 10
460.4590245836
 20
152.4571322721
 30
0.0
 11
431.4241425836
 21
152.9639302721
 31
0.0
  0
LINE
  5
A01
330
2
100
AcDbEntity
  8
HIDS
100
AcDbLine
 10
452.4590245836
 20
135.6967642721
 30
0.0
 11
431.4241425836
 21
136.0639132721
 31
0.0
  0
LINE
  5
A02
330
2
100
AcDbEntity
  8
HIDS
100
AcDbLine
 10
454.4241425836
 20
133.6639272721
 30
0.0
 11
454.4241425836
 21
129.7656572721
 31
0.0
  0
LINE
  5
A06
330
2
100
AcDbEntity
  8
HIDS
100
AcDbLine
 10
454.4241425836
 20
152.5624699183
 30
0.0
 11
454.4241425836
 21
133.6970542721
 31
0.0
  0
ARC
  5
A07
330
2
100
AcDbEntity
  8
HIDS
100
AcDbCircle
 10
457.4241425836
 20
129.7656572721
 30
0.0
 40
3.0
100
AcDbArc
 50
180.0
 51
230.643295
  0
ARC
  5
A08
330
2
100
AcDbEntity
  8
HIDS
100
AcDbCircle
 10
452.4241425836
 20
133.6970542721
 30
0.0
 40
2.0
100
AcDbArc
 50
0.0
 51
89.000137
  0
ARC
  5
A09
330
2
100
AcDbEntity
  8
0
100
AcDbCircle
 10
449.6741425836
 20
155.0031222721
 30
0.0
 40
1.0
100
AcDbArc
 50
106.956902
 51
180.0
  0
LINE
  5
A0A
330
2
100
AcDbEntity
  8
0
100
AcDbLine
 10
454.1741425836
 20
153.5639212721
 30
0.0
 11
448.4241425836
 21
153.5639212721
 31
0.0
  0
LINE
  5
A0B
330
2
100
AcDbEntity
  8
0
100
AcDbLine
 10
447.9241425836
 20
156.0503862721
 30
0.0
 11
447.9241425836
 21
154.0639212721
 31
0.0
  0
ARC
  5
A0C
330
2
100
AcDbEntity
  8
0
100
AcDbCircle
 10
447.4241425836
 20
156.0503862721
 30
0.0
 40
0.5
100
AcDbArc
 50
0.0
 51
86.323196
  0
ARC
  5
A0D
330
2
100
AcDbEntity
  8
0
100
AcDbCircle
 10
448.4241425836
 20
154.0639212721
 30
0.0
 40
0.5
100
AcDbArc
 50
180.0
 51
270.0
  0
LINE
  5
A0E
330
2
100
AcDbEntity
  8
0
100
AcDbLine
 10
454.1741425836
 20
153.5639212721
 30
0.0
 11
454.1741425836
 21
155.0031222721
 31
0.0
  0
ARC
  5
A0F
330
2
100
AcDbEntity
  8
0
100
AcDbCircle
 10
453.1741425836
 20
155.0031222721
 30
0.0
 40
1.0
100
AcDbArc
 50
0.0
 51
73.041847
  0
ARC
  5
A10
330
2
100
AcDbEntity
  8
0
100
AcDbCircle
 10
453.9241425836
 20
155.5473422721
 30
0.0
 40
0.5
100
AcDbArc
 50
0.0
 51
84.826019
  0
ARC
  5
A11
330
2
100
AcDbEntity
  8
0
100
AcDbCircle
 10
453.9241425836
 20
153.0639212721
 30
0.0
 40
0.5
100
AcDbArc
 50
0.0
 51
90.0
  0
LINE
  5
A12
330
2
100
AcDbEntity
  8
0
100
AcDbLine
 10
454.4241425836
 20
152.5624642721
 30
0.0
 11
454.4241425836
 21
155.5473422721
 31
0.0
  0
LINE
  5
A13
330
2
100
AcDbEntity
  8
0
100
AcDbLine
 10
448.6741425836
 20
153.5637222721
 30
0.0
 11
448.6741425836
 21
155.0031222721
 31
0.0
  0
LINE
  5
A14
330
2
100
AcDbEntity
  8
0
100
AcDbLine
 10
454.1741425836
 20
154.2639182721
 30
0.0
 11
448.6741425836
 21
154.2639182721
 31
0.0
  0
ARC
  5
A15
330
2
100
AcDbEntity
  8
0
100
AcDbCircle
 10
451.4241425836
 20
149.2639182721
 30
0.0
 40
7.0
100
AcDbArc
 50
73.041977
 51
106.956497
  0
ARC
  5
A16
330
2
100
AcDbEntity
  8
0
100
AcDbCircle
 10
460.4241425836
 20
150.4574302721
 30
0.0
 40
2.0
100
AcDbArc
 50
0.0
 51
89.000137
  0
LINE
  5
A17
330
2
100
AcDbEntity
  8
0
100
AcDbLine
 10
465.4241425836
 20
140.3639162721
 30
0.0
 11
464.4241425836
 21
140.3639162721
 31
0.0
  0
ARC
  5
A18
330
2
100
AcDbEntity
  8
0
100
AcDbCircle
 10
465.4241425836
 20
139.3639162721
 30
0.0
 40
1.0
100
AcDbArc
 50
0.0
 51
90.0
  0
ARC
  5
FCC
330
2
100
AcDbEntity
  8
0
100
AcDbCircle
 10
464.4241425836
 20
142.3639162721
 30
0.0
 40
2.0
100
AcDbArc
 50
180.0
 51
270.0
  0
ARC
  5
FCD
330
2
100
AcDbEntity
  8
0
100
AcDbCircle
 10
464.4241425836
 20
98.3639162721
 30
0.0
 40
2.0
100
AcDbArc
 50
90.0
 51
180.0
  0
ARC
  5
FCE
330
2
100
AcDbEntity
  8
0
100
AcDbCircle
 10
398.4241425836
 20
98.3639162721
 30
0.0
 40
2.0
100
AcDbArc
 50
0.0
 51
90.0
  0
ARC
  5
FCF
330
2
100
AcDbEntity
  8
0
100
AcDbCircle
 10
398.4241425836
 20
142.3639162721
 30
0.0
 40
2.0
100
AcDbArc
 50
270.0
 51
0.0
  0
ARC
  5
FD0
330
2
100
AcDbEntity
  8
0
100
AcDbCircle
 10
214.6563785968
 20
326.5611767384
 30
0.0
 40
2.0
100
AcDbArc
 50
270.0
 51
0.0
  0
ARC
  5
FD1
330
2
100
AcDbEntity
  8
0
100
AcDbCircle
 10
217.6563785968
 20
327.5611767384
 30
0.0
 40
1.0
100
AcDbArc
 50
90.0
 51
180.0
  0
LINE
  5
FD2
330
2
100
AcDbEntity
  8
0
100
AcDbLine
 10
216.6563785968
 20
327.5611767384
 30
0.0
 11
216.6563785968
 21
326.5611767384
 31
0.0
  0
LINE
  5
FD3
330
2
100
AcDbEntity
  8
0
100
AcDbLine
 10
255.6563785968
 20
328.5611767384
 30
0.0
 11
217.6563785968
 21
328.5611767384
 31
0.0
  0
ARC
  5
FD4
330
2
100
AcDbEntity
  8
0
100
AcDbCircle
 10
258.6563785968
 20
326.5611767384
 30
0.0
 40
2.0
100
AcDbArc
 50
180.0
 51
270.0
  0
LINE
  5
FD5
330
2
100
AcDbEntity
  8
0
100
AcDbLine
 10
256.6563785968
 20
327.5611767384
 30
0.0
 11
256.6563785968
 21
326.5611767384
 31
0.0
  0
ARC
  5
FD6
330
2
100
AcDbEntity
  8
0
100
AcDbCircle
 10
255.6563785968
 20
327.5611767384
 30
0.0
 40
1.0
100
AcDbArc
 50
0.0
 51
90.0
  0
ARC
  5
FD8
330
2
100
AcDbEntity
  8
0
100
AcDbCircle
 10
258.6563785968
 20
260.5611767384
 30
0.0
 40
2.0
100
AcDbArc
 50
90.0
 51
180.0
  0
ARC
  5
FD9
330
2
100
AcDbEntity
  8
0
100
AcDbCircle
 10
214.6563865968
 20
260.5611767384
 30
0.0
 40
2.0
100
AcDbArc
 50
0.0
 51
90.0
  0
INSERT
  5
11A7
330
2
100
AcDbEntity
  8
0
100
AcDbBlockReference
  2
G$C828323CB
 10
121.6563845968
 20
293.5611767384
 30
0.0
  0
INSERT
  5
121E
330
2
100
AcDbEntity
  8
0
100
AcDbBlockReference
  2
G$C8ED97162
 10
121.6563845968
 20
98.0639212721
 30
0.0
  0
ENDSEC
  0
SECTION
  2
OBJECTS
  0
DICTIONARY
  5
7
330
0
100
AcDbDictionary
281
     1
  3
ACAD_CIP_PREVIOUS_PRODUCT_INFO
350
10D0
  3
ACAD_COLOR
350
1006
  3
ACAD_DETAILVIEWSTYLE
350
10CC
  3
ACAD_GROUP
350
75
  3
ACAD_LAYOUT
350
61
  3
ACAD_MATERIAL
350
FDC
  3
ACAD_MLEADERSTYLE
350
102B
  3
ACAD_MLINESTYLE
350
76
  3
ACAD_PLOTSETTINGS
350
77
  3
ACAD_PLOTSTYLENAME
350
6
  3
ACAD_SCALELIST
350
1009
  3
ACAD_SECTIONVIEWSTYLE
350
10CA
  3
ACAD_TABLESTYLE
350
1007
  3
ACAD_VISUALSTYLE
350
FF5
  3
AcadDim
350
480
  3
ACDB_RECOMPOSE_DATA
350
1323
  3
AcDbVariableDictionary
350
102
  3
DWGPROPS
350
1324
  0
DICTIONARY
  5
105A
330
6E
100
AcDbDictionary
280
     1
281
     1
  0
DICTIONARY
  5
11A0
330
66
100
AcDbDictionary
280
     1
281
     1
  3
ACAD_LAYERSTATES
360
11A1
  0
DICTIONARY
  5
1030
330
5E
100
AcDbDictionary
280
     1
281
     1
  3
ADSK_XREC_LAYER_RECONCILED
360
1031
  0
DICTIONARY
  5
1032
330
3E
100
AcDbDictionary
280
     1
281
     1
  3
ADSK_XREC_LAYER_RECONCILED
360
1033
  0
DICTIONARY
  5
1038
330
2B5
100
AcDbDictionary
280
     1
281
     1
  3
ADSK_XREC_LAYER_RECONCILED
360
1039
  0
DICTIONARY
  5
103A
330
2BA
100
AcDbDictionary
280
     1
281
     1
  3
ADSK_XREC_LAYER_RECONCILED
360
103B
  0
DICTIONARY
  5
103E
330
3FA
100
AcDbDictionary
280
     1
281
     1
  3
ADSK_XREC_LAYER_RECONCILED
360
103F
  0
DICTIONARY
  5
1139
330
1138
100
AcDbDictionary
280
     1
281
     1
  3
ACAD_SORTENTS
360
113A
  0
DICTIONARY
  5
1150
330
114F
100
AcDbDictionary
280
     1
281
     1
  3
ACAD_SORTENTS
360
1151
  0
DICTIONARY
  5
11A9
330
11A8
100
AcDbDictionary
280
     1
281
     1
  3
ACAD_SORTENTS
360
11AA
  0
XRECORD
  5
10D0
102
{ACAD_REACTORS
330
7
102
}
330
7
100
AcDbXrecord
280
     1
300
ACD
300
2020
300
87224ACD_2020_0F
  0
DICTIONARY
  5
1006
102
{ACAD_REACTORS
330
7
102
}
330
7
100
AcDbDictionary
281
     1
  0
DICTIONARY
  5
10CC
102
{ACAD_REACTORS
330
7
102
}
330
7
100
AcDbDictionary
281
     1
  3
Imperial24
350
10CD
  0
DICTIONARY
  5
75
102
{ACAD_REACTORS
330
7
102
}
330
7
100
AcDbDictionary
281
     1
  0
DICTIONARY
  5
61
102
{ACAD_REACTORS
330
7
102
}
330
7
100
AcDbDictionary
281
     1
  3
Model
350
60
  3
レイアウト1
350
131D
  0
DICTIONARY
  5
FDC
102
{ACAD_REACTORS
330
7
102
}
330
7
100
AcDbDictionary
281
     1
  3
ByBlock
350
FE5
  3
ByLayer
350
FDD
  3
Global
350
FED
  0
DICTIONARY
  5
102B
102
{ACAD_REACTORS
330
7
102
}
330
7
100
AcDbDictionary
281
     1
  3
Standard
350
102C
  0
DICTIONARY
  5
76
102
{ACAD_REACTORS
330
7
102
}
330
7
100
AcDbDictionary
281
     1
  3
STANDARD
350
78
  0
DICTIONARY
  5
77
102
{ACAD_REACTORS
330
7
102
}
330
7
100
AcDbDictionary
281
     1
  0
ACDBDICTIONARYWDFLT
  5
6
102
{ACAD_REACTORS
330
7
102
}
330
7
100
AcDbDictionary
281
     1
  3
Normal
350
5
100
AcDbDictionaryWithDefault
340
5
  0
DICTIONARY
  5
1009
102
{ACAD_REACTORS
330
7
102
}
330
7
100
AcDbDictionary
281
     1
  3
A0
350
100A
  3
A1
350
100B
  3
A2
350
100C
  3
A3
350
100D
  3
A4
350
100E
  3
A5
350
100F
  3
A6
350
1010
  3
A7
350
1011
  3
A8
350
1012
  3
A9
350
1013
  3
B0
350
1014
  3
B1
350
1015
  3
B2
350
1016
  3
B3
350
1017
  3
B4
350
1018
  3
B5
350
1019
  3
B6
350
101A
  3
B7
350
101B
  3
B8
350
101C
  3
B9
350
101D
  3
C0
350
101E
  3
C1
350
101F
  3
C2
350
1020
  3
C3
350
1021
  3
C4
350
1022
  3
C5
350
1023
  3
C6
350
1024
  3
C7
350
1025
  3
C8
350
1026
  3
C9
350
1027
  3
D0
350
1028
  3
D1
350
1029
  3
D2
350
102A
  0
DICTIONARY
  5
10CA
102
{ACAD_REACTORS
330
7
102
}
330
7
100
AcDbDictionary
281
     1
  3
Imperial24
350
10CB
  0
DICTIONARY
  5
1007
102
{ACAD_REACTORS
330
7
102
}
330
7
100
AcDbDictionary
281
     1
  3
Standard
350
1008
  0
DICTIONARY
  5
FF5
102
{ACAD_REACTORS
330
7
102
}
330
7
100
AcDbDictionary
281
     1
  3
2dWireframe
350
FFB
  3
3D Hidden
350
FFD
  3
3dWireframe
350
FFC
  3
Basic
350
FFA
  3
Brighten
350
1001
  3
ColorChange
350
1005
  3
Conceptual
350
FFE
  3
Dim
350
1000
  3
EdgeColorOff
350
10C9
  3
Facepattern
350
1004
  3
Flat
350
FF6
  3
FlatWithEdges
350
FF7
  3
Gouraud
350
FF8
  3
GouraudWithEdges
350
FF9
  3
Hidden
350
10C1
  3
JitterOff
350
10C7
  3
Linepattern
350
1003
  3
OverhangOff
350
10C8
  3
Realistic
350
FFF
  3
Shaded
350
10C6
  3
Shaded with edges
350
10C5
  3
Shades of Gray
350
10C2
  3
Sketchy
350
10C3
  3
Thicken
350
1002
  3
Wireframe
350
10C0
  3
X-Ray
350
10C4
  0
XRECORD
  5
480
102
{ACAD_REACTORS
330
7
102
}
330
7
100
AcDbXrecord
280
     1
 90
   990106
  3

 60
     0
 61
     0
 62
     1
 63
     3
 64
     1
 65
     0
 66
     0
 67
     3
 68
     1
 69
     0
 70
     0
 71
     0
 72
     0
 40
0.0
170
     2
340
0
  0
XRECORD
  5
1323
102
{ACAD_REACTORS
330
7
102
}
330
7
100
AcDbXrecord
280
     1
 90
        1
330
1008
  0
DICTIONARY
  5
102
102
{ACAD_REACTORS
330
7
102
}
330
7
100
AcDbDictionary
281
     1
  3
CANNOSCALE
350
1042
  3
CMLEADERSTYLE
350
1041
  3
CTABLESTYLE
350
1040
  3
CVIEWDETAILSTYLE
350
1132
  3
CVIEWSECTIONSTYLE
350
1133
  3
DIMASSOC
350
103
  3
INDEXCTL
350
1081
  3
SORTENTS
350
1080
  3
XCLIPFRAME
350
1321
  0
XRECORD
  5
1324
102
{ACAD_REACTORS
330
7
102
}
330
7
100
AcDbXrecord
280
     1
  1
DWGPROPS COOKIE
  2

  3

  4

  6

  7

  8
ykitaga
  9

300
=
301
=
302
=
303
=
304
=
305
=
306
=
307
=
308
=
309
=
 40
0.1879925694
 41
2453761.46125
 42
2460516.514386574
  1

 90
        0
  0
DICTIONARY
  5
11A1
102
{ACAD_REACTORS
330
11A0
102
}
330
11A0
100
AcDbDictionary
281
     1
  0
XRECORD
  5
1031
102
{ACAD_REACTORS
330
1030
102
}
330
1030
100
AcDbXrecord
280
     1
290
     1
  0
XRECORD
  5
1033
102
{ACAD_REACTORS
330
1032
102
}
330
1032
100
AcDbXrecord
280
     1
290
     1
  0
XRECORD
  5
1039
102
{ACAD_REACTORS
330
1038
102
}
330
1038
100
AcDbXrecord
280
     1
290
     1
  0
XRECORD
  5
103B
102
{ACAD_REACTORS
330
103A
102
}
330
103A
100
AcDbXrecord
280
     1
290
     1
  0
XRECORD
  5
103F
102
{ACAD_REACTORS
330
103E
102
}
330
103E
100
AcDbXrecord
280
     1
290
     1
  0
SORTENTSTABLE
  5
113A
102
{ACAD_REACTORS
330
1139
102
}
330
1139
100
AcDbSortentsTable
330
1138
  0
SORTENTSTABLE
  5
1151
102
{ACAD_REACTORS
330
1150
102
}
330
1150
100
AcDbSortentsTable
330
114F
  0
SORTENTSTABLE
  5
11AA
102
{ACAD_REACTORS
330
11A9
102
}
330
11A9
100
AcDbSortentsTable
330
11A8
  0
ACDBDETAILVIEWSTYLE
  5
10CD
102
{ACAD_XDICTIONARY
360
1375
102
}
102
{ACAD_REACTORS
330
10CC
102
}
330
10CC
100
AcDbModelDocViewStyle
 70
     0
  3
Imperial24
290
     0
100
AcDbDetailViewStyle
 70
     0
 71
     0
 90
        3
 71
     1
340
16
 40
0.24
340
0
 40
0.24
300

 40
0.36
280
     3
 71
     2
340
8
 90
       25
 71
     3
340
16
 40
0.24
 90
        1
 40
0.75
 90
        1
300
%<\AcVar ViewType \f "%tc1">% %<\AcVar ViewDetailId>%\PSCALE %<\AcVar ViewScale \f "%sn">%
 71
     4
340
8
 90
       25
340
8
 90
       25
280
     0
  0
LAYOUT
  5
60
102
{ACAD_XDICTIONARY
360
1325
102
}
102
{ACAD_REACTORS
330
61
102
}
330
61
100
AcDbPlotSettings
  1

  2
Canon LBP-1420
  4
A4
  6

 40
5.873749733
 41
5.8737478256
 42
5.8737487793
 43
5.8737487793
 44
209.9733276367
 45
296.925994873
 46
0.0
 47
5.37
 48
0.0
 49
0.0
140
0.0
141
0.0
142
1.0
143
0.088099941
 70
 11956
 72
     1
 73
     1
 74
     1
  7
Sekkei.ctb
 75
     0
147
11.3507453947
148
-88.9740150773
149
-101.3630682339
100
AcDbLayout
  1
Model
 70
     1
 71
     0
 10
0.0
 20
0.0
 11
12.0
 21
9.0
 12
0.0
 22
0.0
 32
0.0
 14
0.0
 24
0.0
 34
0.0
 15
0.0
 25
0.0
 35
0.0
146
0.0
 13
0.0
 23
0.0
 33
0.0
 16
1.0
 26
0.0
 36
0.0
 17
0.0
 27
1.0
 37
0.0
 76
     0
330
2
331
FDA
  0
LAYOUT
  5
131D
102
{ACAD_XDICTIONARY
360
1377
102
}
102
{ACAD_REACTORS
330
61
102
}
330
61
100
AcDbPlotSettings
  1

  2
LBP8610
  4

  6

 40
0.0
 41
0.0
 42
0.0
 43
0.0
 44
0.0
 45
0.0
 46
0.0
 47
0.0
 48
0.0
 49
0.0
140
0.0
141
0.0
142
1.0
143
1.0
 70
   688
 72
     0
 73
     0
 74
     5
  7

 75
    16
147
1.0
148
0.0
149
0.0
100
AcDbLayout
  1
レイアウト1
 70
     1
 71
     1
 10
0.0
 20
0.0
 11
12.0
 21
9.0
 12
0.0
 22
0.0
 32
0.0
 14
0.0
 24
0.0
 34
0.0
 15
0.0
 25
0.0
 35
0.0
146
0.0
 13
0.0
 23
0.0
 33
0.0
 16
1.0
 26
0.0
 36
0.0
 17
0.0
 27
1.0
 37
0.0
 76
     0
330
131C
  0
MATERIAL
  5
FE5
102
{ACAD_XDICTIONARY
360
FE6
102
}
102
{ACAD_REACTORS
330
FDC
102
}
330
FDC
100
AcDbMaterial
  1
ByBlock
 72
     0
 43
0.0208333333
 43
0.0
 43
0.0
 43
0.0
 43
0.0
 43
0.0208333333
 43
0.0
 43
0.0
 43
0.0
 43
0.0
 43
1.0
 43
0.0
 43
0.0
 43
0.0
 43
0.0
 43
1.0
 77
     0
 47
0.0208333333
 47
0.0
 47
0.0
 47
0.0
 47
0.0
 47
0.0208333333
 47
0.0
 47
0.0
 47
0.0
 47
0.0
 47
1.0
 47
0.0
 47
0.0
 47
0.0
 47
0.0
 47
1.0
171
     0
 49
0.0208333333
 49
0.0
 49
0.0
 49
0.0
 49
0.0
 49
0.0208333333
 49
0.0
 49
0.0
 49
0.0
 49
0.0
 49
1.0
 49
0.0
 49
0.0
 49
0.0
 49
0.0
 49
1.0
175
     0
142
0.0208333333
142
0.0
142
0.0
142
0.0
142
0.0
142
0.0208333333
142
0.0
142
0.0
142
0.0
142
0.0
142
1.0
142
0.0
142
0.0
142
0.0
142
0.0
142
1.0
179
     0
144
0.0208333333
144
0.0
144
0.0
144
0.0
144
0.0
144
0.0208333333
144
0.0
144
0.0
144
0.0
144
0.0
144
1.0
144
0.0
144
0.0
144
0.0
144
0.0
144
1.0
147
0.0208333333
147
0.0
147
0.0
147
0.0
147
0.0
147
0.0208333333
147
0.0
147
0.0
147
0.0
147
0.0
147
1.0
147
0.0
147
0.0
147
0.0
147
0.0
147
1.0
  0
MATERIAL
  5
FDD
102
{ACAD_XDICTIONARY
360
FDE
102
}
102
{ACAD_REACTORS
330
FDC
102
}
330
FDC
100
AcDbMaterial
  1
ByLayer
 72
     0
 43
0.0208333333
 43
0.0
 43
0.0
 43
0.0
 43
0.0
 43
0.0208333333
 43
0.0
 43
0.0
 43
0.0
 43
0.0
 43
1.0
 43
0.0
 43
0.0
 43
0.0
 43
0.0
 43
1.0
 77
     0
 47
0.0208333333
 47
0.0
 47
0.0
 47
0.0
 47
0.0
 47
0.0208333333
 47
0.0
 47
0.0
 47
0.0
 47
0.0
 47
1.0
 47
0.0
 47
0.0
 47
0.0
 47
0.0
 47
1.0
171
     0
 49
0.0208333333
 49
0.0
 49
0.0
 49
0.0
 49
0.0
 49
0.0208333333
 49
0.0
 49
0.0
 49
0.0
 49
0.0
 49
1.0
 49
0.0
 49
0.0
 49
0.0
 49
0.0
 49
1.0
175
     0
142
0.0208333333
142
0.0
142
0.0
142
0.0
142
0.0
142
0.0208333333
142
0.0
142
0.0
142
0.0
142
0.0
142
1.0
142
0.0
142
0.0
142
0.0
142
0.0
142
1.0
179
     0
144
0.0208333333
144
0.0
144
0.0
144
0.0
144
0.0
144
0.0208333333
144
0.0
144
0.0
144
0.0
144
0.0
144
1.0
144
0.0
144
0.0
144
0.0
144
0.0
144
1.0
147
0.0208333333
147
0.0
147
0.0
147
0.0
147
0.0
147
0.0208333333
147
0.0
147
0.0
147
0.0
147
0.0
147
1.0
147
0.0
147
0.0
147
0.0
147
0.0
147
1.0
  0
MATERIAL
  5
FED
102
{ACAD_XDICTIONARY
360
FEE
102
}
102
{ACAD_REACTORS
330
FDC
102
}
330
FDC
100
AcDbMaterial
  1
Global
 72
     0
 43
0.0208333333
 43
0.0
 43
0.0
 43
0.0
 43
0.0
 43
0.0208333333
 43
0.0
 43
0.0
 43
0.0
 43
0.0
 43
1.0
 43
0.0
 43
0.0
 43
0.0
 43
0.0
 43
1.0
 77
     0
 47
0.0208333333
 47
0.0
 47
0.0
 47
0.0
 47
0.0
 47
0.0208333333
 47
0.0
 47
0.0
 47
0.0
 47
0.0
 47
1.0
 47
0.0
 47
0.0
 47
0.0
 47
0.0
 47
1.0
171
     0
 49
0.0208333333
 49
0.0
 49
0.0
 49
0.0
 49
0.0
 49
0.0208333333
 49
0.0
 49
0.0
 49
0.0
 49
0.0
 49
1.0
 49
0.0
 49
0.0
 49
0.0
 49
0.0
 49
1.0
175
     0
142
0.0208333333
142
0.0
142
0.0
142
0.0
142
0.0
142
0.0208333333
142
0.0
142
0.0
142
0.0
142
0.0
142
1.0
142
0.0
142
0.0
142
0.0
142
0.0
142
1.0
179
     0
144
0.0208333333
144
0.0
144
0.0
144
0.0
144
0.0
144
0.0208333333
144
0.0
144
0.0
144
0.0
144
0.0
144
1.0
144
0.0
144
0.0
144
0.0
144
0.0
144
1.0
147
0.0208333333
147
0.0
147
0.0
147
0.0
147
0.0
147
0.0208333333
147
0.0
147
0.0
147
0.0
147
0.0
147
1.0
147
0.0
147
0.0
147
0.0
147
0.0
147
1.0
  0
MLEADERSTYLE
  5
102C
102
{ACAD_REACTORS
330
102B
102
}
330
102B
100
AcDbMLeaderStyle
170
     2
171
     1
172
     0
 90
        2
 40
0.0
 41
0.0
173
     1
 91
-1056964608
340
6A
 92
       -2
290
     1
 42
0.09
291
     1
 43
0.36
  3
Standard
 44
0.18
300

342
16
174
     1
178
     6
175
     1
176
     0
 93
-1056964608
 45
0.18
292
     0
297
     0
 46
0.18
 94
-1056964608
 47
1.0
 49
1.0
140
1.0
293
     1
141
0.0
294
     1
177
     0
142
1.0
295
     0
296
     0
143
0.125
1001
ACAD_MLEADERVER
1070
     2
  0
MLINESTYLE
  5
78
102
{ACAD_REACTORS
330
76
102
}
330
76
100
AcDbMlineStyle
  2
STANDARD
 70
     0
  3

 62
     0
 51
90.0
 52
90.0
 71
     2
 49
0.5
 62
   256
  6
BYLAYER
 49
-0.5
 62
   256
  6
BYLAYER
  0
ACDBPLACEHOLDER
  5
5
102
{ACAD_REACTORS
330
6
102
}
330
6
  0
SCALE
  5
100A
102
{ACAD_REACTORS
330
1009
102
}
330
1009
100
AcDbScale
 70
     0
300
1:1
140
1.0
141
1.0
290
     1
  0
SCALE
  5
100B
102
{ACAD_REACTORS
330
1009
102
}
330
1009
100
AcDbScale
 70
     0
300
1:2
140
1.0
141
2.0
290
     0
  0
SCALE
  5
100C
102
{ACAD_REACTORS
330
1009
102
}
330
1009
100
AcDbScale
 70
     0
300
1:4
140
1.0
141
4.0
290
     0
  0
SCALE
  5
100D
102
{ACAD_REACTORS
330
1009
102
}
330
1009
100
AcDbScale
 70
     0
300
1:5
140
1.0
141
5.0
290
     0
  0
SCALE
  5
100E
102
{ACAD_REACTORS
330
1009
102
}
330
1009
100
AcDbScale
 70
     0
300
1:8
140
1.0
141
8.0
290
     0
  0
SCALE
  5
100F
102
{ACAD_REACTORS
330
1009
102
}
330
1009
100
AcDbScale
 70
     0
300
1:10
140
1.0
141
10.0
290
     0
  0
SCALE
  5
1010
102
{ACAD_REACTORS
330
1009
102
}
330
1009
100
AcDbScale
 70
     0
300
1:16
140
1.0
141
16.0
290
     0
  0
SCALE
  5
1011
102
{ACAD_REACTORS
330
1009
102
}
330
1009
100
AcDbScale
 70
     0
300
1:20
140
1.0
141
20.0
290
     0
  0
SCALE
  5
1012
102
{ACAD_REACTORS
330
1009
102
}
330
1009
100
AcDbScale
 70
     0
300
1:30
140
1.0
141
30.0
290
     0
  0
SCALE
  5
1013
102
{ACAD_REACTORS
330
1009
102
}
330
1009
100
AcDbScale
 70
     0
300
1:40
140
1.0
141
40.0
290
     0
  0
SCALE
  5
1014
102
{ACAD_REACTORS
330
1009
102
}
330
1009
100
AcDbScale
 70
     0
300
1:50
140
1.0
141
50.0
290
     0
  0
SCALE
  5
1015
102
{ACAD_REACTORS
330
1009
102
}
330
1009
100
AcDbScale
 70
     0
300
1:100
140
1.0
141
100.0
290
     0
  0
SCALE
  5
1016
102
{ACAD_REACTORS
330
1009
102
}
330
1009
100
AcDbScale
 70
     0
300
2:1
140
2.0
141
1.0
290
     0
  0
SCALE
  5
1017
102
{ACAD_REACTORS
330
1009
102
}
330
1009
100
AcDbScale
 70
     0
300
4:1
140
4.0
141
1.0
290
     0
  0
SCALE
  5
1018
102
{ACAD_REACTORS
330
1009
102
}
330
1009
100
AcDbScale
 70
     0
300
8:1
140
8.0
141
1.0
290
     0
  0
SCALE
  5
1019
102
{ACAD_REACTORS
330
1009
102
}
330
1009
100
AcDbScale
 70
     0
300
10:1
140
10.0
141
1.0
290
     0
  0
SCALE
  5
101A
102
{ACAD_REACTORS
330
1009
102
}
330
1009
100
AcDbScale
 70
     0
300
100:1
140
100.0
141
1.0
290
     0
  0
SCALE
  5
101B
102
{ACAD_REACTORS
330
1009
102
}
330
1009
100
AcDbScale
 70
     0
300
1/128" = 1'-0"
140
0.0078125
141
12.0
290
     0
  0
SCALE
  5
101C
102
{ACAD_REACTORS
330
1009
102
}
330
1009
100
AcDbScale
 70
     0
300
1/64" = 1'-0"
140
0.015625
141
12.0
290
     0
  0
SCALE
  5
101D
102
{ACAD_REACTORS
330
1009
102
}
330
1009
100
AcDbScale
 70
     0
300
1/32" = 1'-0"
140
0.03125
141
12.0
290
     0
  0
SCALE
  5
101E
102
{ACAD_REACTORS
330
1009
102
}
330
1009
100
AcDbScale
 70
     0
300
1/16" = 1'-0"
140
0.0625
141
12.0
290
     0
  0
SCALE
  5
101F
102
{ACAD_REACTORS
330
1009
102
}
330
1009
100
AcDbScale
 70
     0
300
3/32" = 1'-0"
140
0.09375
141
12.0
290
     0
  0
SCALE
  5
1020
102
{ACAD_REACTORS
330
1009
102
}
330
1009
100
AcDbScale
 70
     0
300
1/8" = 1'-0"
140
0.125
141
12.0
290
     0
  0
SCALE
  5
1021
102
{ACAD_REACTORS
330
1009
102
}
330
1009
100
AcDbScale
 70
     0
300
3/16" = 1'-0"
140
0.1875
141
12.0
290
     0
  0
SCALE
  5
1022
102
{ACAD_REACTORS
330
1009
102
}
330
1009
100
AcDbScale
 70
     0
300
1/4" = 1'-0"
140
0.25
141
12.0
290
     0
  0
SCALE
  5
1023
102
{ACAD_REACTORS
330
1009
102
}
330
1009
100
AcDbScale
 70
     0
300
3/8" = 1'-0"
140
0.375
141
12.0
290
     0
  0
SCALE
  5
1024
102
{ACAD_REACTORS
330
1009
102
}
330
1009
100
AcDbScale
 70
     0
300
1/2" = 1'-0"
140
0.5
141
12.0
290
     0
  0
SCALE
  5
1025
102
{ACAD_REACTORS
330
1009
102
}
330
1009
100
AcDbScale
 70
     0
300
3/4" = 1'-0"
140
0.75
141
12.0
290
     0
  0
SCALE
  5
1026
102
{ACAD_REACTORS
330
1009
102
}
330
1009
100
AcDbScale
 70
     0
300
1" = 1'-0"
140
1.0
141
12.0
290
     0
  0
SCALE
  5
1027
102
{ACAD_REACTORS
330
1009
102
}
330
1009
100
AcDbScale
 70
     0
300
1-1/2" = 1'-0"
140
1.5
141
12.0
290
     0
  0
SCALE
  5
1028
102
{ACAD_REACTORS
330
1009
102
}
330
1009
100
AcDbScale
 70
     0
300
3" = 1'-0"
140
3.0
141
12.0
290
     0
  0
SCALE
  5
1029
102
{ACAD_REACTORS
330
1009
102
}
330
1009
100
AcDbScale
 70
     0
300
6" = 1'-0"
140
6.0
141
12.0
290
     0
  0
SCALE
  5
102A
102
{ACAD_REACTORS
330
1009
102
}
330
1009
100
AcDbScale
 70
     0
300
1'-0" = 1'-0"
140
12.0
141
12.0
290
     0
  0
ACDBSECTIONVIEWSTYLE
  5
10CB
102
{ACAD_XDICTIONARY
360
1373
102
}
102
{ACAD_REACTORS
330
10CA
102
}
330
10CA
100
AcDbModelDocViewStyle
 70
     0
  3
Imperial24
290
     0
100
AcDbSectionViewStyle
 70
     0
 71
     0
 90
       78
 71
     1
340
16
 40
0.24
340
0
340
0
 40
0.24
300
I, O, Q, S, X, Z
 40
0.48
 90
        3
 40
0.18
 90
        1
 71
     2
340
8
 90
       25
340
8
 90
       50
 40
0.24
 40
0.0
 40
0.24
 71
     3
340
16
 40
0.24
 90
        1
 40
0.75
 90
        1
300
%<\AcVar ViewType \f "%tc1">% %<\AcVar ViewSectionStartId>%-%<\AcVar ViewSectionEndId>%\PSCALE %<\AcVar ViewScale \f "%sn">%
 71
     4
300
ANSI31
 40
1.0
 90
        0
290
     0
290
     0
 90
        6
 40
0.0
 40
1.5707963268
 40
0.2617993878
 40
1.308996939
 40
-0.2617993878
 40
1.8325957146
  0
TABLESTYLE
  5
1008
102
{ACAD_XDICTIONARY
360
1043
102
}
102
{ACAD_REACTORS
330
1007
102
}
330
1007
100
AcDbTableStyle
  3
Standard
 70
     0
 71
     0
 40
0.06
 41
0.06
280
     0
281
     0
  7
STANDARD
140
0.18
170
     2
 62
     0
 63
     7
283
     0
274
    -2
284
     1
 64
     0
275
    -2
285
     1
 65
     0
276
    -2
286
     1
 66
     0
277
    -2
287
     1
 67
     0
278
    -2
288
     1
 68
     0
279
    -2
289
     1
 69
     0
  7
STANDARD
140
0.25
170
     5
 62
     0
 63
     7
283
     0
274
    -2
284
     1
 64
     0
275
    -2
285
     1
 65
     0
276
    -2
286
     1
 66
     0
277
    -2
287
     1
 67
     0
278
    -2
288
     1
 68
     0
279
    -2
289
     1
 69
     0
  7
STANDARD
140
0.18
170
     5
 62
     0
 63
     7
283
     0
274
    -2
284
     1
 64
     0
275
    -2
285
     1
 65
     0
276
    -2
286
     1
 66
     0
277
    -2
287
     1
 67
     0
278
    -2
288
     1
 68
     0
279
    -2
289
     1
 69
     0
  0
VISUALSTYLE
  5
FFB
102
{ACAD_XDICTIONARY
360
1348
102
}
102
{ACAD_REACTORS
330
FF5
102
}
330
FF5
100
AcDbVisualStyle
  2
2dWireframe
 70
     4
 71
     0
 72
     2
 73
     0
 90
        0
 40
-0.6
 41
-30.0
 62
     5
 63
     7
 74
     1
 91
        4
 64
     7
 65
   257
 75
     1
175
     1
 42
1.0
 92
        0
 66
   257
 43
1.0
 76
     1
 77
     6
 78
     2
 67
     7
 79
     5
170
     0
171
     0
290
     0
174
     0
 93
        1
 44
0.0
173
     0
291
     0
 45
0.0
1001
ACAD
1000
AcDbSavedByObjectVersion
1070
     0
  0
VISUALSTYLE
  5
FFD
102
{ACAD_XDICTIONARY
360
134C
102
}
102
{ACAD_REACTORS
330
FF5
102
}
330
FF5
100
AcDbVisualStyle
  2
3D Hidden
 70
     6
 71
     1
 72
     2
 73
     2
 90
        0
 40
-0.6
 41
-30.0
 62
     5
 63
     7
 74
     2
 91
        2
 64
     7
 65
   257
 75
     2
175
     1
 42
40.0
 92
        0
 66
   257
 43
1.0
 76
     1
 77
     6
 78
     2
 67
     7
 79
     3
170
     0
171
     0
290
     0
174
     0
 93
        1
 44
0.0
173
     0
291
     0
 45
0.0
1001
ACAD
1000
AcDbSavedByObjectVersion
1070
     0
  0
VISUALSTYLE
  5
FFC
102
{ACAD_XDICTIONARY
360
134A
102
}
102
{ACAD_REACTORS
330
FF5
102
}
330
FF5
100
AcDbVisualStyle
  2
3dWireframe
 70
     5
 71
     0
 72
     2
 73
     0
 90
        0
 40
-0.6
 41
-30.0
 62
     5
 63
     7
 74
     1
 91
        4
 64
     7
 65
   257
 75
     1
175
     1
 42
1.0
 92
        0
 66
   257
 43
1.0
 76
     1
 77
     6
 78
     2
 67
     7
 79
     5
170
     0
171
     0
290
     0
174
     0
 93
        1
 44
0.0
173
     0
291
     0
 45
0.0
1001
ACAD
1000
AcDbSavedByObjectVersion
1070
     0
  0
VISUALSTYLE
  5
FFA
102
{ACAD_XDICTIONARY
360
1346
102
}
102
{ACAD_REACTORS
330
FF5
102
}
330
FF5
100
AcDbVisualStyle
  2
Basic
 70
     7
 71
     1
 72
     0
 73
     1
 90
        0
 40
-0.6
 41
-30.0
 62
     5
 63
     7
 74
     0
 91
        4
 64
     7
 65
   257
 75
     1
175
     1
 42
1.0
 92
        8
 66
     7
 43
1.0
 76
     1
 77
     6
 78
     2
 67
     7
 79
     5
170
     0
171
     0
290
     0
174
     0
 93
        1
 44
0.0
173
     0
291
     1
 45
0.0
1001
ACAD
1000
AcDbSavedByObjectVersion
1070
     0
  0
VISUALSTYLE
  5
1001
102
{ACAD_XDICTIONARY
360
1354
102
}
102
{ACAD_REACTORS
330
FF5
102
}
330
FF5
100
AcDbVisualStyle
  2
Brighten
 70
    12
 71
     2
 72
     2
 73
     0
 90
        0
 40
-0.6
 41
-30.0
 62
     5
 63
     7
 74
     1
 91
        4
 64
     7
 65
   257
 75
     1
175
     1
 42
1.0
 92
        8
 66
     7
 43
1.0
 76
     1
 77
     6
 78
     2
 67
     7
 79
     5
170
     0
171
     0
290
     0
174
     0
 93
        1
 44
50.0
173
     0
291
     1
 45
0.0
1001
ACAD
1000
AcDbSavedByObjectVersion
1070
     0
  0
VISUALSTYLE
  5
1005
102
{ACAD_XDICTIONARY
360
135C
102
}
102
{ACAD_REACTORS
330
FF5
102
}
330
FF5
100
AcDbVisualStyle
  2
ColorChange
 70
    16
 71
     2
 72
     2
 73
     3
 90
        0
 40
-0.6
 41
-30.0
 62
     5
 63
     8
 74
     1
 91
        4
 64
     7
 65
   257
 75
     1
175
     1
 42
1.0
 92
        8
 66
     8
 43
1.0
 76
     1
 77
     6
 78
     2
 67
     7
 79
     5
170
     0
171
     0
290
     0
174
     0
 93
        1
 44
0.0
173
     0
291
     1
 45
0.0
1001
ACAD
1000
AcDbSavedByObjectVersion
1070
     0
  0
VISUALSTYLE
  5
FFE
102
{ACAD_XDICTIONARY
360
134E
102
}
102
{ACAD_REACTORS
330
FF5
102
}
330
FF5
100
AcDbVisualStyle
  2
Conceptual
 70
     9
 71
     3
 72
     2
 73
     0
 90
        0
 40
-0.6
 41
-30.0
 62
     5
 63
     7
 74
     2
 91
        2
 64
     7
 65
   257
 75
     1
175
     1
 42
40.0
 92
        8
 66
     7
 43
1.0
 76
     1
 77
     6
 78
     2
 67
     7
 79
     3
170
     0
171
     0
290
     0
174
     0
 93
        1
 44
0.0
173
     0
291
     0
 45
0.0
1001
ACAD
1000
AcDbSavedByObjectVersion
1070
     0
  0
VISUALSTYLE
  5
1000
102
{ACAD_XDICTIONARY
360
1352
102
}
102
{ACAD_REACTORS
330
FF5
102
}
330
FF5
100
AcDbVisualStyle
  2
Dim
 70
    11
 71
     2
 72
     2
 73
     0
 90
        0
 40
-0.6
 41
-30.0
 62
     5
 63
     7
 74
     1
 91
        4
 64
     7
 65
   257
 75
     1
175
     1
 42
1.0
 92
        8
 66
     7
 43
1.0
 76
     1
 77
     6
 78
     2
 67
     7
 79
     5
170
     0
171
     0
290
     0
174
     0
 93
        1
 44
-50.0
173
     0
291
     1
 45
0.0
1001
ACAD
1000
AcDbSavedByObjectVersion
1070
     0
  0
VISUALSTYLE
  5
10C9
102
{ACAD_XDICTIONARY
360
1371
102
}
102
{ACAD_REACTORS
330
FF5
102
}
330
FF5
100
AcDbVisualStyle
  2
EdgeColorOff
 70
    22
 71
     2
 72
     2
 73
     0
 90
        0
 40
-0.6
 41
-30.0
 62
     5
 63
     7
 74
     1
 91
        4
 64
     7
 65
   257
 75
     1
175
     1
 42
1.0
 92
        8
 66
     7
 43
1.0
 76
     1
 77
     6
 78
     2
 67
     7
 79
     5
170
     0
171
     0
290
     0
174
     0
 93
        1
 44
0.0
173
     0
291
     1
 45
0.0
1001
ACAD
1000
AcDbSavedByObjectVersion
1070
     0
  0
VISUALSTYLE
  5
1004
102
{ACAD_XDICTIONARY
360
135A
102
}
102
{ACAD_REACTORS
330
FF5
102
}
330
FF5
100
AcDbVisualStyle
  2
Facepattern
 70
    15
 71
     2
 72
     2
 73
     0
 90
        0
 40
-0.6
 41
-30.0
 62
     5
 63
     7
 74
     1
 91
        4
 64
     7
 65
   257
 75
     1
175
     1
 42
1.0
 92
        8
 66
     7
 43
1.0
 76
     1
 77
     6
 78
     2
 67
     7
 79
     5
170
     0
171
     0
290
     0
174
     0
 93
        1
 44
0.0
173
     0
291
     1
 45
0.0
1001
ACAD
1000
AcDbSavedByObjectVersion
1070
     0
  0
VISUALSTYLE
  5
FF6
102
{ACAD_XDICTIONARY
360
133E
102
}
102
{ACAD_REACTORS
330
FF5
102
}
330
FF5
100
AcDbVisualStyle
  2
Flat
 70
     0
 71
     2
 72
     1
 73
     1
 90
        2
 40
-0.6
 41
30.0
 62
     5
 63
     7
 74
     0
 91
        4
 64
     7
 65
   257
 75
     1
175
     1
 42
1.0
 92
        8
 66
     7
 43
1.0
 76
     1
 77
     6
 78
     2
 67
     7
 79
     5
170
     0
171
     0
290
     0
174
     0
 93
       13
 44
0.0
173
     0
291
     1
 45
0.0
1001
ACAD
1000
AcDbSavedByObjectVersion
1070
     0
  0
VISUALSTYLE
  5
FF7
102
{ACAD_XDICTIONARY
360
1340
102
}
102
{ACAD_REACTORS
330
FF5
102
}
330
FF5
100
AcDbVisualStyle
  2
FlatWithEdges
 70
     1
 71
     2
 72
     1
 73
     1
 90
        2
 40
-0.6
 41
30.0
 62
     5
 63
     7
 74
     1
 91
        4
 64
     7
 65
   257
 75
     1
175
     1
 42
1.0
 92
        0
 66
   257
 43
1.0
 76
     1
 77
     6
 78
     2
 67
     7
 79
     5
170
     0
171
     0
290
     0
174
     0
 93
       13
 44
0.0
173
     0
291
     1
 45
0.0
1001
ACAD
1000
AcDbSavedByObjectVersion
1070
     0
  0
VISUALSTYLE
  5
FF8
102
{ACAD_XDICTIONARY
360
1342
102
}
102
{ACAD_REACTORS
330
FF5
102
}
330
FF5
100
AcDbVisualStyle
  2
Gouraud
 70
     2
 71
     2
 72
     2
 73
     1
 90
        2
 40
-0.6
 41
30.0
 62
     5
 63
     7
 74
     0
 91
        4
 64
     7
 65
   257
 75
     1
175
     1
 42
1.0
 92
        0
 66
     7
 43
1.0
 76
     1
 77
     6
 78
     2
 67
     7
 79
     5
170
     0
171
     0
290
     0
174
     0
 93
       13
 44
0.0
173
     0
291
     1
 45
0.0
1001
ACAD
1000
AcDbSavedByObjectVersion
1070
     0
  0
VISUALSTYLE
  5
FF9
102
{ACAD_XDICTIONARY
360
1344
102
}
102
{ACAD_REACTORS
330
FF5
102
}
330
FF5
100
AcDbVisualStyle
  2
GouraudWithEdges
 70
     3
 71
     2
 72
     2
 73
     1
 90
        2
 40
-0.6
 41
30.0
 62
     5
 63
     7
 74
     1
 91
        4
 64
     7
 65
   257
 75
     1
175
     1
 42
1.0
 92
        0
 66
   257
 43
1.0
 76
     1
 77
     6
 78
     2
 67
     7
 79
     5
170
     0
171
     0
290
     0
174
     0
 93
       13
 44
0.0
173
     0
291
     1
 45
0.0
1001
ACAD
1000
AcDbSavedByObjectVersion
1070
     0
  0
VISUALSTYLE
  5
10C1
102
{ACAD_XDICTIONARY
360
1361
102
}
102
{ACAD_REACTORS
330
FF5
102
}
330
FF5
100
AcDbVisualStyle
  2
Hidden
 70
     6
 71
     1
 72
     2
 73
     2
 90
        0
 40
-0.6
 41
-30.0
 62
     5
 63
     7
 74
     2
 91
        2
 64
     7
 65
   257
 75
     2
175
     1
 42
40.0
 92
        0
 66
   257
 43
1.0
 76
     1
 77
     6
 78
     2
 67
     7
 79
     3
170
     0
171
     0
290
     0
174
     0
 93
        1
 44
0.0
173
     0
291
     0
 45
0.0
1001
ACAD
1000
AcDbSavedByObjectVersion
1070
     0
  0
VISUALSTYLE
  5
10C7
102
{ACAD_XDICTIONARY
360
136D
102
}
102
{ACAD_REACTORS
330
FF5
102
}
330
FF5
100
AcDbVisualStyle
  2
JitterOff
 70
    20
 71
     2
 72
     2
 73
     0
 90
        0
 40
-0.6
 41
-30.0
 62
     5
 63
     7
 74
     1
 91
        4
 64
     7
 65
   257
 75
     1
175
     1
 42
1.0
 92
       10
 66
     7
 43
1.0
 76
     1
 77
     6
 78
     2
 67
     7
 79
     5
170
     0
171
     0
290
     0
174
     0
 93
        1
 44
0.0
173
     0
291
     1
 45
0.0
1001
ACAD
1000
AcDbSavedByObjectVersion
1070
     0
  0
VISUALSTYLE
  5
1003
102
{ACAD_XDICTIONARY
360
1358
102
}
102
{ACAD_REACTORS
330
FF5
102
}
330
FF5
100
AcDbVisualStyle
  2
Linepattern
 70
    14
 71
     2
 72
     2
 73
     0
 90
        0
 40
-0.6
 41
-30.0
 62
     5
 63
     7
 74
     1
 91
        4
 64
     7
 65
   257
 75
     7
175
     7
 42
1.0
 92
        8
 66
     7
 43
1.0
 76
     1
 77
     6
 78
     2
 67
     7
 79
     5
170
     0
171
     0
290
     0
174
     0
 93
        1
 44
0.0
173
     0
291
     1
 45
0.0
1001
ACAD
1000
AcDbSavedByObjectVersion
1070
     0
  0
VISUALSTYLE
  5
10C8
102
{ACAD_XDICTIONARY
360
136F
102
}
102
{ACAD_REACTORS
330
FF5
102
}
330
FF5
100
AcDbVisualStyle
  2
OverhangOff
 70
    21
 71
     2
 72
     2
 73
     0
 90
        0
 40
-0.6
 41
-30.0
 62
     5
 63
     7
 74
     1
 91
        4
 64
     7
 65
   257
 75
     1
175
     1
 42
1.0
 92
        9
 66
     7
 43
1.0
 76
     1
 77
     6
 78
     2
 67
     7
 79
     5
170
     0
171
     0
290
     0
174
     0
 93
        1
 44
0.0
173
     0
291
     1
 45
0.0
1001
ACAD
1000
AcDbSavedByObjectVersion
1070
     0
  0
VISUALSTYLE
  5
FFF
102
{ACAD_XDICTIONARY
360
1350
102
}
102
{ACAD_REACTORS
330
FF5
102
}
330
FF5
100
AcDbVisualStyle
  2
Realistic
 70
     8
 71
     2
 72
     2
 73
     0
 90
        0
 40
-0.6
 41
-30.0
 62
     5
 63
     7
 74
     1
 91
        0
 64
     7
 65
   257
 75
     1
175
     1
 42
1.0
 92
        8
 66
     8
 43
1.0
 76
     1
 77
     6
 78
     2
 67
     7
 79
     5
170
     0
171
     0
290
     0
174
     0
 93
       13
 44
0.0
173
     0
291
     0
 45
0.0
1001
ACAD
1000
AcDbSavedByObjectVersion
1070
     0
  0
VISUALSTYLE
  5
10C6
102
{ACAD_XDICTIONARY
360
136B
102
}
102
{ACAD_REACTORS
330
FF5
102
}
330
FF5
100
AcDbVisualStyle
  2
Shaded
 70
    27
 71
     2
 72
     2
 73
     1
 90
        2
 40
-0.6
 41
30.0
 62
     5
 63
     7
 74
     0
 91
        4
 64
     7
 65
   257
 75
     1
175
     1
 42
1.0
 92
        8
 66
   257
 43
1.0
 76
     1
 77
     6
 78
     2
 67
     8
 79
     3
170
     0
171
     0
290
     0
174
     0
 93
        5
 44
0.0
173
     0
291
     0
 45
0.0
1001
ACAD
1000
AcDbSavedByObjectVersion
1070
     0
  0
VISUALSTYLE
  5
10C5
102
{ACAD_XDICTIONARY
360
1369
102
}
102
{ACAD_REACTORS
330
FF5
102
}
330
FF5
100
AcDbVisualStyle
  2
Shaded with edges
 70
    26
 71
     2
 72
     2
 73
     1
 90
        2
 40
-0.6
 41
30.0
 62
     5
 63
     7
 74
     1
 91
        2
 64
     7
 65
   257
 75
     2
175
     1
 42
1.0
 92
        8
 66
   257
 43
1.0
 76
     1
 77
     6
 78
     2
 67
     7
 79
     3
170
     0
171
     0
290
     0
174
     0
 93
        5
 44
0.0
173
     0
291
     0
 45
0.0
1001
ACAD
1000
AcDbSavedByObjectVersion
1070
     0
  0
VISUALSTYLE
  5
10C2
102
{ACAD_XDICTIONARY
360
1363
102
}
102
{ACAD_REACTORS
330
FF5
102
}
330
FF5
100
AcDbVisualStyle
  2
Shades of Gray
 70
    23
 71
     2
 72
     2
 73
     3
 90
        0
 40
-0.6
 41
-30.0
 62
     5
 63
     7
 74
     2
 91
        2
 64
     7
 65
     7
 75
     1
175
     1
 42
40.0
 92
        8
 66
     7
 43
1.0
 76
     1
 77
     6
 78
     2
 67
     7
 79
     3
170
     0
171
     0
290
     0
174
     0
 93
        1
 44
0.0
173
     0
291
     0
 45
0.0
1001
ACAD
1000
AcDbSavedByObjectVersion
1070
     0
  0
VISUALSTYLE
  5
10C3
102
{ACAD_XDICTIONARY
360
1365
102
}
102
{ACAD_REACTORS
330
FF5
102
}
330
FF5
100
AcDbVisualStyle
  2
Sketchy
 70
    24
 71
     1
 72
     2
 73
     2
 90
        0
 40
-0.6
 41
-30.0
 62
     5
 63
     7
 74
     2
 91
        2
 64
     7
 65
     7
 75
     1
175
     1
 42
40.0
 92
       11
 66
     7
 43
1.0
 76
     1
 77
     6
 78
     2
 67
     7
 79
     6
170
     0
171
     0
290
     0
174
     0
 93
        1
 44
0.0
173
     0
291
     0
 45
0.0
1001
ACAD
1000
AcDbSavedByObjectVersion
1070
     0
  0
VISUALSTYLE
  5
1002
102
{ACAD_XDICTIONARY
360
1356
102
}
102
{ACAD_REACTORS
330
FF5
102
}
330
FF5
100
AcDbVisualStyle
  2
Thicken
 70
    13
 71
     2
 72
     2
 73
     0
 90
        0
 40
-0.6
 41
-30.0
 62
     5
 63
     7
 74
     1
 91
        4
 64
     7
 65
   257
 75
     1
175
     1
 42
1.0
 92
       12
 66
     7
 43
1.0
 76
     1
 77
     6
 78
     2
 67
     7
 79
     5
170
     0
171
     0
290
     0
174
     0
 93
        1
 44
0.0
173
     0
291
     1
 45
0.0
1001
ACAD
1000
AcDbSavedByObjectVersion
1070
     0
  0
VISUALSTYLE
  5
10C0
102
{ACAD_XDICTIONARY
360
135F
102
}
102
{ACAD_REACTORS
330
FF5
102
}
330
FF5
100
AcDbVisualStyle
  2
Wireframe
 70
     5
 71
     0
 72
     2
 73
     0
 90
        0
 40
-0.6
 41
-30.0
 62
     5
 63
     7
 74
     1
 91
        4
 64
     7
 65
   257
 75
     1
175
     1
 42
1.0
 92
        0
 66
   257
 43
1.0
 76
     1
 77
     6
 78
     2
 67
     7
 79
     3
170
     0
171
     0
290
     0
174
     0
 93
        1
 44
0.0
173
     0
291
     0
 45
0.0
1001
ACAD
1000
AcDbSavedByObjectVersion
1070
     0
  0
VISUALSTYLE
  5
10C4
102
{ACAD_XDICTIONARY
360
1367
102
}
102
{ACAD_REACTORS
330
FF5
102
}
330
FF5
100
AcDbVisualStyle
  2
X-Ray
 70
    25
 71
     2
 72
     2
 73
     1
 90
        1
 40
0.5
 41
-30.0
 62
     5
 63
     7
 74
     1
 91
        0
 64
     7
 65
   257
 75
     1
175
     1
 42
1.0
 92
        8
 66
     7
 43
1.0
 76
     1
 77
     6
 78
     2
 67
     7
 79
     3
170
     0
171
     0
290
     0
174
     0
 93
       13
 44
0.0
173
     0
291
     0
 45
0.0
1001
ACAD
1000
AcDbSavedByObjectVersion
1070
     0
  0
DICTIONARYVAR
  5
1042
102
{ACAD_REACTORS
330
102
102
}
330
102
100
DictionaryVariables
280
     0
  1
1:1
  0
DICTIONARYVAR
  5
1041
102
{ACAD_REACTORS
330
102
102
}
330
102
100
DictionaryVariables
280
     0
  1
STANDARD
  0
DICTIONARYVAR
  5
1040
102
{ACAD_REACTORS
330
102
102
}
330
102
100
DictionaryVariables
280
     0
  1
STANDARD
  0
DICTIONARYVAR
  5
1132
102
{ACAD_REACTORS
330
102
102
}
330
102
100
DictionaryVariables
280
     0
  1
Imperial24
  0
DICTIONARYVAR
  5
1133
102
{ACAD_REACTORS
330
102
102
}
330
102
100
DictionaryVariables
280
     0
  1
Imperial24
  0
DICTIONARYVAR
  5
103
102
{ACAD_REACTORS
330
102
102
}
330
102
100
DictionaryVariables
280
     0
  1
1
  0
DICTIONARYVAR
  5
1081
102
{ACAD_REACTORS
330
102
102
}
330
102
100
DictionaryVariables
280
     0
  1
0
  0
DICTIONARYVAR
  5
1080
102
{ACAD_REACTORS
330
102
102
}
330
102
100
DictionaryVariables
280
     0
  1
127
  0
DICTIONARYVAR
  5
1321
102
{ACAD_REACTORS
330
102
102
}
330
102
100
DictionaryVariables
280
     0
  1
2
  0
DICTIONARY
  5
1375
330
10CD
100
AcDbDictionary
280
     1
281
     1
  3
ACAD_XREC_ROUNDTRIP
360
1376
  0
DICTIONARY
  5
1325
330
60
100
AcDbDictionary
280
     1
281
     1
  3
ACAD_XREC_ROUNDTRIP
360
1326
  0
DICTIONARY
  5
1377
330
131D
100
AcDbDictionary
280
     1
281
     1
  3
ACAD_XREC_ROUNDTRIP
360
1378
  0
DICTIONARY
  5
FE6
330
FE5
100
AcDbDictionary
280
     1
281
     1
  3
ACAD_XREC_ROUNDTRIP
360
133C
  3
BUMPTILE
360
FE8
  3
DIFFUSETILE
360
FE7
  3
OPACITYTILE
360
FEB
  3
REFLECTIONTILE
360
FEA
  3
REFRACTIONTILE
360
FEC
  3
SPECULARTILE
360
FE9
  0
DICTIONARY
  5
FDE
330
FDD
100
AcDbDictionary
280
     1
281
     1
  3
ACAD_XREC_ROUNDTRIP
360
133B
  3
BUMPTILE
360
FE0
  3
DIFFUSETILE
360
FDF
  3
OPACITYTILE
360
FE3
  3
REFLECTIONTILE
360
FE2
  3
REFRACTIONTILE
360
FE4
  3
SPECULARTILE
360
FE1
  0
DICTIONARY
  5
FEE
330
FED
100
AcDbDictionary
280
     1
281
     1
  3
ACAD_XREC_ROUNDTRIP
360
133D
  3
BUMPTILE
360
FF0
  3
DIFFUSETILE
360
FEF
  3
OPACITYTILE
360
FF3
  3
REFLECTIONTILE
360
FF2
  3
REFRACTIONTILE
360
FF4
  3
SPECULARTILE
360
FF1
  0
DICTIONARY
  5
1373
330
10CB
100
AcDbDictionary
280
     1
281
     1
  3
ACAD_XREC_ROUNDTRIP
360
1374
  0
DICTIONARY
  5
1043
330
1008
100
AcDbDictionary
280
     1
281
     1
  3
ACAD_ROUNDTRIP_2008_TABLESTYLE_CELLSTYLEMAP
360
1322
  3
ACAD_XREC_ROUNDTRIP
360
135E
  0
DICTIONARY
  5
1348
330
FFB
100
AcDbDictionary
280
     1
281
     1
  3
ACAD_XREC_ROUNDTRIP
360
1349
  0
DICTIONARY
  5
134C
330
FFD
100
AcDbDictionary
280
     1
281
     1
  3
ACAD_XREC_ROUNDTRIP
360
134D
  0
DICTIONARY
  5
134A
330
FFC
100
AcDbDictionary
280
     1
281
     1
  3
ACAD_XREC_ROUNDTRIP
360
134B
  0
DICTIONARY
  5
1346
330
FFA
100
AcDbDictionary
280
     1
281
     1
  3
ACAD_XREC_ROUNDTRIP
360
1347
  0
DICTIONARY
  5
1354
330
1001
100
AcDbDictionary
280
     1
281
     1
  3
ACAD_XREC_ROUNDTRIP
360
1355
  0
DICTIONARY
  5
135C
330
1005
100
AcDbDictionary
280
     1
281
     1
  3
ACAD_XREC_ROUNDTRIP
360
135D
  0
DICTIONARY
  5
134E
330
FFE
100
AcDbDictionary
280
     1
281
     1
  3
ACAD_XREC_ROUNDTRIP
360
134F
  0
DICTIONARY
  5
1352
330
1000
100
AcDbDictionary
280
     1
281
     1
  3
ACAD_XREC_ROUNDTRIP
360
1353
  0
DICTIONARY
  5
1371
330
10C9
100
AcDbDictionary
280
     1
281
     1
  3
ACAD_XREC_ROUNDTRIP
360
1372
  0
DICTIONARY
  5
135A
330
1004
100
AcDbDictionary
280
     1
281
     1
  3
ACAD_XREC_ROUNDTRIP
360
135B
  0
DICTIONARY
  5
133E
330
FF6
100
AcDbDictionary
280
     1
281
     1
  3
ACAD_XREC_ROUNDTRIP
360
133F
  0
DICTIONARY
  5
1340
330
FF7
100
AcDbDictionary
280
     1
281
     1
  3
ACAD_XREC_ROUNDTRIP
360
1341
  0
DICTIONARY
  5
1342
330
FF8
100
AcDbDictionary
280
     1
281
     1
  3
ACAD_XREC_ROUNDTRIP
360
1343
  0
DICTIONARY
  5
1344
330
FF9
100
AcDbDictionary
280
     1
281
     1
  3
ACAD_XREC_ROUNDTRIP
360
1345
  0
DICTIONARY
  5
1361
330
10C1
100
AcDbDictionary
280
     1
281
     1
  3
ACAD_XREC_ROUNDTRIP
360
1362
  0
DICTIONARY
  5
136D
330
10C7
100
AcDbDictionary
280
     1
281
     1
  3
ACAD_XREC_ROUNDTRIP
360
136E
  0
DICTIONARY
  5
1358
330
1003
100
AcDbDictionary
280
     1
281
     1
  3
ACAD_XREC_ROUNDTRIP
360
1359
  0
DICTIONARY
  5
136F
330
10C8
100
AcDbDictionary
280
     1
281
     1
  3
ACAD_XREC_ROUNDTRIP
360
1370
  0
DICTIONARY
  5
1350
330
FFF
100
AcDbDictionary
280
     1
281
     1
  3
ACAD_XREC_ROUNDTRIP
360
1351
  0
DICTIONARY
  5
136B
330
10C6
100
AcDbDictionary
280
     1
281
     1
  3
ACAD_XREC_ROUNDTRIP
360
136C
  0
DICTIONARY
  5
1369
330
10C5
100
AcDbDictionary
280
     1
281
     1
  3
ACAD_XREC_ROUNDTRIP
360
136A
  0
DICTIONARY
  5
1363
330
10C2
100
AcDbDictionary
280
     1
281
     1
  3
ACAD_XREC_ROUNDTRIP
360
1364
  0
DICTIONARY
  5
1365
330
10C3
100
AcDbDictionary
280
     1
281
     1
  3
ACAD_XREC_ROUNDTRIP
360
1366
  0
DICTIONARY
  5
1356
330
1002
100
AcDbDictionary
280
     1
281
     1
  3
ACAD_XREC_ROUNDTRIP
360
1357
  0
DICTIONARY
  5
135F
330
10C0
100
AcDbDictionary
280
     1
281
     1
  3
ACAD_XREC_ROUNDTRIP
360
1360
  0
DICTIONARY
  5
1367
330
10C4
100
AcDbDictionary
280
     1
281
     1
  3
ACAD_XREC_ROUNDTRIP
360
1368
  0
XRECORD
  5
1376
102
{ACAD_REACTORS
330
1375
102
}
330
1375
100
AcDbXrecord
280
     1
102
DISPLAYNAME
  1
Imperial24
102
FLAGS
 90
        0
  0
XRECORD
  5
1326
102
{ACAD_REACTORS
330
1325
102
}
330
1325
100
AcDbXrecord
280
     1
102
SHADEPLOT
 70
     0
102
SHADEPLOTRESLEVEL
 70
     2
102
SHADEPLOTCUSTOMDPI
 70
   300
  0
XRECORD
  5
1378
102
{ACAD_REACTORS
330
1377
102
}
330
1377
100
AcDbXrecord
280
     1
102
SHADEPLOT
 70
     0
102
SHADEPLOTRESLEVEL
 70
     2
102
SHADEPLOTCUSTOMDPI
 70
   300
  0
XRECORD
  5
133C
102
{ACAD_REACTORS
330
FE6
102
}
330
FE6
100
AcDbXrecord
280
     1
102
MATERIAL
148
0.0
149
0.0
149
0.0
 93
        0
 94
      127
282
     0
 72
     0
 77
     0
171
     0
175
     0
179
     0
273
     0
  0
XRECORD
  5
FE8
102
{ACAD_REACTORS
330
FE6
102
}
330
FE6
100
AcDbXrecord
280
     1
270
     1
271
     1
  0
XRECORD
  5
FE7
102
{ACAD_REACTORS
330
FE6
102
}
330
FE6
100
AcDbXrecord
280
     1
270
     1
271
     1
  0
XRECORD
  5
FEB
102
{ACAD_REACTORS
330
FE6
102
}
330
FE6
100
AcDbXrecord
280
     1
270
     1
271
     1
  0
XRECORD
  5
FEA
102
{ACAD_REACTORS
330
FE6
102
}
330
FE6
100
AcDbXrecord
280
     1
270
     1
271
     1
  0
XRECORD
  5
FEC
102
{ACAD_REACTORS
330
FE6
102
}
330
FE6
100
AcDbXrecord
280
     1
270
     1
271
     1
  0
XRECORD
  5
FE9
102
{ACAD_REACTORS
330
FE6
102
}
330
FE6
100
AcDbXrecord
280
     1
270
     1
271
     1
  0
XRECORD
  5
133B
102
{ACAD_REACTORS
330
FDE
102
}
330
FDE
100
AcDbXrecord
280
     1
102
MATERIAL
148
0.0
149
0.0
149
0.0
 93
        0
 94
      127
282
     0
 72
     0
 77
     0
171
     0
175
     0
179
     0
273
     0
  0
XRECORD
  5
FE0
102
{ACAD_REACTORS
330
FDE
102
}
330
FDE
100
AcDbXrecord
280
     1
270
     1
271
     1
  0
XRECORD
  5
FDF
102
{ACAD_REACTORS
330
FDE
102
}
330
FDE
100
AcDbXrecord
280
     1
270
     1
271
     1
  0
XRECORD
  5
FE3
102
{ACAD_REACTORS
330
FDE
102
}
330
FDE
100
AcDbXrecord
280
     1
270
     1
271
     1
  0
XRECORD
  5
FE2
102
{ACAD_REACTORS
330
FDE
102
}
330
FDE
100
AcDbXrecord
280
     1
270
     1
271
     1
  0
XRECORD
  5
FE4
102
{ACAD_REACTORS
330
FDE
102
}
330
FDE
100
AcDbXrecord
280
     1
270
     1
271
     1
  0
XRECORD
  5
FE1
102
{ACAD_REACTORS
330
FDE
102
}
330
FDE
100
AcDbXrecord
280
     1
270
     1
271
     1
  0
XRECORD
  5
133D
102
{ACAD_REACTORS
330
FEE
102
}
330
FEE
100
AcDbXrecord
280
     1
102
MATERIAL
148
0.0
149
0.0
149
0.0
 93
        0
 94
      127
282
     0
 72
     0
 77
     0
171
     0
175
     0
179
     0
273
     0
  0
XRECORD
  5
FF0
102
{ACAD_REACTORS
330
FEE
102
}
330
FEE
100
AcDbXrecord
280
     1
270
     1
271
     1
  0
XRECORD
  5
FEF
102
{ACAD_REACTORS
330
FEE
102
}
330
FEE
100
AcDbXrecord
280
     1
270
     1
271
     1
  0
XRECORD
  5
FF3
102
{ACAD_REACTORS
330
FEE
102
}
330
FEE
100
AcDbXrecord
280
     1
270
     1
271
     1
  0
XRECORD
  5
FF2
102
{ACAD_REACTORS
330
FEE
102
}
330
FEE
100
AcDbXrecord
280
     1
270
     1
271
     1
  0
XRECORD
  5
FF4
102
{ACAD_REACTORS
330
FEE
102
}
330
FEE
100
AcDbXrecord
280
     1
270
     1
271
     1
  0
XRECORD
  5
FF1
102
{ACAD_REACTORS
330
FEE
102
}
330
FEE
100
AcDbXrecord
280
     1
270
     1
271
     1
  0
XRECORD
  5
1374
102
{ACAD_REACTORS
330
1373
102
}
330
1373
100
AcDbXrecord
280
     1
102
DISPLAYNAME
  1
Imperial24
102
FLAGS
 90
        0
  0
CELLSTYLEMAP
  5
1322
102
{ACAD_REACTORS
330
1043
102
}
330
1043
100
AcDbCellStyleMap
 90
        3
300
CELLSTYLE
  1
TABLEFORMAT_BEGIN
 90
        5
170
     1
 91
        0
 92
    32768
 62
   257
 93
        1
300
CONTENTFORMAT
  1
CONTENTFORMAT_BEGIN
 90
        0
 91
        0
 92
      512
 93
        0
300

 40
0.0
140
1.0
 94
        5
 62
     0
340
16
144
0.25
309
CONTENTFORMAT_END
171
     1
301
MARGIN
  1
CELLMARGIN_BEGIN
 40
0.06
 40
0.06
 40
0.06
 40
0.06
 40
0.18
 40
0.18
309
CELLMARGIN_END
 94
        6
 95
        1
302
GRIDFORMAT
  1
GRIDFORMAT_BEGIN
 90
        0
 91
        1
 62
     0
 92
       -2
340
0
 93
        0
 40
0.045
309
GRIDFORMAT_END
 95
        2
302
GRIDFORMAT
  1
GRIDFORMAT_BEGIN
 90
        0
 91
        1
 62
     0
 92
       -2
340
0
 93
        0
 40
0.045
309
GRIDFORMAT_END
 95
        4
302
GRIDFORMAT
  1
GRIDFORMAT_BEGIN
 90
        0
 91
        1
 62
     0
 92
       -2
340
0
 93
        0
 40
0.045
309
GRIDFORMAT_END
 95
        8
302
GRIDFORMAT
  1
GRIDFORMAT_BEGIN
 90
        0
 91
        1
 62
     0
 92
       -2
340
0
 93
        0
 40
0.045
309
GRIDFORMAT_END
 95
       16
302
GRIDFORMAT
  1
GRIDFORMAT_BEGIN
 90
        0
 91
        1
 62
     0
 92
       -2
340
0
 93
        0
 40
0.045
309
GRIDFORMAT_END
 95
       32
302
GRIDFORMAT
  1
GRIDFORMAT_BEGIN
 90
        0
 91
        1
 62
     0
 92
       -2
340
0
 93
        0
 40
0.045
309
GRIDFORMAT_END
309
TABLEFORMAT_END
  1
CELLSTYLE_BEGIN
 90
        1
 91
        1
300
_TITLE
309
CELLSTYLE_END
300
CELLSTYLE
  1
TABLEFORMAT_BEGIN
 90
        5
170
     1
 91
        0
 92
        0
 62
   257
 93
        1
300
CONTENTFORMAT
  1
CONTENTFORMAT_BEGIN
 90
        0
 91
        0
 92
      512
 93
        0
300

 40
0.0
140
1.0
 94
        5
 62
     0
340
16
144
0.18
309
CONTENTFORMAT_END
171
     1
301
MARGIN
  1
CELLMARGIN_BEGIN
 40
0.06
 40
0.06
 40
0.06
 40
0.06
 40
0.18
 40
0.18
309
CELLMARGIN_END
 94
        6
 95
        1
302
GRIDFORMAT
  1
GRIDFORMAT_BEGIN
 90
        0
 91
        1
 62
     0
 92
       -2
340
0
 93
        0
 40
0.045
309
GRIDFORMAT_END
 95
        2
302
GRIDFORMAT
  1
GRIDFORMAT_BEGIN
 90
        0
 91
        1
 62
     0
 92
       -2
340
0
 93
        0
 40
0.045
309
GRIDFORMAT_END
 95
        4
302
GRIDFORMAT
  1
GRIDFORMAT_BEGIN
 90
        0
 91
        1
 62
     0
 92
       -2
340
0
 93
        0
 40
0.045
309
GRIDFORMAT_END
 95
        8
302
GRIDFORMAT
  1
GRIDFORMAT_BEGIN
 90
        0
 91
        1
 62
     0
 92
       -2
340
0
 93
        0
 40
0.045
309
GRIDFORMAT_END
 95
       16
302
GRIDFORMAT
  1
GRIDFORMAT_BEGIN
 90
        0
 91
        1
 62
     0
 92
       -2
340
0
 93
        0
 40
0.045
309
GRIDFORMAT_END
 95
       32
302
GRIDFORMAT
  1
GRIDFORMAT_BEGIN
 90
        0
 91
        1
 62
     0
 92
       -2
340
0
 93
        0
 40
0.045
309
GRIDFORMAT_END
309
TABLEFORMAT_END
  1
CELLSTYLE_BEGIN
 90
        2
 91
        1
300
_HEADER
309
CELLSTYLE_END
300
CELLSTYLE
  1
TABLEFORMAT_BEGIN
 90
        5
170
     1
 91
        0
 92
        0
 62
   257
 93
        1
300
CONTENTFORMAT
  1
CONTENTFORMAT_BEGIN
 90
        0
 91
        0
 92
      512
 93
        0
300

 40
0.0
140
1.0
 94
        2
 62
     0
340
16
144
0.18
309
CONTENTFORMAT_END
171
     1
301
MARGIN
  1
CELLMARGIN_BEGIN
 40
0.06
 40
0.06
 40
0.06
 40
0.06
 40
0.18
 40
0.18
309
CELLMARGIN_END
 94
        6
 95
        1
302
GRIDFORMAT
  1
GRIDFORMAT_BEGIN
 90
        0
 91
        1
 62
     0
 92
       -2
340
0
 93
        0
 40
0.045
309
GRIDFORMAT_END
 95
        2
302
GRIDFORMAT
  1
GRIDFORMAT_BEGIN
 90
        0
 91
        1
 62
     0
 92
       -2
340
0
 93
        0
 40
0.045
309
GRIDFORMAT_END
 95
        4
302
GRIDFORMAT
  1
GRIDFORMAT_BEGIN
 90
        0
 91
        1
 62
     0
 92
       -2
340
0
 93
        0
 40
0.045
309
GRIDFORMAT_END
 95
        8
302
GRIDFORMAT
  1
GRIDFORMAT_BEGIN
 90
        0
 91
        1
 62
     0
 92
       -2
340
0
 93
        0
 40
0.045
309
GRIDFORMAT_END
 95
       16
302
GRIDFORMAT
  1
GRIDFORMAT_BEGIN
 90
        0
 91
        1
 62
     0
 92
       -2
340
0
 93
        0
 40
0.045
309
GRIDFORMAT_END
 95
       32
302
GRIDFORMAT
  1
GRIDFORMAT_BEGIN
 90
        0
 91
        1
 62
     0
 92
       -2
340
0
 93
        0
 40
0.045
309
GRIDFORMAT_END
309
TABLEFORMAT_END
  1
CELLSTYLE_BEGIN
 90
        3
 91
        2
300
_DATA
309
CELLSTYLE_END
  0
XRECORD
  5
135E
102
{ACAD_REACTORS
330
1043
102
}
330
1043
100
AcDbXrecord
280
     1
102
ACAD_ROUNDTRIP_PRE2007_TABLESTYLE
 90
      512
 91
        0
  1

 92
      512
 93
        0
  2

 94
      512
 95
        0
  3

  0
XRECORD
  5
1349
102
{ACAD_REACTORS
330
1348
102
}
330
1348
100
AcDbXrecord
280
     1
102
RTVSPost2010Prop28
280
     1
102
RTVSPost2010PropOp28
 70
     1
102
RTVSPost2010Prop29
280
     1
102
RTVSPost2010PropOp29
 70
     1
102
RTVSPost2010Prop30
280
     0
102
RTVSPost2010PropOp30
 70
     1
102
RTVSPost2010Prop31
280
     0
102
RTVSPost2010PropOp31
 70
     1
102
RTVSPost2010Prop32
280
     0
102
RTVSPost2010PropOp32
 70
     1
102
RTVSPost2010Prop33
280
     0
102
RTVSPost2010PropOp33
 70
     1
102
RTVSPost2010Prop34
280
     0
102
RTVSPost2010PropOp34
 70
     1
102
RTVSPost2010Prop35
280
     0
102
RTVSPost2010PropOp35
 70
     1
102
RTVSPost2010Prop36
280
     0
102
RTVSPost2010PropOp36
 70
     1
102
RTVSPost2010Prop37
 90
       50
102
RTVSPost2010PropOp37
 70
     1
102
RTVSPost2010Prop38
140
0.0
102
RTVSPost2010PropOp38
 70
     1
102
RTVSPost2010Prop39
140
1.0
102
RTVSPost2010PropOp39
 70
     1
102
RTVSPost2010Prop40
 90
        0
102
RTVSPost2010PropOp40
 70
     1
102
RTVSPost2010Prop41ColorIndex
 90
       18
102
RTVSPost2010Prop41ColorRGB
 90
        0
102
RTVSPost2010PropOp41
 70
     1
102
RTVSPost2010Prop42
 90
       50
102
RTVSPost2010PropOp42
 70
     1
102
RTVSPost2010Prop43
 90
        3
102
RTVSPost2010PropOp43
 70
     1
102
RTVSPost2010Prop44ColorIndex
 90
        5
102
RTVSPost2010Prop44ColorRGB
 90
      255
102
RTVSPost2010PropOp44
 70
     1
102
RTVSPost2010Prop45
280
     0
102
RTVSPost2010PropOp45
 70
     1
102
RTVSPost2010Prop46
 90
       50
102
RTVSPost2010PropOp46
 70
     1
102
RTVSPost2010Prop47
 90
       50
102
RTVSPost2010PropOp47
 70
     1
102
RTVSPost2010Prop48
 90
       50
102
RTVSPost2010PropOp48
 70
     1
102
RTVSPost2010Prop49
280
     0
102
RTVSPost2010PropOp49
 70
     1
102
RTVSPost2010Prop50
 90
       50
102
RTVSPost2010PropOp50
 70
     1
102
RTVSPost2010Prop51ColorIndex
 90
      256
102
RTVSPost2010Prop51ColorRGB
 90
-16777216
102
RTVSPost2010PropOp51
 70
     0
102
RTVSPost2010Prop52
140
1.0
102
RTVSPost2010PropOp52
 70
     0
102
RTVSPost2010Prop53
 90
        2
102
RTVSPost2010PropOp53
 70
     1
102
RTVSPost2010Prop54
  1
strokes_ogs.tif
102
RTVSPost2010PropOp54
 70
     1
102
RTVSPost2010Prop55
280
     0
102
RTVSPost2010PropOp55
 70
     1
102
RTVSPost2010Prop56
140
1.0
102
RTVSPost2010PropOp56
 70
     1
102
RTVSPost2010Prop57
140
1.0
102
RTVSPost2010PropOp57
 70
     1
102
RTVSPropertyOp0
 70
     1
102
RTVSPropertyOp1
 70
     1
102
RTVSPropertyOp2
 70
     1
102
RTVSPropertyOp3
 70
     1
102
RTVSPropertyOp4
 70
     1
102
RTVSPropertyOp5
 70
     1
102
RTVSPropertyOp6
 70
     1
102
RTVSPropertyOp7
 70
     1
102
RTVSPropertyOp8
 70
     1
102
RTVSPropertyOp9
 70
     1
102
RTVSPropertyOp10
 70
     1
102
RTVSPropertyOp11
 70
     1
102
RTVSPropertyOp12
 70
     1
102
RTVSPropertyOp13
 70
     1
102
RTVSPropertyOp14
 70
     1
102
RTVSPropertyOp15
 70
     1
102
RTVSPropertyOp16
 70
     1
102
RTVSPropertyOp17
 70
     1
102
RTVSPropertyOp18
 70
     1
102
RTVSPropertyOp19
 70
     1
102
RTVSPropertyOp20
 70
     1
102
RTVSPropertyOp21
 70
     1
102
RTVSPropertyOp22
 70
     1
102
RTVSPropertyOp23
 70
     1
102
RTVSPropertyOp24
 70
     1
102
RTVSPropertyOp25
 70
     1
102
RTVSPropertyOp26
 70
     1
102
RTVSPropertyOp27
 70
     1
102
RTVSPropertyOp28
 70
     1
102
RTVSPropertyOp29
 70
     1
102
RTVSPropertyOp30
 70
     1
102
RTVSPropertyOp31
 70
     1
102
RTVSPropertyOp32
 70
     1
102
RTVSPropertyOp33
 70
     1
102
RTVSPropertyOp34
 70
     1
102
RTVSPropertyOp35
 70
     1
102
RTVSPropertyOp36
 70
     1
102
RTVSPropertyOp37
 70
     1
102
RTVSPropertyOp38
 70
     1
102
RTVSPropertyOp39
 70
     1
102
RTVSPropertyOp40
 70
     1
102
RTVSPropertyOp41
 70
     1
102
RTVSPropertyOp42
 70
     1
102
RTVSPropertyOp43
 70
     1
102
RTVSPropertyOp44
 70
     1
102
RTVSPropertyOp45
 70
     1
102
RTVSPropertyOp46
 70
     1
102
RTVSPropertyOp47
 70
     1
102
RTVSPropertyOp48
 70
     1
102
RTVSPropertyOp49
 70
     1
102
RTVSPropertyOp50
 70
     1
102
RTVSPropertyOp51
 70
     0
102
RTVSPropertyOp52
 70
     0
102
RTVSPropertyOp53
 70
     1
102
RTVSPropertyOp54
 70
     1
102
RTVSPropertyOp55
 70
     1
102
RTVSPropertyOp56
 70
     1
102
RTVSPropertyOp57
 70
     1
102
RTVSPropertyOp58
 70
     1
102
RTVSPropertyOp59
 70
     1
102
RTVSPropertyOp60
 70
     1
102
RTVSPropertyOp61
 70
     1
102
RTVSPropertyOp62
 70
     1
  0
XRECORD
  5
134D
102
{ACAD_REACTORS
330
134C
102
}
330
134C
100
AcDbXrecord
280
     1
102
RTVSPost2010Prop28
280
     0
102
RTVSPost2010PropOp28
 70
     1
102
RTVSPost2010Prop29
280
     1
102
RTVSPost2010PropOp29
 70
     1
102
RTVSPost2010Prop30
280
     1
102
RTVSPost2010PropOp30
 70
     1
102
RTVSPost2010Prop31
280
     0
102
RTVSPost2010PropOp31
 70
     1
102
RTVSPost2010Prop32
280
     0
102
RTVSPost2010PropOp32
 70
     1
102
RTVSPost2010Prop33
280
     0
102
RTVSPost2010PropOp33
 70
     1
102
RTVSPost2010Prop34
280
     0
102
RTVSPost2010PropOp34
 70
     1
102
RTVSPost2010Prop35
280
     0
102
RTVSPost2010PropOp35
 70
     1
102
RTVSPost2010Prop36
280
     0
102
RTVSPost2010PropOp36
 70
     1
102
RTVSPost2010Prop37
 90
       50
102
RTVSPost2010PropOp37
 70
     1
102
RTVSPost2010Prop38
140
0.0
102
RTVSPost2010PropOp38
 70
     1
102
RTVSPost2010Prop39
140
1.0
102
RTVSPost2010PropOp39
 70
     1
102
RTVSPost2010Prop40
 90
        0
102
RTVSPost2010PropOp40
 70
     1
102
RTVSPost2010Prop41ColorIndex
 90
       18
102
RTVSPost2010Prop41ColorRGB
 90
        0
102
RTVSPost2010PropOp41
 70
     1
102
RTVSPost2010Prop42
 90
       50
102
RTVSPost2010PropOp42
 70
     1
102
RTVSPost2010Prop43
 90
        3
102
RTVSPost2010PropOp43
 70
     1
102
RTVSPost2010Prop44ColorIndex
 90
        5
102
RTVSPost2010Prop44ColorRGB
 90
      255
102
RTVSPost2010PropOp44
 70
     1
102
RTVSPost2010Prop45
280
     0
102
RTVSPost2010PropOp45
 70
     1
102
RTVSPost2010Prop46
 90
       50
102
RTVSPost2010PropOp46
 70
     1
102
RTVSPost2010Prop47
 90
       50
102
RTVSPost2010PropOp47
 70
     1
102
RTVSPost2010Prop48
 90
       50
102
RTVSPost2010PropOp48
 70
     1
102
RTVSPost2010Prop49
280
     0
102
RTVSPost2010PropOp49
 70
     1
102
RTVSPost2010Prop50
 90
       50
102
RTVSPost2010PropOp50
 70
     1
102
RTVSPost2010Prop51ColorIndex
 90
      256
102
RTVSPost2010Prop51ColorRGB
 90
-16777216
102
RTVSPost2010PropOp51
 70
     0
102
RTVSPost2010Prop52
140
1.0
102
RTVSPost2010PropOp52
 70
     0
102
RTVSPost2010Prop53
 90
        2
102
RTVSPost2010PropOp53
 70
     1
102
RTVSPost2010Prop54
  1
strokes_ogs.tif
102
RTVSPost2010PropOp54
 70
     1
102
RTVSPost2010Prop55
280
     0
102
RTVSPost2010PropOp55
 70
     1
102
RTVSPost2010Prop56
140
1.0
102
RTVSPost2010PropOp56
 70
     1
102
RTVSPost2010Prop57
140
1.0
102
RTVSPost2010PropOp57
 70
     1
102
RTVSPropertyOp0
 70
     1
102
RTVSPropertyOp1
 70
     1
102
RTVSPropertyOp2
 70
     1
102
RTVSPropertyOp3
 70
     1
102
RTVSPropertyOp4
 70
     1
102
RTVSPropertyOp5
 70
     1
102
RTVSPropertyOp6
 70
     1
102
RTVSPropertyOp7
 70
     1
102
RTVSPropertyOp8
 70
     1
102
RTVSPropertyOp9
 70
     1
102
RTVSPropertyOp10
 70
     1
102
RTVSPropertyOp11
 70
     1
102
RTVSPropertyOp12
 70
     1
102
RTVSPropertyOp13
 70
     1
102
RTVSPropertyOp14
 70
     1
102
RTVSPropertyOp15
 70
     1
102
RTVSPropertyOp16
 70
     1
102
RTVSPropertyOp17
 70
     1
102
RTVSPropertyOp18
 70
     1
102
RTVSPropertyOp19
 70
     1
102
RTVSPropertyOp20
 70
     1
102
RTVSPropertyOp21
 70
     1
102
RTVSPropertyOp22
 70
     1
102
RTVSPropertyOp23
 70
     1
102
RTVSPropertyOp24
 70
     1
102
RTVSPropertyOp25
 70
     1
102
RTVSPropertyOp26
 70
     1
102
RTVSPropertyOp27
 70
     1
102
RTVSPropertyOp28
 70
     1
102
RTVSPropertyOp29
 70
     1
102
RTVSPropertyOp30
 70
     1
102
RTVSPropertyOp31
 70
     1
102
RTVSPropertyOp32
 70
     1
102
RTVSPropertyOp33
 70
     1
102
RTVSPropertyOp34
 70
     1
102
RTVSPropertyOp35
 70
     1
102
RTVSPropertyOp36
 70
     1
102
RTVSPropertyOp37
 70
     1
102
RTVSPropertyOp38
 70
     1
102
RTVSPropertyOp39
 70
     1
102
RTVSPropertyOp40
 70
     1
102
RTVSPropertyOp41
 70
     1
102
RTVSPropertyOp42
 70
     1
102
RTVSPropertyOp43
 70
     1
102
RTVSPropertyOp44
 70
     1
102
RTVSPropertyOp45
 70
     1
102
RTVSPropertyOp46
 70
     1
102
RTVSPropertyOp47
 70
     1
102
RTVSPropertyOp48
 70
     1
102
RTVSPropertyOp49
 70
     1
102
RTVSPropertyOp50
 70
     1
102
RTVSPropertyOp51
 70
     0
102
RTVSPropertyOp52
 70
     0
102
RTVSPropertyOp53
 70
     1
102
RTVSPropertyOp54
 70
     1
102
RTVSPropertyOp55
 70
     1
102
RTVSPropertyOp56
 70
     1
102
RTVSPropertyOp57
 70
     1
102
RTVSPropertyOp58
 70
     1
102
RTVSPropertyOp59
 70
     1
102
RTVSPropertyOp60
 70
     1
102
RTVSPropertyOp61
 70
     1
102
RTVSPropertyOp62
 70
     1
  0
XRECORD
  5
134B
102
{ACAD_REACTORS
330
134A
102
}
330
134A
100
AcDbXrecord
280
     1
102
RTVSPost2010Prop28
280
     0
102
RTVSPost2010PropOp28
 70
     1
102
RTVSPost2010Prop29
280
     1
102
RTVSPost2010PropOp29
 70
     1
102
RTVSPost2010Prop30
280
     1
102
RTVSPost2010PropOp30
 70
     1
102
RTVSPost2010Prop31
280
     0
102
RTVSPost2010PropOp31
 70
     1
102
RTVSPost2010Prop32
280
     0
102
RTVSPost2010PropOp32
 70
     1
102
RTVSPost2010Prop33
280
     0
102
RTVSPost2010PropOp33
 70
     1
102
RTVSPost2010Prop34
280
     0
102
RTVSPost2010PropOp34
 70
     1
102
RTVSPost2010Prop35
280
     0
102
RTVSPost2010PropOp35
 70
     1
102
RTVSPost2010Prop36
280
     0
102
RTVSPost2010PropOp36
 70
     1
102
RTVSPost2010Prop37
 90
       50
102
RTVSPost2010PropOp37
 70
     1
102
RTVSPost2010Prop38
140
0.0
102
RTVSPost2010PropOp38
 70
     1
102
RTVSPost2010Prop39
140
1.0
102
RTVSPost2010PropOp39
 70
     1
102
RTVSPost2010Prop40
 90
        0
102
RTVSPost2010PropOp40
 70
     1
102
RTVSPost2010Prop41ColorIndex
 90
       18
102
RTVSPost2010Prop41ColorRGB
 90
        0
102
RTVSPost2010PropOp41
 70
     1
102
RTVSPost2010Prop42
 90
       50
102
RTVSPost2010PropOp42
 70
     1
102
RTVSPost2010Prop43
 90
        3
102
RTVSPost2010PropOp43
 70
     1
102
RTVSPost2010Prop44ColorIndex
 90
        5
102
RTVSPost2010Prop44ColorRGB
 90
      255
102
RTVSPost2010PropOp44
 70
     1
102
RTVSPost2010Prop45
280
     0
102
RTVSPost2010PropOp45
 70
     1
102
RTVSPost2010Prop46
 90
       50
102
RTVSPost2010PropOp46
 70
     1
102
RTVSPost2010Prop47
 90
       50
102
RTVSPost2010PropOp47
 70
     1
102
RTVSPost2010Prop48
 90
       50
102
RTVSPost2010PropOp48
 70
     1
102
RTVSPost2010Prop49
280
     0
102
RTVSPost2010PropOp49
 70
     1
102
RTVSPost2010Prop50
 90
       50
102
RTVSPost2010PropOp50
 70
     1
102
RTVSPost2010Prop51ColorIndex
 90
      256
102
RTVSPost2010Prop51ColorRGB
 90
-16777216
102
RTVSPost2010PropOp51
 70
     0
102
RTVSPost2010Prop52
140
1.0
102
RTVSPost2010PropOp52
 70
     0
102
RTVSPost2010Prop53
 90
        2
102
RTVSPost2010PropOp53
 70
     1
102
RTVSPost2010Prop54
  1
strokes_ogs.tif
102
RTVSPost2010PropOp54
 70
     1
102
RTVSPost2010Prop55
280
     0
102
RTVSPost2010PropOp55
 70
     1
102
RTVSPost2010Prop56
140
1.0
102
RTVSPost2010PropOp56
 70
     1
102
RTVSPost2010Prop57
140
1.0
102
RTVSPost2010PropOp57
 70
     1
102
RTVSPropertyOp0
 70
     1
102
RTVSPropertyOp1
 70
     1
102
RTVSPropertyOp2
 70
     1
102
RTVSPropertyOp3
 70
     1
102
RTVSPropertyOp4
 70
     1
102
RTVSPropertyOp5
 70
     1
102
RTVSPropertyOp6
 70
     1
102
RTVSPropertyOp7
 70
     1
102
RTVSPropertyOp8
 70
     1
102
RTVSPropertyOp9
 70
     1
102
RTVSPropertyOp10
 70
     1
102
RTVSPropertyOp11
 70
     1
102
RTVSPropertyOp12
 70
     1
102
RTVSPropertyOp13
 70
     1
102
RTVSPropertyOp14
 70
     1
102
RTVSPropertyOp15
 70
     1
102
RTVSPropertyOp16
 70
     1
102
RTVSPropertyOp17
 70
     1
102
RTVSPropertyOp18
 70
     1
102
RTVSPropertyOp19
 70
     1
102
RTVSPropertyOp20
 70
     1
102
RTVSPropertyOp21
 70
     1
102
RTVSPropertyOp22
 70
     1
102
RTVSPropertyOp23
 70
     1
102
RTVSPropertyOp24
 70
     1
102
RTVSPropertyOp25
 70
     1
102
RTVSPropertyOp26
 70
     1
102
RTVSPropertyOp27
 70
     1
102
RTVSPropertyOp28
 70
     1
102
RTVSPropertyOp29
 70
     1
102
RTVSPropertyOp30
 70
     1
102
RTVSPropertyOp31
 70
     1
102
RTVSPropertyOp32
 70
     1
102
RTVSPropertyOp33
 70
     1
102
RTVSPropertyOp34
 70
     1
102
RTVSPropertyOp35
 70
     1
102
RTVSPropertyOp36
 70
     1
102
RTVSPropertyOp37
 70
     1
102
RTVSPropertyOp38
 70
     1
102
RTVSPropertyOp39
 70
     1
102
RTVSPropertyOp40
 70
     1
102
RTVSPropertyOp41
 70
     1
102
RTVSPropertyOp42
 70
     1
102
RTVSPropertyOp43
 70
     1
102
RTVSPropertyOp44
 70
     1
102
RTVSPropertyOp45
 70
     1
102
RTVSPropertyOp46
 70
     1
102
RTVSPropertyOp47
 70
     1
102
RTVSPropertyOp48
 70
     1
102
RTVSPropertyOp49
 70
     1
102
RTVSPropertyOp50
 70
     1
102
RTVSPropertyOp51
 70
     0
102
RTVSPropertyOp52
 70
     0
102
RTVSPropertyOp53
 70
     1
102
RTVSPropertyOp54
 70
     1
102
RTVSPropertyOp55
 70
     1
102
RTVSPropertyOp56
 70
     1
102
RTVSPropertyOp57
 70
     1
102
RTVSPropertyOp58
 70
     1
102
RTVSPropertyOp59
 70
     1
102
RTVSPropertyOp60
 70
     1
102
RTVSPropertyOp61
 70
     1
102
RTVSPropertyOp62
 70
     1
  0
XRECORD
  5
1347
102
{ACAD_REACTORS
330
1346
102
}
330
1346
100
AcDbXrecord
280
     1
102
RTVSPost2010Prop28
280
     0
102
RTVSPost2010PropOp28
 70
     1
102
RTVSPost2010Prop29
280
     1
102
RTVSPost2010PropOp29
 70
     1
102
RTVSPost2010Prop30
280
     1
102
RTVSPost2010PropOp30
 70
     1
102
RTVSPost2010Prop31
280
     0
102
RTVSPost2010PropOp31
 70
     1
102
RTVSPost2010Prop32
280
     0
102
RTVSPost2010PropOp32
 70
     1
102
RTVSPost2010Prop33
280
     0
102
RTVSPost2010PropOp33
 70
     1
102
RTVSPost2010Prop34
280
     0
102
RTVSPost2010PropOp34
 70
     1
102
RTVSPost2010Prop35
280
     0
102
RTVSPost2010PropOp35
 70
     1
102
RTVSPost2010Prop36
280
     0
102
RTVSPost2010PropOp36
 70
     1
102
RTVSPost2010Prop37
 90
       50
102
RTVSPost2010PropOp37
 70
     1
102
RTVSPost2010Prop38
140
0.0
102
RTVSPost2010PropOp38
 70
     1
102
RTVSPost2010Prop39
140
1.0
102
RTVSPost2010PropOp39
 70
     1
102
RTVSPost2010Prop40
 90
        0
102
RTVSPost2010PropOp40
 70
     1
102
RTVSPost2010Prop41ColorIndex
 90
       18
102
RTVSPost2010Prop41ColorRGB
 90
        0
102
RTVSPost2010PropOp41
 70
     1
102
RTVSPost2010Prop42
 90
       50
102
RTVSPost2010PropOp42
 70
     1
102
RTVSPost2010Prop43
 90
        3
102
RTVSPost2010PropOp43
 70
     1
102
RTVSPost2010Prop44ColorIndex
 90
        5
102
RTVSPost2010Prop44ColorRGB
 90
      255
102
RTVSPost2010PropOp44
 70
     1
102
RTVSPost2010Prop45
280
     0
102
RTVSPost2010PropOp45
 70
     1
102
RTVSPost2010Prop46
 90
       50
102
RTVSPost2010PropOp46
 70
     1
102
RTVSPost2010Prop47
 90
       50
102
RTVSPost2010PropOp47
 70
     1
102
RTVSPost2010Prop48
 90
       50
102
RTVSPost2010PropOp48
 70
     1
102
RTVSPost2010Prop49
280
     0
102
RTVSPost2010PropOp49
 70
     1
102
RTVSPost2010Prop50
 90
       50
102
RTVSPost2010PropOp50
 70
     1
102
RTVSPost2010Prop51ColorIndex
 90
      256
102
RTVSPost2010Prop51ColorRGB
 90
-16777216
102
RTVSPost2010PropOp51
 70
     0
102
RTVSPost2010Prop52
140
1.0
102
RTVSPost2010PropOp52
 70
     0
102
RTVSPost2010Prop53
 90
        2
102
RTVSPost2010PropOp53
 70
     1
102
RTVSPost2010Prop54
  1
strokes_ogs.tif
102
RTVSPost2010PropOp54
 70
     1
102
RTVSPost2010Prop55
280
     0
102
RTVSPost2010PropOp55
 70
     1
102
RTVSPost2010Prop56
140
1.0
102
RTVSPost2010PropOp56
 70
     1
102
RTVSPost2010Prop57
140
1.0
102
RTVSPost2010PropOp57
 70
     1
102
RTVSPropertyOp0
 70
     1
102
RTVSPropertyOp1
 70
     1
102
RTVSPropertyOp2
 70
     1
102
RTVSPropertyOp3
 70
     1
102
RTVSPropertyOp4
 70
     1
102
RTVSPropertyOp5
 70
     1
102
RTVSPropertyOp6
 70
     1
102
RTVSPropertyOp7
 70
     1
102
RTVSPropertyOp8
 70
     1
102
RTVSPropertyOp9
 70
     1
102
RTVSPropertyOp10
 70
     1
102
RTVSPropertyOp11
 70
     1
102
RTVSPropertyOp12
 70
     1
102
RTVSPropertyOp13
 70
     1
102
RTVSPropertyOp14
 70
     1
102
RTVSPropertyOp15
 70
     1
102
RTVSPropertyOp16
 70
     1
102
RTVSPropertyOp17
 70
     1
102
RTVSPropertyOp18
 70
     1
102
RTVSPropertyOp19
 70
     1
102
RTVSPropertyOp20
 70
     1
102
RTVSPropertyOp21
 70
     1
102
RTVSPropertyOp22
 70
     1
102
RTVSPropertyOp23
 70
     1
102
RTVSPropertyOp24
 70
     1
102
RTVSPropertyOp25
 70
     1
102
RTVSPropertyOp26
 70
     1
102
RTVSPropertyOp27
 70
     1
102
RTVSPropertyOp28
 70
     1
102
RTVSPropertyOp29
 70
     1
102
RTVSPropertyOp30
 70
     1
102
RTVSPropertyOp31
 70
     1
102
RTVSPropertyOp32
 70
     1
102
RTVSPropertyOp33
 70
     1
102
RTVSPropertyOp34
 70
     1
102
RTVSPropertyOp35
 70
     1
102
RTVSPropertyOp36
 70
     1
102
RTVSPropertyOp37
 70
     1
102
RTVSPropertyOp38
 70
     1
102
RTVSPropertyOp39
 70
     1
102
RTVSPropertyOp40
 70
     1
102
RTVSPropertyOp41
 70
     1
102
RTVSPropertyOp42
 70
     1
102
RTVSPropertyOp43
 70
     1
102
RTVSPropertyOp44
 70
     1
102
RTVSPropertyOp45
 70
     1
102
RTVSPropertyOp46
 70
     1
102
RTVSPropertyOp47
 70
     1
102
RTVSPropertyOp48
 70
     1
102
RTVSPropertyOp49
 70
     1
102
RTVSPropertyOp50
 70
     1
102
RTVSPropertyOp51
 70
     0
102
RTVSPropertyOp52
 70
     0
102
RTVSPropertyOp53
 70
     1
102
RTVSPropertyOp54
 70
     1
102
RTVSPropertyOp55
 70
     1
102
RTVSPropertyOp56
 70
     1
102
RTVSPropertyOp57
 70
     1
102
RTVSPropertyOp58
 70
     1
102
RTVSPropertyOp59
 70
     1
102
RTVSPropertyOp60
 70
     1
102
RTVSPropertyOp61
 70
     1
102
RTVSPropertyOp62
 70
     1
  0
XRECORD
  5
1355
102
{ACAD_REACTORS
330
1354
102
}
330
1354
100
AcDbXrecord
280
     1
102
RTVSPost2010Prop28
280
     0
102
RTVSPost2010PropOp28
 70
     1
102
RTVSPost2010Prop29
280
     1
102
RTVSPost2010PropOp29
 70
     1
102
RTVSPost2010Prop30
280
     1
102
RTVSPost2010PropOp30
 70
     1
102
RTVSPost2010Prop31
280
     0
102
RTVSPost2010PropOp31
 70
     1
102
RTVSPost2010Prop32
280
     0
102
RTVSPost2010PropOp32
 70
     1
102
RTVSPost2010Prop33
280
     0
102
RTVSPost2010PropOp33
 70
     1
102
RTVSPost2010Prop34
280
     0
102
RTVSPost2010PropOp34
 70
     1
102
RTVSPost2010Prop35
280
     0
102
RTVSPost2010PropOp35
 70
     1
102
RTVSPost2010Prop36
280
     0
102
RTVSPost2010PropOp36
 70
     1
102
RTVSPost2010Prop37
 90
       50
102
RTVSPost2010PropOp37
 70
     1
102
RTVSPost2010Prop38
140
0.0
102
RTVSPost2010PropOp38
 70
     1
102
RTVSPost2010Prop39
140
1.0
102
RTVSPost2010PropOp39
 70
     1
102
RTVSPost2010Prop40
 90
        0
102
RTVSPost2010PropOp40
 70
     1
102
RTVSPost2010Prop41ColorIndex
 90
       18
102
RTVSPost2010Prop41ColorRGB
 90
        0
102
RTVSPost2010PropOp41
 70
     1
102
RTVSPost2010Prop42
 90
       50
102
RTVSPost2010PropOp42
 70
     1
102
RTVSPost2010Prop43
 90
        3
102
RTVSPost2010PropOp43
 70
     1
102
RTVSPost2010Prop44ColorIndex
 90
        5
102
RTVSPost2010Prop44ColorRGB
 90
      255
102
RTVSPost2010PropOp44
 70
     1
102
RTVSPost2010Prop45
280
     0
102
RTVSPost2010PropOp45
 70
     1
102
RTVSPost2010Prop46
 90
       50
102
RTVSPost2010PropOp46
 70
     1
102
RTVSPost2010Prop47
 90
       50
102
RTVSPost2010PropOp47
 70
     1
102
RTVSPost2010Prop48
 90
       50
102
RTVSPost2010PropOp48
 70
     1
102
RTVSPost2010Prop49
280
     0
102
RTVSPost2010PropOp49
 70
     1
102
RTVSPost2010Prop50
 90
       50
102
RTVSPost2010PropOp50
 70
     1
102
RTVSPost2010Prop51ColorIndex
 90
      256
102
RTVSPost2010Prop51ColorRGB
 90
-16777216
102
RTVSPost2010PropOp51
 70
     0
102
RTVSPost2010Prop52
140
1.0
102
RTVSPost2010PropOp52
 70
     0
102
RTVSPost2010Prop53
 90
        2
102
RTVSPost2010PropOp53
 70
     1
102
RTVSPost2010Prop54
  1
strokes_ogs.tif
102
RTVSPost2010PropOp54
 70
     1
102
RTVSPost2010Prop55
280
     0
102
RTVSPost2010PropOp55
 70
     1
102
RTVSPost2010Prop56
140
1.0
102
RTVSPost2010PropOp56
 70
     1
102
RTVSPost2010Prop57
140
1.0
102
RTVSPost2010PropOp57
 70
     1
102
RTVSPropertyOp0
 70
     1
102
RTVSPropertyOp1
 70
     1
102
RTVSPropertyOp2
 70
     1
102
RTVSPropertyOp3
 70
     1
102
RTVSPropertyOp4
 70
     1
102
RTVSPropertyOp5
 70
     1
102
RTVSPropertyOp6
 70
     1
102
RTVSPropertyOp7
 70
     1
102
RTVSPropertyOp8
 70
     1
102
RTVSPropertyOp9
 70
     1
102
RTVSPropertyOp10
 70
     1
102
RTVSPropertyOp11
 70
     1
102
RTVSPropertyOp12
 70
     1
102
RTVSPropertyOp13
 70
     1
102
RTVSPropertyOp14
 70
     1
102
RTVSPropertyOp15
 70
     1
102
RTVSPropertyOp16
 70
     1
102
RTVSPropertyOp17
 70
     1
102
RTVSPropertyOp18
 70
     1
102
RTVSPropertyOp19
 70
     1
102
RTVSPropertyOp20
 70
     1
102
RTVSPropertyOp21
 70
     1
102
RTVSPropertyOp22
 70
     1
102
RTVSPropertyOp23
 70
     1
102
RTVSPropertyOp24
 70
     1
102
RTVSPropertyOp25
 70
     1
102
RTVSPropertyOp26
 70
     1
102
RTVSPropertyOp27
 70
     1
102
RTVSPropertyOp28
 70
     1
102
RTVSPropertyOp29
 70
     1
102
RTVSPropertyOp30
 70
     1
102
RTVSPropertyOp31
 70
     1
102
RTVSPropertyOp32
 70
     1
102
RTVSPropertyOp33
 70
     1
102
RTVSPropertyOp34
 70
     1
102
RTVSPropertyOp35
 70
     1
102
RTVSPropertyOp36
 70
     1
102
RTVSPropertyOp37
 70
     1
102
RTVSPropertyOp38
 70
     1
102
RTVSPropertyOp39
 70
     1
102
RTVSPropertyOp40
 70
     1
102
RTVSPropertyOp41
 70
     1
102
RTVSPropertyOp42
 70
     1
102
RTVSPropertyOp43
 70
     1
102
RTVSPropertyOp44
 70
     1
102
RTVSPropertyOp45
 70
     1
102
RTVSPropertyOp46
 70
     1
102
RTVSPropertyOp47
 70
     1
102
RTVSPropertyOp48
 70
     1
102
RTVSPropertyOp49
 70
     1
102
RTVSPropertyOp50
 70
     1
102
RTVSPropertyOp51
 70
     0
102
RTVSPropertyOp52
 70
     0
102
RTVSPropertyOp53
 70
     1
102
RTVSPropertyOp54
 70
     1
102
RTVSPropertyOp55
 70
     1
102
RTVSPropertyOp56
 70
     1
102
RTVSPropertyOp57
 70
     1
102
RTVSPropertyOp58
 70
     1
102
RTVSPropertyOp59
 70
     1
102
RTVSPropertyOp60
 70
     1
102
RTVSPropertyOp61
 70
     1
102
RTVSPropertyOp62
 70
     1
  0
XRECORD
  5
135D
102
{ACAD_REACTORS
330
135C
102
}
330
135C
100
AcDbXrecord
280
     1
102
RTVSPost2010Prop28
280
     0
102
RTVSPost2010PropOp28
 70
     1
102
RTVSPost2010Prop29
280
     1
102
RTVSPost2010PropOp29
 70
     1
102
RTVSPost2010Prop30
280
     1
102
RTVSPost2010PropOp30
 70
     1
102
RTVSPost2010Prop31
280
     0
102
RTVSPost2010PropOp31
 70
     1
102
RTVSPost2010Prop32
280
     0
102
RTVSPost2010PropOp32
 70
     1
102
RTVSPost2010Prop33
280
     0
102
RTVSPost2010PropOp33
 70
     1
102
RTVSPost2010Prop34
280
     0
102
RTVSPost2010PropOp34
 70
     1
102
RTVSPost2010Prop35
280
     0
102
RTVSPost2010PropOp35
 70
     1
102
RTVSPost2010Prop36
280
     0
102
RTVSPost2010PropOp36
 70
     1
102
RTVSPost2010Prop37
 90
       50
102
RTVSPost2010PropOp37
 70
     1
102
RTVSPost2010Prop38
140
0.0
102
RTVSPost2010PropOp38
 70
     1
102
RTVSPost2010Prop39
140
1.0
102
RTVSPost2010PropOp39
 70
     1
102
RTVSPost2010Prop40
 90
        0
102
RTVSPost2010PropOp40
 70
     1
102
RTVSPost2010Prop41ColorIndex
 90
       18
102
RTVSPost2010Prop41ColorRGB
 90
        0
102
RTVSPost2010PropOp41
 70
     1
102
RTVSPost2010Prop42
 90
       50
102
RTVSPost2010PropOp42
 70
     1
102
RTVSPost2010Prop43
 90
        3
102
RTVSPost2010PropOp43
 70
     1
102
RTVSPost2010Prop44ColorIndex
 90
        5
102
RTVSPost2010Prop44ColorRGB
 90
      255
102
RTVSPost2010PropOp44
 70
     1
102
RTVSPost2010Prop45
280
     0
102
RTVSPost2010PropOp45
 70
     1
102
RTVSPost2010Prop46
 90
       50
102
RTVSPost2010PropOp46
 70
     1
102
RTVSPost2010Prop47
 90
       50
102
RTVSPost2010PropOp47
 70
     1
102
RTVSPost2010Prop48
 90
       50
102
RTVSPost2010PropOp48
 70
     1
102
RTVSPost2010Prop49
280
     0
102
RTVSPost2010PropOp49
 70
     1
102
RTVSPost2010Prop50
 90
       50
102
RTVSPost2010PropOp50
 70
     1
102
RTVSPost2010Prop51ColorIndex
 90
      256
102
RTVSPost2010Prop51ColorRGB
 90
-16777216
102
RTVSPost2010PropOp51
 70
     0
102
RTVSPost2010Prop52
140
1.0
102
RTVSPost2010PropOp52
 70
     0
102
RTVSPost2010Prop53
 90
        2
102
RTVSPost2010PropOp53
 70
     1
102
RTVSPost2010Prop54
  1
strokes_ogs.tif
102
RTVSPost2010PropOp54
 70
     1
102
RTVSPost2010Prop55
280
     0
102
RTVSPost2010PropOp55
 70
     1
102
RTVSPost2010Prop56
140
1.0
102
RTVSPost2010PropOp56
 70
     1
102
RTVSPost2010Prop57
140
1.0
102
RTVSPost2010PropOp57
 70
     1
102
RTVSPropertyOp0
 70
     1
102
RTVSPropertyOp1
 70
     1
102
RTVSPropertyOp2
 70
     1
102
RTVSPropertyOp3
 70
     1
102
RTVSPropertyOp4
 70
     1
102
RTVSPropertyOp5
 70
     1
102
RTVSPropertyOp6
 70
     1
102
RTVSPropertyOp7
 70
     1
102
RTVSPropertyOp8
 70
     1
102
RTVSPropertyOp9
 70
     1
102
RTVSPropertyOp10
 70
     1
102
RTVSPropertyOp11
 70
     1
102
RTVSPropertyOp12
 70
     1
102
RTVSPropertyOp13
 70
     1
102
RTVSPropertyOp14
 70
     1
102
RTVSPropertyOp15
 70
     1
102
RTVSPropertyOp16
 70
     1
102
RTVSPropertyOp17
 70
     1
102
RTVSPropertyOp18
 70
     1
102
RTVSPropertyOp19
 70
     1
102
RTVSPropertyOp20
 70
     1
102
RTVSPropertyOp21
 70
     1
102
RTVSPropertyOp22
 70
     1
102
RTVSPropertyOp23
 70
     1
102
RTVSPropertyOp24
 70
     1
102
RTVSPropertyOp25
 70
     1
102
RTVSPropertyOp26
 70
     1
102
RTVSPropertyOp27
 70
     1
102
RTVSPropertyOp28
 70
     1
102
RTVSPropertyOp29
 70
     1
102
RTVSPropertyOp30
 70
     1
102
RTVSPropertyOp31
 70
     1
102
RTVSPropertyOp32
 70
     1
102
RTVSPropertyOp33
 70
     1
102
RTVSPropertyOp34
 70
     1
102
RTVSPropertyOp35
 70
     1
102
RTVSPropertyOp36
 70
     1
102
RTVSPropertyOp37
 70
     1
102
RTVSPropertyOp38
 70
     1
102
RTVSPropertyOp39
 70
     1
102
RTVSPropertyOp40
 70
     1
102
RTVSPropertyOp41
 70
     1
102
RTVSPropertyOp42
 70
     1
102
RTVSPropertyOp43
 70
     1
102
RTVSPropertyOp44
 70
     1
102
RTVSPropertyOp45
 70
     1
102
RTVSPropertyOp46
 70
     1
102
RTVSPropertyOp47
 70
     1
102
RTVSPropertyOp48
 70
     1
102
RTVSPropertyOp49
 70
     1
102
RTVSPropertyOp50
 70
     1
102
RTVSPropertyOp51
 70
     0
102
RTVSPropertyOp52
 70
     0
102
RTVSPropertyOp53
 70
     1
102
RTVSPropertyOp54
 70
     1
102
RTVSPropertyOp55
 70
     1
102
RTVSPropertyOp56
 70
     1
102
RTVSPropertyOp57
 70
     1
102
RTVSPropertyOp58
 70
     1
102
RTVSPropertyOp59
 70
     1
102
RTVSPropertyOp60
 70
     1
102
RTVSPropertyOp61
 70
     1
102
RTVSPropertyOp62
 70
     1
  0
XRECORD
  5
134F
102
{ACAD_REACTORS
330
134E
102
}
330
134E
100
AcDbXrecord
280
     1
102
RTVSPost2010Prop28
280
     0
102
RTVSPost2010PropOp28
 70
     1
102
RTVSPost2010Prop29
280
     1
102
RTVSPost2010PropOp29
 70
     1
102
RTVSPost2010Prop30
280
     1
102
RTVSPost2010PropOp30
 70
     1
102
RTVSPost2010Prop31
280
     0
102
RTVSPost2010PropOp31
 70
     1
102
RTVSPost2010Prop32
280
     0
102
RTVSPost2010PropOp32
 70
     1
102
RTVSPost2010Prop33
280
     0
102
RTVSPost2010PropOp33
 70
     1
102
RTVSPost2010Prop34
280
     0
102
RTVSPost2010PropOp34
 70
     1
102
RTVSPost2010Prop35
280
     0
102
RTVSPost2010PropOp35
 70
     1
102
RTVSPost2010Prop36
280
     0
102
RTVSPost2010PropOp36
 70
     1
102
RTVSPost2010Prop37
 90
       50
102
RTVSPost2010PropOp37
 70
     1
102
RTVSPost2010Prop38
140
0.0
102
RTVSPost2010PropOp38
 70
     1
102
RTVSPost2010Prop39
140
1.0
102
RTVSPost2010PropOp39
 70
     1
102
RTVSPost2010Prop40
 90
        0
102
RTVSPost2010PropOp40
 70
     1
102
RTVSPost2010Prop41ColorIndex
 90
       18
102
RTVSPost2010Prop41ColorRGB
 90
        0
102
RTVSPost2010PropOp41
 70
     1
102
RTVSPost2010Prop42
 90
       50
102
RTVSPost2010PropOp42
 70
     1
102
RTVSPost2010Prop43
 90
        3
102
RTVSPost2010PropOp43
 70
     1
102
RTVSPost2010Prop44ColorIndex
 90
        5
102
RTVSPost2010Prop44ColorRGB
 90
      255
102
RTVSPost2010PropOp44
 70
     1
102
RTVSPost2010Prop45
280
     0
102
RTVSPost2010PropOp45
 70
     1
102
RTVSPost2010Prop46
 90
       50
102
RTVSPost2010PropOp46
 70
     1
102
RTVSPost2010Prop47
 90
       50
102
RTVSPost2010PropOp47
 70
     1
102
RTVSPost2010Prop48
 90
       50
102
RTVSPost2010PropOp48
 70
     1
102
RTVSPost2010Prop49
280
     0
102
RTVSPost2010PropOp49
 70
     1
102
RTVSPost2010Prop50
 90
       50
102
RTVSPost2010PropOp50
 70
     1
102
RTVSPost2010Prop51ColorIndex
 90
      256
102
RTVSPost2010Prop51ColorRGB
 90
-16777216
102
RTVSPost2010PropOp51
 70
     0
102
RTVSPost2010Prop52
140
1.0
102
RTVSPost2010PropOp52
 70
     0
102
RTVSPost2010Prop53
 90
        2
102
RTVSPost2010PropOp53
 70
     1
102
RTVSPost2010Prop54
  1
strokes_ogs.tif
102
RTVSPost2010PropOp54
 70
     1
102
RTVSPost2010Prop55
280
     0
102
RTVSPost2010PropOp55
 70
     1
102
RTVSPost2010Prop56
140
1.0
102
RTVSPost2010PropOp56
 70
     1
102
RTVSPost2010Prop57
140
1.0
102
RTVSPost2010PropOp57
 70
     1
102
RTVSPropertyOp0
 70
     1
102
RTVSPropertyOp1
 70
     1
102
RTVSPropertyOp2
 70
     1
102
RTVSPropertyOp3
 70
     1
102
RTVSPropertyOp4
 70
     1
102
RTVSPropertyOp5
 70
     1
102
RTVSPropertyOp6
 70
     1
102
RTVSPropertyOp7
 70
     1
102
RTVSPropertyOp8
 70
     1
102
RTVSPropertyOp9
 70
     1
102
RTVSPropertyOp10
 70
     1
102
RTVSPropertyOp11
 70
     1
102
RTVSPropertyOp12
 70
     1
102
RTVSPropertyOp13
 70
     1
102
RTVSPropertyOp14
 70
     1
102
RTVSPropertyOp15
 70
     1
102
RTVSPropertyOp16
 70
     1
102
RTVSPropertyOp17
 70
     1
102
RTVSPropertyOp18
 70
     1
102
RTVSPropertyOp19
 70
     1
102
RTVSPropertyOp20
 70
     1
102
RTVSPropertyOp21
 70
     1
102
RTVSPropertyOp22
 70
     1
102
RTVSPropertyOp23
 70
     1
102
RTVSPropertyOp24
 70
     1
102
RTVSPropertyOp25
 70
     1
102
RTVSPropertyOp26
 70
     1
102
RTVSPropertyOp27
 70
     1
102
RTVSPropertyOp28
 70
     1
102
RTVSPropertyOp29
 70
     1
102
RTVSPropertyOp30
 70
     1
102
RTVSPropertyOp31
 70
     1
102
RTVSPropertyOp32
 70
     1
102
RTVSPropertyOp33
 70
     1
102
RTVSPropertyOp34
 70
     1
102
RTVSPropertyOp35
 70
     1
102
RTVSPropertyOp36
 70
     1
102
RTVSPropertyOp37
 70
     1
102
RTVSPropertyOp38
 70
     1
102
RTVSPropertyOp39
 70
     1
102
RTVSPropertyOp40
 70
     1
102
RTVSPropertyOp41
 70
     1
102
RTVSPropertyOp42
 70
     1
102
RTVSPropertyOp43
 70
     1
102
RTVSPropertyOp44
 70
     1
102
RTVSPropertyOp45
 70
     1
102
RTVSPropertyOp46
 70
     1
102
RTVSPropertyOp47
 70
     1
102
RTVSPropertyOp48
 70
     1
102
RTVSPropertyOp49
 70
     1
102
RTVSPropertyOp50
 70
     1
102
RTVSPropertyOp51
 70
     0
102
RTVSPropertyOp52
 70
     0
102
RTVSPropertyOp53
 70
     1
102
RTVSPropertyOp54
 70
     1
102
RTVSPropertyOp55
 70
     1
102
RTVSPropertyOp56
 70
     1
102
RTVSPropertyOp57
 70
     1
102
RTVSPropertyOp58
 70
     1
102
RTVSPropertyOp59
 70
     1
102
RTVSPropertyOp60
 70
     1
102
RTVSPropertyOp61
 70
     1
102
RTVSPropertyOp62
 70
     1
  0
XRECORD
  5
1353
102
{ACAD_REACTORS
330
1352
102
}
330
1352
100
AcDbXrecord
280
     1
102
RTVSPost2010Prop28
280
     0
102
RTVSPost2010PropOp28
 70
     1
102
RTVSPost2010Prop29
280
     1
102
RTVSPost2010PropOp29
 70
     1
102
RTVSPost2010Prop30
280
     1
102
RTVSPost2010PropOp30
 70
     1
102
RTVSPost2010Prop31
280
     0
102
RTVSPost2010PropOp31
 70
     1
102
RTVSPost2010Prop32
280
     0
102
RTVSPost2010PropOp32
 70
     1
102
RTVSPost2010Prop33
280
     0
102
RTVSPost2010PropOp33
 70
     1
102
RTVSPost2010Prop34
280
     0
102
RTVSPost2010PropOp34
 70
     1
102
RTVSPost2010Prop35
280
     0
102
RTVSPost2010PropOp35
 70
     1
102
RTVSPost2010Prop36
280
     0
102
RTVSPost2010PropOp36
 70
     1
102
RTVSPost2010Prop37
 90
       50
102
RTVSPost2010PropOp37
 70
     1
102
RTVSPost2010Prop38
140
0.0
102
RTVSPost2010PropOp38
 70
     1
102
RTVSPost2010Prop39
140
1.0
102
RTVSPost2010PropOp39
 70
     1
102
RTVSPost2010Prop40
 90
        0
102
RTVSPost2010PropOp40
 70
     1
102
RTVSPost2010Prop41ColorIndex
 90
       18
102
RTVSPost2010Prop41ColorRGB
 90
        0
102
RTVSPost2010PropOp41
 70
     1
102
RTVSPost2010Prop42
 90
       50
102
RTVSPost2010PropOp42
 70
     1
102
RTVSPost2010Prop43
 90
        3
102
RTVSPost2010PropOp43
 70
     1
102
RTVSPost2010Prop44ColorIndex
 90
        5
102
RTVSPost2010Prop44ColorRGB
 90
      255
102
RTVSPost2010PropOp44
 70
     1
102
RTVSPost2010Prop45
280
     0
102
RTVSPost2010PropOp45
 70
     1
102
RTVSPost2010Prop46
 90
       50
102
RTVSPost2010PropOp46
 70
     1
102
RTVSPost2010Prop47
 90
       50
102
RTVSPost2010PropOp47
 70
     1
102
RTVSPost2010Prop48
 90
       50
102
RTVSPost2010PropOp48
 70
     1
102
RTVSPost2010Prop49
280
     0
102
RTVSPost2010PropOp49
 70
     1
102
RTVSPost2010Prop50
 90
       50
102
RTVSPost2010PropOp50
 70
     1
102
RTVSPost2010Prop51ColorIndex
 90
      256
102
RTVSPost2010Prop51ColorRGB
 90
-16777216
102
RTVSPost2010PropOp51
 70
     0
102
RTVSPost2010Prop52
140
1.0
102
RTVSPost2010PropOp52
 70
     0
102
RTVSPost2010Prop53
 90
        2
102
RTVSPost2010PropOp53
 70
     1
102
RTVSPost2010Prop54
  1
strokes_ogs.tif
102
RTVSPost2010PropOp54
 70
     1
102
RTVSPost2010Prop55
280
     0
102
RTVSPost2010PropOp55
 70
     1
102
RTVSPost2010Prop56
140
1.0
102
RTVSPost2010PropOp56
 70
     1
102
RTVSPost2010Prop57
140
1.0
102
RTVSPost2010PropOp57
 70
     1
102
RTVSPropertyOp0
 70
     1
102
RTVSPropertyOp1
 70
     1
102
RTVSPropertyOp2
 70
     1
102
RTVSPropertyOp3
 70
     1
102
RTVSPropertyOp4
 70
     1
102
RTVSPropertyOp5
 70
     1
102
RTVSPropertyOp6
 70
     1
102
RTVSPropertyOp7
 70
     1
102
RTVSPropertyOp8
 70
     1
102
RTVSPropertyOp9
 70
     1
102
RTVSPropertyOp10
 70
     1
102
RTVSPropertyOp11
 70
     1
102
RTVSPropertyOp12
 70
     1
102
RTVSPropertyOp13
 70
     1
102
RTVSPropertyOp14
 70
     1
102
RTVSPropertyOp15
 70
     1
102
RTVSPropertyOp16
 70
     1
102
RTVSPropertyOp17
 70
     1
102
RTVSPropertyOp18
 70
     1
102
RTVSPropertyOp19
 70
     1
102
RTVSPropertyOp20
 70
     1
102
RTVSPropertyOp21
 70
     1
102
RTVSPropertyOp22
 70
     1
102
RTVSPropertyOp23
 70
     1
102
RTVSPropertyOp24
 70
     1
102
RTVSPropertyOp25
 70
     1
102
RTVSPropertyOp26
 70
     1
102
RTVSPropertyOp27
 70
     1
102
RTVSPropertyOp28
 70
     1
102
RTVSPropertyOp29
 70
     1
102
RTVSPropertyOp30
 70
     1
102
RTVSPropertyOp31
 70
     1
102
RTVSPropertyOp32
 70
     1
102
RTVSPropertyOp33
 70
     1
102
RTVSPropertyOp34
 70
     1
102
RTVSPropertyOp35
 70
     1
102
RTVSPropertyOp36
 70
     1
102
RTVSPropertyOp37
 70
     1
102
RTVSPropertyOp38
 70
     1
102
RTVSPropertyOp39
 70
     1
102
RTVSPropertyOp40
 70
     1
102
RTVSPropertyOp41
 70
     1
102
RTVSPropertyOp42
 70
     1
102
RTVSPropertyOp43
 70
     1
102
RTVSPropertyOp44
 70
     1
102
RTVSPropertyOp45
 70
     1
102
RTVSPropertyOp46
 70
     1
102
RTVSPropertyOp47
 70
     1
102
RTVSPropertyOp48
 70
     1
102
RTVSPropertyOp49
 70
     1
102
RTVSPropertyOp50
 70
     1
102
RTVSPropertyOp51
 70
     0
102
RTVSPropertyOp52
 70
     0
102
RTVSPropertyOp53
 70
     1
102
RTVSPropertyOp54
 70
     1
102
RTVSPropertyOp55
 70
     1
102
RTVSPropertyOp56
 70
     1
102
RTVSPropertyOp57
 70
     1
102
RTVSPropertyOp58
 70
     1
102
RTVSPropertyOp59
 70
     1
102
RTVSPropertyOp60
 70
     1
102
RTVSPropertyOp61
 70
     1
102
RTVSPropertyOp62
 70
     1
  0
XRECORD
  5
1372
102
{ACAD_REACTORS
330
1371
102
}
330
1371
100
AcDbXrecord
280
     1
102
RTVSPost2010Prop28
280
     0
102
RTVSPost2010PropOp28
 70
     0
102
RTVSPost2010Prop29
280
     1
102
RTVSPost2010PropOp29
 70
     0
102
RTVSPost2010Prop30
280
     1
102
RTVSPost2010PropOp30
 70
     0
102
RTVSPost2010Prop31
280
     0
102
RTVSPost2010PropOp31
 70
     0
102
RTVSPost2010Prop32
280
     0
102
RTVSPost2010PropOp32
 70
     0
102
RTVSPost2010Prop33
280
     0
102
RTVSPost2010PropOp33
 70
     0
102
RTVSPost2010Prop34
280
     0
102
RTVSPost2010PropOp34
 70
     0
102
RTVSPost2010Prop35
280
     0
102
RTVSPost2010PropOp35
 70
     0
102
RTVSPost2010Prop36
280
     0
102
RTVSPost2010PropOp36
 70
     0
102
RTVSPost2010Prop37
 90
       50
102
RTVSPost2010PropOp37
 70
     0
102
RTVSPost2010Prop38
140
0.0
102
RTVSPost2010PropOp38
 70
     0
102
RTVSPost2010Prop39
140
1.0
102
RTVSPost2010PropOp39
 70
     0
102
RTVSPost2010Prop40
 90
        0
102
RTVSPost2010PropOp40
 70
     0
102
RTVSPost2010Prop41ColorIndex
 90
       18
102
RTVSPost2010Prop41ColorRGB
 90
        0
102
RTVSPost2010PropOp41
 70
     0
102
RTVSPost2010Prop42
 90
       50
102
RTVSPost2010PropOp42
 70
     0
102
RTVSPost2010Prop43
 90
        3
102
RTVSPost2010PropOp43
 70
     0
102
RTVSPost2010Prop44ColorIndex
 90
        5
102
RTVSPost2010Prop44ColorRGB
 90
      255
102
RTVSPost2010PropOp44
 70
     0
102
RTVSPost2010Prop45
280
     0
102
RTVSPost2010PropOp45
 70
     0
102
RTVSPost2010Prop46
 90
       50
102
RTVSPost2010PropOp46
 70
     0
102
RTVSPost2010Prop47
 90
       50
102
RTVSPost2010PropOp47
 70
     0
102
RTVSPost2010Prop48
 90
       50
102
RTVSPost2010PropOp48
 70
     0
102
RTVSPost2010Prop49
280
     0
102
RTVSPost2010PropOp49
 70
     0
102
RTVSPost2010Prop50
 90
       50
102
RTVSPost2010PropOp50
 70
     0
102
RTVSPost2010Prop51ColorIndex
 90
      256
102
RTVSPost2010Prop51ColorRGB
 90
-16777216
102
RTVSPost2010PropOp51
 70
     0
102
RTVSPost2010Prop52
140
1.0
102
RTVSPost2010PropOp52
 70
     0
102
RTVSPost2010Prop53
 90
        2
102
RTVSPost2010PropOp53
 70
     0
102
RTVSPost2010Prop54
  1
strokes_ogs.tif
102
RTVSPost2010PropOp54
 70
     0
102
RTVSPost2010Prop55
280
     0
102
RTVSPost2010PropOp55
 70
     0
102
RTVSPost2010Prop56
140
1.0
102
RTVSPost2010PropOp56
 70
     0
102
RTVSPost2010Prop57
140
1.0
102
RTVSPost2010PropOp57
 70
     0
102
RTVSPropertyOp0
 70
     0
102
RTVSPropertyOp1
 70
     0
102
RTVSPropertyOp2
 70
     0
102
RTVSPropertyOp3
 70
     0
102
RTVSPropertyOp4
 70
     0
102
RTVSPropertyOp5
 70
     0
102
RTVSPropertyOp6
 70
     0
102
RTVSPropertyOp7
 70
     0
102
RTVSPropertyOp8
 70
     0
102
RTVSPropertyOp9
 70
     0
102
RTVSPropertyOp10
 70
     0
102
RTVSPropertyOp11
 70
     0
102
RTVSPropertyOp12
 70
     0
102
RTVSPropertyOp13
 70
     0
102
RTVSPropertyOp14
 70
     2
102
RTVSPropertyOp15
 70
     0
102
RTVSPropertyOp16
 70
     0
102
RTVSPropertyOp17
 70
     0
102
RTVSPropertyOp18
 70
     0
102
RTVSPropertyOp19
 70
     0
102
RTVSPropertyOp20
 70
     0
102
RTVSPropertyOp21
 70
     0
102
RTVSPropertyOp22
 70
     0
102
RTVSPropertyOp23
 70
     0
102
RTVSPropertyOp24
 70
     0
102
RTVSPropertyOp25
 70
     0
102
RTVSPropertyOp26
 70
     0
102
RTVSPropertyOp27
 70
     0
102
RTVSPropertyOp28
 70
     0
102
RTVSPropertyOp29
 70
     0
102
RTVSPropertyOp30
 70
     0
102
RTVSPropertyOp31
 70
     0
102
RTVSPropertyOp32
 70
     0
102
RTVSPropertyOp33
 70
     0
102
RTVSPropertyOp34
 70
     0
102
RTVSPropertyOp35
 70
     0
102
RTVSPropertyOp36
 70
     0
102
RTVSPropertyOp37
 70
     0
102
RTVSPropertyOp38
 70
     0
102
RTVSPropertyOp39
 70
     0
102
RTVSPropertyOp40
 70
     0
102
RTVSPropertyOp41
 70
     0
102
RTVSPropertyOp42
 70
     0
102
RTVSPropertyOp43
 70
     0
102
RTVSPropertyOp44
 70
     0
102
RTVSPropertyOp45
 70
     0
102
RTVSPropertyOp46
 70
     0
102
RTVSPropertyOp47
 70
     0
102
RTVSPropertyOp48
 70
     0
102
RTVSPropertyOp49
 70
     0
102
RTVSPropertyOp50
 70
     0
102
RTVSPropertyOp51
 70
     0
102
RTVSPropertyOp52
 70
     0
102
RTVSPropertyOp53
 70
     0
102
RTVSPropertyOp54
 70
     0
102
RTVSPropertyOp55
 70
     0
102
RTVSPropertyOp56
 70
     0
102
RTVSPropertyOp57
 70
     0
102
RTVSPropertyOp58
 70
     0
102
RTVSPropertyOp59
 70
     0
102
RTVSPropertyOp60
 70
     0
102
RTVSPropertyOp61
 70
     0
102
RTVSPropertyOp62
 70
     0
  0
XRECORD
  5
135B
102
{ACAD_REACTORS
330
135A
102
}
330
135A
100
AcDbXrecord
280
     1
102
RTVSPost2010Prop28
280
     0
102
RTVSPost2010PropOp28
 70
     1
102
RTVSPost2010Prop29
280
     1
102
RTVSPost2010PropOp29
 70
     1
102
RTVSPost2010Prop30
280
     1
102
RTVSPost2010PropOp30
 70
     1
102
RTVSPost2010Prop31
280
     0
102
RTVSPost2010PropOp31
 70
     1
102
RTVSPost2010Prop32
280
     0
102
RTVSPost2010PropOp32
 70
     1
102
RTVSPost2010Prop33
280
     0
102
RTVSPost2010PropOp33
 70
     1
102
RTVSPost2010Prop34
280
     0
102
RTVSPost2010PropOp34
 70
     1
102
RTVSPost2010Prop35
280
     0
102
RTVSPost2010PropOp35
 70
     1
102
RTVSPost2010Prop36
280
     0
102
RTVSPost2010PropOp36
 70
     1
102
RTVSPost2010Prop37
 90
       50
102
RTVSPost2010PropOp37
 70
     1
102
RTVSPost2010Prop38
140
0.0
102
RTVSPost2010PropOp38
 70
     1
102
RTVSPost2010Prop39
140
1.0
102
RTVSPost2010PropOp39
 70
     1
102
RTVSPost2010Prop40
 90
        0
102
RTVSPost2010PropOp40
 70
     1
102
RTVSPost2010Prop41ColorIndex
 90
       18
102
RTVSPost2010Prop41ColorRGB
 90
        0
102
RTVSPost2010PropOp41
 70
     1
102
RTVSPost2010Prop42
 90
       50
102
RTVSPost2010PropOp42
 70
     1
102
RTVSPost2010Prop43
 90
        3
102
RTVSPost2010PropOp43
 70
     1
102
RTVSPost2010Prop44ColorIndex
 90
        5
102
RTVSPost2010Prop44ColorRGB
 90
      255
102
RTVSPost2010PropOp44
 70
     1
102
RTVSPost2010Prop45
280
     0
102
RTVSPost2010PropOp45
 70
     1
102
RTVSPost2010Prop46
 90
       50
102
RTVSPost2010PropOp46
 70
     1
102
RTVSPost2010Prop47
 90
       50
102
RTVSPost2010PropOp47
 70
     1
102
RTVSPost2010Prop48
 90
       50
102
RTVSPost2010PropOp48
 70
     1
102
RTVSPost2010Prop49
280
     0
102
RTVSPost2010PropOp49
 70
     1
102
RTVSPost2010Prop50
 90
       50
102
RTVSPost2010PropOp50
 70
     1
102
RTVSPost2010Prop51ColorIndex
 90
      256
102
RTVSPost2010Prop51ColorRGB
 90
-16777216
102
RTVSPost2010PropOp51
 70
     0
102
RTVSPost2010Prop52
140
1.0
102
RTVSPost2010PropOp52
 70
     0
102
RTVSPost2010Prop53
 90
        2
102
RTVSPost2010PropOp53
 70
     1
102
RTVSPost2010Prop54
  1
strokes_ogs.tif
102
RTVSPost2010PropOp54
 70
     1
102
RTVSPost2010Prop55
280
     0
102
RTVSPost2010PropOp55
 70
     1
102
RTVSPost2010Prop56
140
1.0
102
RTVSPost2010PropOp56
 70
     1
102
RTVSPost2010Prop57
140
1.0
102
RTVSPost2010PropOp57
 70
     1
102
RTVSPropertyOp0
 70
     1
102
RTVSPropertyOp1
 70
     1
102
RTVSPropertyOp2
 70
     1
102
RTVSPropertyOp3
 70
     1
102
RTVSPropertyOp4
 70
     1
102
RTVSPropertyOp5
 70
     1
102
RTVSPropertyOp6
 70
     1
102
RTVSPropertyOp7
 70
     1
102
RTVSPropertyOp8
 70
     1
102
RTVSPropertyOp9
 70
     1
102
RTVSPropertyOp10
 70
     1
102
RTVSPropertyOp11
 70
     1
102
RTVSPropertyOp12
 70
     1
102
RTVSPropertyOp13
 70
     1
102
RTVSPropertyOp14
 70
     1
102
RTVSPropertyOp15
 70
     1
102
RTVSPropertyOp16
 70
     1
102
RTVSPropertyOp17
 70
     1
102
RTVSPropertyOp18
 70
     1
102
RTVSPropertyOp19
 70
     1
102
RTVSPropertyOp20
 70
     1
102
RTVSPropertyOp21
 70
     1
102
RTVSPropertyOp22
 70
     1
102
RTVSPropertyOp23
 70
     1
102
RTVSPropertyOp24
 70
     1
102
RTVSPropertyOp25
 70
     1
102
RTVSPropertyOp26
 70
     1
102
RTVSPropertyOp27
 70
     1
102
RTVSPropertyOp28
 70
     1
102
RTVSPropertyOp29
 70
     1
102
RTVSPropertyOp30
 70
     1
102
RTVSPropertyOp31
 70
     1
102
RTVSPropertyOp32
 70
     1
102
RTVSPropertyOp33
 70
     1
102
RTVSPropertyOp34
 70
     1
102
RTVSPropertyOp35
 70
     1
102
RTVSPropertyOp36
 70
     1
102
RTVSPropertyOp37
 70
     1
102
RTVSPropertyOp38
 70
     1
102
RTVSPropertyOp39
 70
     1
102
RTVSPropertyOp40
 70
     1
102
RTVSPropertyOp41
 70
     1
102
RTVSPropertyOp42
 70
     1
102
RTVSPropertyOp43
 70
     1
102
RTVSPropertyOp44
 70
     1
102
RTVSPropertyOp45
 70
     1
102
RTVSPropertyOp46
 70
     1
102
RTVSPropertyOp47
 70
     1
102
RTVSPropertyOp48
 70
     1
102
RTVSPropertyOp49
 70
     1
102
RTVSPropertyOp50
 70
     1
102
RTVSPropertyOp51
 70
     0
102
RTVSPropertyOp52
 70
     0
102
RTVSPropertyOp53
 70
     1
102
RTVSPropertyOp54
 70
     1
102
RTVSPropertyOp55
 70
     1
102
RTVSPropertyOp56
 70
     1
102
RTVSPropertyOp57
 70
     1
102
RTVSPropertyOp58
 70
     1
102
RTVSPropertyOp59
 70
     1
102
RTVSPropertyOp60
 70
     1
102
RTVSPropertyOp61
 70
     1
102
RTVSPropertyOp62
 70
     1
  0
XRECORD
  5
133F
102
{ACAD_REACTORS
330
133E
102
}
330
133E
100
AcDbXrecord
280
     1
102
RTVSPost2010Prop28
280
     0
102
RTVSPost2010PropOp28
 70
     1
102
RTVSPost2010Prop29
280
     1
102
RTVSPost2010PropOp29
 70
     1
102
RTVSPost2010Prop30
280
     1
102
RTVSPost2010PropOp30
 70
     1
102
RTVSPost2010Prop31
280
     0
102
RTVSPost2010PropOp31
 70
     1
102
RTVSPost2010Prop32
280
     0
102
RTVSPost2010PropOp32
 70
     1
102
RTVSPost2010Prop33
280
     0
102
RTVSPost2010PropOp33
 70
     1
102
RTVSPost2010Prop34
280
     0
102
RTVSPost2010PropOp34
 70
     1
102
RTVSPost2010Prop35
280
     0
102
RTVSPost2010PropOp35
 70
     1
102
RTVSPost2010Prop36
280
     0
102
RTVSPost2010PropOp36
 70
     1
102
RTVSPost2010Prop37
 90
       50
102
RTVSPost2010PropOp37
 70
     1
102
RTVSPost2010Prop38
140
0.0
102
RTVSPost2010PropOp38
 70
     1
102
RTVSPost2010Prop39
140
1.0
102
RTVSPost2010PropOp39
 70
     1
102
RTVSPost2010Prop40
 90
        0
102
RTVSPost2010PropOp40
 70
     1
102
RTVSPost2010Prop41ColorIndex
 90
       18
102
RTVSPost2010Prop41ColorRGB
 90
        0
102
RTVSPost2010PropOp41
 70
     1
102
RTVSPost2010Prop42
 90
       50
102
RTVSPost2010PropOp42
 70
     1
102
RTVSPost2010Prop43
 90
        3
102
RTVSPost2010PropOp43
 70
     1
102
RTVSPost2010Prop44ColorIndex
 90
        5
102
RTVSPost2010Prop44ColorRGB
 90
      255
102
RTVSPost2010PropOp44
 70
     1
102
RTVSPost2010Prop45
280
     0
102
RTVSPost2010PropOp45
 70
     1
102
RTVSPost2010Prop46
 90
       50
102
RTVSPost2010PropOp46
 70
     1
102
RTVSPost2010Prop47
 90
       50
102
RTVSPost2010PropOp47
 70
     1
102
RTVSPost2010Prop48
 90
       50
102
RTVSPost2010PropOp48
 70
     1
102
RTVSPost2010Prop49
280
     0
102
RTVSPost2010PropOp49
 70
     1
102
RTVSPost2010Prop50
 90
       50
102
RTVSPost2010PropOp50
 70
     1
102
RTVSPost2010Prop51ColorIndex
 90
      256
102
RTVSPost2010Prop51ColorRGB
 90
-16777216
102
RTVSPost2010PropOp51
 70
     0
102
RTVSPost2010Prop52
140
1.0
102
RTVSPost2010PropOp52
 70
     0
102
RTVSPost2010Prop53
 90
        2
102
RTVSPost2010PropOp53
 70
     1
102
RTVSPost2010Prop54
  1
strokes_ogs.tif
102
RTVSPost2010PropOp54
 70
     1
102
RTVSPost2010Prop55
280
     0
102
RTVSPost2010PropOp55
 70
     1
102
RTVSPost2010Prop56
140
1.0
102
RTVSPost2010PropOp56
 70
     1
102
RTVSPost2010Prop57
140
1.0
102
RTVSPost2010PropOp57
 70
     1
102
RTVSPropertyOp0
 70
     1
102
RTVSPropertyOp1
 70
     1
102
RTVSPropertyOp2
 70
     1
102
RTVSPropertyOp3
 70
     1
102
RTVSPropertyOp4
 70
     1
102
RTVSPropertyOp5
 70
     1
102
RTVSPropertyOp6
 70
     1
102
RTVSPropertyOp7
 70
     1
102
RTVSPropertyOp8
 70
     1
102
RTVSPropertyOp9
 70
     1
102
RTVSPropertyOp10
 70
     1
102
RTVSPropertyOp11
 70
     1
102
RTVSPropertyOp12
 70
     1
102
RTVSPropertyOp13
 70
     1
102
RTVSPropertyOp14
 70
     1
102
RTVSPropertyOp15
 70
     1
102
RTVSPropertyOp16
 70
     1
102
RTVSPropertyOp17
 70
     1
102
RTVSPropertyOp18
 70
     1
102
RTVSPropertyOp19
 70
     1
102
RTVSPropertyOp20
 70
     1
102
RTVSPropertyOp21
 70
     1
102
RTVSPropertyOp22
 70
     1
102
RTVSPropertyOp23
 70
     1
102
RTVSPropertyOp24
 70
     1
102
RTVSPropertyOp25
 70
     1
102
RTVSPropertyOp26
 70
     1
102
RTVSPropertyOp27
 70
     1
102
RTVSPropertyOp28
 70
     1
102
RTVSPropertyOp29
 70
     1
102
RTVSPropertyOp30
 70
     1
102
RTVSPropertyOp31
 70
     1
102
RTVSPropertyOp32
 70
     1
102
RTVSPropertyOp33
 70
     1
102
RTVSPropertyOp34
 70
     1
102
RTVSPropertyOp35
 70
     1
102
RTVSPropertyOp36
 70
     1
102
RTVSPropertyOp37
 70
     1
102
RTVSPropertyOp38
 70
     1
102
RTVSPropertyOp39
 70
     1
102
RTVSPropertyOp40
 70
     1
102
RTVSPropertyOp41
 70
     1
102
RTVSPropertyOp42
 70
     1
102
RTVSPropertyOp43
 70
     1
102
RTVSPropertyOp44
 70
     1
102
RTVSPropertyOp45
 70
     1
102
RTVSPropertyOp46
 70
     1
102
RTVSPropertyOp47
 70
     1
102
RTVSPropertyOp48
 70
     1
102
RTVSPropertyOp49
 70
     1
102
RTVSPropertyOp50
 70
     1
102
RTVSPropertyOp51
 70
     0
102
RTVSPropertyOp52
 70
     0
102
RTVSPropertyOp53
 70
     1
102
RTVSPropertyOp54
 70
     1
102
RTVSPropertyOp55
 70
     1
102
RTVSPropertyOp56
 70
     1
102
RTVSPropertyOp57
 70
     1
102
RTVSPropertyOp58
 70
     1
102
RTVSPropertyOp59
 70
     1
102
RTVSPropertyOp60
 70
     1
102
RTVSPropertyOp61
 70
     1
102
RTVSPropertyOp62
 70
     1
  0
XRECORD
  5
1341
102
{ACAD_REACTORS
330
1340
102
}
330
1340
100
AcDbXrecord
280
     1
102
RTVSPost2010Prop28
280
     0
102
RTVSPost2010PropOp28
 70
     1
102
RTVSPost2010Prop29
280
     1
102
RTVSPost2010PropOp29
 70
     1
102
RTVSPost2010Prop30
280
     1
102
RTVSPost2010PropOp30
 70
     1
102
RTVSPost2010Prop31
280
     0
102
RTVSPost2010PropOp31
 70
     1
102
RTVSPost2010Prop32
280
     0
102
RTVSPost2010PropOp32
 70
     1
102
RTVSPost2010Prop33
280
     0
102
RTVSPost2010PropOp33
 70
     1
102
RTVSPost2010Prop34
280
     0
102
RTVSPost2010PropOp34
 70
     1
102
RTVSPost2010Prop35
280
     0
102
RTVSPost2010PropOp35
 70
     1
102
RTVSPost2010Prop36
280
     0
102
RTVSPost2010PropOp36
 70
     1
102
RTVSPost2010Prop37
 90
       50
102
RTVSPost2010PropOp37
 70
     1
102
RTVSPost2010Prop38
140
0.0
102
RTVSPost2010PropOp38
 70
     1
102
RTVSPost2010Prop39
140
1.0
102
RTVSPost2010PropOp39
 70
     1
102
RTVSPost2010Prop40
 90
        0
102
RTVSPost2010PropOp40
 70
     1
102
RTVSPost2010Prop41ColorIndex
 90
       18
102
RTVSPost2010Prop41ColorRGB
 90
        0
102
RTVSPost2010PropOp41
 70
     1
102
RTVSPost2010Prop42
 90
       50
102
RTVSPost2010PropOp42
 70
     1
102
RTVSPost2010Prop43
 90
        3
102
RTVSPost2010PropOp43
 70
     1
102
RTVSPost2010Prop44ColorIndex
 90
        5
102
RTVSPost2010Prop44ColorRGB
 90
      255
102
RTVSPost2010PropOp44
 70
     1
102
RTVSPost2010Prop45
280
     0
102
RTVSPost2010PropOp45
 70
     1
102
RTVSPost2010Prop46
 90
       50
102
RTVSPost2010PropOp46
 70
     1
102
RTVSPost2010Prop47
 90
       50
102
RTVSPost2010PropOp47
 70
     1
102
RTVSPost2010Prop48
 90
       50
102
RTVSPost2010PropOp48
 70
     1
102
RTVSPost2010Prop49
280
     0
102
RTVSPost2010PropOp49
 70
     1
102
RTVSPost2010Prop50
 90
       50
102
RTVSPost2010PropOp50
 70
     1
102
RTVSPost2010Prop51ColorIndex
 90
      256
102
RTVSPost2010Prop51ColorRGB
 90
-16777216
102
RTVSPost2010PropOp51
 70
     0
102
RTVSPost2010Prop52
140
1.0
102
RTVSPost2010PropOp52
 70
     0
102
RTVSPost2010Prop53
 90
        2
102
RTVSPost2010PropOp53
 70
     1
102
RTVSPost2010Prop54
  1
strokes_ogs.tif
102
RTVSPost2010PropOp54
 70
     1
102
RTVSPost2010Prop55
280
     0
102
RTVSPost2010PropOp55
 70
     1
102
RTVSPost2010Prop56
140
1.0
102
RTVSPost2010PropOp56
 70
     1
102
RTVSPost2010Prop57
140
1.0
102
RTVSPost2010PropOp57
 70
     1
102
RTVSPropertyOp0
 70
     1
102
RTVSPropertyOp1
 70
     1
102
RTVSPropertyOp2
 70
     1
102
RTVSPropertyOp3
 70
     1
102
RTVSPropertyOp4
 70
     1
102
RTVSPropertyOp5
 70
     1
102
RTVSPropertyOp6
 70
     1
102
RTVSPropertyOp7
 70
     1
102
RTVSPropertyOp8
 70
     1
102
RTVSPropertyOp9
 70
     1
102
RTVSPropertyOp10
 70
     1
102
RTVSPropertyOp11
 70
     1
102
RTVSPropertyOp12
 70
     1
102
RTVSPropertyOp13
 70
     1
102
RTVSPropertyOp14
 70
     1
102
RTVSPropertyOp15
 70
     1
102
RTVSPropertyOp16
 70
     1
102
RTVSPropertyOp17
 70
     1
102
RTVSPropertyOp18
 70
     1
102
RTVSPropertyOp19
 70
     1
102
RTVSPropertyOp20
 70
     1
102
RTVSPropertyOp21
 70
     1
102
RTVSPropertyOp22
 70
     1
102
RTVSPropertyOp23
 70
     1
102
RTVSPropertyOp24
 70
     1
102
RTVSPropertyOp25
 70
     1
102
RTVSPropertyOp26
 70
     1
102
RTVSPropertyOp27
 70
     1
102
RTVSPropertyOp28
 70
     1
102
RTVSPropertyOp29
 70
     1
102
RTVSPropertyOp30
 70
     1
102
RTVSPropertyOp31
 70
     1
102
RTVSPropertyOp32
 70
     1
102
RTVSPropertyOp33
 70
     1
102
RTVSPropertyOp34
 70
     1
102
RTVSPropertyOp35
 70
     1
102
RTVSPropertyOp36
 70
     1
102
RTVSPropertyOp37
 70
     1
102
RTVSPropertyOp38
 70
     1
102
RTVSPropertyOp39
 70
     1
102
RTVSPropertyOp40
 70
     1
102
RTVSPropertyOp41
 70
     1
102
RTVSPropertyOp42
 70
     1
102
RTVSPropertyOp43
 70
     1
102
RTVSPropertyOp44
 70
     1
102
RTVSPropertyOp45
 70
     1
102
RTVSPropertyOp46
 70
     1
102
RTVSPropertyOp47
 70
     1
102
RTVSPropertyOp48
 70
     1
102
RTVSPropertyOp49
 70
     1
102
RTVSPropertyOp50
 70
     1
102
RTVSPropertyOp51
 70
     0
102
RTVSPropertyOp52
 70
     0
102
RTVSPropertyOp53
 70
     1
102
RTVSPropertyOp54
 70
     1
102
RTVSPropertyOp55
 70
     1
102
RTVSPropertyOp56
 70
     1
102
RTVSPropertyOp57
 70
     1
102
RTVSPropertyOp58
 70
     1
102
RTVSPropertyOp59
 70
     1
102
RTVSPropertyOp60
 70
     1
102
RTVSPropertyOp61
 70
     1
102
RTVSPropertyOp62
 70
     1
  0
XRECORD
  5
1343
102
{ACAD_REACTORS
330
1342
102
}
330
1342
100
AcDbXrecord
280
     1
102
RTVSPost2010Prop28
280
     0
102
RTVSPost2010PropOp28
 70
     1
102
RTVSPost2010Prop29
280
     1
102
RTVSPost2010PropOp29
 70
     1
102
RTVSPost2010Prop30
280
     1
102
RTVSPost2010PropOp30
 70
     1
102
RTVSPost2010Prop31
280
     0
102
RTVSPost2010PropOp31
 70
     1
102
RTVSPost2010Prop32
280
     0
102
RTVSPost2010PropOp32
 70
     1
102
RTVSPost2010Prop33
280
     0
102
RTVSPost2010PropOp33
 70
     1
102
RTVSPost2010Prop34
280
     0
102
RTVSPost2010PropOp34
 70
     1
102
RTVSPost2010Prop35
280
     0
102
RTVSPost2010PropOp35
 70
     1
102
RTVSPost2010Prop36
280
     0
102
RTVSPost2010PropOp36
 70
     1
102
RTVSPost2010Prop37
 90
       50
102
RTVSPost2010PropOp37
 70
     1
102
RTVSPost2010Prop38
140
0.0
102
RTVSPost2010PropOp38
 70
     1
102
RTVSPost2010Prop39
140
1.0
102
RTVSPost2010PropOp39
 70
     1
102
RTVSPost2010Prop40
 90
        0
102
RTVSPost2010PropOp40
 70
     1
102
RTVSPost2010Prop41ColorIndex
 90
       18
102
RTVSPost2010Prop41ColorRGB
 90
        0
102
RTVSPost2010PropOp41
 70
     1
102
RTVSPost2010Prop42
 90
       50
102
RTVSPost2010PropOp42
 70
     1
102
RTVSPost2010Prop43
 90
        3
102
RTVSPost2010PropOp43
 70
     1
102
RTVSPost2010Prop44ColorIndex
 90
        5
102
RTVSPost2010Prop44ColorRGB
 90
      255
102
RTVSPost2010PropOp44
 70
     1
102
RTVSPost2010Prop45
280
     0
102
RTVSPost2010PropOp45
 70
     1
102
RTVSPost2010Prop46
 90
       50
102
RTVSPost2010PropOp46
 70
     1
102
RTVSPost2010Prop47
 90
       50
102
RTVSPost2010PropOp47
 70
     1
102
RTVSPost2010Prop48
 90
       50
102
RTVSPost2010PropOp48
 70
     1
102
RTVSPost2010Prop49
280
     0
102
RTVSPost2010PropOp49
 70
     1
102
RTVSPost2010Prop50
 90
       50
102
RTVSPost2010PropOp50
 70
     1
102
RTVSPost2010Prop51ColorIndex
 90
      256
102
RTVSPost2010Prop51ColorRGB
 90
-16777216
102
RTVSPost2010PropOp51
 70
     0
102
RTVSPost2010Prop52
140
1.0
102
RTVSPost2010PropOp52
 70
     0
102
RTVSPost2010Prop53
 90
        2
102
RTVSPost2010PropOp53
 70
     1
102
RTVSPost2010Prop54
  1
strokes_ogs.tif
102
RTVSPost2010PropOp54
 70
     1
102
RTVSPost2010Prop55
280
     0
102
RTVSPost2010PropOp55
 70
     1
102
RTVSPost2010Prop56
140
1.0
102
RTVSPost2010PropOp56
 70
     1
102
RTVSPost2010Prop57
140
1.0
102
RTVSPost2010PropOp57
 70
     1
102
RTVSPropertyOp0
 70
     1
102
RTVSPropertyOp1
 70
     1
102
RTVSPropertyOp2
 70
     1
102
RTVSPropertyOp3
 70
     1
102
RTVSPropertyOp4
 70
     1
102
RTVSPropertyOp5
 70
     1
102
RTVSPropertyOp6
 70
     1
102
RTVSPropertyOp7
 70
     1
102
RTVSPropertyOp8
 70
     1
102
RTVSPropertyOp9
 70
     1
102
RTVSPropertyOp10
 70
     1
102
RTVSPropertyOp11
 70
     1
102
RTVSPropertyOp12
 70
     1
102
RTVSPropertyOp13
 70
     1
102
RTVSPropertyOp14
 70
     1
102
RTVSPropertyOp15
 70
     1
102
RTVSPropertyOp16
 70
     1
102
RTVSPropertyOp17
 70
     1
102
RTVSPropertyOp18
 70
     1
102
RTVSPropertyOp19
 70
     1
102
RTVSPropertyOp20
 70
     1
102
RTVSPropertyOp21
 70
     1
102
RTVSPropertyOp22
 70
     1
102
RTVSPropertyOp23
 70
     1
102
RTVSPropertyOp24
 70
     1
102
RTVSPropertyOp25
 70
     1
102
RTVSPropertyOp26
 70
     1
102
RTVSPropertyOp27
 70
     1
102
RTVSPropertyOp28
 70
     1
102
RTVSPropertyOp29
 70
     1
102
RTVSPropertyOp30
 70
     1
102
RTVSPropertyOp31
 70
     1
102
RTVSPropertyOp32
 70
     1
102
RTVSPropertyOp33
 70
     1
102
RTVSPropertyOp34
 70
     1
102
RTVSPropertyOp35
 70
     1
102
RTVSPropertyOp36
 70
     1
102
RTVSPropertyOp37
 70
     1
102
RTVSPropertyOp38
 70
     1
102
RTVSPropertyOp39
 70
     1
102
RTVSPropertyOp40
 70
     1
102
RTVSPropertyOp41
 70
     1
102
RTVSPropertyOp42
 70
     1
102
RTVSPropertyOp43
 70
     1
102
RTVSPropertyOp44
 70
     1
102
RTVSPropertyOp45
 70
     1
102
RTVSPropertyOp46
 70
     1
102
RTVSPropertyOp47
 70
     1
102
RTVSPropertyOp48
 70
     1
102
RTVSPropertyOp49
 70
     1
102
RTVSPropertyOp50
 70
     1
102
RTVSPropertyOp51
 70
     0
102
RTVSPropertyOp52
 70
     0
102
RTVSPropertyOp53
 70
     1
102
RTVSPropertyOp54
 70
     1
102
RTVSPropertyOp55
 70
     1
102
RTVSPropertyOp56
 70
     1
102
RTVSPropertyOp57
 70
     1
102
RTVSPropertyOp58
 70
     1
102
RTVSPropertyOp59
 70
     1
102
RTVSPropertyOp60
 70
     1
102
RTVSPropertyOp61
 70
     1
102
RTVSPropertyOp62
 70
     1
  0
XRECORD
  5
1345
102
{ACAD_REACTORS
330
1344
102
}
330
1344
100
AcDbXrecord
280
     1
102
RTVSPost2010Prop28
280
     0
102
RTVSPost2010PropOp28
 70
     1
102
RTVSPost2010Prop29
280
     1
102
RTVSPost2010PropOp29
 70
     1
102
RTVSPost2010Prop30
280
     1
102
RTVSPost2010PropOp30
 70
     1
102
RTVSPost2010Prop31
280
     0
102
RTVSPost2010PropOp31
 70
     1
102
RTVSPost2010Prop32
280
     0
102
RTVSPost2010PropOp32
 70
     1
102
RTVSPost2010Prop33
280
     0
102
RTVSPost2010PropOp33
 70
     1
102
RTVSPost2010Prop34
280
     0
102
RTVSPost2010PropOp34
 70
     1
102
RTVSPost2010Prop35
280
     0
102
RTVSPost2010PropOp35
 70
     1
102
RTVSPost2010Prop36
280
     0
102
RTVSPost2010PropOp36
 70
     1
102
RTVSPost2010Prop37
 90
       50
102
RTVSPost2010PropOp37
 70
     1
102
RTVSPost2010Prop38
140
0.0
102
RTVSPost2010PropOp38
 70
     1
102
RTVSPost2010Prop39
140
1.0
102
RTVSPost2010PropOp39
 70
     1
102
RTVSPost2010Prop40
 90
        0
102
RTVSPost2010PropOp40
 70
     1
102
RTVSPost2010Prop41ColorIndex
 90
       18
102
RTVSPost2010Prop41ColorRGB
 90
        0
102
RTVSPost2010PropOp41
 70
     1
102
RTVSPost2010Prop42
 90
       50
102
RTVSPost2010PropOp42
 70
     1
102
RTVSPost2010Prop43
 90
        3
102
RTVSPost2010PropOp43
 70
     1
102
RTVSPost2010Prop44ColorIndex
 90
        5
102
RTVSPost2010Prop44ColorRGB
 90
      255
102
RTVSPost2010PropOp44
 70
     1
102
RTVSPost2010Prop45
280
     0
102
RTVSPost2010PropOp45
 70
     1
102
RTVSPost2010Prop46
 90
       50
102
RTVSPost2010PropOp46
 70
     1
102
RTVSPost2010Prop47
 90
       50
102
RTVSPost2010PropOp47
 70
     1
102
RTVSPost2010Prop48
 90
       50
102
RTVSPost2010PropOp48
 70
     1
102
RTVSPost2010Prop49
280
     0
102
RTVSPost2010PropOp49
 70
     1
102
RTVSPost2010Prop50
 90
       50
102
RTVSPost2010PropOp50
 70
     1
102
RTVSPost2010Prop51ColorIndex
 90
      256
102
RTVSPost2010Prop51ColorRGB
 90
-16777216
102
RTVSPost2010PropOp51
 70
     0
102
RTVSPost2010Prop52
140
1.0
102
RTVSPost2010PropOp52
 70
     0
102
RTVSPost2010Prop53
 90
        2
102
RTVSPost2010PropOp53
 70
     1
102
RTVSPost2010Prop54
  1
strokes_ogs.tif
102
RTVSPost2010PropOp54
 70
     1
102
RTVSPost2010Prop55
280
     0
102
RTVSPost2010PropOp55
 70
     1
102
RTVSPost2010Prop56
140
1.0
102
RTVSPost2010PropOp56
 70
     1
102
RTVSPost2010Prop57
140
1.0
102
RTVSPost2010PropOp57
 70
     1
102
RTVSPropertyOp0
 70
     1
102
RTVSPropertyOp1
 70
     1
102
RTVSPropertyOp2
 70
     1
102
RTVSPropertyOp3
 70
     1
102
RTVSPropertyOp4
 70
     1
102
RTVSPropertyOp5
 70
     1
102
RTVSPropertyOp6
 70
     1
102
RTVSPropertyOp7
 70
     1
102
RTVSPropertyOp8
 70
     1
102
RTVSPropertyOp9
 70
     1
102
RTVSPropertyOp10
 70
     1
102
RTVSPropertyOp11
 70
     1
102
RTVSPropertyOp12
 70
     1
102
RTVSPropertyOp13
 70
     1
102
RTVSPropertyOp14
 70
     1
102
RTVSPropertyOp15
 70
     1
102
RTVSPropertyOp16
 70
     1
102
RTVSPropertyOp17
 70
     1
102
RTVSPropertyOp18
 70
     1
102
RTVSPropertyOp19
 70
     1
102
RTVSPropertyOp20
 70
     1
102
RTVSPropertyOp21
 70
     1
102
RTVSPropertyOp22
 70
     1
102
RTVSPropertyOp23
 70
     1
102
RTVSPropertyOp24
 70
     1
102
RTVSPropertyOp25
 70
     1
102
RTVSPropertyOp26
 70
     1
102
RTVSPropertyOp27
 70
     1
102
RTVSPropertyOp28
 70
     1
102
RTVSPropertyOp29
 70
     1
102
RTVSPropertyOp30
 70
     1
102
RTVSPropertyOp31
 70
     1
102
RTVSPropertyOp32
 70
     1
102
RTVSPropertyOp33
 70
     1
102
RTVSPropertyOp34
 70
     1
102
RTVSPropertyOp35
 70
     1
102
RTVSPropertyOp36
 70
     1
102
RTVSPropertyOp37
 70
     1
102
RTVSPropertyOp38
 70
     1
102
RTVSPropertyOp39
 70
     1
102
RTVSPropertyOp40
 70
     1
102
RTVSPropertyOp41
 70
     1
102
RTVSPropertyOp42
 70
     1
102
RTVSPropertyOp43
 70
     1
102
RTVSPropertyOp44
 70
     1
102
RTVSPropertyOp45
 70
     1
102
RTVSPropertyOp46
 70
     1
102
RTVSPropertyOp47
 70
     1
102
RTVSPropertyOp48
 70
     1
102
RTVSPropertyOp49
 70
     1
102
RTVSPropertyOp50
 70
     1
102
RTVSPropertyOp51
 70
     0
102
RTVSPropertyOp52
 70
     0
102
RTVSPropertyOp53
 70
     1
102
RTVSPropertyOp54
 70
     1
102
RTVSPropertyOp55
 70
     1
102
RTVSPropertyOp56
 70
     1
102
RTVSPropertyOp57
 70
     1
102
RTVSPropertyOp58
 70
     1
102
RTVSPropertyOp59
 70
     1
102
RTVSPropertyOp60
 70
     1
102
RTVSPropertyOp61
 70
     1
102
RTVSPropertyOp62
 70
     1
  0
XRECORD
  5
1362
102
{ACAD_REACTORS
330
1361
102
}
330
1361
100
AcDbXrecord
280
     1
102
RTVSPost2010Prop28
280
     0
102
RTVSPost2010PropOp28
 70
     1
102
RTVSPost2010Prop29
280
     1
102
RTVSPost2010PropOp29
 70
     1
102
RTVSPost2010Prop30
280
     1
102
RTVSPost2010PropOp30
 70
     1
102
RTVSPost2010Prop31
280
     0
102
RTVSPost2010PropOp31
 70
     1
102
RTVSPost2010Prop32
280
     0
102
RTVSPost2010PropOp32
 70
     1
102
RTVSPost2010Prop33
280
     0
102
RTVSPost2010PropOp33
 70
     1
102
RTVSPost2010Prop34
280
     0
102
RTVSPost2010PropOp34
 70
     1
102
RTVSPost2010Prop35
280
     0
102
RTVSPost2010PropOp35
 70
     1
102
RTVSPost2010Prop36
280
     0
102
RTVSPost2010PropOp36
 70
     1
102
RTVSPost2010Prop37
 90
       50
102
RTVSPost2010PropOp37
 70
     1
102
RTVSPost2010Prop38
140
0.0
102
RTVSPost2010PropOp38
 70
     1
102
RTVSPost2010Prop39
140
1.0
102
RTVSPost2010PropOp39
 70
     1
102
RTVSPost2010Prop40
 90
        0
102
RTVSPost2010PropOp40
 70
     1
102
RTVSPost2010Prop41ColorIndex
 90
       18
102
RTVSPost2010Prop41ColorRGB
 90
        0
102
RTVSPost2010PropOp41
 70
     1
102
RTVSPost2010Prop42
 90
       50
102
RTVSPost2010PropOp42
 70
     1
102
RTVSPost2010Prop43
 90
        3
102
RTVSPost2010PropOp43
 70
     1
102
RTVSPost2010Prop44ColorIndex
 90
        5
102
RTVSPost2010Prop44ColorRGB
 90
      255
102
RTVSPost2010PropOp44
 70
     1
102
RTVSPost2010Prop45
280
     0
102
RTVSPost2010PropOp45
 70
     1
102
RTVSPost2010Prop46
 90
       50
102
RTVSPost2010PropOp46
 70
     1
102
RTVSPost2010Prop47
 90
       50
102
RTVSPost2010PropOp47
 70
     1
102
RTVSPost2010Prop48
 90
       50
102
RTVSPost2010PropOp48
 70
     1
102
RTVSPost2010Prop49
280
     0
102
RTVSPost2010PropOp49
 70
     1
102
RTVSPost2010Prop50
 90
       50
102
RTVSPost2010PropOp50
 70
     1
102
RTVSPost2010Prop51ColorIndex
 90
      256
102
RTVSPost2010Prop51ColorRGB
 90
-16777216
102
RTVSPost2010PropOp51
 70
     0
102
RTVSPost2010Prop52
140
1.0
102
RTVSPost2010PropOp52
 70
     0
102
RTVSPost2010Prop53
 90
        2
102
RTVSPost2010PropOp53
 70
     1
102
RTVSPost2010Prop54
  1
strokes_ogs.tif
102
RTVSPost2010PropOp54
 70
     1
102
RTVSPost2010Prop55
280
     0
102
RTVSPost2010PropOp55
 70
     1
102
RTVSPost2010Prop56
140
1.0
102
RTVSPost2010PropOp56
 70
     1
102
RTVSPost2010Prop57
140
1.0
102
RTVSPost2010PropOp57
 70
     1
102
RTVSPropertyOp0
 70
     1
102
RTVSPropertyOp1
 70
     1
102
RTVSPropertyOp2
 70
     1
102
RTVSPropertyOp3
 70
     1
102
RTVSPropertyOp4
 70
     1
102
RTVSPropertyOp5
 70
     1
102
RTVSPropertyOp6
 70
     1
102
RTVSPropertyOp7
 70
     1
102
RTVSPropertyOp8
 70
     1
102
RTVSPropertyOp9
 70
     1
102
RTVSPropertyOp10
 70
     1
102
RTVSPropertyOp11
 70
     1
102
RTVSPropertyOp12
 70
     1
102
RTVSPropertyOp13
 70
     1
102
RTVSPropertyOp14
 70
     1
102
RTVSPropertyOp15
 70
     1
102
RTVSPropertyOp16
 70
     1
102
RTVSPropertyOp17
 70
     1
102
RTVSPropertyOp18
 70
     1
102
RTVSPropertyOp19
 70
     1
102
RTVSPropertyOp20
 70
     1
102
RTVSPropertyOp21
 70
     1
102
RTVSPropertyOp22
 70
     1
102
RTVSPropertyOp23
 70
     1
102
RTVSPropertyOp24
 70
     1
102
RTVSPropertyOp25
 70
     1
102
RTVSPropertyOp26
 70
     1
102
RTVSPropertyOp27
 70
     1
102
RTVSPropertyOp28
 70
     1
102
RTVSPropertyOp29
 70
     1
102
RTVSPropertyOp30
 70
     1
102
RTVSPropertyOp31
 70
     1
102
RTVSPropertyOp32
 70
     1
102
RTVSPropertyOp33
 70
     1
102
RTVSPropertyOp34
 70
     1
102
RTVSPropertyOp35
 70
     1
102
RTVSPropertyOp36
 70
     1
102
RTVSPropertyOp37
 70
     1
102
RTVSPropertyOp38
 70
     1
102
RTVSPropertyOp39
 70
     1
102
RTVSPropertyOp40
 70
     1
102
RTVSPropertyOp41
 70
     1
102
RTVSPropertyOp42
 70
     1
102
RTVSPropertyOp43
 70
     1
102
RTVSPropertyOp44
 70
     1
102
RTVSPropertyOp45
 70
     1
102
RTVSPropertyOp46
 70
     1
102
RTVSPropertyOp47
 70
     1
102
RTVSPropertyOp48
 70
     1
102
RTVSPropertyOp49
 70
     1
102
RTVSPropertyOp50
 70
     1
102
RTVSPropertyOp51
 70
     0
102
RTVSPropertyOp52
 70
     0
102
RTVSPropertyOp53
 70
     1
102
RTVSPropertyOp54
 70
     1
102
RTVSPropertyOp55
 70
     1
102
RTVSPropertyOp56
 70
     1
102
RTVSPropertyOp57
 70
     1
102
RTVSPropertyOp58
 70
     1
102
RTVSPropertyOp59
 70
     1
102
RTVSPropertyOp60
 70
     1
102
RTVSPropertyOp61
 70
     1
102
RTVSPropertyOp62
 70
     1
  0
XRECORD
  5
136E
102
{ACAD_REACTORS
330
136D
102
}
330
136D
100
AcDbXrecord
280
     1
102
RTVSPost2010Prop28
280
     0
102
RTVSPost2010PropOp28
 70
     0
102
RTVSPost2010Prop29
280
     1
102
RTVSPost2010PropOp29
 70
     0
102
RTVSPost2010Prop30
280
     1
102
RTVSPost2010PropOp30
 70
     0
102
RTVSPost2010Prop31
280
     0
102
RTVSPost2010PropOp31
 70
     0
102
RTVSPost2010Prop32
280
     0
102
RTVSPost2010PropOp32
 70
     0
102
RTVSPost2010Prop33
280
     0
102
RTVSPost2010PropOp33
 70
     0
102
RTVSPost2010Prop34
280
     0
102
RTVSPost2010PropOp34
 70
     0
102
RTVSPost2010Prop35
280
     0
102
RTVSPost2010PropOp35
 70
     0
102
RTVSPost2010Prop36
280
     0
102
RTVSPost2010PropOp36
 70
     0
102
RTVSPost2010Prop37
 90
       50
102
RTVSPost2010PropOp37
 70
     0
102
RTVSPost2010Prop38
140
0.0
102
RTVSPost2010PropOp38
 70
     0
102
RTVSPost2010Prop39
140
1.0
102
RTVSPost2010PropOp39
 70
     0
102
RTVSPost2010Prop40
 90
        0
102
RTVSPost2010PropOp40
 70
     0
102
RTVSPost2010Prop41ColorIndex
 90
       18
102
RTVSPost2010Prop41ColorRGB
 90
        0
102
RTVSPost2010PropOp41
 70
     0
102
RTVSPost2010Prop42
 90
       50
102
RTVSPost2010PropOp42
 70
     0
102
RTVSPost2010Prop43
 90
        3
102
RTVSPost2010PropOp43
 70
     0
102
RTVSPost2010Prop44ColorIndex
 90
        5
102
RTVSPost2010Prop44ColorRGB
 90
      255
102
RTVSPost2010PropOp44
 70
     0
102
RTVSPost2010Prop45
280
     0
102
RTVSPost2010PropOp45
 70
     0
102
RTVSPost2010Prop46
 90
       50
102
RTVSPost2010PropOp46
 70
     0
102
RTVSPost2010Prop47
 90
       50
102
RTVSPost2010PropOp47
 70
     0
102
RTVSPost2010Prop48
 90
       50
102
RTVSPost2010PropOp48
 70
     0
102
RTVSPost2010Prop49
280
     0
102
RTVSPost2010PropOp49
 70
     0
102
RTVSPost2010Prop50
 90
       50
102
RTVSPost2010PropOp50
 70
     0
102
RTVSPost2010Prop51ColorIndex
 90
      256
102
RTVSPost2010Prop51ColorRGB
 90
-16777216
102
RTVSPost2010PropOp51
 70
     0
102
RTVSPost2010Prop52
140
1.0
102
RTVSPost2010PropOp52
 70
     0
102
RTVSPost2010Prop53
 90
        2
102
RTVSPost2010PropOp53
 70
     0
102
RTVSPost2010Prop54
  1
strokes_ogs.tif
102
RTVSPost2010PropOp54
 70
     0
102
RTVSPost2010Prop55
280
     0
102
RTVSPost2010PropOp55
 70
     0
102
RTVSPost2010Prop56
140
1.0
102
RTVSPost2010PropOp56
 70
     0
102
RTVSPost2010Prop57
140
1.0
102
RTVSPost2010PropOp57
 70
     0
102
RTVSPropertyOp0
 70
     0
102
RTVSPropertyOp1
 70
     0
102
RTVSPropertyOp2
 70
     0
102
RTVSPropertyOp3
 70
     0
102
RTVSPropertyOp4
 70
     0
102
RTVSPropertyOp5
 70
     0
102
RTVSPropertyOp6
 70
     0
102
RTVSPropertyOp7
 70
     0
102
RTVSPropertyOp8
 70
     0
102
RTVSPropertyOp9
 70
     0
102
RTVSPropertyOp10
 70
     0
102
RTVSPropertyOp11
 70
     0
102
RTVSPropertyOp12
 70
     0
102
RTVSPropertyOp13
 70
     0
102
RTVSPropertyOp14
 70
     2
102
RTVSPropertyOp15
 70
     0
102
RTVSPropertyOp16
 70
     0
102
RTVSPropertyOp17
 70
     0
102
RTVSPropertyOp18
 70
     0
102
RTVSPropertyOp19
 70
     0
102
RTVSPropertyOp20
 70
     0
102
RTVSPropertyOp21
 70
     0
102
RTVSPropertyOp22
 70
     0
102
RTVSPropertyOp23
 70
     0
102
RTVSPropertyOp24
 70
     0
102
RTVSPropertyOp25
 70
     0
102
RTVSPropertyOp26
 70
     0
102
RTVSPropertyOp27
 70
     0
102
RTVSPropertyOp28
 70
     0
102
RTVSPropertyOp29
 70
     0
102
RTVSPropertyOp30
 70
     0
102
RTVSPropertyOp31
 70
     0
102
RTVSPropertyOp32
 70
     0
102
RTVSPropertyOp33
 70
     0
102
RTVSPropertyOp34
 70
     0
102
RTVSPropertyOp35
 70
     0
102
RTVSPropertyOp36
 70
     0
102
RTVSPropertyOp37
 70
     0
102
RTVSPropertyOp38
 70
     0
102
RTVSPropertyOp39
 70
     0
102
RTVSPropertyOp40
 70
     0
102
RTVSPropertyOp41
 70
     0
102
RTVSPropertyOp42
 70
     0
102
RTVSPropertyOp43
 70
     0
102
RTVSPropertyOp44
 70
     0
102
RTVSPropertyOp45
 70
     0
102
RTVSPropertyOp46
 70
     0
102
RTVSPropertyOp47
 70
     0
102
RTVSPropertyOp48
 70
     0
102
RTVSPropertyOp49
 70
     0
102
RTVSPropertyOp50
 70
     0
102
RTVSPropertyOp51
 70
     0
102
RTVSPropertyOp52
 70
     0
102
RTVSPropertyOp53
 70
     0
102
RTVSPropertyOp54
 70
     0
102
RTVSPropertyOp55
 70
     0
102
RTVSPropertyOp56
 70
     0
102
RTVSPropertyOp57
 70
     0
102
RTVSPropertyOp58
 70
     0
102
RTVSPropertyOp59
 70
     0
102
RTVSPropertyOp60
 70
     0
102
RTVSPropertyOp61
 70
     0
102
RTVSPropertyOp62
 70
     0
  0
XRECORD
  5
1359
102
{ACAD_REACTORS
330
1358
102
}
330
1358
100
AcDbXrecord
280
     1
102
RTVSPost2010Prop28
280
     0
102
RTVSPost2010PropOp28
 70
     1
102
RTVSPost2010Prop29
280
     1
102
RTVSPost2010PropOp29
 70
     1
102
RTVSPost2010Prop30
280
     1
102
RTVSPost2010PropOp30
 70
     1
102
RTVSPost2010Prop31
280
     0
102
RTVSPost2010PropOp31
 70
     1
102
RTVSPost2010Prop32
280
     0
102
RTVSPost2010PropOp32
 70
     1
102
RTVSPost2010Prop33
280
     0
102
RTVSPost2010PropOp33
 70
     1
102
RTVSPost2010Prop34
280
     0
102
RTVSPost2010PropOp34
 70
     1
102
RTVSPost2010Prop35
280
     0
102
RTVSPost2010PropOp35
 70
     1
102
RTVSPost2010Prop36
280
     0
102
RTVSPost2010PropOp36
 70
     1
102
RTVSPost2010Prop37
 90
       50
102
RTVSPost2010PropOp37
 70
     1
102
RTVSPost2010Prop38
140
0.0
102
RTVSPost2010PropOp38
 70
     1
102
RTVSPost2010Prop39
140
1.0
102
RTVSPost2010PropOp39
 70
     1
102
RTVSPost2010Prop40
 90
        0
102
RTVSPost2010PropOp40
 70
     1
102
RTVSPost2010Prop41ColorIndex
 90
       18
102
RTVSPost2010Prop41ColorRGB
 90
        0
102
RTVSPost2010PropOp41
 70
     1
102
RTVSPost2010Prop42
 90
       50
102
RTVSPost2010PropOp42
 70
     1
102
RTVSPost2010Prop43
 90
        3
102
RTVSPost2010PropOp43
 70
     1
102
RTVSPost2010Prop44ColorIndex
 90
        5
102
RTVSPost2010Prop44ColorRGB
 90
      255
102
RTVSPost2010PropOp44
 70
     1
102
RTVSPost2010Prop45
280
     0
102
RTVSPost2010PropOp45
 70
     1
102
RTVSPost2010Prop46
 90
       50
102
RTVSPost2010PropOp46
 70
     1
102
RTVSPost2010Prop47
 90
       50
102
RTVSPost2010PropOp47
 70
     1
102
RTVSPost2010Prop48
 90
       50
102
RTVSPost2010PropOp48
 70
     1
102
RTVSPost2010Prop49
280
     0
102
RTVSPost2010PropOp49
 70
     1
102
RTVSPost2010Prop50
 90
       50
102
RTVSPost2010PropOp50
 70
     1
102
RTVSPost2010Prop51ColorIndex
 90
      256
102
RTVSPost2010Prop51ColorRGB
 90
-16777216
102
RTVSPost2010PropOp51
 70
     0
102
RTVSPost2010Prop52
140
1.0
102
RTVSPost2010PropOp52
 70
     0
102
RTVSPost2010Prop53
 90
        2
102
RTVSPost2010PropOp53
 70
     1
102
RTVSPost2010Prop54
  1
strokes_ogs.tif
102
RTVSPost2010PropOp54
 70
     1
102
RTVSPost2010Prop55
280
     0
102
RTVSPost2010PropOp55
 70
     1
102
RTVSPost2010Prop56
140
1.0
102
RTVSPost2010PropOp56
 70
     1
102
RTVSPost2010Prop57
140
1.0
102
RTVSPost2010PropOp57
 70
     1
102
RTVSPropertyOp0
 70
     1
102
RTVSPropertyOp1
 70
     1
102
RTVSPropertyOp2
 70
     1
102
RTVSPropertyOp3
 70
     1
102
RTVSPropertyOp4
 70
     1
102
RTVSPropertyOp5
 70
     1
102
RTVSPropertyOp6
 70
     1
102
RTVSPropertyOp7
 70
     1
102
RTVSPropertyOp8
 70
     1
102
RTVSPropertyOp9
 70
     1
102
RTVSPropertyOp10
 70
     1
102
RTVSPropertyOp11
 70
     1
102
RTVSPropertyOp12
 70
     1
102
RTVSPropertyOp13
 70
     1
102
RTVSPropertyOp14
 70
     1
102
RTVSPropertyOp15
 70
     1
102
RTVSPropertyOp16
 70
     1
102
RTVSPropertyOp17
 70
     1
102
RTVSPropertyOp18
 70
     1
102
RTVSPropertyOp19
 70
     1
102
RTVSPropertyOp20
 70
     1
102
RTVSPropertyOp21
 70
     1
102
RTVSPropertyOp22
 70
     1
102
RTVSPropertyOp23
 70
     1
102
RTVSPropertyOp24
 70
     1
102
RTVSPropertyOp25
 70
     1
102
RTVSPropertyOp26
 70
     1
102
RTVSPropertyOp27
 70
     1
102
RTVSPropertyOp28
 70
     1
102
RTVSPropertyOp29
 70
     1
102
RTVSPropertyOp30
 70
     1
102
RTVSPropertyOp31
 70
     1
102
RTVSPropertyOp32
 70
     1
102
RTVSPropertyOp33
 70
     1
102
RTVSPropertyOp34
 70
     1
102
RTVSPropertyOp35
 70
     1
102
RTVSPropertyOp36
 70
     1
102
RTVSPropertyOp37
 70
     1
102
RTVSPropertyOp38
 70
     1
102
RTVSPropertyOp39
 70
     1
102
RTVSPropertyOp40
 70
     1
102
RTVSPropertyOp41
 70
     1
102
RTVSPropertyOp42
 70
     1
102
RTVSPropertyOp43
 70
     1
102
RTVSPropertyOp44
 70
     1
102
RTVSPropertyOp45
 70
     1
102
RTVSPropertyOp46
 70
     1
102
RTVSPropertyOp47
 70
     1
102
RTVSPropertyOp48
 70
     1
102
RTVSPropertyOp49
 70
     1
102
RTVSPropertyOp50
 70
     1
102
RTVSPropertyOp51
 70
     0
102
RTVSPropertyOp52
 70
     0
102
RTVSPropertyOp53
 70
     1
102
RTVSPropertyOp54
 70
     1
102
RTVSPropertyOp55
 70
     1
102
RTVSPropertyOp56
 70
     1
102
RTVSPropertyOp57
 70
     1
102
RTVSPropertyOp58
 70
     1
102
RTVSPropertyOp59
 70
     1
102
RTVSPropertyOp60
 70
     1
102
RTVSPropertyOp61
 70
     1
102
RTVSPropertyOp62
 70
     1
  0
XRECORD
  5
1370
102
{ACAD_REACTORS
330
136F
102
}
330
136F
100
AcDbXrecord
280
     1
102
RTVSPost2010Prop28
280
     0
102
RTVSPost2010PropOp28
 70
     0
102
RTVSPost2010Prop29
280
     1
102
RTVSPost2010PropOp29
 70
     0
102
RTVSPost2010Prop30
280
     1
102
RTVSPost2010PropOp30
 70
     0
102
RTVSPost2010Prop31
280
     0
102
RTVSPost2010PropOp31
 70
     0
102
RTVSPost2010Prop32
280
     0
102
RTVSPost2010PropOp32
 70
     0
102
RTVSPost2010Prop33
280
     0
102
RTVSPost2010PropOp33
 70
     0
102
RTVSPost2010Prop34
280
     0
102
RTVSPost2010PropOp34
 70
     0
102
RTVSPost2010Prop35
280
     0
102
RTVSPost2010PropOp35
 70
     0
102
RTVSPost2010Prop36
280
     0
102
RTVSPost2010PropOp36
 70
     0
102
RTVSPost2010Prop37
 90
       50
102
RTVSPost2010PropOp37
 70
     0
102
RTVSPost2010Prop38
140
0.0
102
RTVSPost2010PropOp38
 70
     0
102
RTVSPost2010Prop39
140
1.0
102
RTVSPost2010PropOp39
 70
     0
102
RTVSPost2010Prop40
 90
        0
102
RTVSPost2010PropOp40
 70
     0
102
RTVSPost2010Prop41ColorIndex
 90
       18
102
RTVSPost2010Prop41ColorRGB
 90
        0
102
RTVSPost2010PropOp41
 70
     0
102
RTVSPost2010Prop42
 90
       50
102
RTVSPost2010PropOp42
 70
     0
102
RTVSPost2010Prop43
 90
        3
102
RTVSPost2010PropOp43
 70
     0
102
RTVSPost2010Prop44ColorIndex
 90
        5
102
RTVSPost2010Prop44ColorRGB
 90
      255
102
RTVSPost2010PropOp44
 70
     0
102
RTVSPost2010Prop45
280
     0
102
RTVSPost2010PropOp45
 70
     0
102
RTVSPost2010Prop46
 90
       50
102
RTVSPost2010PropOp46
 70
     0
102
RTVSPost2010Prop47
 90
       50
102
RTVSPost2010PropOp47
 70
     0
102
RTVSPost2010Prop48
 90
       50
102
RTVSPost2010PropOp48
 70
     0
102
RTVSPost2010Prop49
280
     0
102
RTVSPost2010PropOp49
 70
     0
102
RTVSPost2010Prop50
 90
       50
102
RTVSPost2010PropOp50
 70
     0
102
RTVSPost2010Prop51ColorIndex
 90
      256
102
RTVSPost2010Prop51ColorRGB
 90
-16777216
102
RTVSPost2010PropOp51
 70
     0
102
RTVSPost2010Prop52
140
1.0
102
RTVSPost2010PropOp52
 70
     0
102
RTVSPost2010Prop53
 90
        2
102
RTVSPost2010PropOp53
 70
     0
102
RTVSPost2010Prop54
  1
strokes_ogs.tif
102
RTVSPost2010PropOp54
 70
     0
102
RTVSPost2010Prop55
280
     0
102
RTVSPost2010PropOp55
 70
     0
102
RTVSPost2010Prop56
140
1.0
102
RTVSPost2010PropOp56
 70
     0
102
RTVSPost2010Prop57
140
1.0
102
RTVSPost2010PropOp57
 70
     0
102
RTVSPropertyOp0
 70
     0
102
RTVSPropertyOp1
 70
     0
102
RTVSPropertyOp2
 70
     0
102
RTVSPropertyOp3
 70
     0
102
RTVSPropertyOp4
 70
     0
102
RTVSPropertyOp5
 70
     0
102
RTVSPropertyOp6
 70
     0
102
RTVSPropertyOp7
 70
     0
102
RTVSPropertyOp8
 70
     0
102
RTVSPropertyOp9
 70
     0
102
RTVSPropertyOp10
 70
     0
102
RTVSPropertyOp11
 70
     0
102
RTVSPropertyOp12
 70
     0
102
RTVSPropertyOp13
 70
     0
102
RTVSPropertyOp14
 70
     2
102
RTVSPropertyOp15
 70
     0
102
RTVSPropertyOp16
 70
     0
102
RTVSPropertyOp17
 70
     0
102
RTVSPropertyOp18
 70
     0
102
RTVSPropertyOp19
 70
     0
102
RTVSPropertyOp20
 70
     0
102
RTVSPropertyOp21
 70
     0
102
RTVSPropertyOp22
 70
     0
102
RTVSPropertyOp23
 70
     0
102
RTVSPropertyOp24
 70
     0
102
RTVSPropertyOp25
 70
     0
102
RTVSPropertyOp26
 70
     0
102
RTVSPropertyOp27
 70
     0
102
RTVSPropertyOp28
 70
     0
102
RTVSPropertyOp29
 70
     0
102
RTVSPropertyOp30
 70
     0
102
RTVSPropertyOp31
 70
     0
102
RTVSPropertyOp32
 70
     0
102
RTVSPropertyOp33
 70
     0
102
RTVSPropertyOp34
 70
     0
102
RTVSPropertyOp35
 70
     0
102
RTVSPropertyOp36
 70
     0
102
RTVSPropertyOp37
 70
     0
102
RTVSPropertyOp38
 70
     0
102
RTVSPropertyOp39
 70
     0
102
RTVSPropertyOp40
 70
     0
102
RTVSPropertyOp41
 70
     0
102
RTVSPropertyOp42
 70
     0
102
RTVSPropertyOp43
 70
     0
102
RTVSPropertyOp44
 70
     0
102
RTVSPropertyOp45
 70
     0
102
RTVSPropertyOp46
 70
     0
102
RTVSPropertyOp47
 70
     0
102
RTVSPropertyOp48
 70
     0
102
RTVSPropertyOp49
 70
     0
102
RTVSPropertyOp50
 70
     0
102
RTVSPropertyOp51
 70
     0
102
RTVSPropertyOp52
 70
     0
102
RTVSPropertyOp53
 70
     0
102
RTVSPropertyOp54
 70
     0
102
RTVSPropertyOp55
 70
     0
102
RTVSPropertyOp56
 70
     0
102
RTVSPropertyOp57
 70
     0
102
RTVSPropertyOp58
 70
     0
102
RTVSPropertyOp59
 70
     0
102
RTVSPropertyOp60
 70
     0
102
RTVSPropertyOp61
 70
     0
102
RTVSPropertyOp62
 70
     0
  0
XRECORD
  5
1351
102
{ACAD_REACTORS
330
1350
102
}
330
1350
100
AcDbXrecord
280
     1
102
RTVSPost2010Prop28
280
     0
102
RTVSPost2010PropOp28
 70
     1
102
RTVSPost2010Prop29
280
     1
102
RTVSPost2010PropOp29
 70
     1
102
RTVSPost2010Prop30
280
     1
102
RTVSPost2010PropOp30
 70
     1
102
RTVSPost2010Prop31
280
     0
102
RTVSPost2010PropOp31
 70
     1
102
RTVSPost2010Prop32
280
     0
102
RTVSPost2010PropOp32
 70
     1
102
RTVSPost2010Prop33
280
     0
102
RTVSPost2010PropOp33
 70
     1
102
RTVSPost2010Prop34
280
     0
102
RTVSPost2010PropOp34
 70
     1
102
RTVSPost2010Prop35
280
     0
102
RTVSPost2010PropOp35
 70
     1
102
RTVSPost2010Prop36
280
     0
102
RTVSPost2010PropOp36
 70
     1
102
RTVSPost2010Prop37
 90
       50
102
RTVSPost2010PropOp37
 70
     1
102
RTVSPost2010Prop38
140
0.0
102
RTVSPost2010PropOp38
 70
     1
102
RTVSPost2010Prop39
140
1.0
102
RTVSPost2010PropOp39
 70
     1
102
RTVSPost2010Prop40
 90
        0
102
RTVSPost2010PropOp40
 70
     1
102
RTVSPost2010Prop41ColorIndex
 90
       18
102
RTVSPost2010Prop41ColorRGB
 90
        0
102
RTVSPost2010PropOp41
 70
     1
102
RTVSPost2010Prop42
 90
       50
102
RTVSPost2010PropOp42
 70
     1
102
RTVSPost2010Prop43
 90
        3
102
RTVSPost2010PropOp43
 70
     1
102
RTVSPost2010Prop44ColorIndex
 90
        5
102
RTVSPost2010Prop44ColorRGB
 90
      255
102
RTVSPost2010PropOp44
 70
     1
102
RTVSPost2010Prop45
280
     0
102
RTVSPost2010PropOp45
 70
     1
102
RTVSPost2010Prop46
 90
       50
102
RTVSPost2010PropOp46
 70
     1
102
RTVSPost2010Prop47
 90
       50
102
RTVSPost2010PropOp47
 70
     1
102
RTVSPost2010Prop48
 90
       50
102
RTVSPost2010PropOp48
 70
     1
102
RTVSPost2010Prop49
280
     0
102
RTVSPost2010PropOp49
 70
     1
102
RTVSPost2010Prop50
 90
       50
102
RTVSPost2010PropOp50
 70
     1
102
RTVSPost2010Prop51ColorIndex
 90
      256
102
RTVSPost2010Prop51ColorRGB
 90
-16777216
102
RTVSPost2010PropOp51
 70
     0
102
RTVSPost2010Prop52
140
1.0
102
RTVSPost2010PropOp52
 70
     0
102
RTVSPost2010Prop53
 90
        2
102
RTVSPost2010PropOp53
 70
     1
102
RTVSPost2010Prop54
  1
strokes_ogs.tif
102
RTVSPost2010PropOp54
 70
     1
102
RTVSPost2010Prop55
280
     0
102
RTVSPost2010PropOp55
 70
     1
102
RTVSPost2010Prop56
140
1.0
102
RTVSPost2010PropOp56
 70
     1
102
RTVSPost2010Prop57
140
1.0
102
RTVSPost2010PropOp57
 70
     1
102
RTVSPropertyOp0
 70
     1
102
RTVSPropertyOp1
 70
     1
102
RTVSPropertyOp2
 70
     1
102
RTVSPropertyOp3
 70
     1
102
RTVSPropertyOp4
 70
     1
102
RTVSPropertyOp5
 70
     1
102
RTVSPropertyOp6
 70
     1
102
RTVSPropertyOp7
 70
     1
102
RTVSPropertyOp8
 70
     1
102
RTVSPropertyOp9
 70
     1
102
RTVSPropertyOp10
 70
     1
102
RTVSPropertyOp11
 70
     1
102
RTVSPropertyOp12
 70
     1
102
RTVSPropertyOp13
 70
     1
102
RTVSPropertyOp14
 70
     1
102
RTVSPropertyOp15
 70
     1
102
RTVSPropertyOp16
 70
     1
102
RTVSPropertyOp17
 70
     1
102
RTVSPropertyOp18
 70
     1
102
RTVSPropertyOp19
 70
     1
102
RTVSPropertyOp20
 70
     1
102
RTVSPropertyOp21
 70
     1
102
RTVSPropertyOp22
 70
     1
102
RTVSPropertyOp23
 70
     1
102
RTVSPropertyOp24
 70
     1
102
RTVSPropertyOp25
 70
     1
102
RTVSPropertyOp26
 70
     1
102
RTVSPropertyOp27
 70
     1
102
RTVSPropertyOp28
 70
     1
102
RTVSPropertyOp29
 70
     1
102
RTVSPropertyOp30
 70
     1
102
RTVSPropertyOp31
 70
     1
102
RTVSPropertyOp32
 70
     1
102
RTVSPropertyOp33
 70
     1
102
RTVSPropertyOp34
 70
     1
102
RTVSPropertyOp35
 70
     1
102
RTVSPropertyOp36
 70
     1
102
RTVSPropertyOp37
 70
     1
102
RTVSPropertyOp38
 70
     1
102
RTVSPropertyOp39
 70
     1
102
RTVSPropertyOp40
 70
     1
102
RTVSPropertyOp41
 70
     1
102
RTVSPropertyOp42
 70
     1
102
RTVSPropertyOp43
 70
     1
102
RTVSPropertyOp44
 70
     1
102
RTVSPropertyOp45
 70
     1
102
RTVSPropertyOp46
 70
     1
102
RTVSPropertyOp47
 70
     1
102
RTVSPropertyOp48
 70
     1
102
RTVSPropertyOp49
 70
     1
102
RTVSPropertyOp50
 70
     1
102
RTVSPropertyOp51
 70
     0
102
RTVSPropertyOp52
 70
     0
102
RTVSPropertyOp53
 70
     1
102
RTVSPropertyOp54
 70
     1
102
RTVSPropertyOp55
 70
     1
102
RTVSPropertyOp56
 70
     1
102
RTVSPropertyOp57
 70
     1
102
RTVSPropertyOp58
 70
     1
102
RTVSPropertyOp59
 70
     1
102
RTVSPropertyOp60
 70
     1
102
RTVSPropertyOp61
 70
     1
102
RTVSPropertyOp62
 70
     1
  0
XRECORD
  5
136C
102
{ACAD_REACTORS
330
136B
102
}
330
136B
100
AcDbXrecord
280
     1
102
RTVSPost2010Prop28
280
     0
102
RTVSPost2010PropOp28
 70
     1
102
RTVSPost2010Prop29
280
     1
102
RTVSPost2010PropOp29
 70
     1
102
RTVSPost2010Prop30
280
     1
102
RTVSPost2010PropOp30
 70
     1
102
RTVSPost2010Prop31
280
     0
102
RTVSPost2010PropOp31
 70
     1
102
RTVSPost2010Prop32
280
     0
102
RTVSPost2010PropOp32
 70
     1
102
RTVSPost2010Prop33
280
     0
102
RTVSPost2010PropOp33
 70
     1
102
RTVSPost2010Prop34
280
     0
102
RTVSPost2010PropOp34
 70
     1
102
RTVSPost2010Prop35
280
     0
102
RTVSPost2010PropOp35
 70
     1
102
RTVSPost2010Prop36
280
     0
102
RTVSPost2010PropOp36
 70
     1
102
RTVSPost2010Prop37
 90
       50
102
RTVSPost2010PropOp37
 70
     1
102
RTVSPost2010Prop38
140
0.0
102
RTVSPost2010PropOp38
 70
     1
102
RTVSPost2010Prop39
140
1.0
102
RTVSPost2010PropOp39
 70
     1
102
RTVSPost2010Prop40
 90
        0
102
RTVSPost2010PropOp40
 70
     1
102
RTVSPost2010Prop41ColorIndex
 90
       18
102
RTVSPost2010Prop41ColorRGB
 90
        0
102
RTVSPost2010PropOp41
 70
     1
102
RTVSPost2010Prop42
 90
       50
102
RTVSPost2010PropOp42
 70
     1
102
RTVSPost2010Prop43
 90
        3
102
RTVSPost2010PropOp43
 70
     1
102
RTVSPost2010Prop44ColorIndex
 90
        5
102
RTVSPost2010Prop44ColorRGB
 90
      255
102
RTVSPost2010PropOp44
 70
     1
102
RTVSPost2010Prop45
280
     0
102
RTVSPost2010PropOp45
 70
     1
102
RTVSPost2010Prop46
 90
       50
102
RTVSPost2010PropOp46
 70
     1
102
RTVSPost2010Prop47
 90
       50
102
RTVSPost2010PropOp47
 70
     1
102
RTVSPost2010Prop48
 90
       50
102
RTVSPost2010PropOp48
 70
     1
102
RTVSPost2010Prop49
280
     0
102
RTVSPost2010PropOp49
 70
     1
102
RTVSPost2010Prop50
 90
       50
102
RTVSPost2010PropOp50
 70
     1
102
RTVSPost2010Prop51ColorIndex
 90
      256
102
RTVSPost2010Prop51ColorRGB
 90
-16777216
102
RTVSPost2010PropOp51
 70
     0
102
RTVSPost2010Prop52
140
1.0
102
RTVSPost2010PropOp52
 70
     0
102
RTVSPost2010Prop53
 90
        2
102
RTVSPost2010PropOp53
 70
     1
102
RTVSPost2010Prop54
  1
strokes_ogs.tif
102
RTVSPost2010PropOp54
 70
     1
102
RTVSPost2010Prop55
280
     0
102
RTVSPost2010PropOp55
 70
     1
102
RTVSPost2010Prop56
140
1.0
102
RTVSPost2010PropOp56
 70
     1
102
RTVSPost2010Prop57
140
1.0
102
RTVSPost2010PropOp57
 70
     1
102
RTVSPropertyOp0
 70
     1
102
RTVSPropertyOp1
 70
     1
102
RTVSPropertyOp2
 70
     1
102
RTVSPropertyOp3
 70
     1
102
RTVSPropertyOp4
 70
     1
102
RTVSPropertyOp5
 70
     1
102
RTVSPropertyOp6
 70
     1
102
RTVSPropertyOp7
 70
     1
102
RTVSPropertyOp8
 70
     1
102
RTVSPropertyOp9
 70
     1
102
RTVSPropertyOp10
 70
     1
102
RTVSPropertyOp11
 70
     1
102
RTVSPropertyOp12
 70
     1
102
RTVSPropertyOp13
 70
     1
102
RTVSPropertyOp14
 70
     1
102
RTVSPropertyOp15
 70
     1
102
RTVSPropertyOp16
 70
     1
102
RTVSPropertyOp17
 70
     1
102
RTVSPropertyOp18
 70
     1
102
RTVSPropertyOp19
 70
     1
102
RTVSPropertyOp20
 70
     1
102
RTVSPropertyOp21
 70
     1
102
RTVSPropertyOp22
 70
     1
102
RTVSPropertyOp23
 70
     1
102
RTVSPropertyOp24
 70
     1
102
RTVSPropertyOp25
 70
     1
102
RTVSPropertyOp26
 70
     1
102
RTVSPropertyOp27
 70
     1
102
RTVSPropertyOp28
 70
     1
102
RTVSPropertyOp29
 70
     1
102
RTVSPropertyOp30
 70
     1
102
RTVSPropertyOp31
 70
     1
102
RTVSPropertyOp32
 70
     1
102
RTVSPropertyOp33
 70
     1
102
RTVSPropertyOp34
 70
     1
102
RTVSPropertyOp35
 70
     1
102
RTVSPropertyOp36
 70
     1
102
RTVSPropertyOp37
 70
     1
102
RTVSPropertyOp38
 70
     1
102
RTVSPropertyOp39
 70
     1
102
RTVSPropertyOp40
 70
     1
102
RTVSPropertyOp41
 70
     1
102
RTVSPropertyOp42
 70
     1
102
RTVSPropertyOp43
 70
     1
102
RTVSPropertyOp44
 70
     1
102
RTVSPropertyOp45
 70
     1
102
RTVSPropertyOp46
 70
     1
102
RTVSPropertyOp47
 70
     1
102
RTVSPropertyOp48
 70
     1
102
RTVSPropertyOp49
 70
     1
102
RTVSPropertyOp50
 70
     1
102
RTVSPropertyOp51
 70
     0
102
RTVSPropertyOp52
 70
     0
102
RTVSPropertyOp53
 70
     1
102
RTVSPropertyOp54
 70
     1
102
RTVSPropertyOp55
 70
     1
102
RTVSPropertyOp56
 70
     1
102
RTVSPropertyOp57
 70
     1
102
RTVSPropertyOp58
 70
     1
102
RTVSPropertyOp59
 70
     1
102
RTVSPropertyOp60
 70
     1
102
RTVSPropertyOp61
 70
     1
102
RTVSPropertyOp62
 70
     1
  0
XRECORD
  5
136A
102
{ACAD_REACTORS
330
1369
102
}
330
1369
100
AcDbXrecord
280
     1
102
RTVSPost2010Prop28
280
     0
102
RTVSPost2010PropOp28
 70
     1
102
RTVSPost2010Prop29
280
     1
102
RTVSPost2010PropOp29
 70
     1
102
RTVSPost2010Prop30
280
     1
102
RTVSPost2010PropOp30
 70
     1
102
RTVSPost2010Prop31
280
     0
102
RTVSPost2010PropOp31
 70
     1
102
RTVSPost2010Prop32
280
     0
102
RTVSPost2010PropOp32
 70
     1
102
RTVSPost2010Prop33
280
     0
102
RTVSPost2010PropOp33
 70
     1
102
RTVSPost2010Prop34
280
     0
102
RTVSPost2010PropOp34
 70
     1
102
RTVSPost2010Prop35
280
     0
102
RTVSPost2010PropOp35
 70
     1
102
RTVSPost2010Prop36
280
     0
102
RTVSPost2010PropOp36
 70
     1
102
RTVSPost2010Prop37
 90
       50
102
RTVSPost2010PropOp37
 70
     1
102
RTVSPost2010Prop38
140
0.0
102
RTVSPost2010PropOp38
 70
     1
102
RTVSPost2010Prop39
140
1.0
102
RTVSPost2010PropOp39
 70
     1
102
RTVSPost2010Prop40
 90
        0
102
RTVSPost2010PropOp40
 70
     1
102
RTVSPost2010Prop41ColorIndex
 90
       18
102
RTVSPost2010Prop41ColorRGB
 90
        0
102
RTVSPost2010PropOp41
 70
     1
102
RTVSPost2010Prop42
 90
       50
102
RTVSPost2010PropOp42
 70
     1
102
RTVSPost2010Prop43
 90
        3
102
RTVSPost2010PropOp43
 70
     1
102
RTVSPost2010Prop44ColorIndex
 90
        5
102
RTVSPost2010Prop44ColorRGB
 90
      255
102
RTVSPost2010PropOp44
 70
     1
102
RTVSPost2010Prop45
280
     0
102
RTVSPost2010PropOp45
 70
     1
102
RTVSPost2010Prop46
 90
       50
102
RTVSPost2010PropOp46
 70
     1
102
RTVSPost2010Prop47
 90
       50
102
RTVSPost2010PropOp47
 70
     1
102
RTVSPost2010Prop48
 90
       50
102
RTVSPost2010PropOp48
 70
     1
102
RTVSPost2010Prop49
280
     0
102
RTVSPost2010PropOp49
 70
     1
102
RTVSPost2010Prop50
 90
       50
102
RTVSPost2010PropOp50
 70
     1
102
RTVSPost2010Prop51ColorIndex
 90
      256
102
RTVSPost2010Prop51ColorRGB
 90
-16777216
102
RTVSPost2010PropOp51
 70
     0
102
RTVSPost2010Prop52
140
1.0
102
RTVSPost2010PropOp52
 70
     0
102
RTVSPost2010Prop53
 90
        2
102
RTVSPost2010PropOp53
 70
     1
102
RTVSPost2010Prop54
  1
strokes_ogs.tif
102
RTVSPost2010PropOp54
 70
     1
102
RTVSPost2010Prop55
280
     0
102
RTVSPost2010PropOp55
 70
     1
102
RTVSPost2010Prop56
140
1.0
102
RTVSPost2010PropOp56
 70
     1
102
RTVSPost2010Prop57
140
1.0
102
RTVSPost2010PropOp57
 70
     1
102
RTVSPropertyOp0
 70
     1
102
RTVSPropertyOp1
 70
     1
102
RTVSPropertyOp2
 70
     1
102
RTVSPropertyOp3
 70
     1
102
RTVSPropertyOp4
 70
     1
102
RTVSPropertyOp5
 70
     1
102
RTVSPropertyOp6
 70
     1
102
RTVSPropertyOp7
 70
     1
102
RTVSPropertyOp8
 70
     1
102
RTVSPropertyOp9
 70
     1
102
RTVSPropertyOp10
 70
     1
102
RTVSPropertyOp11
 70
     1
102
RTVSPropertyOp12
 70
     1
102
RTVSPropertyOp13
 70
     1
102
RTVSPropertyOp14
 70
     1
102
RTVSPropertyOp15
 70
     1
102
RTVSPropertyOp16
 70
     1
102
RTVSPropertyOp17
 70
     1
102
RTVSPropertyOp18
 70
     1
102
RTVSPropertyOp19
 70
     1
102
RTVSPropertyOp20
 70
     1
102
RTVSPropertyOp21
 70
     1
102
RTVSPropertyOp22
 70
     1
102
RTVSPropertyOp23
 70
     1
102
RTVSPropertyOp24
 70
     1
102
RTVSPropertyOp25
 70
     1
102
RTVSPropertyOp26
 70
     1
102
RTVSPropertyOp27
 70
     1
102
RTVSPropertyOp28
 70
     1
102
RTVSPropertyOp29
 70
     1
102
RTVSPropertyOp30
 70
     1
102
RTVSPropertyOp31
 70
     1
102
RTVSPropertyOp32
 70
     1
102
RTVSPropertyOp33
 70
     1
102
RTVSPropertyOp34
 70
     1
102
RTVSPropertyOp35
 70
     1
102
RTVSPropertyOp36
 70
     1
102
RTVSPropertyOp37
 70
     1
102
RTVSPropertyOp38
 70
     1
102
RTVSPropertyOp39
 70
     1
102
RTVSPropertyOp40
 70
     1
102
RTVSPropertyOp41
 70
     1
102
RTVSPropertyOp42
 70
     1
102
RTVSPropertyOp43
 70
     1
102
RTVSPropertyOp44
 70
     1
102
RTVSPropertyOp45
 70
     1
102
RTVSPropertyOp46
 70
     1
102
RTVSPropertyOp47
 70
     1
102
RTVSPropertyOp48
 70
     1
102
RTVSPropertyOp49
 70
     1
102
RTVSPropertyOp50
 70
     1
102
RTVSPropertyOp51
 70
     0
102
RTVSPropertyOp52
 70
     0
102
RTVSPropertyOp53
 70
     1
102
RTVSPropertyOp54
 70
     1
102
RTVSPropertyOp55
 70
     1
102
RTVSPropertyOp56
 70
     1
102
RTVSPropertyOp57
 70
     1
102
RTVSPropertyOp58
 70
     1
102
RTVSPropertyOp59
 70
     1
102
RTVSPropertyOp60
 70
     1
102
RTVSPropertyOp61
 70
     1
102
RTVSPropertyOp62
 70
     1
  0
XRECORD
  5
1364
102
{ACAD_REACTORS
330
1363
102
}
330
1363
100
AcDbXrecord
280
     1
102
RTVSPost2010Prop28
280
     0
102
RTVSPost2010PropOp28
 70
     1
102
RTVSPost2010Prop29
280
     1
102
RTVSPost2010PropOp29
 70
     1
102
RTVSPost2010Prop30
280
     1
102
RTVSPost2010PropOp30
 70
     1
102
RTVSPost2010Prop31
280
     0
102
RTVSPost2010PropOp31
 70
     1
102
RTVSPost2010Prop32
280
     0
102
RTVSPost2010PropOp32
 70
     1
102
RTVSPost2010Prop33
280
     0
102
RTVSPost2010PropOp33
 70
     1
102
RTVSPost2010Prop34
280
     0
102
RTVSPost2010PropOp34
 70
     1
102
RTVSPost2010Prop35
280
     0
102
RTVSPost2010PropOp35
 70
     1
102
RTVSPost2010Prop36
280
     0
102
RTVSPost2010PropOp36
 70
     1
102
RTVSPost2010Prop37
 90
       50
102
RTVSPost2010PropOp37
 70
     1
102
RTVSPost2010Prop38
140
0.0
102
RTVSPost2010PropOp38
 70
     1
102
RTVSPost2010Prop39
140
1.0
102
RTVSPost2010PropOp39
 70
     1
102
RTVSPost2010Prop40
 90
        0
102
RTVSPost2010PropOp40
 70
     1
102
RTVSPost2010Prop41ColorIndex
 90
       18
102
RTVSPost2010Prop41ColorRGB
 90
        0
102
RTVSPost2010PropOp41
 70
     1
102
RTVSPost2010Prop42
 90
       50
102
RTVSPost2010PropOp42
 70
     1
102
RTVSPost2010Prop43
 90
        3
102
RTVSPost2010PropOp43
 70
     1
102
RTVSPost2010Prop44ColorIndex
 90
        5
102
RTVSPost2010Prop44ColorRGB
 90
      255
102
RTVSPost2010PropOp44
 70
     1
102
RTVSPost2010Prop45
280
     0
102
RTVSPost2010PropOp45
 70
     1
102
RTVSPost2010Prop46
 90
       50
102
RTVSPost2010PropOp46
 70
     1
102
RTVSPost2010Prop47
 90
       50
102
RTVSPost2010PropOp47
 70
     1
102
RTVSPost2010Prop48
 90
       50
102
RTVSPost2010PropOp48
 70
     1
102
RTVSPost2010Prop49
280
     0
102
RTVSPost2010PropOp49
 70
     1
102
RTVSPost2010Prop50
 90
       50
102
RTVSPost2010PropOp50
 70
     1
102
RTVSPost2010Prop51ColorIndex
 90
      256
102
RTVSPost2010Prop51ColorRGB
 90
-16777216
102
RTVSPost2010PropOp51
 70
     0
102
RTVSPost2010Prop52
140
1.0
102
RTVSPost2010PropOp52
 70
     0
102
RTVSPost2010Prop53
 90
        2
102
RTVSPost2010PropOp53
 70
     1
102
RTVSPost2010Prop54
  1
strokes_ogs.tif
102
RTVSPost2010PropOp54
 70
     1
102
RTVSPost2010Prop55
280
     0
102
RTVSPost2010PropOp55
 70
     1
102
RTVSPost2010Prop56
140
1.0
102
RTVSPost2010PropOp56
 70
     1
102
RTVSPost2010Prop57
140
1.0
102
RTVSPost2010PropOp57
 70
     1
102
RTVSPropertyOp0
 70
     1
102
RTVSPropertyOp1
 70
     1
102
RTVSPropertyOp2
 70
     1
102
RTVSPropertyOp3
 70
     1
102
RTVSPropertyOp4
 70
     1
102
RTVSPropertyOp5
 70
     1
102
RTVSPropertyOp6
 70
     1
102
RTVSPropertyOp7
 70
     1
102
RTVSPropertyOp8
 70
     1
102
RTVSPropertyOp9
 70
     1
102
RTVSPropertyOp10
 70
     1
102
RTVSPropertyOp11
 70
     1
102
RTVSPropertyOp12
 70
     1
102
RTVSPropertyOp13
 70
     1
102
RTVSPropertyOp14
 70
     1
102
RTVSPropertyOp15
 70
     1
102
RTVSPropertyOp16
 70
     1
102
RTVSPropertyOp17
 70
     1
102
RTVSPropertyOp18
 70
     1
102
RTVSPropertyOp19
 70
     1
102
RTVSPropertyOp20
 70
     1
102
RTVSPropertyOp21
 70
     1
102
RTVSPropertyOp22
 70
     1
102
RTVSPropertyOp23
 70
     1
102
RTVSPropertyOp24
 70
     1
102
RTVSPropertyOp25
 70
     1
102
RTVSPropertyOp26
 70
     1
102
RTVSPropertyOp27
 70
     1
102
RTVSPropertyOp28
 70
     1
102
RTVSPropertyOp29
 70
     1
102
RTVSPropertyOp30
 70
     1
102
RTVSPropertyOp31
 70
     1
102
RTVSPropertyOp32
 70
     1
102
RTVSPropertyOp33
 70
     1
102
RTVSPropertyOp34
 70
     1
102
RTVSPropertyOp35
 70
     1
102
RTVSPropertyOp36
 70
     1
102
RTVSPropertyOp37
 70
     1
102
RTVSPropertyOp38
 70
     1
102
RTVSPropertyOp39
 70
     1
102
RTVSPropertyOp40
 70
     1
102
RTVSPropertyOp41
 70
     1
102
RTVSPropertyOp42
 70
     1
102
RTVSPropertyOp43
 70
     1
102
RTVSPropertyOp44
 70
     1
102
RTVSPropertyOp45
 70
     1
102
RTVSPropertyOp46
 70
     1
102
RTVSPropertyOp47
 70
     1
102
RTVSPropertyOp48
 70
     1
102
RTVSPropertyOp49
 70
     1
102
RTVSPropertyOp50
 70
     1
102
RTVSPropertyOp51
 70
     0
102
RTVSPropertyOp52
 70
     0
102
RTVSPropertyOp53
 70
     1
102
RTVSPropertyOp54
 70
     1
102
RTVSPropertyOp55
 70
     1
102
RTVSPropertyOp56
 70
     1
102
RTVSPropertyOp57
 70
     1
102
RTVSPropertyOp58
 70
     1
102
RTVSPropertyOp59
 70
     1
102
RTVSPropertyOp60
 70
     1
102
RTVSPropertyOp61
 70
     1
102
RTVSPropertyOp62
 70
     1
  0
XRECORD
  5
1366
102
{ACAD_REACTORS
330
1365
102
}
330
1365
100
AcDbXrecord
280
     1
102
RTVSPost2010Prop28
280
     0
102
RTVSPost2010PropOp28
 70
     1
102
RTVSPost2010Prop29
280
     1
102
RTVSPost2010PropOp29
 70
     1
102
RTVSPost2010Prop30
280
     1
102
RTVSPost2010PropOp30
 70
     1
102
RTVSPost2010Prop31
280
     0
102
RTVSPost2010PropOp31
 70
     1
102
RTVSPost2010Prop32
280
     0
102
RTVSPost2010PropOp32
 70
     1
102
RTVSPost2010Prop33
280
     0
102
RTVSPost2010PropOp33
 70
     1
102
RTVSPost2010Prop34
280
     0
102
RTVSPost2010PropOp34
 70
     1
102
RTVSPost2010Prop35
280
     0
102
RTVSPost2010PropOp35
 70
     1
102
RTVSPost2010Prop36
280
     0
102
RTVSPost2010PropOp36
 70
     1
102
RTVSPost2010Prop37
 90
       50
102
RTVSPost2010PropOp37
 70
     1
102
RTVSPost2010Prop38
140
0.0
102
RTVSPost2010PropOp38
 70
     1
102
RTVSPost2010Prop39
140
1.0
102
RTVSPost2010PropOp39
 70
     1
102
RTVSPost2010Prop40
 90
        0
102
RTVSPost2010PropOp40
 70
     1
102
RTVSPost2010Prop41ColorIndex
 90
       18
102
RTVSPost2010Prop41ColorRGB
 90
        0
102
RTVSPost2010PropOp41
 70
     1
102
RTVSPost2010Prop42
 90
       50
102
RTVSPost2010PropOp42
 70
     1
102
RTVSPost2010Prop43
 90
        3
102
RTVSPost2010PropOp43
 70
     1
102
RTVSPost2010Prop44ColorIndex
 90
        5
102
RTVSPost2010Prop44ColorRGB
 90
      255
102
RTVSPost2010PropOp44
 70
     1
102
RTVSPost2010Prop45
280
     0
102
RTVSPost2010PropOp45
 70
     1
102
RTVSPost2010Prop46
 90
       50
102
RTVSPost2010PropOp46
 70
     1
102
RTVSPost2010Prop47
 90
       50
102
RTVSPost2010PropOp47
 70
     1
102
RTVSPost2010Prop48
 90
       50
102
RTVSPost2010PropOp48
 70
     1
102
RTVSPost2010Prop49
280
     0
102
RTVSPost2010PropOp49
 70
     1
102
RTVSPost2010Prop50
 90
       50
102
RTVSPost2010PropOp50
 70
     1
102
RTVSPost2010Prop51ColorIndex
 90
      256
102
RTVSPost2010Prop51ColorRGB
 90
-16777216
102
RTVSPost2010PropOp51
 70
     0
102
RTVSPost2010Prop52
140
1.0
102
RTVSPost2010PropOp52
 70
     0
102
RTVSPost2010Prop53
 90
        2
102
RTVSPost2010PropOp53
 70
     1
102
RTVSPost2010Prop54
  1
strokes_ogs.tif
102
RTVSPost2010PropOp54
 70
     1
102
RTVSPost2010Prop55
280
     0
102
RTVSPost2010PropOp55
 70
     1
102
RTVSPost2010Prop56
140
1.0
102
RTVSPost2010PropOp56
 70
     1
102
RTVSPost2010Prop57
140
1.0
102
RTVSPost2010PropOp57
 70
     1
102
RTVSPropertyOp0
 70
     1
102
RTVSPropertyOp1
 70
     1
102
RTVSPropertyOp2
 70
     1
102
RTVSPropertyOp3
 70
     1
102
RTVSPropertyOp4
 70
     1
102
RTVSPropertyOp5
 70
     1
102
RTVSPropertyOp6
 70
     1
102
RTVSPropertyOp7
 70
     1
102
RTVSPropertyOp8
 70
     1
102
RTVSPropertyOp9
 70
     1
102
RTVSPropertyOp10
 70
     1
102
RTVSPropertyOp11
 70
     1
102
RTVSPropertyOp12
 70
     1
102
RTVSPropertyOp13
 70
     1
102
RTVSPropertyOp14
 70
     1
102
RTVSPropertyOp15
 70
     1
102
RTVSPropertyOp16
 70
     1
102
RTVSPropertyOp17
 70
     1
102
RTVSPropertyOp18
 70
     1
102
RTVSPropertyOp19
 70
     1
102
RTVSPropertyOp20
 70
     1
102
RTVSPropertyOp21
 70
     1
102
RTVSPropertyOp22
 70
     1
102
RTVSPropertyOp23
 70
     1
102
RTVSPropertyOp24
 70
     1
102
RTVSPropertyOp25
 70
     1
102
RTVSPropertyOp26
 70
     1
102
RTVSPropertyOp27
 70
     1
102
RTVSPropertyOp28
 70
     1
102
RTVSPropertyOp29
 70
     1
102
RTVSPropertyOp30
 70
     1
102
RTVSPropertyOp31
 70
     1
102
RTVSPropertyOp32
 70
     1
102
RTVSPropertyOp33
 70
     1
102
RTVSPropertyOp34
 70
     1
102
RTVSPropertyOp35
 70
     1
102
RTVSPropertyOp36
 70
     1
102
RTVSPropertyOp37
 70
     1
102
RTVSPropertyOp38
 70
     1
102
RTVSPropertyOp39
 70
     1
102
RTVSPropertyOp40
 70
     1
102
RTVSPropertyOp41
 70
     1
102
RTVSPropertyOp42
 70
     1
102
RTVSPropertyOp43
 70
     1
102
RTVSPropertyOp44
 70
     1
102
RTVSPropertyOp45
 70
     1
102
RTVSPropertyOp46
 70
     1
102
RTVSPropertyOp47
 70
     1
102
RTVSPropertyOp48
 70
     1
102
RTVSPropertyOp49
 70
     1
102
RTVSPropertyOp50
 70
     1
102
RTVSPropertyOp51
 70
     0
102
RTVSPropertyOp52
 70
     0
102
RTVSPropertyOp53
 70
     1
102
RTVSPropertyOp54
 70
     1
102
RTVSPropertyOp55
 70
     1
102
RTVSPropertyOp56
 70
     1
102
RTVSPropertyOp57
 70
     1
102
RTVSPropertyOp58
 70
     1
102
RTVSPropertyOp59
 70
     1
102
RTVSPropertyOp60
 70
     1
102
RTVSPropertyOp61
 70
     1
102
RTVSPropertyOp62
 70
     1
  0
XRECORD
  5
1357
102
{ACAD_REACTORS
330
1356
102
}
330
1356
100
AcDbXrecord
280
     1
102
RTVSPost2010Prop28
280
     0
102
RTVSPost2010PropOp28
 70
     1
102
RTVSPost2010Prop29
280
     1
102
RTVSPost2010PropOp29
 70
     1
102
RTVSPost2010Prop30
280
     1
102
RTVSPost2010PropOp30
 70
     1
102
RTVSPost2010Prop31
280
     0
102
RTVSPost2010PropOp31
 70
     1
102
RTVSPost2010Prop32
280
     0
102
RTVSPost2010PropOp32
 70
     1
102
RTVSPost2010Prop33
280
     0
102
RTVSPost2010PropOp33
 70
     1
102
RTVSPost2010Prop34
280
     0
102
RTVSPost2010PropOp34
 70
     1
102
RTVSPost2010Prop35
280
     0
102
RTVSPost2010PropOp35
 70
     1
102
RTVSPost2010Prop36
280
     0
102
RTVSPost2010PropOp36
 70
     1
102
RTVSPost2010Prop37
 90
       50
102
RTVSPost2010PropOp37
 70
     1
102
RTVSPost2010Prop38
140
0.0
102
RTVSPost2010PropOp38
 70
     1
102
RTVSPost2010Prop39
140
1.0
102
RTVSPost2010PropOp39
 70
     1
102
RTVSPost2010Prop40
 90
        0
102
RTVSPost2010PropOp40
 70
     1
102
RTVSPost2010Prop41ColorIndex
 90
       18
102
RTVSPost2010Prop41ColorRGB
 90
        0
102
RTVSPost2010PropOp41
 70
     1
102
RTVSPost2010Prop42
 90
       50
102
RTVSPost2010PropOp42
 70
     1
102
RTVSPost2010Prop43
 90
        3
102
RTVSPost2010PropOp43
 70
     1
102
RTVSPost2010Prop44ColorIndex
 90
        5
102
RTVSPost2010Prop44ColorRGB
 90
      255
102
RTVSPost2010PropOp44
 70
     1
102
RTVSPost2010Prop45
280
     0
102
RTVSPost2010PropOp45
 70
     1
102
RTVSPost2010Prop46
 90
       50
102
RTVSPost2010PropOp46
 70
     1
102
RTVSPost2010Prop47
 90
       50
102
RTVSPost2010PropOp47
 70
     1
102
RTVSPost2010Prop48
 90
       50
102
RTVSPost2010PropOp48
 70
     1
102
RTVSPost2010Prop49
280
     0
102
RTVSPost2010PropOp49
 70
     1
102
RTVSPost2010Prop50
 90
       50
102
RTVSPost2010PropOp50
 70
     1
102
RTVSPost2010Prop51ColorIndex
 90
      256
102
RTVSPost2010Prop51ColorRGB
 90
-16777216
102
RTVSPost2010PropOp51
 70
     0
102
RTVSPost2010Prop52
140
1.0
102
RTVSPost2010PropOp52
 70
     0
102
RTVSPost2010Prop53
 90
        2
102
RTVSPost2010PropOp53
 70
     1
102
RTVSPost2010Prop54
  1
strokes_ogs.tif
102
RTVSPost2010PropOp54
 70
     1
102
RTVSPost2010Prop55
280
     0
102
RTVSPost2010PropOp55
 70
     1
102
RTVSPost2010Prop56
140
1.0
102
RTVSPost2010PropOp56
 70
     1
102
RTVSPost2010Prop57
140
1.0
102
RTVSPost2010PropOp57
 70
     1
102
RTVSPropertyOp0
 70
     1
102
RTVSPropertyOp1
 70
     1
102
RTVSPropertyOp2
 70
     1
102
RTVSPropertyOp3
 70
     1
102
RTVSPropertyOp4
 70
     1
102
RTVSPropertyOp5
 70
     1
102
RTVSPropertyOp6
 70
     1
102
RTVSPropertyOp7
 70
     1
102
RTVSPropertyOp8
 70
     1
102
RTVSPropertyOp9
 70
     1
102
RTVSPropertyOp10
 70
     1
102
RTVSPropertyOp11
 70
     1
102
RTVSPropertyOp12
 70
     1
102
RTVSPropertyOp13
 70
     1
102
RTVSPropertyOp14
 70
     1
102
RTVSPropertyOp15
 70
     1
102
RTVSPropertyOp16
 70
     1
102
RTVSPropertyOp17
 70
     1
102
RTVSPropertyOp18
 70
     1
102
RTVSPropertyOp19
 70
     1
102
RTVSPropertyOp20
 70
     1
102
RTVSPropertyOp21
 70
     1
102
RTVSPropertyOp22
 70
     1
102
RTVSPropertyOp23
 70
     1
102
RTVSPropertyOp24
 70
     1
102
RTVSPropertyOp25
 70
     1
102
RTVSPropertyOp26
 70
     1
102
RTVSPropertyOp27
 70
     1
102
RTVSPropertyOp28
 70
     1
102
RTVSPropertyOp29
 70
     1
102
RTVSPropertyOp30
 70
     1
102
RTVSPropertyOp31
 70
     1
102
RTVSPropertyOp32
 70
     1
102
RTVSPropertyOp33
 70
     1
102
RTVSPropertyOp34
 70
     1
102
RTVSPropertyOp35
 70
     1
102
RTVSPropertyOp36
 70
     1
102
RTVSPropertyOp37
 70
     1
102
RTVSPropertyOp38
 70
     1
102
RTVSPropertyOp39
 70
     1
102
RTVSPropertyOp40
 70
     1
102
RTVSPropertyOp41
 70
     1
102
RTVSPropertyOp42
 70
     1
102
RTVSPropertyOp43
 70
     1
102
RTVSPropertyOp44
 70
     1
102
RTVSPropertyOp45
 70
     1
102
RTVSPropertyOp46
 70
     1
102
RTVSPropertyOp47
 70
     1
102
RTVSPropertyOp48
 70
     1
102
RTVSPropertyOp49
 70
     1
102
RTVSPropertyOp50
 70
     1
102
RTVSPropertyOp51
 70
     0
102
RTVSPropertyOp52
 70
     0
102
RTVSPropertyOp53
 70
     1
102
RTVSPropertyOp54
 70
     1
102
RTVSPropertyOp55
 70
     1
102
RTVSPropertyOp56
 70
     1
102
RTVSPropertyOp57
 70
     1
102
RTVSPropertyOp58
 70
     1
102
RTVSPropertyOp59
 70
     1
102
RTVSPropertyOp60
 70
     1
102
RTVSPropertyOp61
 70
     1
102
RTVSPropertyOp62
 70
     1
  0
XRECORD
  5
1360
102
{ACAD_REACTORS
330
135F
102
}
330
135F
100
AcDbXrecord
280
     1
102
RTVSPost2010Prop28
280
     0
102
RTVSPost2010PropOp28
 70
     1
102
RTVSPost2010Prop29
280
     1
102
RTVSPost2010PropOp29
 70
     1
102
RTVSPost2010Prop30
280
     1
102
RTVSPost2010PropOp30
 70
     1
102
RTVSPost2010Prop31
280
     0
102
RTVSPost2010PropOp31
 70
     1
102
RTVSPost2010Prop32
280
     0
102
RTVSPost2010PropOp32
 70
     1
102
RTVSPost2010Prop33
280
     0
102
RTVSPost2010PropOp33
 70
     1
102
RTVSPost2010Prop34
280
     0
102
RTVSPost2010PropOp34
 70
     1
102
RTVSPost2010Prop35
280
     0
102
RTVSPost2010PropOp35
 70
     1
102
RTVSPost2010Prop36
280
     0
102
RTVSPost2010PropOp36
 70
     1
102
RTVSPost2010Prop37
 90
       50
102
RTVSPost2010PropOp37
 70
     1
102
RTVSPost2010Prop38
140
0.0
102
RTVSPost2010PropOp38
 70
     1
102
RTVSPost2010Prop39
140
1.0
102
RTVSPost2010PropOp39
 70
     1
102
RTVSPost2010Prop40
 90
        0
102
RTVSPost2010PropOp40
 70
     1
102
RTVSPost2010Prop41ColorIndex
 90
       18
102
RTVSPost2010Prop41ColorRGB
 90
        0
102
RTVSPost2010PropOp41
 70
     1
102
RTVSPost2010Prop42
 90
       50
102
RTVSPost2010PropOp42
 70
     1
102
RTVSPost2010Prop43
 90
        3
102
RTVSPost2010PropOp43
 70
     1
102
RTVSPost2010Prop44ColorIndex
 90
        5
102
RTVSPost2010Prop44ColorRGB
 90
      255
102
RTVSPost2010PropOp44
 70
     1
102
RTVSPost2010Prop45
280
     0
102
RTVSPost2010PropOp45
 70
     1
102
RTVSPost2010Prop46
 90
       50
102
RTVSPost2010PropOp46
 70
     1
102
RTVSPost2010Prop47
 90
       50
102
RTVSPost2010PropOp47
 70
     1
102
RTVSPost2010Prop48
 90
       50
102
RTVSPost2010PropOp48
 70
     1
102
RTVSPost2010Prop49
280
     0
102
RTVSPost2010PropOp49
 70
     1
102
RTVSPost2010Prop50
 90
       50
102
RTVSPost2010PropOp50
 70
     1
102
RTVSPost2010Prop51ColorIndex
 90
      256
102
RTVSPost2010Prop51ColorRGB
 90
-16777216
102
RTVSPost2010PropOp51
 70
     0
102
RTVSPost2010Prop52
140
1.0
102
RTVSPost2010PropOp52
 70
     0
102
RTVSPost2010Prop53
 90
        2
102
RTVSPost2010PropOp53
 70
     1
102
RTVSPost2010Prop54
  1
strokes_ogs.tif
102
RTVSPost2010PropOp54
 70
     1
102
RTVSPost2010Prop55
280
     0
102
RTVSPost2010PropOp55
 70
     1
102
RTVSPost2010Prop56
140
1.0
102
RTVSPost2010PropOp56
 70
     1
102
RTVSPost2010Prop57
140
1.0
102
RTVSPost2010PropOp57
 70
     1
102
RTVSPropertyOp0
 70
     1
102
RTVSPropertyOp1
 70
     1
102
RTVSPropertyOp2
 70
     1
102
RTVSPropertyOp3
 70
     1
102
RTVSPropertyOp4
 70
     1
102
RTVSPropertyOp5
 70
     1
102
RTVSPropertyOp6
 70
     1
102
RTVSPropertyOp7
 70
     1
102
RTVSPropertyOp8
 70
     1
102
RTVSPropertyOp9
 70
     1
102
RTVSPropertyOp10
 70
     1
102
RTVSPropertyOp11
 70
     1
102
RTVSPropertyOp12
 70
     1
102
RTVSPropertyOp13
 70
     1
102
RTVSPropertyOp14
 70
     1
102
RTVSPropertyOp15
 70
     1
102
RTVSPropertyOp16
 70
     1
102
RTVSPropertyOp17
 70
     1
102
RTVSPropertyOp18
 70
     1
102
RTVSPropertyOp19
 70
     1
102
RTVSPropertyOp20
 70
     1
102
RTVSPropertyOp21
 70
     1
102
RTVSPropertyOp22
 70
     1
102
RTVSPropertyOp23
 70
     1
102
RTVSPropertyOp24
 70
     1
102
RTVSPropertyOp25
 70
     1
102
RTVSPropertyOp26
 70
     1
102
RTVSPropertyOp27
 70
     1
102
RTVSPropertyOp28
 70
     1
102
RTVSPropertyOp29
 70
     1
102
RTVSPropertyOp30
 70
     1
102
RTVSPropertyOp31
 70
     1
102
RTVSPropertyOp32
 70
     1
102
RTVSPropertyOp33
 70
     1
102
RTVSPropertyOp34
 70
     1
102
RTVSPropertyOp35
 70
     1
102
RTVSPropertyOp36
 70
     1
102
RTVSPropertyOp37
 70
     1
102
RTVSPropertyOp38
 70
     1
102
RTVSPropertyOp39
 70
     1
102
RTVSPropertyOp40
 70
     1
102
RTVSPropertyOp41
 70
     1
102
RTVSPropertyOp42
 70
     1
102
RTVSPropertyOp43
 70
     1
102
RTVSPropertyOp44
 70
     1
102
RTVSPropertyOp45
 70
     1
102
RTVSPropertyOp46
 70
     1
102
RTVSPropertyOp47
 70
     1
102
RTVSPropertyOp48
 70
     1
102
RTVSPropertyOp49
 70
     1
102
RTVSPropertyOp50
 70
     1
102
RTVSPropertyOp51
 70
     0
102
RTVSPropertyOp52
 70
     0
102
RTVSPropertyOp53
 70
     1
102
RTVSPropertyOp54
 70
     1
102
RTVSPropertyOp55
 70
     1
102
RTVSPropertyOp56
 70
     1
102
RTVSPropertyOp57
 70
     1
102
RTVSPropertyOp58
 70
     1
102
RTVSPropertyOp59
 70
     1
102
RTVSPropertyOp60
 70
     1
102
RTVSPropertyOp61
 70
     1
102
RTVSPropertyOp62
 70
     1
  0
XRECORD
  5
1368
102
{ACAD_REACTORS
330
1367
102
}
330
1367
100
AcDbXrecord
280
     1
102
RTVSPost2010Prop28
280
     0
102
RTVSPost2010PropOp28
 70
     1
102
RTVSPost2010Prop29
280
     1
102
RTVSPost2010PropOp29
 70
     1
102
RTVSPost2010Prop30
280
     1
102
RTVSPost2010PropOp30
 70
     1
102
RTVSPost2010Prop31
280
     0
102
RTVSPost2010PropOp31
 70
     1
102
RTVSPost2010Prop32
280
     0
102
RTVSPost2010PropOp32
 70
     1
102
RTVSPost2010Prop33
280
     0
102
RTVSPost2010PropOp33
 70
     1
102
RTVSPost2010Prop34
280
     0
102
RTVSPost2010PropOp34
 70
     1
102
RTVSPost2010Prop35
280
     0
102
RTVSPost2010PropOp35
 70
     1
102
RTVSPost2010Prop36
280
     0
102
RTVSPost2010PropOp36
 70
     1
102
RTVSPost2010Prop37
 90
       50
102
RTVSPost2010PropOp37
 70
     1
102
RTVSPost2010Prop38
140
0.0
102
RTVSPost2010PropOp38
 70
     1
102
RTVSPost2010Prop39
140
1.0
102
RTVSPost2010PropOp39
 70
     1
102
RTVSPost2010Prop40
 90
        0
102
RTVSPost2010PropOp40
 70
     1
102
RTVSPost2010Prop41ColorIndex
 90
       18
102
RTVSPost2010Prop41ColorRGB
 90
        0
102
RTVSPost2010PropOp41
 70
     1
102
RTVSPost2010Prop42
 90
       50
102
RTVSPost2010PropOp42
 70
     1
102
RTVSPost2010Prop43
 90
        3
102
RTVSPost2010PropOp43
 70
     1
102
RTVSPost2010Prop44ColorIndex
 90
        5
102
RTVSPost2010Prop44ColorRGB
 90
      255
102
RTVSPost2010PropOp44
 70
     1
102
RTVSPost2010Prop45
280
     0
102
RTVSPost2010PropOp45
 70
     1
102
RTVSPost2010Prop46
 90
       50
102
RTVSPost2010PropOp46
 70
     1
102
RTVSPost2010Prop47
 90
       50
102
RTVSPost2010PropOp47
 70
     1
102
RTVSPost2010Prop48
 90
       50
102
RTVSPost2010PropOp48
 70
     1
102
RTVSPost2010Prop49
280
     0
102
RTVSPost2010PropOp49
 70
     1
102
RTVSPost2010Prop50
 90
       50
102
RTVSPost2010PropOp50
 70
     1
102
RTVSPost2010Prop51ColorIndex
 90
      256
102
RTVSPost2010Prop51ColorRGB
 90
-16777216
102
RTVSPost2010PropOp51
 70
     0
102
RTVSPost2010Prop52
140
1.0
102
RTVSPost2010PropOp52
 70
     0
102
RTVSPost2010Prop53
 90
        2
102
RTVSPost2010PropOp53
 70
     1
102
RTVSPost2010Prop54
  1
strokes_ogs.tif
102
RTVSPost2010PropOp54
 70
     1
102
RTVSPost2010Prop55
280
     0
102
RTVSPost2010PropOp55
 70
     1
102
RTVSPost2010Prop56
140
1.0
102
RTVSPost2010PropOp56
 70
     1
102
RTVSPost2010Prop57
140
1.0
102
RTVSPost2010PropOp57
 70
     1
102
RTVSPropertyOp0
 70
     1
102
RTVSPropertyOp1
 70
     1
102
RTVSPropertyOp2
 70
     1
102
RTVSPropertyOp3
 70
     1
102
RTVSPropertyOp4
 70
     1
102
RTVSPropertyOp5
 70
     1
102
RTVSPropertyOp6
 70
     1
102
RTVSPropertyOp7
 70
     1
102
RTVSPropertyOp8
 70
     1
102
RTVSPropertyOp9
 70
     1
102
RTVSPropertyOp10
 70
     1
102
RTVSPropertyOp11
 70
     1
102
RTVSPropertyOp12
 70
     1
102
RTVSPropertyOp13
 70
     1
102
RTVSPropertyOp14
 70
     1
102
RTVSPropertyOp15
 70
     1
102
RTVSPropertyOp16
 70
     1
102
RTVSPropertyOp17
 70
     1
102
RTVSPropertyOp18
 70
     1
102
RTVSPropertyOp19
 70
     1
102
RTVSPropertyOp20
 70
     1
102
RTVSPropertyOp21
 70
     1
102
RTVSPropertyOp22
 70
     1
102
RTVSPropertyOp23
 70
     1
102
RTVSPropertyOp24
 70
     1
102
RTVSPropertyOp25
 70
     1
102
RTVSPropertyOp26
 70
     1
102
RTVSPropertyOp27
 70
     1
102
RTVSPropertyOp28
 70
     1
102
RTVSPropertyOp29
 70
     1
102
RTVSPropertyOp30
 70
     1
102
RTVSPropertyOp31
 70
     1
102
RTVSPropertyOp32
 70
     1
102
RTVSPropertyOp33
 70
     1
102
RTVSPropertyOp34
 70
     1
102
RTVSPropertyOp35
 70
     1
102
RTVSPropertyOp36
 70
     1
102
RTVSPropertyOp37
 70
     1
102
RTVSPropertyOp38
 70
     1
102
RTVSPropertyOp39
 70
     1
102
RTVSPropertyOp40
 70
     1
102
RTVSPropertyOp41
 70
     1
102
RTVSPropertyOp42
 70
     1
102
RTVSPropertyOp43
 70
     1
102
RTVSPropertyOp44
 70
     1
102
RTVSPropertyOp45
 70
     1
102
RTVSPropertyOp46
 70
     1
102
RTVSPropertyOp47
 70
     1
102
RTVSPropertyOp48
 70
     1
102
RTVSPropertyOp49
 70
     1
102
RTVSPropertyOp50
 70
     1
102
RTVSPropertyOp51
 70
     0
102
RTVSPropertyOp52
 70
     0
102
RTVSPropertyOp53
 70
     1
102
RTVSPropertyOp54
 70
     1
102
RTVSPropertyOp55
 70
     1
102
RTVSPropertyOp56
 70
     1
102
RTVSPropertyOp57
 70
     1
102
RTVSPropertyOp58
 70
     1
102
RTVSPropertyOp59
 70
     1
102
RTVSPropertyOp60
 70
     1
102
RTVSPropertyOp61
 70
     1
102
RTVSPropertyOp62
 70
     1
  0
ENDSEC
  0
EOF
