  0
SECTION
  2
HEADER
  9
$ACADVER
  1
AC1014
  9
$ACADMAINTVER
 70
     9
  9
$DWGCODEPAGE
  3
ANSI_932
  9
$INSBASE
 10
0.0
 20
0.0
 30
0.0
  9
$EXTMIN
 10
57.81058880316772
 20
47.09784125266423
 30
0.0
  9
$EXTMAX
 10
492.0951946277947
 20
370.6347299289505
 30
0.0
  9
$LIMMIN
 10
0.0
 20
0.0
  9
$LIMMAX
 10
297.0
 20
210.0
  9
$ORTHOMODE
 70
     1
  9
$REGENMODE
 70
     1
  9
$FILLMODE
 70
     1
  9
$QTEXTMODE
 70
     0
  9
$MIRRTEXT
 70
     0
  9
$DRAGMODE
 70
     2
  9
$LTSCALE
 40
2.0
  9
$OSMODE
 70
    37
  9
$ATTMODE
 70
     1
  9
$TEXTSIZE
 40
2.0
  9
$TRACEWID
 40
1.0
  9
$TEXTSTYLE
  7
STANDARD
  9
$CLAYER
  8
0
  9
$CELTYPE
  6
BYLAYER
  9
$CECOLOR
 62
   256
  9
$CELTSCALE
 40
1.0
  9
$DELOBJ
 70
     1
  9
$DISPSILH
 70
     0
  9
$DIMSCALE
 40
2.0
  9
$DIMASZ
 40
1.8
  9
$DIMEXO
 40
0.625
  9
$DIMDLI
 40
3.75
  9
$DIMRND
 40
0.0
  9
$DIMDLE
 40
0.0
  9
$DIMEXE
 40
0.8
  9
$DIMTP
 40
0.0
  9
$DIMTM
 40
0.0
  9
$DIMTXT
 40
1.8
  9
$DIMCEN
 40
2.5
  9
$DIMTSZ
 40
0.0
  9
$DIMTOL
 70
     0
  9
$DIMLIM
 70
     0
  9
$DIMTIH
 70
     0
  9
$DIMTOH
 70
     0
  9
$DIMSE1
 70
     0
  9
$DIMSE2
 70
     0
  9
$DIMTAD
 70
     1
  9
$DIMZIN
 70
     8
  9
$DIMBLK
  1

  9
$DIMASO
 70
     1
  9
$DIMSHO
 70
     1
  9
$DIMPOST
  1

  9
$DIMAPOST
  1

  9
$DIMALT
 70
     0
  9
$DIMALTD
 70
     4
  9
$DIMALTF
 40
0.0394
  9
$DIMLFAC
 40
1.0
  9
$DIMTOFL
 70
     1
  9
$DIMTVP
 40
0.0
  9
$DIMTIX
 70
     0
  9
$DIMSOXD
 70
     0
  9
$DIMSAH
 70
     0
  9
$DIMBLK1
  1

  9
$DIMBLK2
  1

  9
$DIMSTYLE
  2
STANDARD
  9
$DIMCLRD
 70
     0
  9
$DIMCLRE
 70
     0
  9
$DIMCLRT
 70
     0
  9
$DIMTFAC
 40
1.0
  9
$DIMGAP
 40
0.75
  9
$DIMJUST
 70
     0
  9
$DIMSD1
 70
     0
  9
$DIMSD2
 70
     0
  9
$DIMTOLJ
 70
     1
  9
$DIMTZIN
 70
     0
  9
$DIMALTZ
 70
     0
  9
$DIMALTTZ
 70
     0
  9
$DIMFIT
 70
     3
  9
$DIMUPT
 70
     0
  9
$DIMUNIT
 70
     8
  9
$DIMDEC
 70
     2
  9
$DIMTDEC
 70
     2
  9
$DIMALTU
 70
     8
  9
$DIMALTTD
 70
     4
  9
$DIMTXSTY
  7
STANDARD
  9
$DIMAUNIT
 70
     0
  9
$LUNITS
 70
     2
  9
$LUPREC
 70
     3
  9
$SKETCHINC
 40
1.0
  9
$FILLETRAD
 40
10.0
  9
$AUNITS
 70
     0
  9
$AUPREC
 70
     2
  9
$MENU
  1
.
  9
$ELEVATION
 40
0.0
  9
$PELEVATION
 40
0.0
  9
$THICKNESS
 40
0.0
  9
$LIMCHECK
 70
     0
  9
$BLIPMODE
 70
     0
  9
$CHAMFERA
 40
0.0
  9
$CHAMFERB
 40
0.0
  9
$CHAMFERC
 40
20.0
  9
$CHAMFERD
 40
0.0
  9
$SKPOLY
 70
     0
  9
$TDCREATE
 40
2453761.463049583
  9
$TDUPDATE
 40
2454399.564570312
  9
$TDINDWG
 40
0.1867585185
  9
$TDUSRTIMER
 40
0.1867585185
  9
$USRTIMER
 70
     1
  9
$ANGBASE
 50
0.0
  9
$ANGDIR
 70
     0
  9
$PDMODE
 70
     0
  9
$PDSIZE
 40
-10.0
  9
$PLINEWID
 40
0.0
  9
$COORDS
 70
     1
  9
$SPLFRAME
 70
     0
  9
$SPLINETYPE
 70
     6
  9
$SPLINESEGS
 70
     8
  9
$ATTDIA
 70
     0
  9
$ATTREQ
 70
     1
  9
$HANDLING
 70
-16383
  9
$HANDSEED
  5
114A
  9
$SURFTAB1
 70
     6
  9
$SURFTAB2
 70
     6
  9
$SURFTYPE
 70
     6
  9
$SURFU
 70
     6
  9
$SURFV
 70
     6
  9
$UCSNAME
  2

  9
$UCSORG
 10
0.0
 20
0.0
 30
0.0
  9
$UCSXDIR
 10
1.0
 20
0.0
 30
0.0
  9
$UCSYDIR
 10
0.0
 20
1.0
 30
0.0
  9
$PUCSNAME
  2

  9
$PUCSORG
 10
0.0
 20
0.0
 30
0.0
  9
$PUCSXDIR
 10
1.0
 20
0.0
 30
0.0
  9
$PUCSYDIR
 10
0.0
 20
1.0
 30
0.0
  9
$USERI1
 70
     0
  9
$USERI2
 70
     0
  9
$USERI3
 70
     0
  9
$USERI4
 70
     0
  9
$USERI5
 70
     0
  9
$USERR1
 40
0.0
  9
$USERR2
 40
0.0
  9
$USERR3
 40
0.0
  9
$USERR4
 40
0.0
  9
$USERR5
 40
0.0
  9
$WORLDVIEW
 70
     1
  9
$SHADEDGE
 70
     3
  9
$SHADEDIF
 70
    70
  9
$TILEMODE
 70
     1
  9
$MAXACTVP
 70
    48
  9
$PINSBASE
 10
0.0
 20
0.0
 30
0.0
  9
$PLIMCHECK
 70
     0
  9
$PEXTMIN
 10
0.0
 20
0.0
 30
0.0
  9
$PEXTMAX
 10
0.0
 20
0.0
 30
0.0
  9
$PLIMMIN
 10
0.0
 20
0.0
  9
$PLIMMAX
 10
12.0
 20
9.0
  9
$UNITMODE
 70
     0
  9
$VISRETAIN
 70
     1
  9
$PLINEGEN
 70
     0
  9
$PSLTSCALE
 70
     1
  9
$TREEDEPTH
 70
  3020
  9
$PICKSTYLE
 70
     1
  9
$CMLSTYLE
  2
STANDARD
  9
$CMLJUST
 70
     0
  9
$CMLSCALE
 40
1.0
  9
$PROXYGRAPHICS
 70
     1
  9
$MEASUREMENT
 70
     0
  0
ENDSEC
  0
SECTION
  2
CLASSES
  0
CLASS
  1
DICTIONARYVAR
  2
AcDbDictionaryVar
  3
AutoCAD 2000
 90
        0
280
     0
281
     0
  0
CLASS
  1
ACDBDICTIONARYWDFLT
  2
AcDbDictionaryWithDefault
  3
AutoCAD 2000
 90
        0
280
     0
281
     0
  0
CLASS
  1
ACDBPLACEHOLDER
  2
AcDbPlaceHolder
  3
AutoCAD 2000
 90
        0
280
     0
281
     0
  0
CLASS
  1
LAYOUT
  2
AcDbLayout
  3
AutoCAD 2000
 90
        0
280
     0
281
     0
  0
CLASS
  1
LONG_TRANSACTION
  2
AcDbLongTransaction
  3
AutoCAD 2000
 90
        0
280
     0
281
     0
  0
CLASS
  1
LWPOLYLINE
  2
AcDbPolyline
  3
AutoCAD 2000
 90
        0
280
     0
281
     1
  0
CLASS
  1
HATCH
  2
AcDbHatch
  3
AutoCAD 2000
 90
        0
280
     0
281
     1
  0
CLASS
  1
XRECORD
  2
AcDbXrecord
  3
AutoCAD 2000
 90
        0
280
     0
281
     0
  0
ENDSEC
  0
SECTION
  2
TABLES
  0
TABLE
  2
VPORT
  5
6E
330
0
100
AcDbSymbolTable
 70
     2
  0
VPORT
  5
1124
330
6E
100
AcDbSymbolTableRecord
100
AcDbViewportTableRecord
  2
*ACTIVE
 70
     0
 10
0.0
 20
0.0
 11
1.0
 21
1.0
 12
258.5851206477253
 22
197.1149680732615
 13
0.0
 23
0.0
 14
10.0
 24
10.0
 15
10.0
 25
10.0
 16
0.0
 26
0.0
 36
1.0
 17
0.0
 27
0.0
 37
0.0
 40
349.7444247713222
 41
1.540920716112531
 42
50.0
 43
0.0
 44
0.0
 50
0.0
 51
0.0
 71
     0
 72
   100
 73
     1
 74
     3
 75
     0
 76
     0
 77
     0
 78
     0
  0
ENDTAB
  0
TABLE
  2
LTYPE
  5
69
330
0
100
AcDbSymbolTable
 70
     4
  0
LTYPE
  5
6A
330
69
100
AcDbSymbolTableRecord
100
AcDbLinetypeTableRecord
  2
BYBLOCK
 70
     0
  3

 72
    65
 73
     0
 40
0.0
  0
LTYPE
  5
6B
330
69
100
AcDbSymbolTableRecord
100
AcDbLinetypeTableRecord
  2
BYLAYER
 70
     0
  3

 72
    65
 73
     0
 40
0.0
  0
LTYPE
  5
8
330
69
100
AcDbSymbolTableRecord
100
AcDbLinetypeTableRecord
  2
CONTINUOUS
 70
     0
  3
Solid line
 72
    65
 73
     0
 40
0.0
  0
LTYPE
  5
27C
330
69
100
AcDbSymbolTableRecord
100
AcDbLinetypeTableRecord
  2
SEKKEI_A2_
 70
     0
  3
center(A2)  ____ _ ____ _ ____ _ ____ _ ____ _ 
 72
    65
 73
     4
 40
14.28749999999999
 49
9.525
 74
     0
 49
-1.587499999999999
 74
     0
 49
1.587499999999999
 74
     0
 49
-1.587499999999999
 74
     0
  0
LTYPE
  5
2B4
330
69
100
AcDbSymbolTableRecord
100
AcDbLinetypeTableRecord
  2
HIDDEN2
 70
     0
  3
Hidden (.5x) _ _ _ _ _ _ _ _ _ _ _ _ _ _ _ _ _
 72
    65
 73
     2
 40
4.762499999999999
 49
3.174999999999999
 74
     0
 49
-1.587499999999999
 74
     0
  0
LTYPE
  5
48F
330
69
100
AcDbSymbolTableRecord
100
AcDbLinetypeTableRecord
  2
SEKKEI_H
 70
     0
  3
Hidden-S _ _ _ _ _ _ _ _ _ _ _ _ _ _ _ _ _
 72
    65
 73
     2
 40
2.381249999999999
 49
1.587499999999999
 74
     0
 49
-0.79375
 74
     0
  0
ENDTAB
  0
TABLE
  2
LAYER
  5
66
330
0
100
AcDbSymbolTable
 70
     9
  0
LAYER
  5
5E
330
66
100
AcDbSymbolTableRecord
100
AcDbLayerTableRecord
  2
0
 70
     0
 62
     7
  6
CONTINUOUS
  0
LAYER
  5
3E
330
66
100
AcDbSymbolTableRecord
100
AcDbLayerTableRecord
  2
CENTER
 70
     0
 62
     3
  6
SEKKEI_A2_
  0
LAYER
  5
2B5
330
66
100
AcDbSymbolTableRecord
100
AcDbLayerTableRecord
  2
HIDS
 70
     0
 62
     1
  6
HIDDEN2
  0
LAYER
  5
2BA
330
66
100
AcDbSymbolTableRecord
100
AcDbLayerTableRecord
  2
HOJO
 70
     0
 62
     4
  6
CONTINUOUS
  0
LAYER
  5
3FA
330
66
100
AcDbSymbolTableRecord
100
AcDbLayerTableRecord
  2
TITLE
 70
     0
 62
     4
  6
CONTINUOUS
  0
ENDTAB
  0
TABLE
  2
STYLE
  5
67
330
0
100
AcDbSymbolTable
 70
     1
  0
STYLE
  5
16
330
67
100
AcDbSymbolTableRecord
100
AcDbTextStyleTableRecord
  2
STANDARD
 70
     0
 40
0.0
 41
1.0
 50
0.0
 71
     0
 42
2.0
  3
simplex.shx
  4
extfont.shx
  0
ENDTAB
  0
TABLE
  2
VIEW
  5
6C
330
0
100
AcDbSymbolTable
 70
     0
  0
ENDTAB
  0
TABLE
  2
UCS
  5
6D
330
0
100
AcDbSymbolTable
 70
     0
  0
ENDTAB
  0
TABLE
  2
APPID
  5
70
330
0
100
AcDbSymbolTable
 70
     1
  0
APPID
  5
71
330
70
100
AcDbSymbolTableRecord
100
AcDbRegAppTableRecord
  2
ACAD
 70
     0
  0
ENDTAB
  0
TABLE
  2
DIMSTYLE
  5
72
330
0
100
AcDbSymbolTable
 70
     1
  0
DIMSTYLE
105
73
102
{ACAD_REACTORS
330
87D
330
9B5
102
}
330
72
100
AcDbSymbolTableRecord
100
AcDbDimStyleTableRecord
  2
STANDARD
 70
     0
  3

  4

  5

  6

  7

 40
2.0
 41
1.8
 42
0.625
 43
3.75
 44
0.8
 45
0.0
 46
0.0
 47
0.0
 48
0.0
140
1.8
141
2.5
142
0.0
143
0.0394
144
1.0
145
0.0
146
1.0
147
0.75
 71
     0
 72
     0
 73
     0
 74
     0
 75
     0
 76
     0
 77
     1
 78
     8
170
     0
171
     4
172
     1
173
     0
174
     0
175
     0
176
     0
177
     0
178
     0
270
     8
271
     2
272
     2
273
     8
274
     4
340
16
275
     0
280
     0
281
     0
282
     0
283
     1
284
     0
285
     0
286
     0
287
     3
288
     0
  0
ENDTAB
  0
TABLE
  2
BLOCK_RECORD
  5
1
330
0
100
AcDbSymbolTable
 70
    55
  0
BLOCK_RECORD
  5
2
102
{ACAD_XDICTIONARY
360
1146
102
}
330
1
100
AcDbSymbolTableRecord
100
AcDbBlockTableRecord
  2
*MODEL_SPACE
  0
BLOCK_RECORD
  5
111F
102
{ACAD_XDICTIONARY
360
1148
102
}
330
1
100
AcDbSymbolTableRecord
100
AcDbBlockTableRecord
  2
*PAPER_SPACE
  0
ENDTAB
  0
ENDSEC
  0
SECTION
  2
BLOCKS
  0
BLOCK
  5
5D
330
2
100
AcDbEntity
  8
0
100
AcDbBlockBegin
  2
*MODEL_SPACE
 70
     0
 10
0.0
 20
0.0
 30
0.0
  3
*MODEL_SPACE
  1

  0
ENDBLK
  5
5F
330
2
100
AcDbEntity
  8
0
100
AcDbBlockEnd
  0
BLOCK
  5
1121
330
111F
100
AcDbEntity
 67
     1
  8
0
100
AcDbBlockBegin
  2
*PAPER_SPACE
 70
     0
 10
0.0
 20
0.0
 30
0.0
  3
*PAPER_SPACE
  1

  0
ENDBLK
  5
1122
330
111F
100
AcDbEntity
 67
     1
  8
0
100
AcDbBlockEnd
  0
ENDSEC
  0
SECTION
  2
ENTITIES
  0
LINE
  5
86F
330
2
100
AcDbEntity
  8
0
100
AcDbLine
 10
114.0102114273012
 20
66.5488412526642
 30
0.0
 11
186.5102514273012
 21
66.5488412526642
 31
0.0
  0
LINE
  5
870
330
2
100
AcDbEntity
  8
0
100
AcDbLine
 10
114.0102114273012
 20
127.0468422526642
 30
0.0
 11
186.5102514273012
 21
127.0468422526642
 31
0.0
  0
LINE
  5
871
330
2
100
AcDbEntity
  8
0
100
AcDbLine
 10
114.0102604273012
 20
58.79784125266422
 30
0.0
 11
186.5102584273012
 21
58.79784125266422
 31
0.0
  0
LINE
  5
872
330
2
100
AcDbEntity
  8
0
100
AcDbLine
 10
114.0102604273012
 20
134.7978422526642
 30
0.0
 11
189.9299444273012
 21
134.7978422526642
 31
0.0
  0
LINE
  5
873
330
2
100
AcDbEntity
  8
CENTER
100
AcDbLine
 10
81.21026142730119
 20
96.79784225266423
 30
0.0
 11
205.7602584273012
 21
96.79784225266423
 31
0.0
  0
LINE
  5
876
330
2
100
AcDbEntity
  8
0
100
AcDbLine
 10
114.0102604273012
 20
276.6347459289506
 30
0.0
 11
189.9299444273012
 21
276.6347459289506
 31
0.0
  0
LINE
  5
877
330
2
100
AcDbEntity
  8
0
100
AcDbLine
 10
114.0102604273012
 20
261.6347459289506
 30
0.0
 11
184.5102584273012
 21
261.6347459289506
 31
0.0
  0
LINE
  5
878
330
2
100
AcDbEntity
  8
0
100
AcDbLine
 10
114.0102604273012
 20
322.6347459289506
 30
0.0
 11
189.9299444273012
 21
322.6347459289506
 31
0.0
  0
LINE
  5
879
330
2
100
AcDbEntity
  8
0
100
AcDbLine
 10
184.5102584273012
 20
337.6347459289506
 30
0.0
 11
114.0102604273012
 21
337.6347459289506
 31
0.0
  0
LINE
  5
87A
330
2
100
AcDbEntity
  8
CENTER
100
AcDbLine
 10
57.81058880316772
 20
299.6347459289506
 30
0.0
 11
278.5102664273011
 21
299.6347459289505
 31
0.0
  0
ARC
  5
87E
330
2
100
AcDbEntity
  8
0
100
AcDbCircle
 10
90.0102614273012
 20
68.60041125266423
 30
0.0
 40
1.0
100
AcDbArc
 50
180.0
 51
255.0243839999999
  0
LINE
  5
87F
330
2
100
AcDbEntity
  8
0
100
AcDbLine
 10
89.0102614273012
 20
127.1255852526642
 30
0.0
 11
89.0102614273012
 21
65.54793125266423
 31
0.0
  0
LINE
  5
880
330
2
100
AcDbEntity
  8
0
100
AcDbLine
 10
88.21026142730119
 20
61.64794625266421
 30
0.0
 11
88.21026142730119
 21
127.3477382526642
 31
0.0
  0
LINE
  5
881
330
2
100
AcDbEntity
  8
0
100
AcDbLine
 10
114.0102604273012
 20
58.7978612526642
 30
0.0
 11
114.0102604273012
 21
134.7978422526642
 31
0.0
  0
LINE
  5
884
330
2
100
AcDbEntity
  8
0
100
AcDbLine
 10
114.0102604273012
 20
66.54887125266421
 30
0.0
 11
100.0102604273012
 21
66.54887125266421
 31
0.0
  0
ARC
  5
885
330
2
100
AcDbEntity
  8
0
100
AcDbCircle
 10
99.0102614273012
 20
66.29784125266422
 30
0.0
 40
1.0
100
AcDbArc
 50
0.0
 51
90.0
  0
LINE
  5
886
330
2
100
AcDbEntity
  8
0
100
AcDbLine
 10
91.00995642730117
 20
59.19931325266421
 30
0.0
 11
114.0102604273012
 21
58.79784125266422
 31
0.0
  0
ARC
  5
887
330
2
100
AcDbEntity
  8
0
100
AcDbCircle
 10
100.5102604273012
 20
59.53356125266421
 30
0.0
 40
0.5
100
AcDbArc
 50
180.0
 51
268.9999999999998
  0
LINE
  5
888
330
2
100
AcDbEntity
  8
0
100
AcDbLine
 10
91.00995642730117
 20
67.29784125266423
 30
0.0
 11
99.0102614273012
 21
67.29784125266423
 31
0.0
  0
LINE
  5
889
330
2
100
AcDbEntity
  8
0
100
AcDbLine
 10
89.75185342730117
 20
67.6343752526642
 30
0.0
 11
91.00995642730117
 21
67.29784125266423
 31
0.0
  0
LINE
  5
88A
330
2
100
AcDbEntity
  8
0
100
AcDbLine
 10
100.0102604273012
 20
66.29784125266422
 30
0.0
 11
98.03125742730117
 21
66.29784125266422
 31
0.0
  0
ARC
  5
88B
330
2
100
AcDbEntity
  8
0
100
AcDbCircle
 10
98.03125742730117
 20
64.9978212526642
 30
0.0
 40
1.3
100
AcDbArc
 50
90.0
 51
163.3984069999991
  0
LINE
  5
88C
330
2
100
AcDbEntity
  8
0
100
AcDbLine
 10
89.75185342730117
 20
59.53584725266421
 30
0.0
 11
91.00995642730117
 21
59.19931325266421
 31
0.0
  0
LINE
  5
88D
330
2
100
AcDbEntity
  8
0
100
AcDbLine
 10
88.53925142730123
 20
61.17809925266422
 30
0.0
 11
88.68127142730122
 21
61.12640825266422
 31
0.0
  0
ARC
  5
88E
330
2
100
AcDbEntity
  8
0
100
AcDbCircle
 10
88.5102614273012
 20
60.6565622526642
 30
0.0
 40
0.5
100
AcDbArc
 50
0.0
 51
69.99999999999992
  0
ARC
  5
88F
330
2
100
AcDbEntity
  8
0
100
AcDbCircle
 10
88.71026142730119
 20
61.64794625266421
 30
0.0
 40
0.5
100
AcDbArc
 50
180.0
 51
249.9999999999999
  0
ARC
  5
890
330
2
100
AcDbEntity
  8
0
100
AcDbCircle
 10
90.0102614273012
 20
60.50188325266422
 30
0.0
 40
1.0
100
AcDbArc
 50
180.0
 51
255.0243839999999
  0
LINE
  5
891
330
2
100
AcDbEntity
  8
0
100
AcDbLine
 10
100.0102604273012
 20
59.29784125266422
 30
0.0
 11
98.03125742730117
 21
59.29784125266422
 31
0.0
  0
ARC
  5
892
330
2
100
AcDbEntity
  8
0
100
AcDbCircle
 10
98.03125742730117
 20
60.5978312526642
 30
0.0
 40
1.3
100
AcDbArc
 50
196.6009060000003
 51
270.0
  0
LINE
  5
893
330
2
100
AcDbEntity
  8
0
100
AcDbLine
 10
89.0102614273012
 20
60.50188325266422
 30
0.0
 11
89.0102614273012
 21
65.54793125266423
 31
0.0
  0
LINE
  5
894
330
2
100
AcDbEntity
  8
0
100
AcDbLine
 10
99.0102614273012
 20
66.29784125266422
 30
0.0
 11
99.0102614273012
 21
59.29784125266422
 31
0.0
  0
LINE
  5
895
330
2
100
AcDbEntity
  8
0
100
AcDbLine
 10
100.0102604273012
 20
66.41591125266422
 30
0.0
 11
100.0102604273012
 21
59.29784125266422
 31
0.0
  0
LINE
  5
896
330
2
100
AcDbEntity
  8
0
100
AcDbLine
 10
100.0102604273012
 20
66.29784125266422
 30
0.0
 11
100.0102604273012
 21
59.65143125266422
 31
0.0
  0
ARC
  5
897
330
2
100
AcDbEntity
  8
0
100
AcDbCircle
 10
105.4102504273012
 20
62.79784125266423
 30
0.0
 40
8.999999
100
AcDbArc
 50
163.3984989999996
 51
196.6009979999997
  0
LINE
  5
898
330
2
100
AcDbEntity
  8
0
100
AcDbLine
 10
79.51038142730124
 20
147.2978422526642
 30
0.0
 11
113.5103804273012
 21
147.2978422526642
 31
0.0
  0
LINE
  5
899
330
2
100
AcDbEntity
  8
0
100
AcDbLine
 10
79.51038142730124
 20
148.2978422526642
 30
0.0
 11
113.5103804273012
 21
148.2978422526642
 31
0.0
  0
LINE
  5
89A
330
2
100
AcDbEntity
  8
0
100
AcDbLine
 10
114.0102604273012
 20
127.0468122526642
 30
0.0
 11
100.0102604273012
 21
127.0468122526642
 31
0.0
  0
ARC
  5
89B
330
2
100
AcDbEntity
  8
0
100
AcDbCircle
 10
99.0102614273012
 20
134.2978422526642
 30
0.0
 40
1.0
100
AcDbArc
 50
0.0
 51
90.0
  0
ARC
  5
89C
330
2
100
AcDbEntity
  8
0
100
AcDbCircle
 10
99.51026142730121
 20
126.7978422526642
 30
0.0
 40
0.5
100
AcDbArc
 50
270.0
 51
0.0
  0
ARC
  5
89D
330
2
100
AcDbEntity
  8
0
100
AcDbCircle
 10
96.51038142730124
 20
-94.20214274733579
 30
0.0
 40
250.0
100
AcDbArc
 50
86.66830399999998
 51
93.33169600000003
  0
LINE
  5
89F
330
2
100
AcDbEntity
  8
0
100
AcDbLine
 10
65.21338142730122
 20
151.9478432526641
 30
0.0
 11
79.51038142730124
 21
151.9478432526641
 31
0.0
  0
LINE
  5
8A0
330
2
100
AcDbEntity
  8
0
100
AcDbLine
 10
64.36158042730119
 20
144.2478392526642
 30
0.0
 11
79.51038142730124
 21
144.2478392526642
 31
0.0
  0
LINE
  5
8A1
330
2
100
AcDbEntity
  8
HOJO
100
AcDbLine
 10
64.47758242730117
 20
149.1127372526642
 30
0.0
 11
65.28968142730121
 21
146.6377392526642
 31
0.0
  0
LINE
  5
8A2
330
2
100
AcDbEntity
  8
HOJO
100
AcDbLine
 10
65.28968142730121
 20
146.6377392526642
 30
0.0
 11
64.36158042730119
 21
144.2478392526642
 31
0.0
  0
LINE
  5
8A3
330
2
100
AcDbEntity
  8
HOJO
100
AcDbLine
 10
65.21338142730122
 20
151.9478432526641
 30
0.0
 11
64.47758242730117
 21
149.1127372526642
 31
0.0
  0
LINE
  5
8A4
330
2
100
AcDbEntity
  8
0
100
AcDbLine
 10
82.01038142730125
 20
148.2978422526642
 30
0.0
 11
82.01038142730125
 21
147.2978422526642
 31
0.0
  0
LINE
  5
8A5
330
2
100
AcDbEntity
  8
CENTER
100
AcDbLine
 10
96.5102614273012
 20
158.8233542526642
 30
0.0
 11
96.51038142730124
 21
141.0245412526642
 31
0.0
  0
LINE
  5
8A6
330
2
100
AcDbEntity
  8
0
100
AcDbLine
 10
81.51038142730124
 20
135.2978422526642
 30
0.0
 11
99.0102614273012
 21
135.2978422526642
 31
0.0
  0
LINE
  5
8A7
330
2
100
AcDbEntity
  8
0
100
AcDbLine
 10
83.45770742730122
 20
128.2451382526642
 30
0.0
 11
88.03643842730123
 21
128.1252422526642
 31
0.0
  0
LINE
  5
8A8
330
2
100
AcDbEntity
  8
0
100
AcDbLine
 10
81.01006142730119
 20
142.3320442526642
 30
0.0
 11
80.51026142730121
 21
142.3320442526642
 31
0.0
  0
LINE
  5
8A9
330
2
100
AcDbEntity
  8
0
100
AcDbLine
 10
79.51038142730124
 20
147.2978422526642
 30
0.0
 11
79.51038142730124
 21
143.3320442526642
 31
0.0
  0
ARC
  5
8AA
330
2
100
AcDbEntity
  8
0
100
AcDbCircle
 10
80.51026142730121
 20
143.3320442526642
 30
0.0
 40
1.0
100
AcDbArc
 50
180.0
 51
270.0
  0
ARC
  5
8AB
330
2
100
AcDbEntity
  8
0
100
AcDbCircle
 10
83.51006142730119
 20
130.2444592526642
 30
0.0
 40
2.0
100
AcDbArc
 50
180.0
 51
268.5000000000005
  0
LINE
  5
8AC
330
2
100
AcDbEntity
  8
0
100
AcDbLine
 10
81.51038142730124
 20
130.2444592526642
 30
0.0
 11
81.51038142730124
 21
147.2978422526642
 31
0.0
  0
ARC
  5
8AD
330
2
100
AcDbEntity
  8
0
100
AcDbCircle
 10
81.01006142730119
 20
141.8320442526642
 30
0.0
 40
0.5
100
AcDbArc
 50
0.0
 51
90.0
  0
LINE
  5
8AE
330
2
100
AcDbEntity
  8
0
100
AcDbLine
 10
99.51026142730121
 20
126.2978422526642
 30
0.0
 11
91.00995642730117
 21
126.2978422526642
 31
0.0
  0
LINE
  5
8AF
330
2
100
AcDbEntity
  8
0
100
AcDbLine
 10
89.75185342730117
 20
125.9613092526642
 30
0.0
 11
91.00995642730117
 21
126.2978422526642
 31
0.0
  0
ARC
  5
8B0
330
2
100
AcDbEntity
  8
0
100
AcDbCircle
 10
88.01026142730121
 20
127.1255852526642
 30
0.0
 40
1.0
100
AcDbArc
 50
0.0
 51
88.50000000000054
  0
ARC
  5
8B1
330
2
100
AcDbEntity
  8
0
100
AcDbCircle
 10
88.71026142730119
 20
127.3477382526642
 30
0.0
 40
0.5
100
AcDbArc
 50
110.0
 51
180.0
  0
LINE
  5
8B2
330
2
100
AcDbEntity
  8
0
100
AcDbLine
 10
88.53925142730123
 20
127.8175862526642
 30
0.0
 11
88.67950142730121
 21
127.8686352526642
 31
0.0
  0
ARC
  5
8B3
330
2
100
AcDbEntity
  8
0
100
AcDbCircle
 10
90.0102614273012
 20
124.9952672526642
 30
0.0
 40
1.0
100
AcDbArc
 50
104.975616
 51
180.0
  0
ARC
  5
8B4
330
2
100
AcDbEntity
  8
0
100
AcDbCircle
 10
98.03125742730117
 20
132.9978542526642
 30
0.0
 40
1.3
100
AcDbArc
 50
90.0
 51
163.3990939999996
  0
ARC
  5
8B5
330
2
100
AcDbEntity
  8
0
100
AcDbCircle
 10
105.4102504273012
 20
130.7978422526642
 30
0.0
 40
8.999999
100
AcDbArc
 50
163.3990020000002
 51
196.6015010000003
  0
LINE
  5
8B6
330
2
100
AcDbEntity
  8
0
100
AcDbLine
 10
99.0102614273012
 20
127.2978422526642
 30
0.0
 11
99.0102614273012
 21
134.2978422526642
 31
0.0
  0
LINE
  5
8B7
330
2
100
AcDbEntity
  8
0
100
AcDbLine
 10
100.0102604273012
 20
126.7978422526642
 30
0.0
 11
100.0102604273012
 21
134.2978422526642
 31
0.0
  0
LINE
  5
8B8
330
2
100
AcDbEntity
  8
0
100
AcDbLine
 10
100.0102604273012
 20
127.2978422526642
 30
0.0
 11
98.03125742730117
 21
127.2978422526642
 31
0.0
  0
ARC
  5
8B9
330
2
100
AcDbEntity
  8
0
100
AcDbCircle
 10
98.03125742730117
 20
128.5978602526641
 30
0.0
 40
1.3
100
AcDbArc
 50
196.601592999999
 51
270.0
  0
LINE
  5
8BA
330
2
100
AcDbEntity
  8
0
100
AcDbLine
 10
100.0102604273012
 20
134.2978422526642
 30
0.0
 11
98.03125742730117
 21
134.2978422526642
 31
0.0
  0
ARC
  5
8BB
330
2
100
AcDbEntity
  8
0
100
AcDbCircle
 10
86.26038142730124
 20
153.7370432526642
 30
0.0
 40
1.0
100
AcDbArc
 50
0.0
 51
73.04309800000067
  0
LINE
  5
8BC
330
2
100
AcDbEntity
  8
0
100
AcDbLine
 10
87.51014042730117
 20
152.2978422526642
 30
0.0
 11
82.01014042730117
 21
152.2978422526642
 31
0.0
  0
LINE
  5
8BD
330
2
100
AcDbEntity
  8
0
100
AcDbLine
 10
81.51038142730124
 20
148.2978422526642
 30
0.0
 11
81.51038142730124
 21
154.8761652526642
 31
0.0
  0
ARC
  5
8BE
330
2
100
AcDbEntity
  8
0
100
AcDbCircle
 10
82.76038142730124
 20
153.7370432526642
 30
0.0
 40
1.0
100
AcDbArc
 50
106.9581990000001
 51
180.0
  0
ARC
  5
8BF
330
2
100
AcDbEntity
  8
0
100
AcDbCircle
 10
81.01038142730123
 20
154.2978422526642
 30
0.0
 40
0.5
100
AcDbArc
 50
270.0
 51
0.0
  0
LINE
  5
8C0
330
2
100
AcDbEntity
  8
0
100
AcDbLine
 10
81.01038142730123
 20
153.7978422526642
 30
0.0
 11
80.51038142730124
 21
153.7978422526642
 31
0.0
  0
LINE
  5
8C1
330
2
100
AcDbEntity
  8
0
100
AcDbLine
 10
79.51038142730124
 20
152.7978422526642
 30
0.0
 11
79.51038142730124
 21
148.2978422526642
 31
0.0
  0
ARC
  5
8C2
330
2
100
AcDbEntity
  8
0
100
AcDbCircle
 10
80.51038142730124
 20
152.7978422526642
 30
0.0
 40
1.0
100
AcDbArc
 50
90.0
 51
180.0
  0
LINE
  5
8C3
330
2
100
AcDbEntity
  8
0
100
AcDbLine
 10
81.76038142730124
 20
152.9978392526642
 30
0.0
 11
87.26038142730123
 21
152.9978392526642
 31
0.0
  0
LINE
  5
8C4
330
2
100
AcDbEntity
  8
0
100
AcDbLine
 10
81.76038142730124
 20
152.2978422526642
 30
0.0
 11
81.76038142730124
 21
153.7370432526642
 31
0.0
  0
ARC
  5
8C5
330
2
100
AcDbEntity
  8
0
100
AcDbCircle
 10
82.01014042730117
 20
151.7978422526642
 30
0.0
 40
0.5
100
AcDbArc
 50
90.0
 51
180.0
  0
LINE
  5
8C6
330
2
100
AcDbEntity
  8
0
100
AcDbLine
 10
87.26038142730123
 20
152.2976432526642
 30
0.0
 11
87.26038142730123
 21
153.7370432526642
 31
0.0
  0
ARC
  5
8C7
330
2
100
AcDbEntity
  8
0
100
AcDbCircle
 10
84.51038142730125
 20
147.9978392526642
 30
0.0
 40
7.0
100
AcDbArc
 50
73.04348799999949
 51
106.9579999999994
  0
ARC
  5
8C8
330
2
100
AcDbEntity
  8
0
100
AcDbCircle
 10
82.01038142730125
 20
154.8761652526642
 30
0.0
 40
0.5
100
AcDbArc
 50
93.33169600000003
 51
180.0
  0
LINE
  5
8C9
330
2
100
AcDbEntity
  8
0
100
AcDbLine
 10
88.01014042730116
 20
152.7978422526642
 30
0.0
 11
88.01014042730116
 21
155.1695692526642
 31
0.0
  0
ARC
  5
8CA
330
2
100
AcDbEntity
  8
0
100
AcDbCircle
 10
87.51014042730117
 20
152.7978422526642
 30
0.0
 40
0.5
100
AcDbArc
 50
270.0
 51
0.0
  0
ARC
  5
8CB
330
2
100
AcDbEntity
  8
0
100
AcDbCircle
 10
88.51014042730117
 20
155.1695692526642
 30
0.0
 40
0.5
100
AcDbArc
 50
91.83745600000049
 51
180.0
  0
LINE
  5
8CC
330
2
100
AcDbEntity
  8
0
100
AcDbLine
 10
113.0103804273012
 20
148.2978422526642
 30
0.0
 11
113.0103804273012
 21
147.2978422526642
 31
0.0
  0
ARC
  5
8CD
330
2
100
AcDbEntity
  8
0
100
AcDbCircle
 10
112.5102604273012
 20
143.3320442526642
 30
0.0
 40
1.0
100
AcDbArc
 50
270.0
 51
0.0
  0
LINE
  5
8CE
330
2
100
AcDbEntity
  8
0
100
AcDbLine
 10
112.4840514273012
 20
134.8378202526642
 30
0.0
 11
114.0102604273012
 21
134.7978422526642
 31
0.0
  0
LINE
  5
8CF
330
2
100
AcDbEntity
  8
0
100
AcDbLine
 10
112.0104604273012
 20
142.3320442526642
 30
0.0
 11
112.5102604273012
 21
142.3320442526642
 31
0.0
  0
ARC
  5
8D0
330
2
100
AcDbEntity
  8
0
100
AcDbCircle
 10
112.5102604273012
 20
135.8374532526642
 30
0.0
 40
1.0
100
AcDbArc
 50
180.0
 51
268.4999080000003
  0
LINE
  5
8D1
330
2
100
AcDbEntity
  8
0
100
AcDbLine
 10
111.5103804273012
 20
135.8374532526642
 30
0.0
 11
111.5103804273012
 21
147.2978422526642
 31
0.0
  0
ARC
  5
8D2
330
2
100
AcDbEntity
  8
0
100
AcDbCircle
 10
112.0104604273012
 20
141.8320442526642
 30
0.0
 40
0.5
100
AcDbArc
 50
90.0
 51
180.0
  0
LINE
  5
8D3
330
2
100
AcDbEntity
  8
0
100
AcDbLine
 10
113.5103804273012
 20
147.2978422526642
 30
0.0
 11
113.5103804273012
 21
143.3320442526642
 31
0.0
  0
ARC
  5
8D4
330
2
100
AcDbEntity
  8
0
100
AcDbCircle
 10
112.5103804273012
 20
152.7978422526642
 30
0.0
 40
1.0
100
AcDbArc
 50
0.0
 51
90.0
  0
ARC
  5
8D5
330
2
100
AcDbEntity
  8
0
100
AcDbCircle
 10
106.7603804273012
 20
153.7370432526642
 30
0.0
 40
1.0
100
AcDbArc
 50
106.9581990000001
 51
180.0
  0
LINE
  5
8D6
330
2
100
AcDbEntity
  8
0
100
AcDbLine
 10
105.0103804273012
 20
152.7978422526642
 30
0.0
 11
105.0103804273012
 21
155.1695692526642
 31
0.0
  0
LINE
  5
8D7
330
2
100
AcDbEntity
  8
0
100
AcDbLine
 10
111.5103804273012
 20
148.2978422526642
 30
0.0
 11
111.5103804273012
 21
154.8761652526642
 31
0.0
  0
ARC
  5
8D8
330
2
100
AcDbEntity
  8
0
100
AcDbCircle
 10
110.2603804273012
 20
153.7370432526642
 30
0.0
 40
1.0
100
AcDbArc
 50
0.0
 51
73.04309800000067
  0
ARC
  5
8D9
330
2
100
AcDbEntity
  8
0
100
AcDbCircle
 10
112.0103804273012
 20
154.2978422526642
 30
0.0
 40
0.5
100
AcDbArc
 50
180.0
 51
270.0
  0
LINE
  5
8DA
330
2
100
AcDbEntity
  8
0
100
AcDbLine
 10
105.7603804273012
 20
152.9978392526642
 30
0.0
 11
111.2603804273012
 21
152.9978392526642
 31
0.0
  0
LINE
  5
8DB
330
2
100
AcDbEntity
  8
0
100
AcDbLine
 10
105.5103804273012
 20
152.2978422526642
 30
0.0
 11
111.0103804273012
 21
152.2978422526642
 31
0.0
  0
LINE
  5
8DC
330
2
100
AcDbEntity
  8
0
100
AcDbLine
 10
105.7603804273012
 20
152.2978422526642
 30
0.0
 11
105.7603804273012
 21
153.7370432526642
 31
0.0
  0
ARC
  5
8DD
330
2
100
AcDbEntity
  8
0
100
AcDbCircle
 10
105.5103804273012
 20
152.7978422526642
 30
0.0
 40
0.5
100
AcDbArc
 50
180.0
 51
270.0
  0
LINE
  5
8DE
330
2
100
AcDbEntity
  8
0
100
AcDbLine
 10
111.2603804273012
 20
152.2976432526642
 30
0.0
 11
111.2603804273012
 21
153.7370432526642
 31
0.0
  0
ARC
  5
8DF
330
2
100
AcDbEntity
  8
0
100
AcDbCircle
 10
111.0103804273012
 20
151.7978422526642
 30
0.0
 40
0.5
100
AcDbArc
 50
0.0
 51
90.0
  0
LINE
  5
8E0
330
2
100
AcDbEntity
  8
0
100
AcDbLine
 10
112.0103804273012
 20
153.7978422526642
 30
0.0
 11
112.5103804273012
 21
153.7978422526642
 31
0.0
  0
ARC
  5
8E1
330
2
100
AcDbEntity
  8
0
100
AcDbCircle
 10
108.5103804273012
 20
147.9978392526642
 30
0.0
 40
7.0
100
AcDbArc
 50
73.04348799999949
 51
106.9579999999994
  0
ARC
  5
8E2
330
2
100
AcDbEntity
  8
0
100
AcDbCircle
 10
104.5103804273012
 20
155.1695692526642
 30
0.0
 40
0.5
100
AcDbArc
 50
0.0
 51
88.1625439999995
  0
ARC
  5
8E3
330
2
100
AcDbEntity
  8
0
100
AcDbCircle
 10
111.0103804273012
 20
154.8761652526642
 30
0.0
 40
0.5
100
AcDbArc
 50
0.0
 51
86.66830399999998
  0
LINE
  5
8E4
330
2
100
AcDbEntity
  8
0
100
AcDbLine
 10
113.5103804273012
 20
152.7978422526642
 30
0.0
 11
113.5103804273012
 21
148.2978422526642
 31
0.0
  0
CIRCLE
  5
8E5
330
2
100
AcDbEntity
  8
0
100
AcDbCircle
 10
108.5102604273012
 20
279.6347459289506
 30
0.0
 40
2.75
  0
ARC
  5
8E6
330
2
100
AcDbEntity
  8
0
100
AcDbCircle
 10
106.7602604273012
 20
281.3847459289506
 30
0.0
 40
1.35
100
AcDbArc
 50
270.0
 51
0.0
  0
ARC
  5
8E7
330
2
100
AcDbEntity
  8
0
100
AcDbCircle
 10
110.2602604273012
 20
281.3847459289506
 30
0.0
 40
1.35
100
AcDbArc
 50
180.0
 51
270.0
  0
ARC
  5
8E8
330
2
100
AcDbEntity
  8
0
100
AcDbCircle
 10
108.5102604273012
 20
279.6347459289506
 30
0.0
 40
3.5
100
AcDbArc
 50
90.0
 51
180.0
  0
CIRCLE
  5
8E9
330
2
100
AcDbEntity
  8
0
100
AcDbCircle
 10
84.51026142730119
 20
279.6347459289506
 30
0.0
 40
2.75
  0
ARC
  5
8EA
330
2
100
AcDbEntity
  8
0
100
AcDbCircle
 10
86.2602614273012
 20
281.3847459289506
 30
0.0
 40
1.35
100
AcDbArc
 50
180.0
 51
270.0
  0
ARC
  5
8EB
330
2
100
AcDbEntity
  8
0
100
AcDbCircle
 10
82.7602614273012
 20
281.3847459289506
 30
0.0
 40
1.35
100
AcDbArc
 50
270.0
 51
0.0
  0
ARC
  5
8EC
330
2
100
AcDbEntity
  8
0
100
AcDbCircle
 10
84.51026142730119
 20
279.6347459289506
 30
0.0
 40
3.5
100
AcDbArc
 50
0.0
 51
90.0
  0
LINE
  5
8ED
330
2
100
AcDbEntity
  8
0
100
AcDbLine
 10
114.0102604273012
 20
261.6347459289506
 30
0.0
 11
114.0102604273012
 21
337.6347459289506
 31
0.0
  0
LINE
  5
8EE
330
2
100
AcDbEntity
  8
0
100
AcDbLine
 10
111.5102604273012
 20
320.6347459289506
 30
0.0
 11
111.5102604273012
 21
278.6347459289506
 31
0.0
  0
LINE
  5
8EF
330
2
100
AcDbEntity
  8
0
100
AcDbLine
 10
81.51016142730123
 20
278.6347459289506
 30
0.0
 11
81.51016142730123
 21
320.6347459289506
 31
0.0
  0
LINE
  5
8F0
330
2
100
AcDbEntity
  8
CENTER
100
AcDbLine
 10
96.5102614273012
 20
329.6347459289505
 30
0.0
 11
96.5102614273012
 21
269.6347459289506
 31
0.0
  0
LINE
  5
8F1
330
2
100
AcDbEntity
  8
0
100
AcDbLine
 10
91.00996142730123
 20
262.0362349289505
 30
0.0
 11
114.0102604273012
 21
261.6347459289506
 31
0.0
  0
LINE
  5
8F2
330
2
100
AcDbEntity
  8
0
100
AcDbLine
 10
109.5102604273012
 20
276.6347459289506
 30
0.0
 11
83.51016142730122
 21
276.6347459289506
 31
0.0
  0
ARC
  5
8F3
330
2
100
AcDbEntity
  8
0
100
AcDbCircle
 10
83.51016142730122
 20
278.6347459289506
 30
0.0
 40
2.0
100
AcDbArc
 50
180.0
 51
270.0
  0
ARC
  5
8F4
330
2
100
AcDbEntity
  8
0
100
AcDbCircle
 10
86.2602614273012
 20
277.8847459289506
 30
0.0
 40
1.35
100
AcDbArc
 50
90.0
 51
180.0
  0
ARC
  5
8F5
330
2
100
AcDbEntity
  8
0
100
AcDbCircle
 10
82.7602614273012
 20
277.8847459289506
 30
0.0
 40
1.35
100
AcDbArc
 50
0.0
 51
90.0
  0
LINE
  5
8F6
330
2
100
AcDbEntity
  8
0
100
AcDbLine
 10
84.11023742730117
 20
277.8847459289506
 30
0.0
 11
84.91025542730119
 21
277.8847459289506
 31
0.0
  0
LINE
  5
8F7
330
2
100
AcDbEntity
  8
0
100
AcDbLine
 10
82.7602614273012
 20
280.0347399289506
 30
0.0
 11
82.7602614273012
 21
279.2347209289506
 31
0.0
  0
LINE
  5
8F8
330
2
100
AcDbEntity
  8
0
100
AcDbLine
 10
86.2602614273012
 20
280.0347399289506
 30
0.0
 11
86.2602614273012
 21
279.2347209289506
 31
0.0
  0
LINE
  5
8F9
330
2
100
AcDbEntity
  8
0
100
AcDbLine
 10
88.01026142730121
 20
277.6347459289506
 30
0.0
 11
88.01026142730121
 21
279.6347459289506
 31
0.0
  0
LINE
  5
8FA
330
2
100
AcDbEntity
  8
0
100
AcDbLine
 10
88.21026142730119
 20
267.9288589289506
 30
0.0
 11
88.21026142730119
 21
276.6347459289506
 31
0.0
  0
LINE
  5
8FB
330
2
100
AcDbEntity
  8
0
100
AcDbLine
 10
89.0102614273012
 20
263.3388319289506
 30
0.0
 11
89.0102614273012
 21
276.6347459289506
 31
0.0
  0
LINE
  5
8FC
330
2
100
AcDbEntity
  8
0
100
AcDbLine
 10
89.75186142730121
 20
262.3728439289505
 30
0.0
 11
91.00996142730123
 21
262.0362349289505
 31
0.0
  0
ARC
  5
8FD
330
2
100
AcDbEntity
  8
0
100
AcDbCircle
 10
90.0102614273012
 20
263.3388319289506
 30
0.0
 40
1.0
100
AcDbArc
 50
180.0
 51
255.0256039999998
  0
ARC
  5
8FE
330
2
100
AcDbEntity
  8
0
100
AcDbCircle
 10
88.71026142730119
 20
267.9288589289506
 30
0.0
 40
0.5
100
AcDbArc
 50
180.0
 51
249.9999540000002
  0
ARC
  5
8FF
330
2
100
AcDbEntity
  8
0
100
AcDbCircle
 10
88.5102614273012
 20
266.9374799289506
 30
0.0
 40
0.5
100
AcDbArc
 50
0.0
 51
69.99999999999992
  0
LINE
  5
900
330
2
100
AcDbEntity
  8
0
100
AcDbLine
 10
88.53925142730123
 20
267.4590099289506
 30
0.0
 11
88.68127142730122
 21
267.4073289289505
 31
0.0
  0
ARC
  5
901
330
2
100
AcDbEntity
  8
0
100
AcDbCircle
 10
89.0102614273012
 20
277.6347459289506
 30
0.0
 40
1.0
100
AcDbArc
 50
180.0
 51
270.0
  0
LINE
  5
902
330
2
100
AcDbEntity
  8
0
100
AcDbLine
 10
109.8879464273012
 20
276.6707259289506
 30
0.0
 11
114.0102604273012
 21
276.6347459289506
 31
0.0
  0
ARC
  5
903
330
2
100
AcDbEntity
  8
0
100
AcDbCircle
 10
110.2602604273012
 20
277.8847459289506
 30
0.0
 40
1.35
100
AcDbArc
 50
90.0
 51
180.0
  0
ARC
  5
904
330
2
100
AcDbEntity
  8
0
100
AcDbCircle
 10
109.5102604273012
 20
278.6347459289506
 30
0.0
 40
2.0
100
AcDbArc
 50
270.0
 51
0.0
  0
LINE
  5
905
330
2
100
AcDbEntity
  8
0
100
AcDbLine
 10
105.0102604273012
 20
277.6347459289506
 30
0.0
 11
105.0102604273012
 21
279.6347459289506
 31
0.0
  0
ARC
  5
906
330
2
100
AcDbEntity
  8
0
100
AcDbCircle
 10
106.7602604273012
 20
277.8847459289506
 30
0.0
 40
1.35
100
AcDbArc
 50
0.0
 51
90.0
  0
ARC
  5
907
330
2
100
AcDbEntity
  8
0
100
AcDbCircle
 10
104.0102604273012
 20
277.6347459289506
 30
0.0
 40
1.0
100
AcDbArc
 50
270.0
 51
0.0
  0
LINE
  5
908
330
2
100
AcDbEntity
  8
0
100
AcDbLine
 10
108.1102384273011
 20
277.8847459289506
 30
0.0
 11
108.9102544273012
 21
277.8847459289506
 31
0.0
  0
LINE
  5
909
330
2
100
AcDbEntity
  8
0
100
AcDbLine
 10
106.7602604273012
 20
280.0347399289506
 30
0.0
 11
106.7602604273012
 21
279.2347209289506
 31
0.0
  0
LINE
  5
90A
330
2
100
AcDbEntity
  8
0
100
AcDbLine
 10
110.2602604273012
 20
280.0347399289506
 30
0.0
 11
110.2602604273012
 21
279.2347209289506
 31
0.0
  0
LINE
  5
90B
330
2
100
AcDbEntity
  8
0
100
AcDbLine
 10
109.5102604273012
 20
322.6347459289506
 30
0.0
 11
83.51016142730122
 21
322.6347459289506
 31
0.0
  0
LINE
  5
90C
330
2
100
AcDbEntity
  8
0
100
AcDbLine
 10
91.00996142730123
 20
337.2331339289506
 30
0.0
 11
114.0102604273012
 21
337.6347459289506
 31
0.0
  0
LINE
  5
90D
330
2
100
AcDbEntity
  8
0
100
AcDbLine
 10
89.0102614273012
 20
335.9306439289505
 30
0.0
 11
89.0102614273012
 21
322.6347459289506
 31
0.0
  0
LINE
  5
90E
330
2
100
AcDbEntity
  8
0
100
AcDbLine
 10
65.21338142730122
 20
303.4847369289506
 30
0.0
 11
79.51038142730124
 21
303.4847369289506
 31
0.0
  0
LINE
  5
90F
330
2
100
AcDbEntity
  8
0
100
AcDbLine
 10
64.36158042730119
 20
295.7847399289505
 30
0.0
 11
79.51038142730124
 21
295.7847399289505
 31
0.0
  0
LINE
  5
910
330
2
100
AcDbEntity
  8
HOJO
100
AcDbLine
 10
65.21338142730122
 20
303.4847369289506
 30
0.0
 11
64.47758242730117
 21
300.6496379289506
 31
0.0
  0
LINE
  5
911
330
2
100
AcDbEntity
  8
HOJO
100
AcDbLine
 10
65.28968142730121
 20
298.1746319289506
 30
0.0
 11
64.36158042730119
 21
295.7847399289505
 31
0.0
  0
LINE
  5
912
330
2
100
AcDbEntity
  8
HOJO
100
AcDbLine
 10
64.47758242730117
 20
300.6496379289506
 30
0.0
 11
65.28968142730121
 21
298.1746319289506
 31
0.0
  0
LINE
  5
913
330
2
100
AcDbEntity
  8
0
100
AcDbLine
 10
81.0102614273012
 20
293.6347459289506
 30
0.0
 11
80.51026142730121
 21
293.6347459289506
 31
0.0
  0
LINE
  5
914
330
2
100
AcDbEntity
  8
0
100
AcDbLine
 10
81.0102614273012
 20
305.6347459289506
 30
0.0
 11
80.51026142730121
 21
305.6347459289506
 31
0.0
  0
LINE
  5
915
330
2
100
AcDbEntity
  8
0
100
AcDbLine
 10
79.5102614273012
 20
304.6347459289506
 30
0.0
 11
79.5102614273012
 21
294.6347459289506
 31
0.0
  0
ARC
  5
916
330
2
100
AcDbEntity
  8
0
100
AcDbCircle
 10
80.51026142730121
 20
294.6347459289506
 30
0.0
 40
1.0
100
AcDbArc
 50
180.0
 51
270.0
  0
ARC
  5
917
330
2
100
AcDbEntity
  8
0
100
AcDbCircle
 10
80.51026142730121
 20
304.6347459289506
 30
0.0
 40
1.0
100
AcDbArc
 50
90.0
 51
180.0
  0
ARC
  5
918
330
2
100
AcDbEntity
  8
0
100
AcDbCircle
 10
81.0102614273012
 20
293.1347459289506
 30
0.0
 40
0.5
100
AcDbArc
 50
0.0
 51
90.0
  0
ARC
  5
919
330
2
100
AcDbEntity
  8
0
100
AcDbCircle
 10
81.0102614273012
 20
306.1347459289506
 30
0.0
 40
0.5
100
AcDbArc
 50
270.0
 51
0.0
  0
LINE
  5
91A
330
2
100
AcDbEntity
  8
0
100
AcDbLine
 10
84.11023742730117
 20
281.3847459289506
 30
0.0
 11
84.91025542730119
 21
281.3847459289506
 31
0.0
  0
LINE
  5
91B
330
2
100
AcDbEntity
  8
0
100
AcDbLine
 10
82.51016142730122
 20
283.1347459289506
 30
0.0
 11
84.51026142730119
 21
283.1347459289506
 31
0.0
  0
ARC
  5
91C
330
2
100
AcDbEntity
  8
0
100
AcDbCircle
 10
82.51016142730122
 20
284.1347459289506
 30
0.0
 40
1.0
100
AcDbArc
 50
180.0
 51
270.0
  0
ARC
  5
91D
330
2
100
AcDbEntity
  8
0
100
AcDbCircle
 10
84.51026142730119
 20
319.6347459289506
 30
0.0
 40
3.5
100
AcDbArc
 50
270.0
 51
0.0
  0
CIRCLE
  5
91E
330
2
100
AcDbEntity
  8
0
100
AcDbCircle
 10
84.51026142730119
 20
319.6347459289506
 30
0.0
 40
2.75
  0
ARC
  5
91F
330
2
100
AcDbEntity
  8
0
100
AcDbCircle
 10
86.2602614273012
 20
321.3847459289506
 30
0.0
 40
1.35
100
AcDbArc
 50
180.0
 51
270.0
  0
ARC
  5
920
330
2
100
AcDbEntity
  8
0
100
AcDbCircle
 10
82.7602614273012
 20
321.3847459289506
 30
0.0
 40
1.35
100
AcDbArc
 50
270.0
 51
0.0
  0
ARC
  5
921
330
2
100
AcDbEntity
  8
0
100
AcDbCircle
 10
82.51016142730122
 20
315.1347459289506
 30
0.0
 40
1.0
100
AcDbArc
 50
90.0
 51
180.0
  0
ARC
  5
922
330
2
100
AcDbEntity
  8
0
100
AcDbCircle
 10
86.2602614273012
 20
317.8847459289506
 30
0.0
 40
1.35
100
AcDbArc
 50
90.0
 51
180.0
  0
ARC
  5
923
330
2
100
AcDbEntity
  8
0
100
AcDbCircle
 10
82.7602614273012
 20
317.8847459289506
 30
0.0
 40
1.35
100
AcDbArc
 50
0.0
 51
90.0
  0
LINE
  5
924
330
2
100
AcDbEntity
  8
0
100
AcDbLine
 10
82.7602614273012
 20
320.0347399289506
 30
0.0
 11
82.7602614273012
 21
319.2347209289505
 31
0.0
  0
LINE
  5
925
330
2
100
AcDbEntity
  8
0
100
AcDbLine
 10
84.11023742730117
 20
317.8847459289506
 30
0.0
 11
84.91025542730119
 21
317.8847459289506
 31
0.0
  0
LINE
  5
926
330
2
100
AcDbEntity
  8
0
100
AcDbLine
 10
86.2602614273012
 20
320.0347399289506
 30
0.0
 11
86.2602614273012
 21
319.2347209289505
 31
0.0
  0
LINE
  5
927
330
2
100
AcDbEntity
  8
0
100
AcDbLine
 10
82.51016142730122
 20
316.1347459289506
 30
0.0
 11
84.51026142730119
 21
316.1347459289506
 31
0.0
  0
ARC
  5
928
330
2
100
AcDbEntity
  8
0
100
AcDbCircle
 10
83.51016142730122
 20
320.6347459289506
 30
0.0
 40
2.0
100
AcDbArc
 50
90.0
 51
180.0
  0
LINE
  5
929
330
2
100
AcDbEntity
  8
0
100
AcDbLine
 10
84.11023742730117
 20
321.3847459289506
 30
0.0
 11
84.91025542730119
 21
321.3847459289506
 31
0.0
  0
LINE
  5
92A
330
2
100
AcDbEntity
  8
0
100
AcDbLine
 10
88.21026142730119
 20
331.3406169289506
 30
0.0
 11
88.21026142730119
 21
322.6347459289506
 31
0.0
  0
LINE
  5
92B
330
2
100
AcDbEntity
  8
0
100
AcDbLine
 10
88.01026142730121
 20
321.6347459289506
 30
0.0
 11
88.01026142730121
 21
319.6347459289506
 31
0.0
  0
ARC
  5
92C
330
2
100
AcDbEntity
  8
0
100
AcDbCircle
 10
89.0102614273012
 20
321.6347459289506
 30
0.0
 40
1.0
100
AcDbArc
 50
90.0
 51
180.0
  0
ARC
  5
92D
330
2
100
AcDbEntity
  8
0
100
AcDbCircle
 10
88.71026142730119
 20
331.3406169289506
 30
0.0
 40
0.5
100
AcDbArc
 50
110.0000379999994
 51
180.0
  0
ARC
  5
92E
330
2
100
AcDbEntity
  8
0
100
AcDbCircle
 10
88.5102614273012
 20
332.3319959289505
 30
0.0
 40
0.5
100
AcDbArc
 50
290.0
 51
0.0
  0
LINE
  5
92F
330
2
100
AcDbEntity
  8
0
100
AcDbLine
 10
88.53925142730123
 20
331.8104659289506
 30
0.0
 11
88.68127142730122
 21
331.8621469289506
 31
0.0
  0
LINE
  5
930
330
2
100
AcDbEntity
  8
0
100
AcDbLine
 10
89.75186142730121
 20
336.8966319289506
 30
0.0
 11
91.00996142730123
 21
337.2331339289506
 31
0.0
  0
ARC
  5
931
330
2
100
AcDbEntity
  8
0
100
AcDbCircle
 10
90.0102614273012
 20
335.9306439289505
 30
0.0
 40
1.0
100
AcDbArc
 50
104.9743960000002
 51
180.0
  0
ARC
  5
932
330
2
100
AcDbEntity
  8
0
100
AcDbCircle
 10
112.5102604273012
 20
294.6347459289506
 30
0.0
 40
1.0
100
AcDbArc
 50
270.0
 51
0.0
  0
ARC
  5
933
330
2
100
AcDbEntity
  8
0
100
AcDbCircle
 10
112.5102604273012
 20
304.6347459289506
 30
0.0
 40
1.0
100
AcDbArc
 50
0.0
 51
90.0
  0
ARC
  5
934
330
2
100
AcDbEntity
  8
0
100
AcDbCircle
 10
112.0102604273012
 20
293.1347459289506
 30
0.0
 40
0.5
100
AcDbArc
 50
90.0
 51
180.0
  0
LINE
  5
935
330
2
100
AcDbEntity
  8
0
100
AcDbLine
 10
112.0102604273012
 20
293.6347459289506
 30
0.0
 11
112.5102604273012
 21
293.6347459289506
 31
0.0
  0
ARC
  5
936
330
2
100
AcDbEntity
  8
0
100
AcDbCircle
 10
112.0102604273012
 20
306.1347459289506
 30
0.0
 40
0.5
100
AcDbArc
 50
180.0
 51
270.0
  0
LINE
  5
937
330
2
100
AcDbEntity
  8
0
100
AcDbLine
 10
112.0102604273012
 20
305.6347459289506
 30
0.0
 11
112.5102604273012
 21
305.6347459289506
 31
0.0
  0
LINE
  5
938
330
2
100
AcDbEntity
  8
0
100
AcDbLine
 10
110.5103614273011
 20
283.1347459289506
 30
0.0
 11
108.5102604273012
 21
283.1347459289506
 31
0.0
  0
LINE
  5
939
330
2
100
AcDbEntity
  8
0
100
AcDbLine
 10
108.1102384273011
 20
281.3847459289506
 30
0.0
 11
108.9102544273012
 21
281.3847459289506
 31
0.0
  0
ARC
  5
93A
330
2
100
AcDbEntity
  8
0
100
AcDbCircle
 10
110.5103614273011
 20
284.1347459289506
 30
0.0
 40
1.0
100
AcDbArc
 50
270.0
 51
0.0
  0
LINE
  5
93B
330
2
100
AcDbEntity
  8
0
100
AcDbLine
 10
113.5102604273012
 20
304.6347459289506
 30
0.0
 11
113.5102604273012
 21
294.6347459289506
 31
0.0
  0
LINE
  5
93C
330
2
100
AcDbEntity
  8
0
100
AcDbLine
 10
109.8879464273012
 20
322.5987499289505
 30
0.0
 11
114.0102604273012
 21
322.6347459289506
 31
0.0
  0
CIRCLE
  5
93D
330
2
100
AcDbEntity
  8
0
100
AcDbCircle
 10
108.5102604273012
 20
319.6347459289506
 30
0.0
 40
2.75
  0
ARC
  5
93E
330
2
100
AcDbEntity
  8
0
100
AcDbCircle
 10
106.7602604273012
 20
321.3847459289506
 30
0.0
 40
1.35
100
AcDbArc
 50
270.0
 51
0.0
  0
ARC
  5
93F
330
2
100
AcDbEntity
  8
0
100
AcDbCircle
 10
108.5102604273012
 20
319.6347459289506
 30
0.0
 40
3.5
100
AcDbArc
 50
180.0
 51
270.0
  0
ARC
  5
940
330
2
100
AcDbEntity
  8
0
100
AcDbCircle
 10
106.7602604273012
 20
317.8847459289506
 30
0.0
 40
1.35
100
AcDbArc
 50
0.0
 51
90.0
  0
LINE
  5
941
330
2
100
AcDbEntity
  8
0
100
AcDbLine
 10
105.0102604273012
 20
321.6347459289506
 30
0.0
 11
105.0102604273012
 21
319.6347459289506
 31
0.0
  0
LINE
  5
942
330
2
100
AcDbEntity
  8
0
100
AcDbLine
 10
106.7602604273012
 20
320.0347399289506
 30
0.0
 11
106.7602604273012
 21
319.2347209289505
 31
0.0
  0
ARC
  5
943
330
2
100
AcDbEntity
  8
0
100
AcDbCircle
 10
104.0102604273012
 20
321.6347459289506
 30
0.0
 40
1.0
100
AcDbArc
 50
0.0
 51
90.0
  0
ARC
  5
944
330
2
100
AcDbEntity
  8
0
100
AcDbCircle
 10
110.2602604273012
 20
317.8847459289506
 30
0.0
 40
1.35
100
AcDbArc
 50
90.0
 51
180.0
  0
ARC
  5
945
330
2
100
AcDbEntity
  8
0
100
AcDbCircle
 10
110.2602604273012
 20
321.3847459289506
 30
0.0
 40
1.35
100
AcDbArc
 50
180.0
 51
270.0
  0
ARC
  5
946
330
2
100
AcDbEntity
  8
0
100
AcDbCircle
 10
109.5102604273012
 20
320.6347459289506
 30
0.0
 40
2.0
100
AcDbArc
 50
0.0
 51
90.0
  0
LINE
  5
947
330
2
100
AcDbEntity
  8
0
100
AcDbLine
 10
110.5103614273011
 20
316.1347459289506
 30
0.0
 11
108.5102604273012
 21
316.1347459289506
 31
0.0
  0
LINE
  5
948
330
2
100
AcDbEntity
  8
0
100
AcDbLine
 10
108.1102384273011
 20
317.8847459289506
 30
0.0
 11
108.9102544273012
 21
317.8847459289506
 31
0.0
  0
LINE
  5
949
330
2
100
AcDbEntity
  8
0
100
AcDbLine
 10
108.1102384273011
 20
321.3847459289506
 30
0.0
 11
108.9102544273012
 21
321.3847459289506
 31
0.0
  0
LINE
  5
94A
330
2
100
AcDbEntity
  8
0
100
AcDbLine
 10
110.2602604273012
 20
320.0347399289506
 30
0.0
 11
110.2602604273012
 21
319.2347209289505
 31
0.0
  0
ARC
  5
94B
330
2
100
AcDbEntity
  8
0
100
AcDbCircle
 10
110.5103614273011
 20
315.1347459289506
 30
0.0
 40
1.0
100
AcDbArc
 50
0.0
 51
90.0
  0
LINE
  5
955
330
2
100
AcDbEntity
  8
CENTER
100
AcDbLine
 10
350.0952096277947
 20
119.0978452526642
 30
0.0
 11
492.0951946277947
 21
119.0978452526642
 31
0.0
  0
ARC
  5
957
330
2
100
AcDbEntity
  8
0
100
AcDbCircle
 10
229.0102664273011
 20
106.0978412526642
 30
0.0
 40
42.5
100
AcDbArc
 50
19.74990099999923
 51
160.2501069999997
  0
ARC
  5
958
330
2
100
AcDbEntity
  8
0
100
AcDbCircle
 10
229.0102664273011
 20
106.0978412526642
 30
0.0
 40
42.5
100
AcDbArc
 50
199.7498930000002
 51
340.2500920000002
  0
LINE
  5
959
330
2
100
AcDbEntity
  8
0
100
AcDbLine
 10
188.5102744273012
 20
62.09784125266421
 30
0.0
 11
269.5102664273012
 21
62.09784125266421
 31
0.0
  0
LINE
  5
95A
330
2
100
AcDbEntity
  8
0
100
AcDbLine
 10
186.5102584273012
 20
54.09784125266421
 30
0.0
 11
271.5102664273012
 21
54.09784125266421
 31
0.0
  0
LINE
  5
95B
330
2
100
AcDbEntity
  8
0
100
AcDbLine
 10
269.3825654273012
 20
133.8910962526642
 30
0.0
 11
245.3031284273011
 21
150.7904492526641
 31
0.0
  0
LINE
  5
95C
330
2
100
AcDbEntity
  8
CENTER
100
AcDbLine
 10
202.2603289348991
 20
119.0978452526642
 30
0.0
 11
256.2602039197032
 21
119.0978452526642
 31
0.0
  0
LINE
  5
961
330
2
100
AcDbEntity
  8
0
100
AcDbLine
 10
186.5102584273012
 20
129.7984442526642
 30
0.0
 11
186.5102584273012
 21
54.09784125266421
 31
0.0
  0
LINE
  5
962
330
2
100
AcDbEntity
  8
CENTER
100
AcDbLine
 10
229.0102664273011
 20
158.6978432526642
 30
0.0
 11
229.0102664273011
 21
47.09784125266423
 31
0.0
  0
ARC
  5
963
330
2
100
AcDbEntity
  8
0
100
AcDbCircle
 10
188.5102744273012
 20
60.09785125266422
 30
0.0
 40
2.0
100
AcDbArc
 50
90.0
 51
180.0
  0
LINE
  5
964
330
2
100
AcDbEntity
  8
HIDS
  6
SEKKEI_H
100
AcDbLine
 10
191.7602584273012
 20
62.09784125266421
 30
0.0
 11
191.7602584273012
 21
54.09784125266421
 31
0.0
  0
LINE
  5
965
330
2
100
AcDbEntity
  8
HIDS
  6
SEKKEI_H
100
AcDbLine
 10
198.2602584273012
 20
62.09784125266421
 30
0.0
 11
198.2602584273012
 21
54.09784125266421
 31
0.0
  0
LINE
  5
966
330
2
100
AcDbEntity
  8
CENTER
100
AcDbLine
 10
195.0102584273012
 20
65.59784125266421
 30
0.0
 11
195.0102584273012
 21
50.59784125266421
 31
0.0
  0
LINE
  5
967
330
2
100
AcDbEntity
  8
0
100
AcDbLine
 10
188.6379514273012
 20
133.8911032526642
 30
0.0
 11
212.7173584273011
 21
150.7904952526642
 31
0.0
  0
LINE
  5
969
330
2
100
AcDbEntity
  8
0
100
AcDbLine
 10
189.0102584273012
 20
120.4591122526642
 30
0.0
 11
189.0102584273012
 21
91.73630325266421
 31
0.0
  0
ARC
  5
96A
330
2
100
AcDbEntity
  8
0
100
AcDbCircle
 10
191.5102814273012
 20
129.7984602526641
 30
0.0
 40
5.0
100
AcDbArc
 50
125.0623019999999
 51
180.0
  0
LINE
  5
96B
330
2
100
AcDbEntity
  8
0
100
AcDbLine
 10
233.5102664273012
 20
116.5978412526642
 30
0.0
 11
233.5102664273012
 21
121.5978452526642
 31
0.0
  0
LINE
  5
96C
330
2
100
AcDbEntity
  8
0
100
AcDbLine
 10
238.5102664273011
 20
121.5978452526642
 30
0.0
 11
238.5102664273011
 21
116.5978412526642
 31
0.0
  0
CIRCLE
  5
96D
330
2
100
AcDbEntity
  8
0
100
AcDbCircle
 10
229.0102664273011
 20
119.0978452526642
 30
0.0
 40
20.0
  0
ARC
  5
96E
330
2
100
AcDbEntity
  8
0
100
AcDbCircle
 10
229.0102664273011
 20
119.0978452526642
 30
0.0
 40
7.5
100
AcDbArc
 50
19.47120999999928
 51
340.5288090000008
  0
LINE
  5
96F
330
2
100
AcDbEntity
  8
0
100
AcDbLine
 10
225.8227664273011
 20
92.6603412526642
 30
0.0
 11
232.1977664273012
 21
92.6603412526642
 31
0.0
  0
LINE
  5
970
330
2
100
AcDbEntity
  8
0
100
AcDbLine
 10
225.8227664273011
 20
90.66815325266421
 30
0.0
 11
226.5303624273012
 21
90.66815325266421
 31
0.0
  0
LINE
  5
971
330
2
100
AcDbEntity
  8
0
100
AcDbLine
 10
217.4176604273012
 20
92.6603412526642
 30
0.0
 11
221.7042664273012
 21
92.6603412526642
 31
0.0
  0
LINE
  5
972
330
2
100
AcDbEntity
  8
0
100
AcDbLine
 10
221.1227544273011
 20
91.39032125266423
 30
0.0
 11
218.0508544273012
 21
91.39032125266423
 31
0.0
  0
LINE
  5
973
330
2
100
AcDbEntity
  8
0
100
AcDbLine
 10
217.4176604273012
 20
92.6603412526642
 30
0.0
 11
216.2602664273011
 21
91.1783422526642
 31
0.0
  0
LINE
  5
974
330
2
100
AcDbEntity
  8
0
100
AcDbLine
 10
218.0508544273012
 20
91.39032125266423
 30
0.0
 11
217.3310674273011
 21
90.49781925266421
 31
0.0
  0
LINE
  5
975
330
2
100
AcDbEntity
  8
0
100
AcDbLine
 10
221.7138644273012
 20
90.81887625266421
 30
0.0
 11
221.7138644273012
 21
90.66815325266421
 31
0.0
  0
LINE
  5
976
330
2
100
AcDbEntity
  8
0
100
AcDbLine
 10
222.6352664273012
 20
91.6271992526642
 30
0.0
 11
222.6352664273012
 21
90.66815325266421
 31
0.0
  0
LINE
  5
977
330
2
100
AcDbEntity
  8
0
100
AcDbLine
 10
221.7138644273012
 20
90.66815325266421
 30
0.0
 11
222.6352664273012
 21
90.66815325266421
 31
0.0
  0
LINE
  5
978
330
2
100
AcDbEntity
  8
0
100
AcDbLine
 10
221.7042664273012
 20
92.6603412526642
 30
0.0
 11
222.6352664273012
 21
91.6271992526642
 31
0.0
  0
LINE
  5
979
330
2
100
AcDbEntity
  8
0
100
AcDbLine
 10
221.7138644273012
 20
90.81887625266421
 30
0.0
 11
221.1106534273012
 21
91.39032125266423
 31
0.0
  0
LINE
  5
97A
330
2
100
AcDbEntity
  8
0
100
AcDbLine
 10
225.8227664273011
 20
90.66815325266421
 30
0.0
 11
225.8227664273011
 21
92.6603412526642
 31
0.0
  0
LINE
  5
97B
330
2
100
AcDbEntity
  8
0
100
AcDbLine
 10
217.4900634273011
 20
83.09784125266421
 30
0.0
 11
220.8053564273011
 21
83.09784125266421
 31
0.0
  0
LINE
  5
97C
330
2
100
AcDbEntity
  8
0
100
AcDbLine
 10
219.7216614273012
 20
84.21844125266421
 30
0.0
 11
218.0623594273011
 21
84.21844125266421
 31
0.0
  0
LINE
  5
97D
330
2
100
AcDbEntity
  8
0
100
AcDbLine
 10
216.2602664273011
 20
84.33870125266421
 30
0.0
 11
217.4900634273011
 21
83.09784125266421
 31
0.0
  0
LINE
  5
97E
330
2
100
AcDbEntity
  8
0
100
AcDbLine
 10
217.3310674273011
 20
84.98876025266421
 30
0.0
 11
218.0623594273011
 21
84.21844125266421
 31
0.0
  0
ARC
  5
97F
330
2
100
AcDbEntity
  8
0
100
AcDbCircle
 10
219.7216614273012
 20
86.21063025266421
 30
0.0
 40
1.992186999999999
100
AcDbArc
 50
270.000213999999
 51
0.0001089999998967
  0
LINE
  5
980
330
2
100
AcDbEntity
  8
0
100
AcDbLine
 10
222.6352664273012
 20
88.65106425266422
 30
0.0
 11
222.6352664273012
 21
83.09784125266421
 31
0.0
  0
LINE
  5
981
330
2
100
AcDbEntity
  8
0
100
AcDbLine
 10
221.7138644273012
 20
83.86010125266421
 30
0.0
 11
220.8053564273011
 21
83.09784125266421
 31
0.0
  0
LINE
  5
982
330
2
100
AcDbEntity
  8
0
100
AcDbLine
 10
221.7138644273012
 20
83.09784125266421
 30
0.0
 11
222.6352664273012
 21
83.09784125266421
 31
0.0
  0
LINE
  5
983
330
2
100
AcDbEntity
  8
0
100
AcDbLine
 10
221.7138644273012
 20
83.86010125266421
 30
0.0
 11
221.7138644273012
 21
83.09784125266421
 31
0.0
  0
LINE
  5
984
330
2
100
AcDbEntity
  8
0
100
AcDbLine
 10
220.0454684273012
 20
88.65106425266422
 30
0.0
 11
222.6352664273012
 21
88.65106425266422
 31
0.0
  0
LINE
  5
985
330
2
100
AcDbEntity
  8
0
100
AcDbLine
 10
220.0454684273012
 20
88.65106425266422
 30
0.0
 11
220.0454684273012
 21
87.60516525266423
 31
0.0
  0
LINE
  5
986
330
2
100
AcDbEntity
  8
0
100
AcDbLine
 10
221.7138644273012
 20
87.60516525266423
 30
0.0
 11
221.7138644273012
 21
86.21063025266421
 31
0.0
  0
LINE
  5
987
330
2
100
AcDbEntity
  8
0
100
AcDbLine
 10
221.7138644273012
 20
86.60907125266422
 30
0.0
 11
221.7138644273012
 21
87.40594625266423
 31
0.0
  0
LINE
  5
988
330
2
100
AcDbEntity
  8
0
100
AcDbLine
 10
221.7138644273012
 20
87.60516525266423
 30
0.0
 11
220.0454684273012
 21
87.60516525266423
 31
0.0
  0
LINE
  5
989
330
2
100
AcDbEntity
  8
0
100
AcDbLine
 10
217.3310674273011
 20
90.49781925266421
 30
0.0
 11
217.3310674273011
 21
84.98876025266421
 31
0.0
  0
LINE
  5
98A
330
2
100
AcDbEntity
  8
0
100
AcDbLine
 10
216.2602664273011
 20
91.1783422526642
 30
0.0
 11
216.2602664273011
 21
84.33870125266421
 31
0.0
  0
LINE
  5
98B
330
2
100
AcDbEntity
  8
0
100
AcDbLine
 10
235.3852664273011
 20
92.6603412526642
 30
0.0
 11
239.2077604273012
 21
92.6603412526642
 31
0.0
  0
LINE
  5
98C
330
2
100
AcDbEntity
  8
0
100
AcDbLine
 10
236.9540684273011
 20
91.4899312526642
 30
0.0
 11
239.9289674273012
 21
91.48799325266422
 31
0.0
  0
LINE
  5
98D
330
2
100
AcDbEntity
  8
0
100
AcDbLine
 10
236.9540684273011
 20
88.5636762526642
 30
0.0
 11
239.4087644273012
 21
88.5636762526642
 31
0.0
  0
LINE
  5
98E
330
2
100
AcDbEntity
  8
0
100
AcDbLine
 10
236.9540684273011
 20
87.56781225266422
 30
0.0
 11
238.9945654273012
 21
87.56781225266422
 31
0.0
  0
LINE
  5
98F
330
2
100
AcDbEntity
  8
0
100
AcDbLine
 10
228.3876624273011
 20
91.4899312526642
 30
0.0
 11
226.8727544273011
 21
91.4899312526642
 31
0.0
  0
LINE
  5
990
330
2
100
AcDbEntity
  8
0
100
AcDbLine
 10
226.8727544273011
 20
91.4899312526642
 30
0.0
 11
226.5303624273012
 21
90.66815325266421
 31
0.0
  0
LINE
  5
991
330
2
100
AcDbEntity
  8
0
100
AcDbLine
 10
229.5830664273012
 20
91.4899312526642
 30
0.0
 11
231.2440614273011
 21
91.4899312526642
 31
0.0
  0
LINE
  5
992
330
2
100
AcDbEntity
  8
0
100
AcDbLine
 10
231.2440614273011
 20
91.4899312526642
 30
0.0
 11
231.5327574273012
 21
90.66815325266421
 31
0.0
  0
LINE
  5
993
330
2
100
AcDbEntity
  8
0
100
AcDbLine
 10
231.5327574273012
 20
90.66815325266421
 30
0.0
 11
232.1977664273012
 21
90.66815325266421
 31
0.0
  0
LINE
  5
994
330
2
100
AcDbEntity
  8
0
100
AcDbLine
 10
232.1977664273012
 20
90.66815325266421
 30
0.0
 11
232.1977664273012
 21
92.6603412526642
 31
0.0
  0
LINE
  5
995
330
2
100
AcDbEntity
  8
0
100
AcDbLine
 10
235.3852664273011
 20
91.4899312526642
 30
0.0
 11
235.8583654273012
 21
91.4899312526642
 31
0.0
  0
LINE
  5
996
330
2
100
AcDbEntity
  8
0
100
AcDbLine
 10
235.3852664273011
 20
92.6603412526642
 30
0.0
 11
235.3852664273011
 21
91.4899312526642
 31
0.0
  0
LINE
  5
997
330
2
100
AcDbEntity
  8
0
100
AcDbLine
 10
237.3898594273011
 20
83.09784125266421
 30
0.0
 11
235.3852664273011
 21
83.09784125266421
 31
0.0
  0
LINE
  5
998
330
2
100
AcDbEntity
  8
0
100
AcDbLine
 10
227.9145634273012
 20
84.14374125266419
 30
0.0
 11
228.3876624273011
 21
84.14374125266419
 31
0.0
  0
LINE
  5
999
330
2
100
AcDbEntity
  8
0
100
AcDbLine
 10
227.9145634273012
 20
83.09784125266421
 30
0.0
 11
229.9814574273011
 21
83.09784125266421
 31
0.0
  0
LINE
  5
99A
330
2
100
AcDbEntity
  8
0
100
AcDbLine
 10
229.9814574273011
 20
84.14374125266419
 30
0.0
 11
229.9814574273011
 21
83.09784125266421
 31
0.0
  0
LINE
  5
99B
330
2
100
AcDbEntity
  8
0
100
AcDbLine
 10
227.9145634273012
 20
84.14374125266419
 30
0.0
 11
227.9145634273012
 21
83.09784125266421
 31
0.0
  0
LINE
  5
99C
330
2
100
AcDbEntity
  8
0
100
AcDbLine
 10
229.5830664273012
 20
84.14374125266419
 30
0.0
 11
229.9814574273011
 21
84.14374125266419
 31
0.0
  0
LINE
  5
99D
330
2
100
AcDbEntity
  8
0
100
AcDbLine
 10
235.3852664273011
 20
84.09393125266422
 30
0.0
 11
235.3852664273011
 21
83.09784125266421
 31
0.0
  0
LINE
  5
99E
330
2
100
AcDbEntity
  8
0
100
AcDbLine
 10
235.3852664273011
 20
84.09393125266422
 30
0.0
 11
235.8583654273012
 21
84.09393125266422
 31
0.0
  0
LINE
  5
99F
330
2
100
AcDbEntity
  8
0
100
AcDbLine
 10
236.9540684273011
 20
87.56781225266422
 30
0.0
 11
236.9540684273011
 21
84.09393125266422
 31
0.0
  0
LINE
  5
9A0
330
2
100
AcDbEntity
  8
0
100
AcDbLine
 10
237.3898594273011
 20
84.09393125266422
 30
0.0
 11
237.3898594273011
 21
83.09784125266421
 31
0.0
  0
LINE
  5
9A1
330
2
100
AcDbEntity
  8
0
100
AcDbLine
 10
236.9540684273011
 20
84.09393125266422
 30
0.0
 11
237.3898594273011
 21
84.09393125266422
 31
0.0
  0
LINE
  5
9A2
330
2
100
AcDbEntity
  8
0
100
AcDbLine
 10
235.8583654273012
 20
91.4899312526642
 30
0.0
 11
235.8583654273012
 21
84.09393125266422
 31
0.0
  0
LINE
  5
9A3
330
2
100
AcDbEntity
  8
0
100
AcDbLine
 10
229.5830664273012
 20
91.4899312526642
 30
0.0
 11
229.5830664273012
 21
84.14374125266419
 31
0.0
  0
LINE
  5
9A4
330
2
100
AcDbEntity
  8
0
100
AcDbLine
 10
228.3876624273011
 20
91.4899312526642
 30
0.0
 11
228.3876624273011
 21
84.14374125266419
 31
0.0
  0
LINE
  5
9A5
330
2
100
AcDbEntity
  8
0
100
AcDbLine
 10
236.9540684273011
 20
91.4899312526642
 30
0.0
 11
236.9540684273011
 21
88.5636762526642
 31
0.0
  0
LINE
  5
9A6
330
2
100
AcDbEntity
  8
0
100
AcDbLine
 10
238.9945654273012
 20
87.56781225266422
 30
0.0
 11
240.4895604273011
 21
84.09393125266422
 31
0.0
  0
LINE
  5
9A7
330
2
100
AcDbEntity
  8
0
100
AcDbLine
 10
239.9120604273011
 20
87.65446225266421
 30
0.0
 11
241.4919554273012
 21
84.09393125266422
 31
0.0
  0
LINE
  5
9A8
330
2
100
AcDbEntity
  8
0
100
AcDbLine
 10
240.2910584273012
 20
84.09393125266422
 30
0.0
 11
240.2910584273012
 21
83.09784125266421
 31
0.0
  0
LINE
  5
9A9
330
2
100
AcDbEntity
  8
0
100
AcDbLine
 10
241.7602664273011
 20
84.09393125266422
 30
0.0
 11
241.7602664273011
 21
83.09784125266421
 31
0.0
  0
LINE
  5
9AA
330
2
100
AcDbEntity
  8
0
100
AcDbLine
 10
240.2910584273012
 20
83.09784125266421
 30
0.0
 11
241.7602664273011
 21
83.09784125266421
 31
0.0
  0
LINE
  5
9AB
330
2
100
AcDbEntity
  8
0
100
AcDbLine
 10
241.4919554273012
 20
84.09393125266422
 30
0.0
 11
241.7602664273011
 21
84.09393125266422
 31
0.0
  0
LINE
  5
9AC
330
2
100
AcDbEntity
  8
0
100
AcDbLine
 10
240.2910584273012
 20
84.09393125266422
 30
0.0
 11
240.4895604273011
 21
84.09393125266422
 31
0.0
  0
ARC
  5
9AD
330
2
100
AcDbEntity
  8
0
100
AcDbCircle
 10
239.2077604273012
 20
90.10785125266421
 30
0.0
 40
1.557193
100
AcDbArc
 50
277.4147260000004
 51
62.41184999999949
  0
ARC
  5
9AE
330
2
100
AcDbEntity
  8
0
100
AcDbCircle
 10
239.2077604273012
 20
90.10785125266421
 30
0.0
 40
2.55249
100
AcDbArc
 50
286.0181270000003
 51
90.00351000000046
  0
LINE
  5
9AF
330
2
100
AcDbEntity
  8
0
100
AcDbLine
 10
233.5102664273012
 20
116.5978412526642
 30
0.0
 11
238.5102664273011
 21
116.5978412526642
 31
0.0
  0
LINE
  5
9B0
330
2
100
AcDbEntity
  8
0
100
AcDbLine
 10
215.5897644273012
 20
151.6978432526641
 30
0.0
 11
242.4308594273012
 21
151.6978432526641
 31
0.0
  0
ARC
  5
9B1
330
2
100
AcDbEntity
  8
0
100
AcDbCircle
 10
215.5897644273012
 20
146.6978512526642
 30
0.0
 40
5.0
100
AcDbArc
 50
90.0
 51
125.0622019999994
  0
LINE
  5
9B2
330
2
100
AcDbEntity
  8
0
100
AcDbLine
 10
233.5102664273012
 20
121.5978452526642
 30
0.0
 11
238.5102664273011
 21
121.5978452526642
 31
0.0
  0
ARC
  5
9B3
330
2
100
AcDbEntity
  8
0
100
AcDbCircle
 10
242.4308594273012
 20
146.6978282526642
 30
0.0
 40
5.0
100
AcDbArc
 50
54.93843099999947
 51
90.0
  0
LINE
  5
9B4
330
2
100
AcDbEntity
  8
0
100
AcDbLine
 10
271.5102664273012
 20
129.7984212526642
 30
0.0
 11
271.5102664273012
 21
54.09784125266421
 31
0.0
  0
LINE
  5
9B6
330
2
100
AcDbEntity
  8
HIDS
  6
SEKKEI_H
100
AcDbLine
 10
259.7602664273011
 20
62.09784125266421
 30
0.0
 11
259.7602664273011
 21
54.09784125266421
 31
0.0
  0
LINE
  5
9B7
330
2
100
AcDbEntity
  8
CENTER
100
AcDbLine
 10
263.0102664273012
 20
65.59784125266421
 30
0.0
 11
263.0102664273012
 21
50.59784125266424
 31
0.0
  0
LINE
  5
9B8
330
2
100
AcDbEntity
  8
HIDS
  6
SEKKEI_H
100
AcDbLine
 10
266.2602664273011
 20
62.09784125266421
 30
0.0
 11
266.2602664273011
 21
54.09784125266421
 31
0.0
  0
ARC
  5
9B9
330
2
100
AcDbEntity
  8
0
100
AcDbCircle
 10
269.5102664273012
 20
60.0978312526642
 30
0.0
 40
2.0
100
AcDbArc
 50
0.0
 51
90.0
  0
LINE
  5
9BB
330
2
100
AcDbEntity
  8
0
100
AcDbLine
 10
269.0102664273012
 20
120.4592412526642
 30
0.0
 11
269.0102664273012
 21
91.73670325266419
 31
0.0
  0
ARC
  5
9BC
330
2
100
AcDbEntity
  8
0
100
AcDbCircle
 10
266.5102664273011
 20
129.7984212526642
 30
0.0
 40
5.0
100
AcDbArc
 50
0.0
 51
54.93837000000068
  0
ARC
  5
9BD
330
2
100
AcDbEntity
  8
0
100
AcDbCircle
 10
421.0951946277947
 20
96.79784225266423
 30
0.0
 40
38.0
100
AcDbArc
 50
324.665501
 51
21.29426199999922
  0
LINE
  5
9BF
330
2
100
AcDbEntity
  8
0
100
AcDbLine
 10
374.0951946277947
 20
54.09784125266421
 30
0.0
 11
468.0951946277947
 21
54.09784125266421
 31
0.0
  0
LINE
  5
9C0
330
2
100
AcDbEntity
  8
CENTER
100
AcDbLine
 10
376.0951946277947
 20
96.79784225266423
 30
0.0
 11
466.0951946277947
 21
96.79784225266423
 31
0.0
  0
ARC
  5
9C2
330
2
100
AcDbEntity
  8
0
100
AcDbCircle
 10
455.0951946277947
 20
65.09784125266421
 30
0.0
 40
3.0
100
AcDbArc
 50
180.0
 51
270.0
  0
ARC
  5
9C3
330
2
100
AcDbEntity
  8
HIDS
100
AcDbCircle
 10
421.0951946277947
 20
96.79784225266423
 30
0.0
 40
38.0
100
AcDbArc
 50
21.29425999999975
 51
50.64329900000029
  0
LINE
  5
9C4
330
2
100
AcDbEntity
  8
0
100
AcDbLine
 10
455.0951946277947
 20
99.09784125266421
 30
0.0
 11
454.0911946297999
 21
99.09784125266421
 31
0.0
  0
LINE
  5
9C5
330
2
100
AcDbEntity
  8
0
100
AcDbLine
 10
455.0951946277947
 20
139.0978452526642
 30
0.0
 11
454.0951946277949
 21
139.0978452526642
 31
0.0
  0
ARC
  5
9C6
330
2
100
AcDbEntity
  8
HIDS
100
AcDbCircle
 10
421.0951946277947
 20
96.79784225266423
 30
0.0
 40
38.0
100
AcDbArc
 50
309.3567009999997
 51
324.6654970000002
  0
LINE
  5
9C7
330
2
100
AcDbEntity
  8
0
100
AcDbLine
 10
452.0951946277947
 20
65.09784125266421
 30
0.0
 11
452.0951946277947
 21
149.1913512526642
 31
0.0
  0
ARC
  5
9C8
330
2
100
AcDbEntity
  8
HIDS
100
AcDbCircle
 10
421.0951946277947
 20
96.79784225266423
 30
0.0
 40
38.0
100
AcDbArc
 50
215.3345029999996
 51
230.6432949999999
  0
LINE
  5
9C9
330
2
100
AcDbEntity
  8
0
100
AcDbLine
 10
390.0951946277947
 20
65.09784125266421
 30
0.0
 11
390.0951946277947
 21
149.1912442526642
 31
0.0
  0
LINE
  5
9CB
330
2
100
AcDbEntity
  8
CENTER
100
AcDbLine
 10
421.0951946277947
 20
47.09784125266423
 30
0.0
 11
421.0951946277947
 21
162.7978572526642
 31
0.0
  0
LINE
  5
9CD
330
2
100
AcDbEntity
  8
HIDS
100
AcDbLine
 10
400.0951946277947
 20
58.79784225266423
 30
0.0
 11
442.0951946277947
 21
58.79784225266423
 31
0.0
  0
LINE
  5
9CE
330
2
100
AcDbEntity
  8
0
100
AcDbLine
 10
387.0951946277947
 20
62.09784125266421
 30
0.0
 11
376.0951946277947
 21
62.09784125266421
 31
0.0
  0
LINE
  5
9CF
330
2
100
AcDbEntity
  8
0
100
AcDbLine
 10
374.0951946277947
 20
60.09784125266421
 30
0.0
 11
374.0951946277947
 21
54.09784125266421
 31
0.0
  0
ARC
  5
9D0
330
2
100
AcDbEntity
  8
0
100
AcDbCircle
 10
376.0951946277947
 20
60.09785125266422
 30
0.0
 40
2.0
100
AcDbArc
 50
90.0
 51
180.0
  0
ARC
  5
9D1
330
2
100
AcDbEntity
  8
0
100
AcDbCircle
 10
387.0951946277947
 20
65.0978312526642
 30
0.0
 40
3.0
100
AcDbArc
 50
270.0
 51
0.0
  0
LINE
  5
9D2
330
2
100
AcDbEntity
  8
HIDS
  6
SEKKEI_H
100
AcDbLine
 10
377.8451946277947
 20
62.09784125266421
 30
0.0
 11
377.8451946277947
 21
54.09784125266421
 31
0.0
  0
LINE
  5
9D3
330
2
100
AcDbEntity
  8
HIDS
  6
SEKKEI_H
100
AcDbLine
 10
384.3451946277947
 20
62.09784125266421
 30
0.0
 11
384.3451946277947
 21
54.09784125266421
 31
0.0
  0
LINE
  5
9D4
330
2
100
AcDbEntity
  8
CENTER
100
AcDbLine
 10
381.0951946277947
 20
65.59784125266418
 30
0.0
 11
381.0951946277947
 21
50.59784125266424
 31
0.0
  0
ARC
  5
9D5
330
2
100
AcDbEntity
  8
HIDS
100
AcDbCircle
 10
395.0951946277947
 20
65.09610625266422
 30
0.0
 40
3.0
100
AcDbArc
 50
0.0
 51
50.64329900000029
  0
ARC
  5
9D6
330
2
100
AcDbEntity
  8
HIDS
100
AcDbCircle
 10
400.0951946277947
 20
60.79784225266422
 30
0.0
 40
2.0
100
AcDbArc
 50
180.0
 51
199.2166900000005
  0
ARC
  5
9D7
330
2
100
AcDbEntity
  8
HIDS
100
AcDbCircle
 10
400.0951946277947
 20
60.79784225266422
 30
0.0
 40
2.0
100
AcDbArc
 50
199.2166900000005
 51
270.0
  0
LINE
  5
9D8
330
2
100
AcDbEntity
  8
HIDS
100
AcDbLine
 10
398.0951946277947
 20
60.79784225266422
 30
0.0
 11
398.0951946277947
 21
65.09610625266422
 31
0.0
  0
ARC
  5
9D9
330
2
100
AcDbEntity
  8
HIDS
100
AcDbCircle
 10
447.0951946277947
 20
65.09610625266422
 30
0.0
 40
3.0
100
AcDbArc
 50
129.356705
 51
180.0
  0
ARC
  5
9DA
330
2
100
AcDbEntity
  8
HIDS
100
AcDbCircle
 10
442.0951946277947
 20
60.79784225266422
 30
0.0
 40
2.0
100
AcDbArc
 50
270.0
 51
0.0
  0
LINE
  5
9DB
330
2
100
AcDbEntity
  8
HIDS
100
AcDbLine
 10
444.0951946277947
 20
60.94071125266421
 30
0.0
 11
444.0951946277947
 21
65.09610625266422
 31
0.0
  0
LINE
  5
9DC
330
2
100
AcDbEntity
  8
0
100
AcDbLine
 10
392.0603126277947
 20
151.1910532526642
 30
0.0
 11
421.0951946277947
 21
151.6978512526642
 31
0.0
  0
LINE
  5
9DD
330
2
100
AcDbEntity
  8
HIDS
100
AcDbLine
 10
400.0603126277947
 20
134.4306852526642
 30
0.0
 11
421.0951946277947
 21
134.7978342526642
 31
0.0
  0
LINE
  5
9DE
330
2
100
AcDbEntity
  8
0
100
AcDbLine
 10
391.7689006277947
 20
132.3978482526642
 30
0.0
 11
450.4876206277946
 21
132.3978482526642
 31
0.0
  0
ARC
  5
9DF
330
2
100
AcDbEntity
  8
0
100
AcDbCircle
 10
421.0951946277947
 20
-94.20214274733579
 30
0.0
 40
250.0
100
AcDbArc
 50
84.82601900000059
 51
95.17398099999942
  0
LINE
  5
9E0
330
2
100
AcDbEntity
  8
0
100
AcDbLine
 10
398.3451946277947
 20
152.2978422526642
 30
0.0
 11
404.0951946277947
 21
152.2978422526642
 31
0.0
  0
LINE
  5
9E1
330
2
100
AcDbEntity
  8
0
100
AcDbLine
 10
398.3451946277947
 20
152.9978392526642
 30
0.0
 11
403.8451946277947
 21
152.9978392526642
 31
0.0
  0
ARC
  5
9E2
330
2
100
AcDbEntity
  8
0
100
AcDbCircle
 10
401.0951946277947
 20
147.9978392526642
 30
0.0
 40
7.0
100
AcDbArc
 50
73.04350300000075
 51
106.9580229999995
  0
LINE
  5
9E3
330
2
100
AcDbEntity
  8
0
100
AcDbLine
 10
378.5951946277947
 20
121.5978452526642
 30
0.0
 11
378.5951946277947
 21
116.5978412526642
 31
0.0
  0
ARC
  5
9E4
330
2
100
AcDbEntity
  8
0
100
AcDbCircle
 10
378.5951946277947
 20
119.0978292526642
 30
0.0
 40
2.5
100
AcDbArc
 50
0.0
 51
90.0
  0
LINE
  5
9E5
330
2
100
AcDbEntity
  8
0
100
AcDbLine
 10
357.0952096277947
 20
126.5978452526642
 30
0.0
 11
357.0952096277947
 21
111.5978412526642
 31
0.0
  0
LINE
  5
9E6
330
2
100
AcDbEntity
  8
0
100
AcDbLine
 10
386.0951946277947
 20
100.0978412526642
 30
0.0
 11
386.0951946277947
 21
138.0978452526642
 31
0.0
  0
LINE
  5
9E7
330
2
100
AcDbEntity
  8
0
100
AcDbLine
 10
384.0951946277947
 20
127.5978452526642
 30
0.0
 11
384.0951946277947
 21
110.5978412526642
 31
0.0
  0
ARC
  5
9E8
330
2
100
AcDbEntity
  8
HIDS
100
AcDbCircle
 10
421.0951946277947
 20
96.79784225266423
 30
0.0
 40
38.0
100
AcDbArc
 50
129.356705
 51
158.7057340000006
  0
LINE
  5
9E9
330
2
100
AcDbEntity
  8
0
100
AcDbLine
 10
357.0952096277947
 20
116.5978412526642
 30
0.0
 11
378.5951946277947
 21
116.5978412526642
 31
0.0
  0
LINE
  5
9EA
330
2
100
AcDbEntity
  8
0
100
AcDbLine
 10
357.0952096277947
 20
111.5978412526642
 30
0.0
 11
384.0951946277947
 21
111.5978412526642
 31
0.0
  0
ARC
  5
9EB
330
2
100
AcDbEntity
  8
0
100
AcDbCircle
 10
421.0951946277947
 20
96.79784225266423
 30
0.0
 40
38.0
100
AcDbArc
 50
158.7057340000006
 51
215.3345029999996
  0
ARC
  5
9EC
330
2
100
AcDbEntity
  8
0
100
AcDbCircle
 10
378.5951946277947
 20
119.0978452526642
 30
0.0
 40
2.5
100
AcDbArc
 50
270.0
 51
0.0
  0
LINE
  5
9ED
330
2
100
AcDbEntity
  8
0
100
AcDbLine
 10
384.0951946277947
 20
110.5978412526642
 30
0.0
 11
386.0951946277947
 21
110.5978412526642
 31
0.0
  0
LINE
  5
9EE
330
2
100
AcDbEntity
  8
0
100
AcDbLine
 10
387.0951946277947
 20
99.09784125266421
 30
0.0
 11
388.0991946257895
 21
99.09784125266421
 31
0.0
  0
ARC
  5
9EF
330
2
100
AcDbEntity
  8
0
100
AcDbCircle
 10
387.0951946277947
 20
100.0978372526642
 30
0.0
 40
1.0
100
AcDbArc
 50
180.0
 51
270.0
  0
LINE
  5
9F0
330
2
100
AcDbEntity
  8
0
100
AcDbLine
 10
357.0952096277947
 20
121.5978452526642
 30
0.0
 11
378.5951946277947
 21
121.5978452526642
 31
0.0
  0
LINE
  5
9F2
330
2
100
AcDbEntity
  8
0
100
AcDbLine
 10
357.0952096277947
 20
126.5978452526642
 30
0.0
 11
384.0951946277947
 21
126.5978452526642
 31
0.0
  0
LINE
  5
9F3
330
2
100
AcDbEntity
  8
HIDS
100
AcDbLine
 10
398.5951946277947
 20
147.2978422526642
 30
0.0
 11
398.5951946277947
 21
148.2978422526642
 31
0.0
  0
LINE
  5
9F4
330
2
100
AcDbEntity
  8
0
100
AcDbLine
 10
384.0951946277947
 20
127.5978452526642
 30
0.0
 11
386.0951946277947
 21
127.5978452526642
 31
0.0
  0
LINE
  5
9F5
330
2
100
AcDbEntity
  8
0
100
AcDbLine
 10
387.0951946277947
 20
139.0978452526642
 30
0.0
 11
388.0951946277945
 21
139.0978452526642
 31
0.0
  0
ARC
  5
9F6
330
2
100
AcDbEntity
  8
0
100
AcDbCircle
 10
387.0951946277947
 20
138.0978452526642
 30
0.0
 40
1.0
100
AcDbArc
 50
90.0
 51
180.0
  0
LINE
  5
9F7
330
2
100
AcDbEntity
  8
HIDS
100
AcDbLine
 10
398.5951946277947
 20
147.2978422526642
 30
0.0
 11
398.0951946277947
 21
147.2978422526642
 31
0.0
  0
ARC
  5
9F8
330
2
100
AcDbEntity
  8
HIDS
100
AcDbCircle
 10
400.0951946277947
 20
132.4309752526642
 30
0.0
 40
2.0
100
AcDbArc
 50
90.99986300000075
 51
180.0
  0
LINE
  5
9F9
330
2
100
AcDbEntity
  8
HIDS
100
AcDbLine
 10
398.0951946277947
 20
132.4309752526642
 30
0.0
 11
398.0951946277947
 21
128.4995782526642
 31
0.0
  0
ARC
  5
9FA
330
2
100
AcDbEntity
  8
HIDS
100
AcDbCircle
 10
395.0951946277947
 20
128.4995782526642
 30
0.0
 40
3.0
100
AcDbArc
 50
309.3567009999997
 51
0.0
  0
LINE
  5
9FB
330
2
100
AcDbEntity
  8
HIDS
100
AcDbLine
 10
398.0951946277947
 20
147.2978422526642
 30
0.0
 11
398.0951946277947
 21
132.4309752526642
 31
0.0
  0
ARC
  5
9FC
330
2
100
AcDbEntity
  8
0
100
AcDbCircle
 10
392.0951946277947
 20
149.1912512526642
 30
0.0
 40
2.0
100
AcDbArc
 50
91.00064100000045
 51
180.0
  0
LINE
  5
9FD
330
2
100
AcDbEntity
  8
0
100
AcDbLine
 10
398.0951946277947
 20
151.2963922526642
 30
0.0
 11
398.0951946277947
 21
154.2812632526642
 31
0.0
  0
ARC
  5
9FE
330
2
100
AcDbEntity
  8
0
100
AcDbCircle
 10
399.3451946277947
 20
153.7370432526642
 30
0.0
 40
1.0
100
AcDbArc
 50
106.9581530000005
 51
180.0
  0
ARC
  5
9FF
330
2
100
AcDbEntity
  8
0
100
AcDbCircle
 10
398.5951946277947
 20
151.7978422526642
 30
0.0
 40
0.5
100
AcDbArc
 50
90.0
 51
180.0
  0
LINE
  5
A00
330
2
100
AcDbEntity
  8
0
100
AcDbLine
 10
398.3451946277947
 20
152.2978422526642
 30
0.0
 11
398.3451946277947
 21
153.7370432526642
 31
0.0
  0
LINE
  5
A01
330
2
100
AcDbEntity
  8
HIDS
100
AcDbLine
 10
398.0951946277947
 20
148.2978422526642
 30
0.0
 11
398.0951946277947
 21
151.2963922526642
 31
0.0
  0
LINE
  5
A02
330
2
100
AcDbEntity
  8
HIDS
100
AcDbLine
 10
398.5951946277947
 20
148.2978422526642
 30
0.0
 11
398.0951946277947
 21
148.2978422526642
 31
0.0
  0
ARC
  5
A03
330
2
100
AcDbEntity
  8
0
100
AcDbCircle
 10
398.5951946277947
 20
154.2812632526642
 30
0.0
 40
0.5
100
AcDbArc
 50
95.17398099999942
 51
180.0
  0
LINE
  5
A04
330
2
100
AcDbEntity
  8
0
100
AcDbLine
 10
450.1301066277947
 20
151.1910532526642
 30
0.0
 11
421.0951946277947
 21
151.6978512526642
 31
0.0
  0
LINE
  5
A05
330
2
100
AcDbEntity
  8
HIDS
100
AcDbLine
 10
442.1301066277947
 20
134.4306852526642
 30
0.0
 11
421.0951946277947
 21
134.7978342526642
 31
0.0
  0
ARC
  5
A06
330
2
100
AcDbEntity
  8
0
100
AcDbCircle
 10
402.8451946277947
 20
153.7370432526642
 30
0.0
 40
1.0
100
AcDbArc
 50
0.0
 51
73.04309800000067
  0
LINE
  5
A07
330
2
100
AcDbEntity
  8
0
100
AcDbLine
 10
404.5951946277947
 20
154.7843072526642
 30
0.0
 11
404.5951946277947
 21
152.7978422526642
 31
0.0
  0
ARC
  5
A08
330
2
100
AcDbEntity
  8
0
100
AcDbCircle
 10
404.0951946277947
 20
152.7978422526642
 30
0.0
 40
0.5
100
AcDbArc
 50
270.0
 51
0.0
  0
LINE
  5
A09
330
2
100
AcDbEntity
  8
0
100
AcDbLine
 10
403.8451946277947
 20
152.2976432526642
 30
0.0
 11
403.8451946277947
 21
153.7370432526642
 31
0.0
  0
ARC
  5
A0A
330
2
100
AcDbEntity
  8
0
100
AcDbCircle
 10
405.0951946277947
 20
154.7843072526642
 30
0.0
 40
0.5
100
AcDbArc
 50
93.67680399999908
 51
180.0
  0
ARC
  5
A0B
330
2
100
AcDbEntity
  8
0
100
AcDbCircle
 10
421.0951946277947
 20
147.7978422526642
 30
0.0
 40
6.0
100
AcDbArc
 50
39.53427499999932
 51
140.4657289999997
  0
LINE
  5
A0C
330
2
100
AcDbEntity
  8
HIDS
100
AcDbLine
 10
443.5951946277947
 20
147.2978422526642
 30
0.0
 11
443.5951946277947
 21
148.2978422526642
 31
0.0
  0
LINE
  5
A0D
330
2
100
AcDbEntity
  8
HIDS
100
AcDbLine
 10
443.5951946277947
 20
147.2978422526642
 30
0.0
 11
444.0951946277947
 21
147.2978422526642
 31
0.0
  0
ARC
  5
A0E
330
2
100
AcDbEntity
  8
HIDS
100
AcDbCircle
 10
447.0951946277947
 20
128.4995782526642
 30
0.0
 40
3.0
100
AcDbArc
 50
180.0
 51
230.6432949999999
  0
LINE
  5
A0F
330
2
100
AcDbEntity
  8
HIDS
100
AcDbLine
 10
444.0951946277947
 20
132.3978482526642
 30
0.0
 11
444.0951946277947
 21
128.4995782526642
 31
0.0
  0
ARC
  5
A10
330
2
100
AcDbEntity
  8
HIDS
100
AcDbCircle
 10
442.0951946277947
 20
132.4309752526642
 30
0.0
 40
2.0
100
AcDbArc
 50
0.0
 51
89.00013699999925
  0
LINE
  5
A11
330
2
100
AcDbEntity
  8
HIDS
100
AcDbLine
 10
444.0951946277947
 20
147.2978422526642
 30
0.0
 11
444.0951946277947
 21
132.4309752526642
 31
0.0
  0
ARC
  5
A12
330
2
100
AcDbEntity
  8
0
100
AcDbCircle
 10
441.0951946277947
 20
147.9978392526642
 30
0.0
 40
7.0
100
AcDbArc
 50
73.04197700000047
 51
106.9564969999992
  0
LINE
  5
A13
330
2
100
AcDbEntity
  8
0
100
AcDbLine
 10
443.8451946277947
 20
152.2978422526642
 30
0.0
 11
438.0951946277947
 21
152.2978422526642
 31
0.0
  0
LINE
  5
A14
330
2
100
AcDbEntity
  8
0
100
AcDbLine
 10
443.8451946277947
 20
152.9978392526642
 30
0.0
 11
438.3451946277947
 21
152.9978392526642
 31
0.0
  0
LINE
  5
A15
330
2
100
AcDbEntity
  8
0
100
AcDbLine
 10
437.5951946277947
 20
154.7843072526642
 30
0.0
 11
437.5951946277947
 21
152.7978422526642
 31
0.0
  0
ARC
  5
A16
330
2
100
AcDbEntity
  8
0
100
AcDbCircle
 10
439.3451946277947
 20
153.7370432526642
 30
0.0
 40
1.0
100
AcDbArc
 50
106.9569019999993
 51
180.0
  0
ARC
  5
A17
330
2
100
AcDbEntity
  8
0
100
AcDbCircle
 10
438.0951946277947
 20
152.7978422526642
 30
0.0
 40
0.5
100
AcDbArc
 50
180.0
 51
270.0
  0
LINE
  5
A18
330
2
100
AcDbEntity
  8
0
100
AcDbLine
 10
438.3451946277947
 20
152.2976432526642
 30
0.0
 11
438.3451946277947
 21
153.7370432526642
 31
0.0
  0
ARC
  5
A19
330
2
100
AcDbEntity
  8
0
100
AcDbCircle
 10
437.0951946277947
 20
154.7843072526642
 30
0.0
 40
0.5
100
AcDbArc
 50
0.0
 51
86.32319600000093
  0
LINE
  5
A1A
330
2
100
AcDbEntity
  8
0
100
AcDbLine
 10
444.0951946277947
 20
151.2963922526642
 30
0.0
 11
444.0951946277947
 21
154.2812632526642
 31
0.0
  0
LINE
  5
A1B
330
2
100
AcDbEntity
  8
0
100
AcDbLine
 10
443.8451946277947
 20
152.2978422526642
 30
0.0
 11
443.8451946277947
 21
153.7370432526642
 31
0.0
  0
LINE
  5
A1C
330
2
100
AcDbEntity
  8
HIDS
100
AcDbLine
 10
444.0951946277947
 20
148.2978422526642
 30
0.0
 11
444.0951946277947
 21
151.2963922526642
 31
0.0
  0
ARC
  5
A1D
330
2
100
AcDbEntity
  8
0
100
AcDbCircle
 10
442.8451946277947
 20
153.7370432526642
 30
0.0
 40
1.0
100
AcDbArc
 50
0.0
 51
73.04184699999942
  0
ARC
  5
A1E
330
2
100
AcDbEntity
  8
0
100
AcDbCircle
 10
443.5951946277947
 20
151.7978422526642
 30
0.0
 40
0.5
100
AcDbArc
 50
0.0
 51
90.0
  0
LINE
  5
A1F
330
2
100
AcDbEntity
  8
HIDS
100
AcDbLine
 10
443.5951946277947
 20
148.2978422526642
 30
0.0
 11
444.0951946277947
 21
148.2978422526642
 31
0.0
  0
ARC
  5
A20
330
2
100
AcDbEntity
  8
0
100
AcDbCircle
 10
443.5951946277947
 20
154.2812632526642
 30
0.0
 40
0.5
100
AcDbArc
 50
0.0
 51
84.82601900000059
  0
ARC
  5
A21
330
2
100
AcDbEntity
  8
0
100
AcDbCircle
 10
450.0951946277947
 20
149.1913512526642
 30
0.0
 40
2.0
100
AcDbArc
 50
0.0
 51
89.00013699999925
  0
ARC
  5
A23
330
2
100
AcDbEntity
  8
0
100
AcDbCircle
 10
466.0951946277947
 20
60.0978312526642
 30
0.0
 40
2.0
100
AcDbArc
 50
0.0
 51
90.0
  0
LINE
  5
A24
330
2
100
AcDbEntity
  8
0
100
AcDbLine
 10
455.0951946277947
 20
62.09784125266421
 30
0.0
 11
466.0951946277947
 21
62.09784125266421
 31
0.0
  0
LINE
  5
A25
330
2
100
AcDbEntity
  8
HIDS
  6
SEKKEI_H
100
AcDbLine
 10
457.8451946277947
 20
62.09784125266421
 30
0.0
 11
457.8451946277947
 21
54.09784125266421
 31
0.0
  0
LINE
  5
A26
330
2
100
AcDbEntity
  8
HIDS
  6
SEKKEI_H
100
AcDbLine
 10
464.3451946277947
 20
62.09784125266421
 30
0.0
 11
464.3451946277947
 21
54.09784125266421
 31
0.0
  0
LINE
  5
A27
330
2
100
AcDbEntity
  8
CENTER
100
AcDbLine
 10
461.0951946277947
 20
65.59784125266421
 30
0.0
 11
461.0951946277946
 21
50.59784125266421
 31
0.0
  0
LINE
  5
A28
330
2
100
AcDbEntity
  8
0
100
AcDbLine
 10
468.0951946277947
 20
60.09784125266421
 30
0.0
 11
468.0951946277947
 21
54.09784125266421
 31
0.0
  0
LINE
  5
A29
330
2
100
AcDbEntity
  8
0
100
AcDbLine
 10
463.5951946277947
 20
121.5978452526642
 30
0.0
 11
463.5951946277947
 21
116.5978412526642
 31
0.0
  0
ARC
  5
A2A
330
2
100
AcDbEntity
  8
0
100
AcDbCircle
 10
463.5951946277947
 20
119.0978292526642
 30
0.0
 40
2.5
100
AcDbArc
 50
90.0
 51
180.0
  0
LINE
  5
A2B
330
2
100
AcDbEntity
  8
0
100
AcDbLine
 10
456.0951946277947
 20
100.0978412526642
 30
0.0
 11
456.0951946277947
 21
138.0978452526642
 31
0.0
  0
LINE
  5
A2C
330
2
100
AcDbEntity
  8
0
100
AcDbLine
 10
458.0951946277947
 20
127.5978452526642
 30
0.0
 11
458.0951946277947
 21
110.5978412526642
 31
0.0
  0
LINE
  5
A2D
330
2
100
AcDbEntity
  8
0
100
AcDbLine
 10
485.0951946277947
 20
126.5978452526642
 30
0.0
 11
485.0951946277947
 21
111.5978412526642
 31
0.0
  0
LINE
  5
A2F
330
2
100
AcDbEntity
  8
0
100
AcDbLine
 10
485.0951946277947
 20
116.5978412526642
 30
0.0
 11
463.5951946277947
 21
116.5978412526642
 31
0.0
  0
LINE
  5
A30
330
2
100
AcDbEntity
  8
0
100
AcDbLine
 10
485.0951946277947
 20
111.5978412526642
 30
0.0
 11
458.0951946277947
 21
111.5978412526642
 31
0.0
  0
ARC
  5
A31
330
2
100
AcDbEntity
  8
0
100
AcDbCircle
 10
463.5951946277947
 20
119.0978452526642
 30
0.0
 40
2.5
100
AcDbArc
 50
180.0
 51
270.0
  0
ARC
  5
A32
330
2
100
AcDbEntity
  8
0
100
AcDbCircle
 10
455.0951946277947
 20
100.0978372526642
 30
0.0
 40
1.0
100
AcDbArc
 50
270.0
 51
0.0
  0
LINE
  5
A33
330
2
100
AcDbEntity
  8
0
100
AcDbLine
 10
456.0951946277947
 20
110.5978412526642
 30
0.0
 11
458.0951946277947
 21
110.5978412526642
 31
0.0
  0
LINE
  5
A34
330
2
100
AcDbEntity
  8
0
100
AcDbLine
 10
485.0951946277947
 20
126.5978452526642
 30
0.0
 11
458.0951946277947
 21
126.5978452526642
 31
0.0
  0
LINE
  5
A36
330
2
100
AcDbEntity
  8
0
100
AcDbLine
 10
485.0951946277947
 20
121.5978452526642
 30
0.0
 11
463.5951946277947
 21
121.5978452526642
 31
0.0
  0
ARC
  5
A37
330
2
100
AcDbEntity
  8
0
100
AcDbCircle
 10
455.0951946277947
 20
138.0978452526642
 30
0.0
 40
1.0
100
AcDbArc
 50
0.0
 51
90.0
  0
LINE
  5
A38
330
2
100
AcDbEntity
  8
0
100
AcDbLine
 10
456.0951946277947
 20
127.5978452526642
 30
0.0
 11
458.0951946277947
 21
127.5978452526642
 31
0.0
  0
LINE
  5
A39
330
2
100
AcDbEntity
  8
0
100
AcDbLine
 10
189.0167664273011
 20
268.6347459289506
 30
0.0
 11
269.0037664273012
 21
268.6347459289506
 31
0.0
  0
LINE
  5
A3A
330
2
100
AcDbEntity
  8
0
100
AcDbLine
 10
238.5102664273011
 20
252.6347459289506
 30
0.0
 11
267.7417874273012
 21
252.6347459289506
 31
0.0
  0
LINE
  5
A3B
330
2
100
AcDbEntity
  8
0
100
AcDbLine
 10
189.0167664273011
 20
330.6347459289506
 30
0.0
 11
269.0037664273012
 21
330.6347459289506
 31
0.0
  0
LINE
  5
A3C
330
2
100
AcDbEntity
  8
0
100
AcDbLine
 10
238.5102664273011
 20
346.6347299289505
 30
0.0
 11
267.7417874273012
 21
346.6347299289505
 31
0.0
  0
LINE
  5
A3D
330
2
100
AcDbEntity
  8
0
100
AcDbLine
 10
189.9299444273012
 20
278.6347459289506
 30
0.0
 11
189.9299444273012
 21
320.6350049289506
 31
0.0
  0
LINE
  5
A3E
330
2
100
AcDbEntity
  8
0
100
AcDbLine
 10
214.0102664273011
 20
328.6696429289506
 30
0.0
 11
214.0102664273011
 21
270.5998339289505
 31
0.0
  0
LINE
  5
A3F
330
2
100
AcDbEntity
  8
0
100
AcDbLine
 10
244.0102664273012
 20
328.6696429289506
 30
0.0
 11
244.0102664273012
 21
270.5998339289505
 31
0.0
  0
LINE
  5
A40
330
2
100
AcDbEntity
  8
CENTER
100
AcDbLine
 10
229.0102664273011
 20
370.6347299289505
 30
0.0
 11
229.0102664273011
 21
228.6347459289506
 31
0.0
  0
LINE
  5
A41
330
2
100
AcDbEntity
  8
0
100
AcDbLine
 10
190.2786224273012
 20
252.6347459289506
 30
0.0
 11
221.5102664273012
 21
252.6347459289506
 31
0.0
  0
ARC
  5
A42
330
2
100
AcDbEntity
  8
0
100
AcDbCircle
 10
190.2786224273012
 20
255.6347459289506
 30
0.0
 40
3.0
100
AcDbArc
 50
180.9998469999994
 51
270.0
  0
LINE
  5
A43
330
2
100
AcDbEntity
  8
CENTER
100
AcDbLine
 10
195.0102664273011
 20
265.5472154277926
 30
0.0
 11
195.0102664273011
 21
253.7222764301085
 31
0.0
  0
ARC
  5
A44
330
2
100
AcDbEntity
  8
0
100
AcDbCircle
 10
189.0167664273011
 20
270.6347459289506
 30
0.0
 40
2.0
100
AcDbArc
 50
181.0000000000001
 51
270.0
  0
ARC
  5
A45
330
2
100
AcDbEntity
  8
0
100
AcDbCircle
 10
188.0102584273012
 20
267.2825879289506
 30
0.0
 40
1.5
100
AcDbArc
 50
73.28735400000072
 51
180.0
  0
ARC
  5
A46
330
2
100
AcDbEntity
  8
0
100
AcDbCircle
 10
184.5102584273012
 20
263.6347459289506
 30
0.0
 40
2.0
100
AcDbArc
 50
270.0
 51
0.0
  0
LINE
  5
A47
330
2
100
AcDbEntity
  8
0
100
AcDbLine
 10
186.5102584273012
 20
263.6347459289506
 30
0.0
 11
186.5102584273012
 21
267.2825879289506
 31
0.0
  0
LINE
  5
A48
330
2
100
AcDbEntity
  8
0
100
AcDbLine
 10
187.0169874273012
 20
270.5998339289505
 30
0.0
 11
186.9116644273012
 21
276.6347459289506
 31
0.0
  0
LINE
  5
A49
330
2
100
AcDbEntity
  8
0
100
AcDbLine
 10
187.2790804273012
 20
255.5823929289505
 30
0.0
 11
187.0547074273011
 21
268.4388379289505
 31
0.0
  0
LINE
  5
A4A
330
2
100
AcDbEntity
  8
CENTER
100
AcDbLine
 10
200.9227359261432
 20
259.6347459289506
 30
0.0
 11
189.0977969284591
 21
259.6347459289506
 31
0.0
  0
CIRCLE
  5
A4B
330
2
100
AcDbEntity
  8
0
100
AcDbCircle
 10
195.0102584273012
 20
259.6347459289506
 30
0.0
 40
3.25
  0
LINE
  5
A4C
330
2
100
AcDbEntity
  8
0
100
AcDbLine
 10
248.0102664273011
 20
264.6347459289506
 30
0.0
 11
210.0102584273012
 21
264.6347459289506
 31
0.0
  0
LINE
  5
A4D
330
2
100
AcDbEntity
  8
0
100
AcDbLine
 10
220.5102664273011
 20
262.6347459289506
 30
0.0
 11
237.5102664273011
 21
262.6347459289506
 31
0.0
  0
LINE
  5
A4E
330
2
100
AcDbEntity
  8
0
100
AcDbLine
 10
221.5102664273012
 20
235.6347459289506
 30
0.0
 11
238.5102664273011
 21
235.6347459289506
 31
0.0
  0
LINE
  5
A4F
330
2
100
AcDbEntity
  8
0
100
AcDbLine
 10
221.5102664273012
 20
235.6347459289506
 30
0.0
 11
221.5102664273012
 21
262.6347459289506
 31
0.0
  0
ARC
  5
A50
330
2
100
AcDbEntity
  8
0
100
AcDbCircle
 10
210.0102584273012
 20
265.6347459289506
 30
0.0
 40
1.0
100
AcDbArc
 50
180.0
 51
270.0
  0
LINE
  5
A51
330
2
100
AcDbEntity
  8
0
100
AcDbLine
 10
209.0102584273012
 20
265.6347459289506
 30
0.0
 11
209.0102584273012
 21
266.6404027774555
 31
0.0
  0
LINE
  5
A52
330
2
100
AcDbEntity
  8
0
100
AcDbLine
 10
220.5102664273011
 20
262.6347459289506
 30
0.0
 11
220.5102664273011
 21
264.6347459289506
 31
0.0
  0
LINE
  5
A53
330
2
100
AcDbEntity
  8
0
100
AcDbLine
 10
236.0812654273012
 20
257.1347459289506
 30
0.0
 11
236.0812654273012
 21
235.6347459289506
 31
0.0
  0
LINE
  5
A54
330
2
100
AcDbEntity
  8
0
100
AcDbLine
 10
238.5102664273011
 20
257.1347459289506
 30
0.0
 11
238.5102664273011
 21
235.6347459289506
 31
0.0
  0
LINE
  5
A55
330
2
100
AcDbEntity
  8
0
100
AcDbLine
 10
236.0812654273012
 20
257.1347459289506
 30
0.0
 11
238.5102664273011
 21
257.1347459289506
 31
0.0
  0
LINE
  5
A56
330
2
100
AcDbEntity
  8
0
100
AcDbLine
 10
236.5102664273011
 20
257.1347459289506
 30
0.0
 11
236.5102664273011
 21
262.6347459289506
 31
0.0
  0
LINE
  5
A57
330
2
100
AcDbEntity
  8
0
100
AcDbLine
 10
237.5102664273011
 20
262.6347459289506
 30
0.0
 11
237.5102664273011
 21
264.6347459289506
 31
0.0
  0
ARC
  5
A58
330
2
100
AcDbEntity
  8
0
100
AcDbCircle
 10
248.0102664273011
 20
265.6347459289506
 30
0.0
 40
1.0
100
AcDbArc
 50
270.0
 51
0.0
  0
LINE
  5
A59
330
2
100
AcDbEntity
  8
0
100
AcDbLine
 10
249.0102664273011
 20
265.6347459289506
 30
0.0
 11
249.0102664273011
 21
266.6347459289505
 31
0.0
  0
LINE
  5
A5A
330
2
100
AcDbEntity
  8
0
100
AcDbLine
 10
190.2786224273012
 20
346.6347299289505
 30
0.0
 11
221.5102664273012
 21
346.6347299289505
 31
0.0
  0
LINE
  5
A5B
330
2
100
AcDbEntity
  8
0
100
AcDbLine
 10
186.5102584273012
 20
335.6347459289506
 30
0.0
 11
186.5102584273012
 21
331.9869029289506
 31
0.0
  0
LINE
  5
A5C
330
2
100
AcDbEntity
  8
0
100
AcDbLine
 10
187.2790804273012
 20
343.6870989289506
 30
0.0
 11
187.0547074273011
 21
330.8306529289506
 31
0.0
  0
LINE
  5
A5D
330
2
100
AcDbEntity
  8
CENTER
100
AcDbLine
 10
195.0102664273011
 20
345.5472154277926
 30
0.0
 11
195.0102664273011
 21
333.7222764301086
 31
0.0
  0
ARC
  5
A5E
330
2
100
AcDbEntity
  8
0
100
AcDbCircle
 10
188.0102584273012
 20
331.9869029289506
 30
0.0
 40
1.5
100
AcDbArc
 50
180.0
 51
286.7126459999992
  0
ARC
  5
A5F
330
2
100
AcDbEntity
  8
0
100
AcDbCircle
 10
189.0167664273011
 20
328.6347459289506
 30
0.0
 40
2.0
100
AcDbArc
 50
90.0
 51
178.9999999999998
  0
LINE
  5
A60
330
2
100
AcDbEntity
  8
0
100
AcDbLine
 10
187.0169874273012
 20
328.6696429289506
 30
0.0
 11
186.9116644273012
 21
322.6347459289506
 31
0.0
  0
ARC
  5
A61
330
2
100
AcDbEntity
  8
0
100
AcDbCircle
 10
190.2786224273012
 20
343.6347299289506
 30
0.0
 40
3.0
100
AcDbArc
 50
90.0
 51
179.0001530000005
  0
ARC
  5
A62
330
2
100
AcDbEntity
  8
0
100
AcDbCircle
 10
184.5102584273012
 20
335.6347459289506
 30
0.0
 40
2.0
100
AcDbArc
 50
0.0
 51
90.0
  0
LINE
  5
A63
330
2
100
AcDbEntity
  8
CENTER
100
AcDbLine
 10
200.9227359261432
 20
339.6347459289506
 30
0.0
 11
189.0977969284591
 21
339.6347459289506
 31
0.0
  0
CIRCLE
  5
A64
330
2
100
AcDbEntity
  8
0
100
AcDbCircle
 10
195.0102584273012
 20
339.6347459289506
 30
0.0
 40
3.25
  0
ARC
  5
A65
330
2
100
AcDbEntity
  8
0
100
AcDbCircle
 10
248.0102664273011
 20
333.6347459289506
 30
0.0
 40
1.0
100
AcDbArc
 50
0.0
 51
90.0
  0
ARC
  5
A66
330
2
100
AcDbEntity
  8
0
100
AcDbCircle
 10
210.0102584273012
 20
333.6347459289506
 30
0.0
 40
1.0
100
AcDbArc
 50
90.0
 51
180.0
  0
LINE
  5
A67
330
2
100
AcDbEntity
  8
0
100
AcDbLine
 10
209.0102584273012
 20
333.6347459289506
 30
0.0
 11
209.0102584273012
 21
332.6290890804455
 31
0.0
  0
LINE
  5
A68
330
2
100
AcDbEntity
  8
0
100
AcDbLine
 10
249.0102664273011
 20
333.6347459289506
 30
0.0
 11
249.0102664273011
 21
332.6347459289506
 31
0.0
  0
LINE
  5
A69
330
2
100
AcDbEntity
  8
0
100
AcDbLine
 10
221.5102664273012
 20
363.6347299289506
 30
0.0
 11
238.5102664273011
 21
363.6347299289506
 31
0.0
  0
LINE
  5
A6A
330
2
100
AcDbEntity
  8
0
100
AcDbLine
 10
220.5102664273011
 20
336.6347459289506
 30
0.0
 11
237.5102664273011
 21
336.6347459289506
 31
0.0
  0
LINE
  5
A6B
330
2
100
AcDbEntity
  8
0
100
AcDbLine
 10
248.0102664273011
 20
334.6347459289506
 30
0.0
 11
210.0102584273012
 21
334.6347459289506
 31
0.0
  0
LINE
  5
A6C
330
2
100
AcDbEntity
  8
0
100
AcDbLine
 10
221.5102664273012
 20
363.6347299289506
 30
0.0
 11
221.5102664273012
 21
336.6347459289506
 31
0.0
  0
LINE
  5
A6D
330
2
100
AcDbEntity
  8
0
100
AcDbLine
 10
220.5102664273011
 20
336.6347459289506
 30
0.0
 11
220.5102664273011
 21
334.6347459289506
 31
0.0
  0
LINE
  5
A6E
330
2
100
AcDbEntity
  8
0
100
AcDbLine
 10
236.0812654273012
 20
342.1347459289506
 30
0.0
 11
236.0812654273012
 21
363.6347299289506
 31
0.0
  0
LINE
  5
A6F
330
2
100
AcDbEntity
  8
0
100
AcDbLine
 10
238.5102664273011
 20
342.1347459289506
 30
0.0
 11
238.5102664273011
 21
363.6347299289506
 31
0.0
  0
LINE
  5
A70
330
2
100
AcDbEntity
  8
0
100
AcDbLine
 10
236.5102664273011
 20
342.1347459289506
 30
0.0
 11
236.5102664273011
 21
336.6347459289506
 31
0.0
  0
LINE
  5
A71
330
2
100
AcDbEntity
  8
0
100
AcDbLine
 10
236.0812654273012
 20
342.1347459289506
 30
0.0
 11
238.5102664273011
 21
342.1347459289506
 31
0.0
  0
LINE
  5
A72
330
2
100
AcDbEntity
  8
0
100
AcDbLine
 10
237.5102664273011
 20
336.6347459289506
 30
0.0
 11
237.5102664273011
 21
334.6347459289506
 31
0.0
  0
LINE
  5
A73
330
2
100
AcDbEntity
  8
0
100
AcDbLine
 10
270.7413304273011
 20
255.5823779289506
 30
0.0
 11
271.5102664273012
 21
299.6347459289506
 31
0.0
  0
ARC
  5
A74
330
2
100
AcDbEntity
  8
0
100
AcDbCircle
 10
267.7417874273012
 20
255.6347459289506
 30
0.0
 40
3.0
100
AcDbArc
 50
270.0
 51
358.9999999999998
  0
LINE
  5
A75
330
2
100
AcDbEntity
  8
CENTER
100
AcDbLine
 10
263.0102664273012
 20
265.5472154277926
 30
0.0
 11
263.0102664273012
 21
253.7222764301085
 31
0.0
  0
LINE
  5
A76
330
2
100
AcDbEntity
  8
CENTER
100
AcDbLine
 10
268.9227359261432
 20
259.6347459289506
 30
0.0
 11
257.0977969284591
 21
259.6347459289506
 31
0.0
  0
CIRCLE
  5
A77
330
2
100
AcDbEntity
  8
0
100
AcDbCircle
 10
263.0102664273012
 20
259.6347459289506
 30
0.0
 40
3.25
  0
ARC
  5
A78
330
2
100
AcDbEntity
  8
0
100
AcDbCircle
 10
269.0037664273012
 20
270.6347459289506
 30
0.0
 40
2.0
100
AcDbArc
 50
270.0
 51
358.9999999999998
  0
LINE
  5
A79
330
2
100
AcDbEntity
  8
CENTER
100
AcDbLine
 10
263.0102664273012
 20
345.5472154277926
 30
0.0
 11
263.0102664273012
 21
333.7222764301086
 31
0.0
  0
LINE
  5
A7A
330
2
100
AcDbEntity
  8
0
100
AcDbLine
 10
270.7413304273011
 20
343.6870989289506
 30
0.0
 11
271.5102664273012
 21
299.6347459289506
 31
0.0
  0
ARC
  5
A7B
330
2
100
AcDbEntity
  8
0
100
AcDbCircle
 10
269.0037664273012
 20
328.6347459289506
 30
0.0
 40
2.0
100
AcDbArc
 50
1.000000000000147
 51
90.0
  0
LINE
  5
A7C
330
2
100
AcDbEntity
  8
CENTER
100
AcDbLine
 10
268.9227359261432
 20
339.6347459289506
 30
0.0
 11
257.0977969284591
 21
339.6347459289506
 31
0.0
  0
CIRCLE
  5
A7D
330
2
100
AcDbEntity
  8
0
100
AcDbCircle
 10
263.0102664273012
 20
339.6347459289506
 30
0.0
 40
3.25
  0
ARC
  5
A7E
330
2
100
AcDbEntity
  8
0
100
AcDbCircle
 10
267.7417874273012
 20
343.6347299289506
 30
0.0
 40
3.0
100
AcDbArc
 50
1.000000000000147
 51
90.0
  0
TEXT
  5
A7F
330
2
100
AcDbEntity
  8
TITLE
100
AcDbText
 10
361.0293571506986
 20
277.2560004060484
 30
0.0
 40
5.0
  1
HLW-15T-10~240-S25
100
AcDbText
  0
TEXT
  5
A80
330
2
100
AcDbEntity
  8
TITLE
100
AcDbText
 10
361.0293571506986
 20
285.2560004060484
 30
0.0
 40
5.0
  1
HLW-15T-10~240-S15
100
AcDbText
  0
TEXT
  5
A81
330
2
100
AcDbEntity
  8
TITLE
100
AcDbText
 10
361.0293571506986
 20
293.2560004060484
 30
0.0
 40
5.0
  1
HLW-15T-10~120-T40
100
AcDbText
  0
TEXT
  5
A82
330
2
100
AcDbEntity
  8
TITLE
100
AcDbText
 10
361.0293571506986
 20
309.2560004060485
 30
0.0
 40
5.0
  1
HLW-15T-10~240-T15
100
AcDbText
  0
TEXT
  5
A83
330
2
100
AcDbEntity
  8
TITLE
100
AcDbText
 10
361.0293571506986
 20
301.2560004060484
 30
0.0
 40
5.0
  1
HLW-15T-10~240-T25
100
AcDbText
  0
ARC
  5
10D5
330
2
100
AcDbEntity
  8
0
100
AcDbCircle
 10
454.0951946277949
 20
141.0978452526642
 30
0.0
 40
2.0
100
AcDbArc
 50
180.0
 51
270.0
  0
ARC
  5
10D6
330
2
100
AcDbEntity
  8
0
100
AcDbCircle
 10
454.0951946277949
 20
97.09784525266421
 30
0.0
 40
2.0
100
AcDbArc
 50
90.00000000000003
 51
180.0
  0
ARC
  5
10D7
330
2
100
AcDbEntity
  8
0
100
AcDbCircle
 10
388.0951946277945
 20
97.09784525266421
 30
0.0
 40
2.0
100
AcDbArc
 50
0.000000000000007
 51
89.99999999999998
  0
ARC
  5
10D8
330
2
100
AcDbEntity
  8
0
100
AcDbCircle
 10
388.0951946277945
 20
141.0978452526642
 30
0.0
 40
2.0
100
AcDbArc
 50
270.0
 51
0.000000000000007
  0
ARC
  5
10DE
330
2
100
AcDbEntity
  8
0
100
AcDbCircle
 10
251.0102664273013
 20
332.6347459289506
 30
0.0
 40
2.0
100
AcDbArc
 50
180.0
 51
270.0
  0
ARC
  5
10E0
330
2
100
AcDbEntity
  8
0
100
AcDbCircle
 10
251.0102664273013
 20
266.6347459289505
 30
0.0
 40
2.0
100
AcDbArc
 50
90.00000000000003
 51
180.0
  0
ARC
  5
10E1
330
2
100
AcDbEntity
  8
0
100
AcDbCircle
 10
207.0102664273009
 20
266.6347459289505
 30
0.0
 40
2.0
100
AcDbArc
 50
0.0
 51
90.00000000000003
  0
ARC
  5
10E2
330
2
100
AcDbEntity
  8
0
100
AcDbCircle
 10
207.0102664273009
 20
332.6347459289506
 30
0.0
 40
2.0
100
AcDbArc
 50
270.0
 51
0.000000000000007
  0
ENDSEC
  0
SECTION
  2
OBJECTS
  0
DICTIONARY
  5
7
330
0
100
AcDbDictionary
  3
ACAD_GROUP
350
75
  3
ACAD_LAYOUT
350
61
  3
ACAD_MLINESTYLE
350
76
  3
ACAD_PLOTSETTINGS
350
77
  3
ACAD_PLOTSTYLENAME
350
6
  3
ACADDIM
350
480
  3
ACDBHEADERROUNDTRIPXREC
350
1125
  3
ACDBVARIABLEDICTIONARY
350
102
  3
DWGPROPS
350
10CB
  0
DICTIONARY
  5
1146
330
2
100
AcDbDictionary
280
     1
  3
ACAD_LAYOUTSELFREF
360
1147
  0
DICTIONARY
  5
1148
330
111F
100
AcDbDictionary
280
     1
  3
ACAD_LAYOUTSELFREF
360
1149
  0
DICTIONARY
  5
75
102
{ACAD_REACTORS
330
7
102
}
330
7
100
AcDbDictionary
  0
DICTIONARY
  5
61
102
{ACAD_REACTORS
330
7
102
}
330
7
100
AcDbDictionary
  0
DICTIONARY
  5
76
102
{ACAD_REACTORS
330
7
102
}
330
7
100
AcDbDictionary
  3
STANDARD
350
78
  0
DICTIONARY
  5
77
102
{ACAD_REACTORS
330
7
102
}
330
7
100
AcDbDictionary
  0
ACDBDICTIONARYWDFLT
  5
6
102
{ACAD_REACTORS
330
7
102
}
330
7
100
AcDbDictionary
281
     1
  3
Normal
350
5
100
AcDbDictionaryWithDefault
340
5
  0
XRECORD
  5
480
102
{ACAD_REACTORS
330
7
102
}
330
7
100
AcDbXrecord
 90
   990106
  3

 60
     0
 61
     0
 62
     1
 63
     3
 64
     1
 65
     0
 66
     0
 67
     3
 68
     1
 69
     0
 70
     0
 71
     0
 72
     0
 40
0.0
170
     2
340
0
  0
DICTIONARY
  5
1125
102
{ACAD_REACTORS
330
7
102
}
330
7
100
AcDbDictionary
  3
CEPSNTYPE
350
112F
  3
DIMSTYLEDATA
350
1133
  3
FINGERPRINTGUID
350
1130
  3
HYPERLINKBASE
350
1128
  3
INSUNITS
350
112E
  3
LAYOUTDICT
350
112A
  3
LWETCUNION
350
112D
  3
PLOTSETDICT
350
112B
  3
PLOTSTYLNAMDICT
350
112C
  3
PSVPSCALE
350
1132
  3
PUCSBASE
350
1136
  3
PUCSORGBACK
350
113C
  3
PUCSORGBOTTOM
350
1138
  3
PUCSORGFRONT
350
113B
  3
PUCSORGLEFT
350
1139
  3
PUCSORGRIGHT
350
113A
  3
PUCSORGTOP
350
1137
  3
PUCSORTHOREF
350
1134
  3
PUCSORTHOVIEW
350
1135
  3
STYLESHEET
350
1129
  3
TSTACKALIGN
350
1126
  3
TSTACKSIZE
350
1127
  3
UCSBASE
350
113F
  3
UCSORGBACK
350
1145
  3
UCSORGBOTTOM
350
1141
  3
UCSORGFRONT
350
1144
  3
UCSORGLEFT
350
1142
  3
UCSORGRIGHT
350
1143
  3
UCSORGTOP
350
1140
  3
UCSORTHOREF
350
113D
  3
UCSORTHOVIEW
350
113E
  3
VERSIONGUID
350
1131
  0
DICTIONARY
  5
102
102
{ACAD_REACTORS
330
7
102
}
330
7
100
AcDbDictionary
  3
DIMASSOC
350
103
  0
XRECORD
  5
10CB
102
{ACAD_REACTORS
330
7
102
}
330
7
100
AcDbXrecord
  1
DWGPROPS COOKIE
  2

  3

  4

  6

  7

  8

  9

300
=
301
=
302
=
303
=
304
=
305
=
306
=
307
=
308
=
309
=
 40
0.1816919675925926
 41
2453761.463049583
 42
2454397.690803125
  1

 90
        0
  0
XRECORD
  5
1147
102
{ACAD_REACTORS
330
1146
102
}
330
1146
100
AcDbXrecord
340
2
  0
XRECORD
  5
1149
102
{ACAD_REACTORS
330
1148
102
}
330
1148
100
AcDbXrecord
340
111F
  0
MLINESTYLE
  5
78
102
{ACAD_REACTORS
330
76
102
}
330
76
100
AcDbMlineStyle
  2
STANDARD
 70
     0
  3

 62
     0
 51
90.0
 52
90.0
 71
     2
 49
0.5
 62
   256
  6
BYLAYER
 49
-0.5
 62
   256
  6
BYLAYER
  0
ACDBPLACEHOLDER
  5
5
102
{ACAD_REACTORS
330
6
102
}
330
6
100
AcDbPlaceHolder
280
     0
  0
XRECORD
  5
112F
102
{ACAD_REACTORS
330
1125
102
}
330
1125
100
AcDbXrecord
 90
        0
  0
XRECORD
  5
1133
102
{ACAD_REACTORS
330
1125
102
}
330
1125
100
AcDbXrecord
1000
DSTYLE
1002
{
1070
   179
 70
     2
1070
   277
 70
     6
1002
}
  0
XRECORD
  5
1130
102
{ACAD_REACTORS
330
1125
102
}
330
1125
100
AcDbXrecord
  1
{6385560B-F4B1-4644-A7C2-A3E32AC3D232}
  0
XRECORD
  5
1128
102
{ACAD_REACTORS
330
1125
102
}
330
1125
100
AcDbXrecord
  1

  0
XRECORD
  5
112E
102
{ACAD_REACTORS
330
1125
102
}
330
1125
100
AcDbXrecord
 90
        0
  0
XRECORD
  5
112A
102
{ACAD_REACTORS
330
1125
102
}
330
1125
100
AcDbXrecord
340
61
  0
XRECORD
  5
112D
102
{ACAD_REACTORS
330
1125
102
}
330
1125
100
AcDbXrecord
 90
    10781
  0
XRECORD
  5
112B
102
{ACAD_REACTORS
330
1125
102
}
330
1125
100
AcDbXrecord
340
77
  0
XRECORD
  5
112C
102
{ACAD_REACTORS
330
1125
102
}
330
1125
100
AcDbXrecord
340
6
  0
XRECORD
  5
1132
102
{ACAD_REACTORS
330
1125
102
}
330
1125
100
AcDbXrecord
 40
0.0
  0
XRECORD
  5
1136
102
{ACAD_REACTORS
330
1125
102
}
330
1125
100
AcDbXrecord
340
0
  0
XRECORD
  5
113C
102
{ACAD_REACTORS
330
1125
102
}
330
1125
100
AcDbXrecord
 10
0.0
 20
0.0
 30
0.0
  0
XRECORD
  5
1138
102
{ACAD_REACTORS
330
1125
102
}
330
1125
100
AcDbXrecord
 10
0.0
 20
0.0
 30
0.0
  0
XRECORD
  5
113B
102
{ACAD_REACTORS
330
1125
102
}
330
1125
100
AcDbXrecord
 10
0.0
 20
0.0
 30
0.0
  0
XRECORD
  5
1139
102
{ACAD_REACTORS
330
1125
102
}
330
1125
100
AcDbXrecord
 10
0.0
 20
0.0
 30
0.0
  0
XRECORD
  5
113A
102
{ACAD_REACTORS
330
1125
102
}
330
1125
100
AcDbXrecord
 10
0.0
 20
0.0
 30
0.0
  0
XRECORD
  5
1137
102
{ACAD_REACTORS
330
1125
102
}
330
1125
100
AcDbXrecord
 10
0.0
 20
0.0
 30
0.0
  0
XRECORD
  5
1134
102
{ACAD_REACTORS
330
1125
102
}
330
1125
100
AcDbXrecord
340
0
  0
XRECORD
  5
1135
102
{ACAD_REACTORS
330
1125
102
}
330
1125
100
AcDbXrecord
 70
     0
  0
XRECORD
  5
1129
102
{ACAD_REACTORS
330
1125
102
}
330
1125
100
AcDbXrecord
  1
Sekkei.ctb
  0
XRECORD
  5
1126
102
{ACAD_REACTORS
330
1125
102
}
330
1125
100
AcDbXrecord
 90
        1
  0
XRECORD
  5
1127
102
{ACAD_REACTORS
330
1125
102
}
330
1125
100
AcDbXrecord
 90
       70
  0
XRECORD
  5
113F
102
{ACAD_REACTORS
330
1125
102
}
330
1125
100
AcDbXrecord
340
0
  0
XRECORD
  5
1145
102
{ACAD_REACTORS
330
1125
102
}
330
1125
100
AcDbXrecord
 10
0.0
 20
0.0
 30
0.0
  0
XRECORD
  5
1141
102
{ACAD_REACTORS
330
1125
102
}
330
1125
100
AcDbXrecord
 10
0.0
 20
0.0
 30
0.0
  0
XRECORD
  5
1144
102
{ACAD_REACTORS
330
1125
102
}
330
1125
100
AcDbXrecord
 10
0.0
 20
0.0
 30
0.0
  0
XRECORD
  5
1142
102
{ACAD_REACTORS
330
1125
102
}
330
1125
100
AcDbXrecord
 10
0.0
 20
0.0
 30
0.0
  0
XRECORD
  5
1143
102
{ACAD_REACTORS
330
1125
102
}
330
1125
100
AcDbXrecord
 10
0.0
 20
0.0
 30
0.0
  0
XRECORD
  5
1140
102
{ACAD_REACTORS
330
1125
102
}
330
1125
100
AcDbXrecord
 10
0.0
 20
0.0
 30
0.0
  0
XRECORD
  5
113D
102
{ACAD_REACTORS
330
1125
102
}
330
1125
100
AcDbXrecord
340
0
  0
XRECORD
  5
113E
102
{ACAD_REACTORS
330
1125
102
}
330
1125
100
AcDbXrecord
 70
     0
  0
XRECORD
  5
1131
102
{ACAD_REACTORS
330
1125
102
}
330
1125
100
AcDbXrecord
  1
{BF3E5071-72EB-44CE-A1BE-F54269A27CCC}
  0
DICTIONARYVAR
  5
103
102
{ACAD_REACTORS
330
102
102
}
330
102
100
DictionaryVariables
280
     0
  1
1
  0
ENDSEC
  0
EOF
