  0
SECTION
  2
HEADER
  9
$ACADVER
  1
AC1015
  9
$ACADMAINTVER
 70
    20
  9
$DWGCODEPAGE
  3
ANSI_932
  9
$INSBASE
 10
0.0
 20
0.0
 30
0.0
  9
$EXTMIN
 10
18.1976159316
 20
23.5825818168
 30
0.0
  9
$EXTMAX
 10
498.9581955665
 20
370.634729929
 30
0.0
  9
$LIMMIN
 10
0.0
 20
0.0
  9
$LIMMAX
 10
297.0
 20
210.0
  9
$ORTHOMODE
 70
     0
  9
$REGENMODE
 70
     1
  9
$FILLMODE
 70
     1
  9
$QTEXTMODE
 70
     0
  9
$MIRRTEXT
 70
     0
  9
$LTSCALE
 40
2.0
  9
$ATTMODE
 70
     1
  9
$TEXTSIZE
 40
2.0
  9
$TRACEWID
 40
1.0
  9
$TEXTSTYLE
  7
STANDARD
  9
$CLAYER
  8
0
  9
$CELTYPE
  6
BYLAYER
  9
$CECOLOR
 62
   256
  9
$CELTSCALE
 40
1.0
  9
$DISPSILH
 70
     0
  9
$DIMSCALE
 40
2.0
  9
$DIMASZ
 40
1.8
  9
$DIMEXO
 40
0.625
  9
$DIMDLI
 40
3.75
  9
$DIMRND
 40
0.0
  9
$DIMDLE
 40
0.0
  9
$DIMEXE
 40
0.8
  9
$DIMTP
 40
0.0
  9
$DIMTM
 40
0.0
  9
$DIMTXT
 40
1.8
  9
$DIMCEN
 40
2.5
  9
$DIMTSZ
 40
0.0
  9
$DIMTOL
 70
     0
  9
$DIMLIM
 70
     0
  9
$DIMTIH
 70
     0
  9
$DIMTOH
 70
     0
  9
$DIMSE1
 70
     0
  9
$DIMSE2
 70
     0
  9
$DIMTAD
 70
     1
  9
$DIMZIN
 70
     8
  9
$DIMBLK
  1

  9
$DIMASO
 70
     1
  9
$DIMSHO
 70
     1
  9
$DIMPOST
  1

  9
$DIMAPOST
  1

  9
$DIMALT
 70
     0
  9
$DIMALTD
 70
     4
  9
$DIMALTF
 40
0.0394
  9
$DIMLFAC
 40
1.0
  9
$DIMTOFL
 70
     1
  9
$DIMTVP
 40
0.0
  9
$DIMTIX
 70
     0
  9
$DIMSOXD
 70
     0
  9
$DIMSAH
 70
     0
  9
$DIMBLK1
  1

  9
$DIMBLK2
  1

  9
$DIMSTYLE
  2
STANDARD
  9
$DIMCLRD
 70
     0
  9
$DIMCLRE
 70
     0
  9
$DIMCLRT
 70
     0
  9
$DIMTFAC
 40
1.0
  9
$DIMGAP
 40
0.75
  9
$DIMJUST
 70
     0
  9
$DIMSD1
 70
     0
  9
$DIMSD2
 70
     0
  9
$DIMTOLJ
 70
     1
  9
$DIMTZIN
 70
     0
  9
$DIMALTZ
 70
     0
  9
$DIMALTTZ
 70
     0
  9
$DIMUPT
 70
     0
  9
$DIMDEC
 70
     2
  9
$DIMTDEC
 70
     2
  9
$DIMALTU
 70
     8
  9
$DIMALTTD
 70
     4
  9
$DIMTXSTY
  7
STANDARD
  9
$DIMAUNIT
 70
     0
  9
$DIMADEC
 70
     2
  9
$DIMALTRND
 40
0.0
  9
$DIMAZIN
 70
     0
  9
$DIMDSEP
 70
    46
  9
$DIMATFIT
 70
     3
  9
$DIMFRAC
 70
     0
  9
$DIMLDRBLK
  1

  9
$DIMLUNIT
 70
     6
  9
$DIMLWD
 70
    -2
  9
$DIMLWE
 70
    -2
  9
$DIMTMOVE
 70
     0
  9
$LUNITS
 70
     2
  9
$LUPREC
 70
     3
  9
$SKETCHINC
 40
1.0
  9
$FILLETRAD
 40
10.0
  9
$AUNITS
 70
     0
  9
$AUPREC
 70
     2
  9
$MENU
  1
.
  9
$ELEVATION
 40
0.0
  9
$PELEVATION
 40
0.0
  9
$THICKNESS
 40
0.0
  9
$LIMCHECK
 70
     0
  9
$CHAMFERA
 40
0.0
  9
$CHAMFERB
 40
0.0
  9
$CHAMFERC
 40
20.0
  9
$CHAMFERD
 40
0.0
  9
$SKPOLY
 70
     0
  9
$TDCREATE
 40
2453761.463043982
  9
$TDUCREATE
 40
2453761.088049583
  9
$TDUPDATE
 40
2460516.514525463
  9
$TDUUPDATE
 40
2460516.139525463
  9
$TDINDWG
 40
0.1961378472
  9
$TDUSRTIMER
 40
0.1961376620
  9
$USRTIMER
 70
     1
  9
$ANGBASE
 50
0.0
  9
$ANGDIR
 70
     0
  9
$PDMODE
 70
     0
  9
$PDSIZE
 40
-10.0
  9
$PLINEWID
 40
0.0
  9
$SPLFRAME
 70
     0
  9
$SPLINETYPE
 70
     6
  9
$SPLINESEGS
 70
     8
  9
$HANDSEED
  5
1482
  9
$SURFTAB1
 70
     6
  9
$SURFTAB2
 70
     6
  9
$SURFTYPE
 70
     6
  9
$SURFU
 70
     6
  9
$SURFV
 70
     6
  9
$UCSBASE
  2

  9
$UCSNAME
  2

  9
$UCSORG
 10
0.0
 20
0.0
 30
0.0
  9
$UCSXDIR
 10
1.0
 20
0.0
 30
0.0
  9
$UCSYDIR
 10
0.0
 20
1.0
 30
0.0
  9
$UCSORTHOREF
  2

  9
$UCSORTHOVIEW
 70
     0
  9
$UCSORGTOP
 10
0.0
 20
0.0
 30
0.0
  9
$UCSORGBOTTOM
 10
0.0
 20
0.0
 30
0.0
  9
$UCSORGLEFT
 10
0.0
 20
0.0
 30
0.0
  9
$UCSORGRIGHT
 10
0.0
 20
0.0
 30
0.0
  9
$UCSORGFRONT
 10
0.0
 20
0.0
 30
0.0
  9
$UCSORGBACK
 10
0.0
 20
0.0
 30
0.0
  9
$PUCSBASE
  2

  9
$PUCSNAME
  2

  9
$PUCSORG
 10
0.0
 20
0.0
 30
0.0
  9
$PUCSXDIR
 10
1.0
 20
0.0
 30
0.0
  9
$PUCSYDIR
 10
0.0
 20
1.0
 30
0.0
  9
$PUCSORTHOREF
  2

  9
$PUCSORTHOVIEW
 70
     0
  9
$PUCSORGTOP
 10
0.0
 20
0.0
 30
0.0
  9
$PUCSORGBOTTOM
 10
0.0
 20
0.0
 30
0.0
  9
$PUCSORGLEFT
 10
0.0
 20
0.0
 30
0.0
  9
$PUCSORGRIGHT
 10
0.0
 20
0.0
 30
0.0
  9
$PUCSORGFRONT
 10
0.0
 20
0.0
 30
0.0
  9
$PUCSORGBACK
 10
0.0
 20
0.0
 30
0.0
  9
$USERI1
 70
     0
  9
$USERI2
 70
     0
  9
$USERI3
 70
     0
  9
$USERI4
 70
     0
  9
$USERI5
 70
     0
  9
$USERR1
 40
0.0
  9
$USERR2
 40
0.0
  9
$USERR3
 40
0.0
  9
$USERR4
 40
0.0
  9
$USERR5
 40
0.0
  9
$WORLDVIEW
 70
     1
  9
$SHADEDGE
 70
     3
  9
$SHADEDIF
 70
    70
  9
$TILEMODE
 70
     1
  9
$MAXACTVP
 70
    48
  9
$PINSBASE
 10
0.0
 20
0.0
 30
0.0
  9
$PLIMCHECK
 70
     0
  9
$PEXTMIN
 10
0.0
 20
0.0
 30
0.0
  9
$PEXTMAX
 10
0.0
 20
0.0
 30
0.0
  9
$PLIMMIN
 10
0.0
 20
0.0
  9
$PLIMMAX
 10
12.0
 20
9.0
  9
$UNITMODE
 70
     0
  9
$VISRETAIN
 70
     1
  9
$PLINEGEN
 70
     0
  9
$PSLTSCALE
 70
     1
  9
$TREEDEPTH
 70
  3020
  9
$CMLSTYLE
  2
STANDARD
  9
$CMLJUST
 70
     0
  9
$CMLSCALE
 40
1.0
  9
$PROXYGRAPHICS
 70
     1
  9
$MEASUREMENT
 70
     0
  9
$CELWEIGHT
370
    -1
  9
$ENDCAPS
280
     0
  9
$JOINSTYLE
280
     0
  9
$LWDISPLAY
290
     0
  9
$INSUNITS
 70
     0
  9
$HYPERLINKBASE
  1

  9
$STYLESHEET
  1
SEKKEI.CTB
  9
$XEDIT
290
     1
  9
$CEPSNTYPE
380
     0
  9
$PSTYLEMODE
290
     1
  9
$FINGERPRINTGUID
  2
{6385560B-F4B1-4644-A7C2-A3E32AC3D232}
  9
$VERSIONGUID
  2
{B0C84962-5910-254F-97C5-46A42B8C686F}
  9
$EXTNAMES
290
     1
  9
$PSVPSCALE
 40
0.0
  9
$OLESTARTUP
290
     0
  0
ENDSEC
  0
SECTION
  2
CLASSES
  0
CLASS
  1
DICTIONARYVAR
  2
AcDbDictionaryVar
  3
ObjectDBX Classes
 90
        0
280
     0
281
     0
  0
CLASS
  1
ACDBDICTIONARYWDFLT
  2
AcDbDictionaryWithDefault
  3
ObjectDBX Classes
 90
        0
280
     0
281
     0
  0
CLASS
  1
MATERIAL
  2
AcDbMaterial
  3
ObjectDBX Classes
 90
     1153
280
     0
281
     0
  0
CLASS
  1
VISUALSTYLE
  2
AcDbVisualStyle
  3
ObjectDBX Classes
 90
     4095
280
     0
281
     0
  0
CLASS
  1
TABLESTYLE
  2
AcDbTableStyle
  3
ObjectDBX Classes
 90
     4095
280
     0
281
     0
  0
CLASS
  1
SCALE
  2
AcDbScale
  3
ObjectDBX Classes
 90
     1153
280
     0
281
     0
  0
CLASS
  1
MLEADERSTYLE
  2
AcDbMLeaderStyle
  3
ACDB_MLEADERSTYLE_CLASS
 90
     4095
280
     0
281
     0
  0
CLASS
  1
CELLSTYLEMAP
  2
AcDbCellStyleMap
  3
ObjectDBX Classes
 90
     1152
280
     0
281
     0
  0
CLASS
  1
ACDBPLACEHOLDER
  2
AcDbPlaceHolder
  3
ObjectDBX Classes
 90
        0
280
     0
281
     0
  0
CLASS
  1
LAYOUT
  2
AcDbLayout
  3
ObjectDBX Classes
 90
        0
280
     0
281
     0
  0
CLASS
  1
ACDBSECTIONVIEWSTYLE
  2
AcDbSectionViewStyle
  3
ObjectDBX Classes
 90
     1025
280
     0
281
     0
  0
CLASS
  1
ACDBDETAILVIEWSTYLE
  2
AcDbDetailViewStyle
  3
ObjectDBX Classes
 90
     1025
280
     0
281
     0
  0
CLASS
  1
SORTENTSTABLE
  2
AcDbSortentsTable
  3
ObjectDBX Classes
 90
        0
280
     0
281
     0
  0
ENDSEC
  0
SECTION
  2
TABLES
  0
TABLE
  2
VPORT
  5
6E
102
{ACAD_XDICTIONARY
360
1163
102
}
330
0
100
AcDbSymbolTable
 70
     1
  0
VPORT
  5
10E3
330
6E
100
AcDbSymbolTableRecord
100
AcDbViewportTableRecord
  2
*Active
 70
     0
 10
0.0
 20
0.0
 11
1.0
 21
1.0
 12
288.024675213
 22
203.5817150568
 13
0.0
 23
0.0
 14
10.0
 24
10.0
 15
10.0
 25
10.0
 16
0.0
 26
0.0
 36
1.0
 17
0.0
 27
0.0
 37
0.0
 40
349.6662084734
 41
2.2984693878
 42
50.0
 43
0.0
 44
0.0
 50
0.0
 51
0.0
 71
     0
 72
   100
 73
     1
 74
     3
 75
     0
 76
     0
 77
     0
 78
     0
281
     0
 65
     1
110
0.0
120
0.0
130
0.0
111
1.0
121
0.0
131
0.0
112
0.0
122
1.0
132
0.0
 79
     0
146
0.0
1001
ACAD_NAV_VCDISPLAY
1070
     3
  0
ENDTAB
  0
TABLE
  2
LTYPE
  5
69
330
0
100
AcDbSymbolTable
 70
     4
  0
LTYPE
  5
6A
330
69
100
AcDbSymbolTableRecord
100
AcDbLinetypeTableRecord
  2
BYBLOCK
 70
     0
  3

 72
    65
 73
     0
 40
0.0
  0
LTYPE
  5
6B
330
69
100
AcDbSymbolTableRecord
100
AcDbLinetypeTableRecord
  2
BYLAYER
 70
     0
  3

 72
    65
 73
     0
 40
0.0
  0
LTYPE
  5
8
330
69
100
AcDbSymbolTableRecord
100
AcDbLinetypeTableRecord
  2
CONTINUOUS
 70
     0
  3
Solid line
 72
    65
 73
     0
 40
0.0
  0
LTYPE
  5
27C
330
69
100
AcDbSymbolTableRecord
100
AcDbLinetypeTableRecord
  2
sekkei(A2)
 70
     0
  3
center(A2)  ____ _ ____ _ ____ _ ____ _ ____ _ 
 72
    65
 73
     4
 40
14.2875
 49
9.525
 74
     0
 49
-1.5875
 74
     0
 49
1.5875
 74
     0
 49
-1.5875
 74
     0
  0
LTYPE
  5
2B4
330
69
100
AcDbSymbolTableRecord
100
AcDbLinetypeTableRecord
  2
HIDDEN2
 70
     0
  3
Hidden (.5x) _ _ _ _ _ _ _ _ _ _ _ _ _ _ _ _ _
 72
    65
 73
     2
 40
4.7625
 49
3.175
 74
     0
 49
-1.5875
 74
     0
  0
LTYPE
  5
48F
330
69
100
AcDbSymbolTableRecord
100
AcDbLinetypeTableRecord
  2
sekkei_H
 70
     0
  3
Hidden-S _ _ _ _ _ _ _ _ _ _ _ _ _ _ _ _ _
 72
    65
 73
     2
 40
2.38125
 49
1.5875
 74
     0
 49
-0.79375
 74
     0
  0
ENDTAB
  0
TABLE
  2
LAYER
  5
66
102
{ACAD_XDICTIONARY
360
12A9
102
}
330
0
100
AcDbSymbolTable
 70
     9
  0
LAYER
  5
5E
102
{ACAD_XDICTIONARY
360
1139
102
}
330
66
100
AcDbSymbolTableRecord
100
AcDbLayerTableRecord
  2
0
 70
     0
 62
     7
  6
CONTINUOUS
370
    -3
390
5
  0
LAYER
  5
3E
102
{ACAD_XDICTIONARY
360
113B
102
}
330
66
100
AcDbSymbolTableRecord
100
AcDbLayerTableRecord
  2
CENTER
 70
     0
 62
     3
  6
sekkei(A2)
370
    -3
390
5
  0
LAYER
  5
135
330
66
100
AcDbSymbolTableRecord
100
AcDbLayerTableRecord
  2
DEFPOINTS
 70
     0
 62
     7
  6
CONTINUOUS
290
     0
370
    -3
390
5
  0
LAYER
  5
2B5
102
{ACAD_XDICTIONARY
360
1141
102
}
330
66
100
AcDbSymbolTableRecord
100
AcDbLayerTableRecord
  2
HIDS
 70
     0
 62
     1
  6
HIDDEN2
370
    -3
390
5
  0
LAYER
  5
2BA
102
{ACAD_XDICTIONARY
360
1143
102
}
330
66
100
AcDbSymbolTableRecord
100
AcDbLayerTableRecord
  2
HOJO
 70
     0
 62
     4
  6
CONTINUOUS
370
    -3
390
5
  0
LAYER
  5
3FA
102
{ACAD_XDICTIONARY
360
1147
102
}
330
66
100
AcDbSymbolTableRecord
100
AcDbLayerTableRecord
  2
TITLE
 70
     0
 62
     4
  6
CONTINUOUS
290
     0
370
    -3
390
5
  0
ENDTAB
  0
TABLE
  2
STYLE
  5
67
330
0
100
AcDbSymbolTable
 70
     1
  0
STYLE
  5
16
330
67
100
AcDbSymbolTableRecord
100
AcDbTextStyleTableRecord
  2
STANDARD
 70
     0
 40
0.0
 41
1.0
 50
0.0
 71
     0
 42
2.0
  3
simplex.shx
  4
extfont.shx
  0
ENDTAB
  0
TABLE
  2
VIEW
  5
6C
330
0
100
AcDbSymbolTable
 70
     0
  0
ENDTAB
  0
TABLE
  2
UCS
  5
6D
330
0
100
AcDbSymbolTable
 70
     0
  0
ENDTAB
  0
TABLE
  2
APPID
  5
70
330
0
100
AcDbSymbolTable
 70
     4
  0
APPID
  5
71
330
70
100
AcDbSymbolTableRecord
100
AcDbRegAppTableRecord
  2
ACAD
 70
     0
  0
APPID
  5
1136
330
70
100
AcDbSymbolTableRecord
100
AcDbRegAppTableRecord
  2
ACAD_MLEADERVER
 70
     0
  0
APPID
  5
11DA
330
70
100
AcDbSymbolTableRecord
100
AcDbRegAppTableRecord
  2
ACAD_NAV_VCDISPLAY
 70
     0
  0
APPID
  5
138C
330
70
100
AcDbSymbolTableRecord
100
AcDbRegAppTableRecord
  2
ACAD_EXEMPT_FROM_CAD_STANDARDS
 70
     0
  0
ENDTAB
  0
TABLE
  2
DIMSTYLE
  5
72
330
0
100
AcDbSymbolTable
 70
     1
100
AcDbDimStyleTable
 71
     1
340
73
  0
DIMSTYLE
105
73
102
{ACAD_REACTORS
330
87D
330
9B5
102
}
330
72
100
AcDbSymbolTableRecord
100
AcDbDimStyleTableRecord
  2
STANDARD
 70
     0
 40
2.0
 41
1.8
 42
0.625
 43
3.75
 44
0.8
 73
     0
 74
     0
 77
     1
 78
     8
140
1.8
141
2.5
143
0.0394
147
0.75
171
     4
172
     1
179
     2
271
     2
272
     2
273
     8
274
     4
277
     6
340
16
  0
ENDTAB
  0
TABLE
  2
BLOCK_RECORD
  5
1
330
0
100
AcDbSymbolTable
 70
    57
  0
BLOCK_RECORD
  5
2
330
1
100
AcDbSymbolTableRecord
100
AcDbBlockTableRecord
  2
*MODEL_SPACE
340
60
  0
BLOCK_RECORD
  5
1425
330
1
100
AcDbSymbolTableRecord
100
AcDbBlockTableRecord
  2
*Paper_Space
340
1426
  0
BLOCK_RECORD
  5
4AC
330
1
100
AcDbSymbolTableRecord
100
AcDbBlockTableRecord
  2
黒丸矢印1
340
0
  0
BLOCK_RECORD
  5
A84
330
1
100
AcDbSymbolTableRecord
100
AcDbBlockTableRecord
  2
*D3
340
0
  0
BLOCK_RECORD
  5
A90
330
1
100
AcDbSymbolTableRecord
100
AcDbBlockTableRecord
  2
*D4
340
0
  0
BLOCK_RECORD
  5
A9C
330
1
100
AcDbSymbolTableRecord
100
AcDbBlockTableRecord
  2
*D5
340
0
  0
BLOCK_RECORD
  5
AA8
330
1
100
AcDbSymbolTableRecord
100
AcDbBlockTableRecord
  2
*D6
340
0
  0
BLOCK_RECORD
  5
AB4
330
1
100
AcDbSymbolTableRecord
100
AcDbBlockTableRecord
  2
*D7
340
0
  0
BLOCK_RECORD
  5
AC0
330
1
100
AcDbSymbolTableRecord
100
AcDbBlockTableRecord
  2
*D8
340
0
  0
BLOCK_RECORD
  5
ACC
330
1
100
AcDbSymbolTableRecord
100
AcDbBlockTableRecord
  2
*D9
340
0
  0
BLOCK_RECORD
  5
AD8
330
1
100
AcDbSymbolTableRecord
100
AcDbBlockTableRecord
  2
*D10
340
0
  0
BLOCK_RECORD
  5
AE4
330
1
100
AcDbSymbolTableRecord
100
AcDbBlockTableRecord
  2
*D11
340
0
  0
BLOCK_RECORD
  5
AF0
330
1
100
AcDbSymbolTableRecord
100
AcDbBlockTableRecord
  2
*D12
340
0
  0
BLOCK_RECORD
  5
AFC
330
1
100
AcDbSymbolTableRecord
100
AcDbBlockTableRecord
  2
*D13
340
0
  0
BLOCK_RECORD
  5
B08
330
1
100
AcDbSymbolTableRecord
100
AcDbBlockTableRecord
  2
*D14
340
0
  0
BLOCK_RECORD
  5
B14
330
1
100
AcDbSymbolTableRecord
100
AcDbBlockTableRecord
  2
*D15
340
0
  0
BLOCK_RECORD
  5
B20
330
1
100
AcDbSymbolTableRecord
100
AcDbBlockTableRecord
  2
*D16
340
0
  0
BLOCK_RECORD
  5
B2C
330
1
100
AcDbSymbolTableRecord
100
AcDbBlockTableRecord
  2
*D17
340
0
  0
BLOCK_RECORD
  5
B38
330
1
100
AcDbSymbolTableRecord
100
AcDbBlockTableRecord
  2
*D18
340
0
  0
BLOCK_RECORD
  5
B44
330
1
100
AcDbSymbolTableRecord
100
AcDbBlockTableRecord
  2
*D19
340
0
  0
BLOCK_RECORD
  5
B50
330
1
100
AcDbSymbolTableRecord
100
AcDbBlockTableRecord
  2
*D20
340
0
  0
BLOCK_RECORD
  5
B5C
330
1
100
AcDbSymbolTableRecord
100
AcDbBlockTableRecord
  2
*D21
340
0
  0
BLOCK_RECORD
  5
B68
330
1
100
AcDbSymbolTableRecord
100
AcDbBlockTableRecord
  2
*D22
340
0
  0
BLOCK_RECORD
  5
B74
330
1
100
AcDbSymbolTableRecord
100
AcDbBlockTableRecord
  2
*D23
340
0
  0
BLOCK_RECORD
  5
B82
330
1
100
AcDbSymbolTableRecord
100
AcDbBlockTableRecord
  2
*D24
340
0
  0
BLOCK_RECORD
  5
B8E
330
1
100
AcDbSymbolTableRecord
100
AcDbBlockTableRecord
  2
*D25
340
0
  0
BLOCK_RECORD
  5
B9A
330
1
100
AcDbSymbolTableRecord
100
AcDbBlockTableRecord
  2
*D26
340
0
  0
BLOCK_RECORD
  5
BA6
330
1
100
AcDbSymbolTableRecord
100
AcDbBlockTableRecord
  2
*D27
340
0
  0
BLOCK_RECORD
  5
BB2
330
1
100
AcDbSymbolTableRecord
100
AcDbBlockTableRecord
  2
*D28
340
0
  0
BLOCK_RECORD
  5
BBE
330
1
100
AcDbSymbolTableRecord
100
AcDbBlockTableRecord
  2
*D29
340
0
  0
BLOCK_RECORD
  5
BCA
330
1
100
AcDbSymbolTableRecord
100
AcDbBlockTableRecord
  2
*D30
340
0
  0
BLOCK_RECORD
  5
BD6
330
1
100
AcDbSymbolTableRecord
100
AcDbBlockTableRecord
  2
*D31
340
0
  0
BLOCK_RECORD
  5
1241
102
{ACAD_XDICTIONARY
360
1242
102
}
330
1
100
AcDbSymbolTableRecord
100
AcDbBlockTableRecord
  2
A$C57c306b1
340
0
102
{BLKREFS
331
12A4
331
12A5
331
12A6
331
12A7
102
}
  0
BLOCK_RECORD
  5
1258
102
{ACAD_XDICTIONARY
360
1259
102
}
330
1
100
AcDbSymbolTableRecord
100
AcDbBlockTableRecord
  2
G$C828323CB
340
0
102
{BLKREFS
331
12B0
102
}
  0
BLOCK_RECORD
  5
12B1
102
{ACAD_XDICTIONARY
360
12B2
102
}
330
1
100
AcDbSymbolTableRecord
100
AcDbBlockTableRecord
  2
G$C8ED97162
340
0
102
{BLKREFS
331
1327
102
}
  0
ENDTAB
  0
ENDSEC
  0
SECTION
  2
BLOCKS
  0
BLOCK
  5
5D
330
2
100
AcDbEntity
  8
0
100
AcDbBlockBegin
  2
*MODEL_SPACE
 70
     0
 10
0.0
 20
0.0
 30
0.0
  3
*MODEL_SPACE
  1

  0
ENDBLK
  5
5F
330
2
100
AcDbEntity
  8
0
100
AcDbBlockEnd
  0
BLOCK
  5
1427
330
1425
100
AcDbEntity
 67
     1
  8
0
100
AcDbBlockBegin
  2
*Paper_Space
 70
     0
 10
0.0
 20
0.0
 30
0.0
  3
*Paper_Space
  1

  0
ENDBLK
  5
1428
330
1425
100
AcDbEntity
 67
     1
  8
0
100
AcDbBlockEnd
  0
BLOCK
  5
4B0
330
4AC
100
AcDbEntity
  8
0
100
AcDbBlockBegin
  2
黒丸矢印1
 70
     0
 10
0.0
 20
0.0
 30
0.0
  3
黒丸矢印1
  1

  0
HATCH
  5
4AD
330
4AC
100
AcDbEntity
  8
0
100
AcDbHatch
 10
0.0
 20
0.0
 30
0.0
210
0.0
220
0.0
230
1.0
  2
SOLID
 70
     1
 71
     1
 91
        1
 92
        7
 72
     1
 73
     1
 93
        2
 10
-0.25
 20
0.0
 42
1.0
 10
0.25
 20
0.0
 42
1.0
 97
        1
330
4AE
 75
     0
 76
     1
 47
0.0031599728
 98
        1
 10
-0.0919668375711354
 20
0.0618998464179867
  0
CIRCLE
  5
4AE
102
{ACAD_REACTORS
330
4AD
102
}
330
4AC
100
AcDbEntity
  8
0
100
AcDbCircle
 10
0.0
 20
0.0
 30
0.0
 40
0.25
  0
LINE
  5
4AF
330
4AC
100
AcDbEntity
  8
0
100
AcDbLine
 10
0.0
 20
0.0
 30
0.0
 11
-1.0
 21
0.0
 31
0.0
  0
ENDBLK
  5
4B1
330
4AC
100
AcDbEntity
  8
0
100
AcDbBlockEnd
  0
BLOCK
  5
A8E
330
A84
100
AcDbEntity
  8
0
100
AcDbBlockBegin
  2
*D3
 70
     1
 10
0.0
 20
0.0
 30
0.0
  3
*D3
  1

  0
POINT
  5
EA1
330
A84
100
AcDbEntity
  8
DEFPOINTS
 62
     0
100
AcDbPoint
 10
378.5951906278
 20
121.5978302527
 30
0.0
  0
POINT
  5
EA2
330
A84
100
AcDbEntity
  8
DEFPOINTS
 62
     0
100
AcDbPoint
 10
357.0951906278
 20
126.5978462527
 30
0.0
  0
POINT
  5
EA3
330
A84
100
AcDbEntity
  8
DEFPOINTS
 62
     0
100
AcDbPoint
 10
357.0951906278
 20
160.8926953036
 30
0.0
  0
ENDBLK
  5
A8F
330
A84
100
AcDbEntity
  8
0
100
AcDbBlockEnd
  0
BLOCK
  5
A9A
330
A90
100
AcDbEntity
  8
0
100
AcDbBlockBegin
  2
*D4
 70
     1
 10
0.0
 20
0.0
 30
0.0
  3
*D4
  1

  0
POINT
  5
EF7
330
A90
100
AcDbEntity
  8
DEFPOINTS
 62
     0
100
AcDbPoint
 10
461.0951986278
 20
50.5978442527
 30
0.0
  0
POINT
  5
EF8
330
A90
100
AcDbEntity
  8
DEFPOINTS
 62
     0
100
AcDbPoint
 10
485.0951986278
 20
111.5978462527
 30
0.0
  0
POINT
  5
EF9
330
A90
100
AcDbEntity
  8
DEFPOINTS
 62
     0
100
AcDbPoint
 10
485.0951986278
 20
37.1927623399
 30
0.0
  0
ENDBLK
  5
A9B
330
A90
100
AcDbEntity
  8
0
100
AcDbBlockEnd
  0
BLOCK
  5
AA6
330
A9C
100
AcDbEntity
  8
0
100
AcDbBlockBegin
  2
*D5
 70
     1
 10
0.0
 20
0.0
 30
0.0
  3
*D5
  1

  0
POINT
  5
F01
330
A9C
100
AcDbEntity
  8
DEFPOINTS
 62
     0
100
AcDbPoint
 10
485.0951986278
 20
111.5978462527
 30
0.0
  0
POINT
  5
F02
330
A9C
100
AcDbEntity
  8
DEFPOINTS
 62
     0
100
AcDbPoint
 10
485.0951986278
 20
126.5978462527
 30
0.0
  0
POINT
  5
F03
330
A9C
100
AcDbEntity
  8
DEFPOINTS
 62
     0
100
AcDbPoint
 10
497.3581955665
 20
126.5978462527
 30
0.0
  0
ENDBLK
  5
AA7
330
A9C
100
AcDbEntity
  8
0
100
AcDbBlockEnd
  0
BLOCK
  5
AB2
330
AA8
100
AcDbEntity
  8
0
100
AcDbBlockBegin
  2
*D6
 70
     1
 10
0.0
 20
0.0
 30
0.0
  3
*D6
  1

  0
POINT
  5
E98
330
AA8
100
AcDbEntity
  8
DEFPOINTS
 62
     0
100
AcDbPoint
 10
463.5951986278
 20
121.5978302527
 30
0.0
  0
POINT
  5
E99
330
AA8
100
AcDbEntity
  8
DEFPOINTS
 62
     0
100
AcDbPoint
 10
485.0951986278
 20
126.5978462527
 30
0.0
  0
POINT
  5
E9A
330
AA8
100
AcDbEntity
  8
DEFPOINTS
 62
     0
100
AcDbPoint
 10
485.0951986278
 20
160.8926953036
 30
0.0
  0
ENDBLK
  5
AB3
330
AA8
100
AcDbEntity
  8
0
100
AcDbBlockEnd
  0
BLOCK
  5
ABE
330
AB4
100
AcDbEntity
  8
0
100
AcDbBlockBegin
  2
*D7
 70
     1
 10
0.0
 20
0.0
 30
0.0
  3
*D7
  1

  0
POINT
  5
E18
330
AB4
100
AcDbEntity
  8
DEFPOINTS
 62
     0
100
AcDbPoint
 10
229.0102664273
 20
158.6978362527
 30
0.0
  0
POINT
  5
E19
330
AB4
100
AcDbEntity
  8
DEFPOINTS
 62
     0
100
AcDbPoint
 10
79.5103914273
 20
152.7978422527
 30
0.0
  0
POINT
  5
E1A
330
AB4
100
AcDbEntity
  8
DEFPOINTS
 62
     0
100
AcDbPoint
 10
79.5103914273
 20
184.8816524838
 30
0.0
  0
ENDBLK
  5
ABF
330
AB4
100
AcDbEntity
  8
0
100
AcDbBlockEnd
  0
BLOCK
  5
ACA
330
AC0
100
AcDbEntity
  8
0
100
AcDbBlockBegin
  2
*D8
 70
     1
 10
0.0
 20
0.0
 30
0.0
  3
*D8
  1

  0
POINT
  5
E0F
330
AC0
100
AcDbEntity
  8
DEFPOINTS
 62
     0
100
AcDbPoint
 10
271.5102664273
 20
129.7984142527
 30
0.0
  0
POINT
  5
E10
330
AC0
100
AcDbEntity
  8
DEFPOINTS
 62
     0
100
AcDbPoint
 10
79.5103914273
 20
152.7978422527
 30
0.0
  0
POINT
  5
E11
330
AC0
100
AcDbEntity
  8
DEFPOINTS
 62
     0
100
AcDbPoint
 10
79.5103914273
 20
196.8158358428
 30
0.0
  0
ENDBLK
  5
ACB
330
AC0
100
AcDbEntity
  8
0
100
AcDbBlockEnd
  0
BLOCK
  5
AD6
330
ACC
100
AcDbEntity
  8
0
100
AcDbBlockBegin
  2
*D9
 70
     1
 10
0.0
 20
0.0
 30
0.0
  3
*D9
  1

  0
POINT
  5
E21
330
ACC
100
AcDbEntity
  8
DEFPOINTS
 62
     0
100
AcDbPoint
 10
79.5103897673
 20
152.7978342527
 30
0.0
  0
POINT
  5
E22
330
ACC
100
AcDbEntity
  8
DEFPOINTS
 62
     0
100
AcDbPoint
 10
113.5103897673
 20
152.7978342527
 30
0.0
  0
POINT
  5
E23
330
ACC
100
AcDbEntity
  8
DEFPOINTS
 62
     0
100
AcDbPoint
 10
113.5103897673
 20
172.8563162535
 30
0.0
  0
ENDBLK
  5
AD7
330
ACC
100
AcDbEntity
  8
0
100
AcDbBlockEnd
  0
BLOCK
  5
AE2
330
AD8
100
AcDbEntity
  8
0
100
AcDbBlockBegin
  2
*D10
 70
     1
 10
0.0
 20
0.0
 30
0.0
  3
*D10
  1

  0
POINT
  5
E3E
330
AD8
100
AcDbEntity
  8
DEFPOINTS
 62
     0
100
AcDbPoint
 10
136.4740958767
 20
134.7978342527
 30
0.0
  0
POINT
  5
E3F
330
AD8
100
AcDbEntity
  8
DEFPOINTS
 62
     0
100
AcDbPoint
 10
136.4740958767
 20
58.7978572527
 30
0.0
  0
POINT
  5
E40
330
AD8
100
AcDbEntity
  8
DEFPOINTS
 62
     0
100
AcDbPoint
 10
136.2592952263
 20
58.7978572527
 30
0.0
  0
ENDBLK
  5
AE3
330
AD8
100
AcDbEntity
  8
0
100
AcDbBlockEnd
  0
BLOCK
  5
AEE
330
AE4
100
AcDbEntity
  8
0
100
AcDbBlockBegin
  2
*D11
 70
     1
 10
0.0
 20
0.0
 30
0.0
  3
*D11
  1

  0
POINT
  5
E2C
330
AE4
100
AcDbEntity
  8
DEFPOINTS
 62
     0
100
AcDbPoint
 10
89.0102714273
 20
60.5018822527
 30
0.0
  0
POINT
  5
E2D
330
AE4
100
AcDbEntity
  8
DEFPOINTS
 62
     0
100
AcDbPoint
 10
79.5103914273
 20
143.3320372527
 30
0.0
  0
POINT
  5
E2E
330
AE4
100
AcDbEntity
  8
DEFPOINTS
 62
     0
100
AcDbPoint
 10
79.5103914273
 20
37.1927533399
 30
0.0
  0
ENDBLK
  5
AEF
330
AE4
100
AcDbEntity
  8
0
100
AcDbBlockEnd
  0
BLOCK
  5
AFA
330
AF0
100
AcDbEntity
  8
0
100
AcDbBlockBegin
  2
*D12
 70
     1
 10
0.0
 20
0.0
 30
0.0
  3
*D12
  1

  0
POINT
  5
E35
330
AF0
100
AcDbEntity
  8
DEFPOINTS
 62
     0
100
AcDbPoint
 10
96.5102918253
 20
155.7978572526
 30
0.0
  0
POINT
  5
E36
330
AF0
100
AcDbEntity
  8
DEFPOINTS
 62
     0
100
AcDbPoint
 10
81.2102714273
 20
96.7978422527
 30
0.0
  0
POINT
  5
E37
330
AF0
100
AcDbEntity
  8
DEFPOINTS
 62
     0
100
AcDbPoint
 10
56.5753632419
 20
96.7978422527
 30
0.0
  0
ENDBLK
  5
AFB
330
AF0
100
AcDbEntity
  8
0
100
AcDbBlockEnd
  0
BLOCK
  5
B06
330
AFC
100
AcDbEntity
  8
0
100
AcDbBlockBegin
  2
*D13
 70
     1
 10
0.0
 20
0.0
 30
0.0
  3
*D13
  1

  0
POINT
  5
E8F
330
AFC
100
AcDbEntity
  8
DEFPOINTS
 62
     0
100
AcDbPoint
 10
221.5102664273
 20
119.0978372527
 30
0.0
  0
POINT
  5
E90
330
AFC
100
AcDbEntity
  8
DEFPOINTS
 62
     0
100
AcDbPoint
 10
238.5102664273
 20
121.5978372527
 30
0.0
  0
POINT
  5
E91
330
AFC
100
AcDbEntity
  8
DEFPOINTS
 62
     0
100
AcDbPoint
 10
238.5102664273
 20
172.8563162535
 30
0.0
  0
ENDBLK
  5
B07
330
AFC
100
AcDbEntity
  8
0
100
AcDbBlockEnd
  0
BLOCK
  5
B12
330
B08
100
AcDbEntity
  8
0
100
AcDbBlockBegin
  2
*D14
 70
     1
 10
0.0
 20
0.0
 30
0.0
  3
*D14
  1

  0
POINT
  5
E86
330
B08
100
AcDbEntity
  8
DEFPOINTS
 62
     0
100
AcDbPoint
 10
229.0102664273
 20
158.6978362527
 30
0.0
  0
POINT
  5
E87
330
B08
100
AcDbEntity
  8
DEFPOINTS
 62
     0
100
AcDbPoint
 10
271.5102664273
 20
129.7984142527
 30
0.0
  0
POINT
  5
E88
330
B08
100
AcDbEntity
  8
DEFPOINTS
 62
     0
100
AcDbPoint
 10
271.5102664273
 20
184.8816524838
 30
0.0
  0
ENDBLK
  5
B13
330
B08
100
AcDbEntity
  8
0
100
AcDbBlockEnd
  0
BLOCK
  5
B1E
330
B14
100
AcDbEntity
  8
0
100
AcDbBlockBegin
  2
*D15
 70
     1
 10
0.0
 20
0.0
 30
0.0
  3
*D15
  1

  0
POINT
  5
E7D
330
B14
100
AcDbEntity
  8
DEFPOINTS
 62
     0
100
AcDbPoint
 10
458.0951986278
 20
127.5978462527
 30
0.0
  0
POINT
  5
E7E
330
B14
100
AcDbEntity
  8
DEFPOINTS
 62
     0
100
AcDbPoint
 10
485.0951986278
 20
126.5978462527
 30
0.0
  0
POINT
  5
E7F
330
B14
100
AcDbEntity
  8
DEFPOINTS
 62
     0
100
AcDbPoint
 10
485.0951986278
 20
172.8563252535
 30
0.0
  0
ENDBLK
  5
B1F
330
B14
100
AcDbEntity
  8
0
100
AcDbBlockEnd
  0
BLOCK
  5
B2A
330
B20
100
AcDbEntity
  8
0
100
AcDbBlockBegin
  2
*D16
 70
     1
 10
0.0
 20
0.0
 30
0.0
  3
*D16
  1

  0
POINT
  5
E74
330
B20
100
AcDbEntity
  8
DEFPOINTS
 62
     0
100
AcDbPoint
 10
485.0951946278
 20
126.5978462527
 30
0.0
  0
POINT
  5
E75
330
B20
100
AcDbEntity
  8
DEFPOINTS
 62
     0
100
AcDbPoint
 10
357.0951906278
 20
126.5978462527
 30
0.0
  0
POINT
  5
E76
330
B20
100
AcDbEntity
  8
DEFPOINTS
 62
     0
100
AcDbPoint
 10
357.0951906278
 20
196.7523999526
 30
0.0
  0
ENDBLK
  5
B2B
330
B20
100
AcDbEntity
  8
0
100
AcDbBlockEnd
  0
BLOCK
  5
B36
330
B2C
100
AcDbEntity
  8
0
100
AcDbBlockBegin
  2
*D17
 70
     1
 10
0.0
 20
0.0
 30
0.0
  3
*D17
  1

  0
POINT
  5
E6B
330
B2C
100
AcDbEntity
  8
DEFPOINTS
 62
     0
100
AcDbPoint
 10
421.0951946278
 20
162.7978652527
 30
0.0
  0
POINT
  5
E6C
330
B2C
100
AcDbEntity
  8
DEFPOINTS
 62
     0
100
AcDbPoint
 10
485.0951946278
 20
126.5978462527
 30
0.0
  0
POINT
  5
E6D
330
B2C
100
AcDbEntity
  8
DEFPOINTS
 62
     0
100
AcDbPoint
 10
485.0951946278
 20
184.6802409336
 30
0.0
  0
ENDBLK
  5
B37
330
B2C
100
AcDbEntity
  8
0
100
AcDbBlockEnd
  0
BLOCK
  5
B42
330
B38
100
AcDbEntity
  8
0
100
AcDbBlockBegin
  2
*D18
 70
     1
 10
0.0
 20
0.0
 30
0.0
  3
*D18
  1

  0
POINT
  5
E62
330
B38
100
AcDbEntity
  8
DEFPOINTS
 62
     0
100
AcDbPoint
 10
398.0951946278
 20
154.2812642527
 30
0.0
  0
POINT
  5
E63
330
B38
100
AcDbEntity
  8
DEFPOINTS
 62
     0
100
AcDbPoint
 10
444.0951986278
 20
154.2812642527
 30
0.0
  0
POINT
  5
E64
330
B38
100
AcDbEntity
  8
DEFPOINTS
 62
     0
100
AcDbPoint
 10
444.0951986278
 20
172.8563252535
 30
0.0
  0
ENDBLK
  5
B43
330
B38
100
AcDbEntity
  8
0
100
AcDbBlockEnd
  0
BLOCK
  5
B4E
330
B44
100
AcDbEntity
  8
0
100
AcDbBlockBegin
  2
*D19
 70
     1
 10
0.0
 20
0.0
 30
0.0
  3
*D19
  1

  0
POINT
  5
E59
330
B44
100
AcDbEntity
  8
DEFPOINTS
 62
     0
100
AcDbPoint
 10
384.0951906278
 20
127.5978462527
 30
0.0
  0
POINT
  5
E5A
330
B44
100
AcDbEntity
  8
DEFPOINTS
 62
     0
100
AcDbPoint
 10
357.0951906278
 20
126.5978462527
 30
0.0
  0
POINT
  5
E5B
330
B44
100
AcDbEntity
  8
DEFPOINTS
 62
     0
100
AcDbPoint
 10
357.0951906278
 20
172.8563252535
 30
0.0
  0
ENDBLK
  5
B4F
330
B44
100
AcDbEntity
  8
0
100
AcDbBlockEnd
  0
BLOCK
  5
B5A
330
B50
100
AcDbEntity
  8
0
100
AcDbBlockBegin
  2
*D20
 70
     1
 10
0.0
 20
0.0
 30
0.0
  3
*D20
  1

  0
POINT
  5
E50
330
B50
100
AcDbEntity
  8
DEFPOINTS
 62
     0
100
AcDbPoint
 10
421.0951946278
 20
162.7978652527
 30
0.0
  0
POINT
  5
E51
330
B50
100
AcDbEntity
  8
DEFPOINTS
 62
     0
100
AcDbPoint
 10
357.0951906278
 20
126.5978462527
 30
0.0
  0
POINT
  5
E52
330
B50
100
AcDbEntity
  8
DEFPOINTS
 62
     0
100
AcDbPoint
 10
357.0951906278
 20
184.6802409336
 30
0.0
  0
ENDBLK
  5
B5B
330
B50
100
AcDbEntity
  8
0
100
AcDbBlockEnd
  0
BLOCK
  5
B66
330
B5C
100
AcDbEntity
  8
0
100
AcDbBlockBegin
  2
*D21
 70
     1
 10
0.0
 20
0.0
 30
0.0
  3
*D21
  1

  0
POINT
  5
ED0
330
B5C
100
AcDbEntity
  8
DEFPOINTS
 62
     0
100
AcDbPoint
 10
350.0951906278
 20
119.0978462527
 30
0.0
  0
POINT
  5
ED1
330
B5C
100
AcDbEntity
  8
DEFPOINTS
 62
     0
100
AcDbPoint
 10
374.0951906278
 20
54.0978442527
 30
0.0
  0
POINT
  5
ED2
330
B5C
100
AcDbEntity
  8
DEFPOINTS
 62
     0
100
AcDbPoint
 10
332.8849575138
 20
54.0978442527
 30
0.0
  0
ENDBLK
  5
B67
330
B5C
100
AcDbEntity
  8
0
100
AcDbBlockEnd
  0
BLOCK
  5
B72
330
B68
100
AcDbEntity
  8
0
100
AcDbBlockBegin
  2
*D22
 70
     1
 10
0.0
 20
0.0
 30
0.0
  3
*D22
  1

  0
POINT
  5
EEE
330
B68
100
AcDbEntity
  8
DEFPOINTS
 62
     0
100
AcDbPoint
 10
357.0951906278
 20
111.5978462527
 30
0.0
  0
POINT
  5
EEF
330
B68
100
AcDbEntity
  8
DEFPOINTS
 62
     0
100
AcDbPoint
 10
357.0951906278
 20
126.5978462527
 30
0.0
  0
POINT
  5
EF0
330
B68
100
AcDbEntity
  8
DEFPOINTS
 62
     0
100
AcDbPoint
 10
344.8321936891
 20
126.5978462527
 30
0.0
  0
ENDBLK
  5
B73
330
B68
100
AcDbEntity
  8
0
100
AcDbBlockEnd
  0
BLOCK
  5
B80
330
B74
100
AcDbEntity
  8
0
100
AcDbBlockBegin
  2
*D23
 70
     1
 10
0.0
 20
0.0
 30
0.0
  3
*D23
  1

  0
POINT
  5
EC7
330
B74
100
AcDbEntity
  8
DEFPOINTS
 62
     0
100
AcDbPoint
 10
238.5102664273
 20
116.5978372527
 30
0.0
  0
POINT
  5
EC8
330
B74
100
AcDbEntity
  8
DEFPOINTS
 62
     0
100
AcDbPoint
 10
238.5102664273
 20
121.5978372527
 30
0.0
  0
POINT
  5
EC9
330
B74
100
AcDbEntity
  8
DEFPOINTS
 62
     0
100
AcDbPoint
 10
283.7894403774
 20
121.5978372527
 30
0.0
  0
ENDBLK
  5
B81
330
B74
100
AcDbEntity
  8
0
100
AcDbBlockEnd
  0
BLOCK
  5
B8C
330
B82
100
AcDbEntity
  8
0
100
AcDbBlockBegin
  2
*D24
 70
     1
 10
0.0
 20
0.0
 30
0.0
  3
*D24
  1

  0
POINT
  5
EBC
330
B82
100
AcDbEntity
  8
DEFPOINTS
 62
     0
100
AcDbPoint
 10
242.4307684273
 20
151.6978362527
 30
0.0
  0
POINT
  5
EBD
330
B82
100
AcDbEntity
  8
DEFPOINTS
 62
     0
100
AcDbPoint
 10
271.5102664273
 20
54.0978372527
 30
0.0
  0
POINT
  5
EBE
330
B82
100
AcDbEntity
  8
DEFPOINTS
 62
     0
100
AcDbPoint
 10
295.7536846686
 20
54.0978372527
 30
0.0
  0
ENDBLK
  5
B8D
330
B82
100
AcDbEntity
  8
0
100
AcDbBlockEnd
  0
BLOCK
  5
B98
330
B8E
100
AcDbEntity
  8
0
100
AcDbBlockBegin
  2
*D25
 70
     1
 10
0.0
 20
0.0
 30
0.0
  3
*D25
  1

  0
POINT
  5
E06
330
B8E
100
AcDbEntity
  8
DEFPOINTS
 62
     0
100
AcDbPoint
 10
195.0102664273
 20
50.5978372527
 30
0.0
  0
POINT
  5
E07
330
B8E
100
AcDbEntity
  8
DEFPOINTS
 62
     0
100
AcDbPoint
 10
263.0102664273
 20
50.5978372527
 30
0.0
  0
POINT
  5
E08
330
B8E
100
AcDbEntity
  8
DEFPOINTS
 62
     0
100
AcDbPoint
 10
263.0102664273
 20
37.1927533399
 30
0.0
  0
ENDBLK
  5
B99
330
B8E
100
AcDbEntity
  8
0
100
AcDbBlockEnd
  0
BLOCK
  5
BA4
330
B9A
100
AcDbEntity
  8
0
100
AcDbBlockBegin
  2
*D26
 70
     1
 10
0.0
 20
0.0
 30
0.0
  3
*D26
  1

  0
POINT
  5
DFD
330
B9A
100
AcDbEntity
  8
DEFPOINTS
 62
     0
100
AcDbPoint
 10
186.5102744273
 20
54.0978372527
 30
0.0
  0
POINT
  5
DFE
330
B9A
100
AcDbEntity
  8
DEFPOINTS
 62
     0
100
AcDbPoint
 10
271.5102664273
 20
54.0978372527
 30
0.0
  0
POINT
  5
DFF
330
B9A
100
AcDbEntity
  8
DEFPOINTS
 62
     0
100
AcDbPoint
 10
271.5102664273
 20
25.1825818168
 30
0.0
  0
ENDBLK
  5
BA5
330
B9A
100
AcDbEntity
  8
0
100
AcDbBlockEnd
  0
BLOCK
  5
BB0
330
BA6
100
AcDbEntity
  8
0
100
AcDbBlockBegin
  2
*D27
 70
     1
 10
0.0
 20
0.0
 30
0.0
  3
*D27
  1

  0
POINT
  5
E47
330
BA6
100
AcDbEntity
  8
DEFPOINTS
 62
     0
100
AcDbPoint
 10
202.2603289349
 20
119.0978372527
 30
0.0
  0
POINT
  5
E48
330
BA6
100
AcDbEntity
  8
DEFPOINTS
 62
     0
100
AcDbPoint
 10
205.7602664273
 20
96.7978382527
 30
0.0
  0
POINT
  5
E49
330
BA6
100
AcDbEntity
  8
DEFPOINTS
 62
     0
100
AcDbPoint
 10
200.7353791643
 20
96.7978382527
 30
0.0
  0
ENDBLK
  5
BB1
330
BA6
100
AcDbEntity
  8
0
100
AcDbBlockEnd
  0
BLOCK
  5
BBC
330
BB2
100
AcDbEntity
  8
0
100
AcDbBlockBegin
  2
*D28
 70
     1
 10
0.0
 20
0.0
 30
0.0
  3
*D28
  1

  0
POINT
  5
EB3
330
BB2
100
AcDbEntity
  8
DEFPOINTS
 62
     0
100
AcDbPoint
 10
381.0951946278
 20
50.5978442527
 30
0.0
  0
POINT
  5
EB4
330
BB2
100
AcDbEntity
  8
DEFPOINTS
 62
     0
100
AcDbPoint
 10
461.0951986278
 20
50.5978442527
 30
0.0
  0
POINT
  5
EB5
330
BB2
100
AcDbEntity
  8
DEFPOINTS
 62
     0
100
AcDbPoint
 10
461.0951986278
 20
37.1927623399
 30
0.0
  0
ENDBLK
  5
BBD
330
BB2
100
AcDbEntity
  8
0
100
AcDbBlockEnd
  0
BLOCK
  5
BC8
330
BBE
100
AcDbEntity
  8
0
100
AcDbBlockBegin
  2
*D29
 70
     1
 10
0.0
 20
0.0
 30
0.0
  3
*D29
  1

  0
POINT
  5
EAA
330
BBE
100
AcDbEntity
  8
DEFPOINTS
 62
     0
100
AcDbPoint
 10
374.0951946278
 20
54.0978442527
 30
0.0
  0
POINT
  5
EAB
330
BBE
100
AcDbEntity
  8
DEFPOINTS
 62
     0
100
AcDbPoint
 10
468.0951986278
 20
54.0978442527
 30
0.0
  0
POINT
  5
EAC
330
BBE
100
AcDbEntity
  8
DEFPOINTS
 62
     0
100
AcDbPoint
 10
468.0951986278
 20
25.1825908168
 30
0.0
  0
ENDBLK
  5
BC9
330
BBE
100
AcDbEntity
  8
0
100
AcDbBlockEnd
  0
BLOCK
  5
BD4
330
BCA
100
AcDbEntity
  8
0
100
AcDbBlockBegin
  2
*D30
 70
     1
 10
0.0
 20
0.0
 30
0.0
  3
*D30
  1

  0
POINT
  5
ED9
330
BCA
100
AcDbEntity
  8
DEFPOINTS
 62
     0
100
AcDbPoint
 10
381.0951906278
 20
50.5978442527
 30
0.0
  0
POINT
  5
EDA
330
BCA
100
AcDbEntity
  8
DEFPOINTS
 62
     0
100
AcDbPoint
 10
357.0951906278
 20
111.5978462527
 30
0.0
  0
POINT
  5
EDB
330
BCA
100
AcDbEntity
  8
DEFPOINTS
 62
     0
100
AcDbPoint
 10
357.0951906278
 20
37.1927623399
 30
0.0
  0
ENDBLK
  5
BD5
330
BCA
100
AcDbEntity
  8
0
100
AcDbBlockEnd
  0
BLOCK
  5
BE0
330
BD6
100
AcDbEntity
  8
0
100
AcDbBlockBegin
  2
*D31
 70
     1
 10
0.0
 20
0.0
 30
0.0
  3
*D31
  1

  0
POINT
  5
EE4
330
BD6
100
AcDbEntity
  8
DEFPOINTS
 62
     0
100
AcDbPoint
 10
374.0951906278
 20
54.0978442527
 30
0.0
  0
POINT
  5
EE5
330
BD6
100
AcDbEntity
  8
DEFPOINTS
 62
     0
100
AcDbPoint
 10
376.0951906278
 20
62.0978442527
 30
0.0
  0
POINT
  5
EE6
330
BD6
100
AcDbEntity
  8
DEFPOINTS
 62
     0
100
AcDbPoint
 10
364.0494970388
 20
62.0978442527
 30
0.0
  0
ENDBLK
  5
BE1
330
BD6
100
AcDbEntity
  8
0
100
AcDbBlockEnd
  0
BLOCK
  5
1244
330
1241
100
AcDbEntity
  8
0
100
AcDbBlockBegin
  2
A$C57c306b1
 70
     0
 10
0.0
 20
0.0
 30
0.0
  3
A$C57c306b1
  1

  0
ARC
  5
1245
330
1241
100
AcDbEntity
  8
0
100
AcDbCircle
 10
0.0
 20
1.56
 30
0.0
 40
0.3900000000000001
100
AcDbArc
 50
17.2352852571
 51
162.7647147429
  0
ARC
  5
1246
330
1241
100
AcDbEntity
  8
0
100
AcDbCircle
 10
-1.117462403
 20
1.9066666667
 30
0.0
 40
0.7800000000000002
100
AcDbArc
 50
300.3737861998
 51
342.7647147429
  0
ARC
  5
1247
330
1241
100
AcDbEntity
  8
0
100
AcDbCircle
 10
1.117462403
 20
1.9066666667
 30
0.0
 40
0.7800000000000002
100
AcDbArc
 50
197.2352852571
 51
239.6262138002
  0
ARC
  5
1248
330
1241
100
AcDbEntity
  8
0
100
AcDbCircle
 10
-1.3509996299
 20
0.78
 30
0.0
 40
0.3900000000000001
100
AcDbArc
 50
77.2352852571
 51
222.7647147429
  0
ARC
  5
1249
330
1241
100
AcDbEntity
  8
0
100
AcDbCircle
 10
-2.2099529714
 20
-0.0144174955
 30
0.0
 40
0.7800000000000002
100
AcDbArc
 50
0.3737861998
 51
42.7647147429
  0
ARC
  5
124A
330
1241
100
AcDbEntity
  8
0
100
AcDbCircle
 10
-1.0924905684
 20
1.9210841621
 30
0.0
 40
0.7800000000000002
100
AcDbArc
 50
257.2352852571
 51
299.6262138002
  0
ARC
  5
124B
330
1241
100
AcDbEntity
  8
0
100
AcDbCircle
 10
1.3509996299
 20
0.78
 30
0.0
 40
0.3900000000000001
100
AcDbArc
 50
317.2352852571
 51
102.7647147429
  0
ARC
  5
124C
330
1241
100
AcDbEntity
  8
0
100
AcDbCircle
 10
2.2099529714
 20
-0.0144174955
 30
0.0
 40
0.7800000000000002
100
AcDbArc
 50
137.2352852571
 51
179.6262138002
  0
ARC
  5
124D
330
1241
100
AcDbEntity
  8
0
100
AcDbCircle
 10
1.0924905684
 20
1.9210841621
 30
0.0
 40
0.7800000000000002
100
AcDbArc
 50
240.3737861998
 51
282.7647147429
  0
ARC
  5
124E
330
1241
100
AcDbEntity
  8
0
100
AcDbCircle
 10
0.0
 20
-1.56
 30
0.0
 40
0.3900000000000001
100
AcDbArc
 50
197.2352852571
 51
342.7647147429
  0
ARC
  5
124F
330
1241
100
AcDbEntity
  8
0
100
AcDbCircle
 10
-1.117462403
 20
-1.9066666667
 30
0.0
 40
0.7800000000000002
100
AcDbArc
 50
17.2352852571
 51
59.6262138002
  0
ARC
  5
1250
330
1241
100
AcDbEntity
  8
0
100
AcDbCircle
 10
1.117462403
 20
-1.9066666667
 30
0.0
 40
0.7800000000000002
100
AcDbArc
 50
120.3737861998
 51
162.7647147429
  0
ARC
  5
1251
330
1241
100
AcDbEntity
  8
0
100
AcDbCircle
 10
-1.3509996299
 20
-0.78
 30
0.0
 40
0.3900000000000001
100
AcDbArc
 50
137.2352852571
 51
282.7647147429
  0
ARC
  5
1252
330
1241
100
AcDbEntity
  8
0
100
AcDbCircle
 10
-2.2099529714
 20
0.0144174955
 30
0.0
 40
0.7800000000000002
100
AcDbArc
 50
317.2352852571
 51
359.6262138002
  0
ARC
  5
1253
330
1241
100
AcDbEntity
  8
0
100
AcDbCircle
 10
-1.0924905684
 20
-1.9210841621
 30
0.0
 40
0.7800000000000002
100
AcDbArc
 50
60.3737861998
 51
102.7647147429
  0
ARC
  5
1254
330
1241
100
AcDbEntity
  8
0
100
AcDbCircle
 10
1.3509996299
 20
-0.78
 30
0.0
 40
0.3900000000000001
100
AcDbArc
 50
257.2352852571
 51
42.7647147429
  0
ARC
  5
1255
330
1241
100
AcDbEntity
  8
0
100
AcDbCircle
 10
1.0924905684
 20
-1.9210841621
 30
0.0
 40
0.7800000000000002
100
AcDbArc
 50
77.2352852571
 51
119.6262138002
  0
ARC
  5
1256
330
1241
100
AcDbEntity
  8
0
100
AcDbCircle
 10
2.2099529714
 20
0.0144174955
 30
0.0
 40
0.7800000000000002
100
AcDbArc
 50
180.3737861998
 51
222.7647147429
  0
ENDBLK
  5
1257
330
1241
100
AcDbEntity
  8
0
100
AcDbBlockEnd
  0
BLOCK
  5
125B
330
1258
100
AcDbEntity
  8
0
100
AcDbBlockBegin
  2
G$C828323CB
 70
     0
 10
0.0
 20
0.0
 30
0.0
  3
G$C828323CB
  1

  0
LINE
  5
125C
330
1258
100
AcDbEntity
  8
0
100
AcDbLine
 10
-2.5
 20
21.0
 30
0.0
 11
-2.5
 21
-21.0
 31
0.0
  0
LINE
  5
125D
330
1258
100
AcDbEntity
  8
0
100
AcDbLine
 10
-32.500099
 20
-21.0
 30
0.0
 11
-32.500099
 21
21.0
 31
0.0
  0
LINE
  5
125E
330
1258
100
AcDbEntity
  8
0
100
AcDbLine
 10
0.0
 20
-38.0
 30
0.0
 11
0.0
 21
38.0
 31
0.0
  0
LINE
  5
125F
330
1258
100
AcDbEntity
  8
CENTER
100
AcDbLine
 10
-17.5
 20
28.50856
 30
0.0
 11
-17.5
 21
-28.50856
 31
0.0
  0
ARC
  5
1260
330
1258
100
AcDbEntity
  8
0
100
AcDbCircle
 10
-30.500099
 20
-21.0
 30
0.0
 40
2.0
100
AcDbArc
 50
180.0
 51
270.0
  0
ARC
  5
1261
330
1258
100
AcDbEntity
  8
0
100
AcDbCircle
 10
-31.500099
 20
-15.5
 30
0.0
 40
1.0
100
AcDbArc
 50
180.0
 51
270.0
  0
LINE
  5
1262
330
1258
100
AcDbEntity
  8
0
100
AcDbLine
 10
-48.796883
 20
3.850006
 30
0.0
 11
-34.499878
 21
3.850006
 31
0.0
  0
LINE
  5
1263
330
1258
100
AcDbEntity
  8
0
100
AcDbLine
 10
-49.648682
 20
-3.849976
 30
0.0
 11
-34.499878
 21
-3.849976
 31
0.0
  0
LINE
  5
1264
330
1258
100
AcDbEntity
  8
HOJO
100
AcDbLine
 10
-48.720581
 20
-1.460083
 30
0.0
 11
-49.648682
 21
-3.849976
 31
0.0
  0
LINE
  5
1265
330
1258
100
AcDbEntity
  8
HOJO
100
AcDbLine
 10
-49.532677
 20
1.014923
 30
0.0
 11
-48.720581
 21
-1.460083
 31
0.0
  0
LINE
  5
1266
330
1258
100
AcDbEntity
  8
HOJO
100
AcDbLine
 10
-48.796883
 20
3.850006
 30
0.0
 11
-49.532677
 21
1.014923
 31
0.0
  0
ARC
  5
1267
330
1258
100
AcDbEntity
  8
0
100
AcDbCircle
 10
-4.5
 20
-21.0
 30
0.0
 40
2.0
100
AcDbArc
 50
270.0
 51
0.0
  0
ARC
  5
1268
330
1258
100
AcDbEntity
  8
0
100
AcDbCircle
 10
-25.0
 20
-22.0
 30
0.0
 40
1.0
100
AcDbArc
 50
180.0
 51
270.0
  0
ARC
  5
1269
330
1258
100
AcDbEntity
  8
0
100
AcDbCircle
 10
-10.0
 20
-22.0
 30
0.0
 40
1.0
100
AcDbArc
 50
270.0
 51
0.0
  0
LINE
  5
126A
330
1258
100
AcDbEntity
  8
0
100
AcDbLine
 10
-4.5
 20
-23.0
 30
0.0
 11
-30.500099
 21
-23.0
 31
0.0
  0
LINE
  5
126B
330
1258
100
AcDbEntity
  8
0
100
AcDbLine
 10
-23.000298
 20
-37.59848
 30
0.0
 11
0.0
 21
-38.0
 31
0.0
  0
ARC
  5
126C
330
1258
100
AcDbEntity
  8
0
100
AcDbCircle
 10
-25.300003
 20
-31.705872
 30
0.0
 40
0.5
100
AcDbArc
 50
180.0
 51
249.999954
  0
ARC
  5
126D
330
1258
100
AcDbEntity
  8
0
100
AcDbCircle
 10
-25.5
 20
-32.697235
 30
0.0
 40
0.5
100
AcDbArc
 50
0.0
 51
70.0
  0
LINE
  5
126E
330
1258
100
AcDbEntity
  8
0
100
AcDbLine
 10
-25.471008
 20
-32.17572
 30
0.0
 11
-25.328987
 21
-32.227417
 31
0.0
  0
LINE
  5
126F
330
1258
100
AcDbEntity
  8
0
100
AcDbLine
 10
-25.800003
 20
-31.705872
 30
0.0
 11
-25.800003
 21
-23.0
 31
0.0
  0
ARC
  5
1270
330
1258
100
AcDbEntity
  8
0
100
AcDbCircle
 10
-24.0
 20
-36.295898
 30
0.0
 40
1.0
100
AcDbArc
 50
180.0
 51
255.025604
  0
LINE
  5
1271
330
1258
100
AcDbEntity
  8
0
100
AcDbLine
 10
-24.2584
 20
-37.261902
 30
0.0
 11
-23.000298
 21
-37.59848
 31
0.0
  0
LINE
  5
1272
330
1258
100
AcDbEntity
  8
0
100
AcDbLine
 10
-25.0
 20
-36.295898
 30
0.0
 11
-25.0
 21
-23.0
 31
0.0
  0
LINE
  5
1273
330
1258
100
AcDbEntity
  8
0
100
AcDbLine
 10
-4.122314
 20
-22.963989
 30
0.0
 11
0.0
 21
-23.0
 31
0.0
  0
ARC
  5
1274
330
1258
100
AcDbEntity
  8
0
100
AcDbCircle
 10
-5.5
 20
-20.0
 30
0.0
 40
3.5
100
AcDbArc
 50
90.0
 51
180.0
  0
LINE
  5
1275
330
1258
100
AcDbEntity
  8
0
100
AcDbLine
 10
-26.0
 20
-22.0
 30
0.0
 11
-26.0
 21
-20.0
 31
0.0
  0
LINE
  5
1276
330
1258
100
AcDbEntity
  8
0
100
AcDbLine
 10
-31.500099
 20
-16.5
 30
0.0
 11
-29.5
 21
-16.5
 31
0.0
  0
ARC
  5
1277
330
1258
100
AcDbEntity
  8
0
100
AcDbCircle
 10
-29.5
 20
-20.0
 30
0.0
 40
3.5
100
AcDbArc
 50
0.0
 51
90.0
  0
ARC
  5
1278
330
1258
100
AcDbEntity
  8
0
100
AcDbCircle
 10
-3.499901
 20
-15.5
 30
0.0
 40
1.0
100
AcDbArc
 50
270.0
 51
0.0
  0
LINE
  5
1279
330
1258
100
AcDbEntity
  8
0
100
AcDbLine
 10
-3.499901
 20
-16.5
 30
0.0
 11
-5.5
 21
-16.5
 31
0.0
  0
LINE
  5
127A
330
1258
100
AcDbEntity
  8
0
100
AcDbLine
 10
-9.0
 20
-22.0
 30
0.0
 11
-9.0
 21
-20.0
 31
0.0
  0
ARC
  5
127B
330
1258
100
AcDbEntity
  8
0
100
AcDbCircle
 10
-30.500099
 20
21.0
 30
0.0
 40
2.0
100
AcDbArc
 50
90.0
 51
180.0
  0
ARC
  5
127C
330
1258
100
AcDbEntity
  8
0
100
AcDbCircle
 10
-31.500099
 20
15.5
 30
0.0
 40
1.0
100
AcDbArc
 50
90.0
 51
180.0
  0
ARC
  5
127D
330
1258
100
AcDbEntity
  8
0
100
AcDbCircle
 10
-10.0
 20
22.0
 30
0.0
 40
1.0
100
AcDbArc
 50
0.0
 51
90.0
  0
LINE
  5
127E
330
1258
100
AcDbEntity
  8
0
100
AcDbLine
 10
-4.5
 20
23.0
 30
0.0
 11
-30.500099
 21
23.0
 31
0.0
  0
ARC
  5
127F
330
1258
100
AcDbEntity
  8
0
100
AcDbCircle
 10
-5.5
 20
20.0
 30
0.0
 40
3.5
100
AcDbArc
 50
180.0
 51
270.0
  0
LINE
  5
1280
330
1258
100
AcDbEntity
  8
0
100
AcDbLine
 10
-23.000298
 20
37.598419
 30
0.0
 11
0.0
 21
38.0
 31
0.0
  0
LINE
  5
1281
330
1258
100
AcDbEntity
  8
0
100
AcDbLine
 10
-25.800003
 20
31.705902
 30
0.0
 11
-25.800003
 21
23.0
 31
0.0
  0
LINE
  5
1282
330
1258
100
AcDbEntity
  8
0
100
AcDbLine
 10
-25.0
 20
36.295898
 30
0.0
 11
-25.0
 21
23.0
 31
0.0
  0
ARC
  5
1283
330
1258
100
AcDbEntity
  8
0
100
AcDbCircle
 10
-25.0
 20
22.0
 30
0.0
 40
1.0
100
AcDbArc
 50
90.0
 51
180.0
  0
LINE
  5
1284
330
1258
100
AcDbEntity
  8
0
100
AcDbLine
 10
-26.0
 20
22.0
 30
0.0
 11
-26.0
 21
20.0
 31
0.0
  0
LINE
  5
1285
330
1258
100
AcDbEntity
  8
0
100
AcDbLine
 10
-31.500099
 20
16.5
 30
0.0
 11
-29.5
 21
16.5
 31
0.0
  0
ARC
  5
1286
330
1258
100
AcDbEntity
  8
0
100
AcDbCircle
 10
-29.5
 20
20.0
 30
0.0
 40
3.5
100
AcDbArc
 50
270.0
 51
0.0
  0
ARC
  5
1287
330
1258
100
AcDbEntity
  8
0
100
AcDbCircle
 10
-25.300003
 20
31.705902
 30
0.0
 40
0.5
100
AcDbArc
 50
110.000038
 51
180.0
  0
ARC
  5
1288
330
1258
100
AcDbEntity
  8
0
100
AcDbCircle
 10
-25.5
 20
32.697266
 30
0.0
 40
0.5
100
AcDbArc
 50
290.0
 51
0.0
  0
LINE
  5
1289
330
1258
100
AcDbEntity
  8
0
100
AcDbLine
 10
-25.471008
 20
32.17572
 30
0.0
 11
-25.328987
 21
32.227417
 31
0.0
  0
ARC
  5
128A
330
1258
100
AcDbEntity
  8
0
100
AcDbCircle
 10
-24.0
 20
36.295898
 30
0.0
 40
1.0
100
AcDbArc
 50
104.974396
 51
180.0
  0
LINE
  5
128B
330
1258
100
AcDbEntity
  8
0
100
AcDbLine
 10
-24.2584
 20
37.261902
 30
0.0
 11
-23.000298
 21
37.598419
 31
0.0
  0
LINE
  5
128C
330
1258
100
AcDbEntity
  8
0
100
AcDbLine
 10
-4.122314
 20
22.96402
 30
0.0
 11
0.0
 21
23.0
 31
0.0
  0
ARC
  5
128D
330
1258
100
AcDbEntity
  8
0
100
AcDbCircle
 10
-4.5
 20
21.0
 30
0.0
 40
2.0
100
AcDbArc
 50
0.0
 51
90.0
  0
ARC
  5
128E
330
1258
100
AcDbEntity
  8
0
100
AcDbCircle
 10
-3.499901
 20
15.5
 30
0.0
 40
1.0
100
AcDbArc
 50
0.0
 51
90.0
  0
LINE
  5
128F
330
1258
100
AcDbEntity
  8
0
100
AcDbLine
 10
-3.499901
 20
16.5
 30
0.0
 11
-5.5
 21
16.5
 31
0.0
  0
LINE
  5
1290
330
1258
100
AcDbEntity
  8
0
100
AcDbLine
 10
-9.0
 20
22.0
 30
0.0
 11
-9.0
 21
20.0
 31
0.0
  0
CIRCLE
  5
1291
330
1258
100
AcDbEntity
  8
0
100
AcDbCircle
 10
-5.5
 20
-20.0
 30
0.0
 40
2.75
  0
CIRCLE
  5
1292
330
1258
100
AcDbEntity
  8
0
100
AcDbCircle
 10
-29.5
 20
-20.0
 30
0.0
 40
2.75
  0
LINE
  5
1293
330
1258
100
AcDbEntity
  8
0
100
AcDbLine
 10
-34.5
 20
6.0
 30
0.0
 11
-34.5
 21
-6.0
 31
0.0
  0
ARC
  5
1294
330
1258
100
AcDbEntity
  8
0
100
AcDbCircle
 10
-33.0
 20
-7.5
 30
0.0
 40
0.5
100
AcDbArc
 50
0.0
 51
90.0
  0
ARC
  5
1295
330
1258
100
AcDbEntity
  8
0
100
AcDbCircle
 10
-33.5
 20
-6.0
 30
0.0
 40
1.0
100
AcDbArc
 50
180.0
 51
270.0
  0
LINE
  5
1296
330
1258
100
AcDbEntity
  8
0
100
AcDbLine
 10
-33.0
 20
-7.0
 30
0.0
 11
-33.5
 21
-7.0
 31
0.0
  0
ARC
  5
1297
330
1258
100
AcDbEntity
  8
0
100
AcDbCircle
 10
-33.0
 20
7.5
 30
0.0
 40
0.5
100
AcDbArc
 50
270.0
 51
0.0
  0
ARC
  5
1298
330
1258
100
AcDbEntity
  8
0
100
AcDbCircle
 10
-33.5
 20
6.0
 30
0.0
 40
1.0
100
AcDbArc
 50
90.0
 51
180.0
  0
LINE
  5
1299
330
1258
100
AcDbEntity
  8
0
100
AcDbLine
 10
-33.0
 20
7.0
 30
0.0
 11
-33.5
 21
7.0
 31
0.0
  0
LINE
  5
129A
330
1258
100
AcDbEntity
  8
0
100
AcDbLine
 10
-0.500004
 20
6.0
 30
0.0
 11
-0.500004
 21
-6.0
 31
0.0
  0
LINE
  5
129B
330
1258
100
AcDbEntity
  8
0
100
AcDbLine
 10
-0.500004
 20
4.883698
 30
0.0
 11
-0.500004
 21
-4.883697
 31
0.0
  0
ARC
  5
129C
330
1258
100
AcDbEntity
  8
0
100
AcDbCircle
 10
-2.000004
 20
-7.5
 30
0.0
 40
0.5
100
AcDbArc
 50
90.0
 51
180.0
  0
ARC
  5
129D
330
1258
100
AcDbEntity
  8
0
100
AcDbCircle
 10
-1.500004
 20
-6.0
 30
0.0
 40
1.0
100
AcDbArc
 50
270.0
 51
0.0
  0
LINE
  5
129E
330
1258
100
AcDbEntity
  8
0
100
AcDbLine
 10
-2.000004
 20
-7.0
 30
0.0
 11
-1.500004
 21
-7.0
 31
0.0
  0
ARC
  5
129F
330
1258
100
AcDbEntity
  8
0
100
AcDbCircle
 10
-2.000004
 20
7.5
 30
0.0
 40
0.5
100
AcDbArc
 50
180.0
 51
270.0
  0
ARC
  5
12A0
330
1258
100
AcDbEntity
  8
0
100
AcDbCircle
 10
-1.500004
 20
6.0
 30
0.0
 40
1.0
100
AcDbArc
 50
0.0
 51
90.0
  0
LINE
  5
12A1
330
1258
100
AcDbEntity
  8
0
100
AcDbLine
 10
-2.000004
 20
7.0
 30
0.0
 11
-1.500004
 21
7.0
 31
0.0
  0
CIRCLE
  5
12A2
330
1258
100
AcDbEntity
  8
0
100
AcDbCircle
 10
-29.5
 20
20.0
 30
0.0
 40
2.75
  0
CIRCLE
  5
12A3
330
1258
100
AcDbEntity
  8
0
100
AcDbCircle
 10
-5.5
 20
20.0
 30
0.0
 40
2.75
  0
INSERT
  5
12A4
330
1258
100
AcDbEntity
  8
0
100
AcDbBlockReference
  2
A$C57c306b1
 10
-5.5
 20
20.0
 30
0.0
  0
INSERT
  5
12A5
330
1258
100
AcDbEntity
  8
0
100
AcDbBlockReference
  2
A$C57c306b1
 10
-29.5
 20
20.0093289677
 30
0.0
  0
INSERT
  5
12A6
330
1258
100
AcDbEntity
  8
0
100
AcDbBlockReference
  2
A$C57c306b1
 10
-5.5
 20
-19.9906710323
 30
0.0
  0
INSERT
  5
12A7
330
1258
100
AcDbEntity
  8
0
100
AcDbBlockReference
  2
A$C57c306b1
 10
-29.5
 20
-19.9906710323
 30
0.0
  0
ENDBLK
  5
12A8
330
1258
100
AcDbEntity
  8
0
100
AcDbBlockEnd
  0
BLOCK
  5
12B4
330
12B1
100
AcDbEntity
  8
0
100
AcDbBlockBegin
  2
G$C8ED97162
 70
     0
 10
0.0
 20
0.0
 30
0.0
  3
G$C8ED97162
  1

  0
LINE
  5
12B5
330
12B1
100
AcDbEntity
  8
0
100
AcDbLine
 10
-25.800003
 20
-35.149887
 30
0.0
 11
-25.800003
 21
30.549896
 31
0.0
  0
LINE
  5
12B6
330
12B1
100
AcDbEntity
  8
0
100
AcDbLine
 10
0.0
 20
-37.999969
 30
0.0
 11
0.0
 21
38.0
 31
0.0
  0
LINE
  5
12B7
330
12B1
100
AcDbEntity
  8
0
100
AcDbLine
 10
-25.0
 20
30.327759
 30
0.0
 11
-25.0
 21
-31.249893
 31
0.0
  0
LINE
  5
12B8
330
12B1
100
AcDbEntity
  8
0
100
AcDbLine
 10
-23.000305
 20
-37.598511
 30
0.0
 11
0.0
 21
-37.999985
 31
0.0
  0
LINE
  5
12B9
330
12B1
100
AcDbEntity
  8
0
100
AcDbLine
 10
0.0
 20
-30.248962
 30
0.0
 11
-14.0
 21
-30.248962
 31
0.0
  0
LINE
  5
12BA
330
12B1
100
AcDbEntity
  8
0
100
AcDbLine
 10
-23.000305
 20
-29.499985
 30
0.0
 11
-15.0
 21
-29.499985
 31
0.0
  0
ARC
  5
12BB
330
12B1
100
AcDbEntity
  8
0
100
AcDbCircle
 10
-25.5
 20
-36.141266
 30
0.0
 40
0.5
100
AcDbArc
 50
0.0
 51
70.0
  0
ARC
  5
12BC
330
12B1
100
AcDbEntity
  8
0
100
AcDbCircle
 10
-25.300003
 20
-35.149887
 30
0.0
 40
0.5
100
AcDbArc
 50
180.0
 51
250.0
  0
LINE
  5
12BD
330
12B1
100
AcDbEntity
  8
0
100
AcDbLine
 10
-25.471008
 20
-35.619736
 30
0.0
 11
-25.328987
 21
-35.671417
 31
0.0
  0
ARC
  5
12BE
330
12B1
100
AcDbEntity
  8
0
100
AcDbCircle
 10
-24.0
 20
-36.295944
 30
0.0
 40
1.0
100
AcDbArc
 50
180.0
 51
255.024384
  0
LINE
  5
12BF
330
12B1
100
AcDbEntity
  8
0
100
AcDbLine
 10
-24.258408
 20
-37.261978
 30
0.0
 11
-23.000305
 21
-37.598511
 31
0.0
  0
ARC
  5
12C0
330
12B1
100
AcDbEntity
  8
0
100
AcDbCircle
 10
-24.0
 20
-28.197418
 30
0.0
 40
1.0
100
AcDbArc
 50
180.0
 51
255.024384
  0
LINE
  5
12C1
330
12B1
100
AcDbEntity
  8
0
100
AcDbLine
 10
-24.258408
 20
-29.163452
 30
0.0
 11
-23.000305
 21
-29.499985
 31
0.0
  0
LINE
  5
12C2
330
12B1
100
AcDbEntity
  8
0
100
AcDbLine
 10
-25.0
 20
-36.295944
 30
0.0
 11
-25.0
 21
-31.249893
 31
0.0
  0
ARC
  5
12C3
330
12B1
100
AcDbEntity
  8
0
100
AcDbCircle
 10
-13.5
 20
-37.264267
 30
0.0
 40
0.5
100
AcDbArc
 50
180.0
 51
269.0
  0
ARC
  5
12C4
330
12B1
100
AcDbEntity
  8
0
100
AcDbCircle
 10
-15.979004
 20
-36.199997
 30
0.0
 40
1.3
100
AcDbArc
 50
196.600906
 51
270.0
  0
ARC
  5
12C5
330
12B1
100
AcDbEntity
  8
0
100
AcDbCircle
 10
-15.979004
 20
-31.800003
 30
0.0
 40
1.3
100
AcDbArc
 50
90.0
 51
163.398407
  0
ARC
  5
12C6
330
12B1
100
AcDbEntity
  8
0
100
AcDbCircle
 10
-8.600014
 20
-33.999985
 30
0.0
 40
8.999999
100
AcDbArc
 50
163.398499
 51
196.600998
  0
LINE
  5
12C7
330
12B1
100
AcDbEntity
  8
0
100
AcDbLine
 10
-14.0
 20
-37.499985
 30
0.0
 11
-15.979004
 21
-37.499985
 31
0.0
  0
LINE
  5
12C8
330
12B1
100
AcDbEntity
  8
0
100
AcDbLine
 10
-14.0
 20
-30.499985
 30
0.0
 11
-15.979004
 21
-30.499985
 31
0.0
  0
LINE
  5
12C9
330
12B1
100
AcDbEntity
  8
0
100
AcDbLine
 10
-15.0
 20
-30.499985
 30
0.0
 11
-15.0
 21
-37.499985
 31
0.0
  0
LINE
  5
12CA
330
12B1
100
AcDbEntity
  8
0
100
AcDbLine
 10
-14.0
 20
-30.381912
 30
0.0
 11
-14.0
 21
-37.499985
 31
0.0
  0
ARC
  5
12CB
330
12B1
100
AcDbEntity
  8
0
100
AcDbCircle
 10
-15.0
 20
-30.499985
 30
0.0
 40
1.0
100
AcDbArc
 50
0.0
 51
90.0
  0
LINE
  5
12CC
330
12B1
100
AcDbEntity
  8
0
100
AcDbLine
 10
-14.0
 20
-30.499985
 30
0.0
 11
-14.0
 21
-37.146393
 31
0.0
  0
ARC
  5
12CD
330
12B1
100
AcDbEntity
  8
0
100
AcDbCircle
 10
-30.500198
 20
33.446625
 30
0.0
 40
2.0
100
AcDbArc
 50
180.0
 51
268.5
  0
ARC
  5
12CE
330
12B1
100
AcDbEntity
  8
0
100
AcDbCircle
 10
-32.000122
 20
55.0
 30
0.0
 40
0.5
100
AcDbArc
 50
90.0
 51
180.0
  0
ARC
  5
12CF
330
12B1
100
AcDbEntity
  8
0
100
AcDbCircle
 10
-31.999878
 20
58.078339
 30
0.0
 40
0.5
100
AcDbArc
 50
93.331696
 51
180.0
  0
LINE
  5
12D0
330
12B1
100
AcDbEntity
  8
HOJO
100
AcDbLine
 10
-48.796883
 20
55.150024
 30
0.0
 11
-49.532677
 21
52.314911
 31
0.0
  0
LINE
  5
12D1
330
12B1
100
AcDbEntity
  8
0
100
AcDbLine
 10
-49.648682
 20
47.450012
 30
0.0
 11
-34.499878
 21
47.450012
 31
0.0
  0
LINE
  5
12D2
330
12B1
100
AcDbEntity
  8
HOJO
100
AcDbLine
 10
-48.720581
 20
49.839905
 30
0.0
 11
-49.648682
 21
47.450012
 31
0.0
  0
LINE
  5
12D3
330
12B1
100
AcDbEntity
  8
HOJO
100
AcDbLine
 10
-49.532677
 20
52.314911
 30
0.0
 11
-48.720581
 21
49.839905
 31
0.0
  0
LINE
  5
12D4
330
12B1
100
AcDbEntity
  8
0
100
AcDbLine
 10
-48.796883
 20
55.150024
 30
0.0
 11
-34.499878
 21
55.150024
 31
0.0
  0
LINE
  5
12D5
330
12B1
100
AcDbEntity
  8
0
100
AcDbLine
 10
-32.499878
 20
51.5
 30
0.0
 11
-32.499878
 21
58.078339
 31
0.0
  0
LINE
  5
12D6
330
12B1
100
AcDbEntity
  8
0
100
AcDbLine
 10
-2.499878
 20
51.5
 30
0.0
 11
-2.499878
 21
58.078339
 31
0.0
  0
LINE
  5
12D7
330
12B1
100
AcDbEntity
  8
CENTER
100
AcDbLine
 10
-17.5
 20
62.025513
 30
0.0
 11
-17.499878
 21
44.226715
 31
0.0
  0
LINE
  5
12D8
330
12B1
100
AcDbEntity
  8
0
100
AcDbLine
 10
0.0
 20
30.248993
 30
0.0
 11
-14.0
 21
30.248993
 31
0.0
  0
LINE
  5
12D9
330
12B1
100
AcDbEntity
  8
0
100
AcDbLine
 10
-32.499878
 20
33.446625
 30
0.0
 11
-32.499878
 21
50.5
 31
0.0
  0
ARC
  5
12DA
330
12B1
100
AcDbEntity
  8
0
100
AcDbCircle
 10
-15.0
 20
37.5
 30
0.0
 40
1.0
100
AcDbArc
 50
0.0
 51
90.0
  0
LINE
  5
12DB
330
12B1
100
AcDbEntity
  8
0
100
AcDbLine
 10
-14.5
 20
29.5
 30
0.0
 11
-23.000305
 21
29.5
 31
0.0
  0
ARC
  5
12DC
330
12B1
100
AcDbEntity
  8
0
100
AcDbCircle
 10
-26.0
 20
30.327759
 30
0.0
 40
1.0
100
AcDbArc
 50
0.0
 51
88.5
  0
LINE
  5
12DD
330
12B1
100
AcDbEntity
  8
0
100
AcDbLine
 10
-30.552551
 20
31.447296
 30
0.0
 11
-25.973824
 21
31.327423
 31
0.0
  0
ARC
  5
12DE
330
12B1
100
AcDbEntity
  8
0
100
AcDbCircle
 10
-25.300003
 20
30.549896
 30
0.0
 40
0.5
100
AcDbArc
 50
110.0
 51
180.0
  0
LINE
  5
12DF
330
12B1
100
AcDbEntity
  8
0
100
AcDbLine
 10
-25.471008
 20
31.019745
 30
0.0
 11
-25.330757
 21
31.070801
 31
0.0
  0
ARC
  5
12E0
330
12B1
100
AcDbEntity
  8
0
100
AcDbCircle
 10
-24.0
 20
28.197449
 30
0.0
 40
1.0
100
AcDbArc
 50
104.975616
 51
180.0
  0
LINE
  5
12E1
330
12B1
100
AcDbEntity
  8
0
100
AcDbLine
 10
-24.258408
 20
29.163483
 30
0.0
 11
-23.000305
 21
29.5
 31
0.0
  0
ARC
  5
12E2
330
12B1
100
AcDbEntity
  8
0
100
AcDbCircle
 10
-14.5
 20
30.0
 30
0.0
 40
0.5
100
AcDbArc
 50
270.0
 51
0.0
  0
ARC
  5
12E3
330
12B1
100
AcDbEntity
  8
0
100
AcDbCircle
 10
-15.979004
 20
36.200012
 30
0.0
 40
1.3
100
AcDbArc
 50
90.0
 51
163.399094
  0
ARC
  5
12E4
330
12B1
100
AcDbEntity
  8
0
100
AcDbCircle
 10
-15.979004
 20
31.800018
 30
0.0
 40
1.3
100
AcDbArc
 50
196.601593
 51
270.0
  0
ARC
  5
12E5
330
12B1
100
AcDbEntity
  8
0
100
AcDbCircle
 10
-8.600014
 20
34.0
 30
0.0
 40
8.999999
100
AcDbArc
 50
163.399002
 51
196.601501
  0
LINE
  5
12E6
330
12B1
100
AcDbEntity
  8
0
100
AcDbLine
 10
-14.0
 20
37.5
 30
0.0
 11
-15.979004
 21
37.5
 31
0.0
  0
LINE
  5
12E7
330
12B1
100
AcDbEntity
  8
0
100
AcDbLine
 10
-14.0
 20
30.5
 30
0.0
 11
-15.979004
 21
30.5
 31
0.0
  0
LINE
  5
12E8
330
12B1
100
AcDbEntity
  8
0
100
AcDbLine
 10
-15.0
 20
30.5
 30
0.0
 11
-15.0
 21
37.5
 31
0.0
  0
LINE
  5
12E9
330
12B1
100
AcDbEntity
  8
0
100
AcDbLine
 10
-14.0
 20
30.0
 30
0.0
 11
-14.0
 21
37.5
 31
0.0
  0
LINE
  5
12EA
330
12B1
100
AcDbEntity
  8
0
100
AcDbLine
 10
-32.499878
 20
38.5
 30
0.0
 11
-15.0
 21
38.5
 31
0.0
  0
LINE
  5
12EB
330
12B1
100
AcDbEntity
  8
0
100
AcDbLine
 10
-2.499878
 20
39.039612
 30
0.0
 11
-2.499878
 21
50.5
 31
0.0
  0
ARC
  5
12EC
330
12B1
100
AcDbEntity
  8
0
100
AcDbCircle
 10
-1.5
 20
39.039612
 30
0.0
 40
1.0
100
AcDbArc
 50
180.0
 51
268.499908
  0
LINE
  5
12ED
330
12B1
100
AcDbEntity
  8
0
100
AcDbLine
 10
-1.526207
 20
38.039978
 30
0.0
 11
0.0
 21
38.0
 31
0.0
  0
ARC
  5
12EE
330
12B1
100
AcDbEntity
  8
0
100
AcDbCircle
 10
-9.499878
 20
58.371735
 30
0.0
 40
0.5
100
AcDbArc
 50
0.0
 51
88.162544
  0
ARC
  5
12EF
330
12B1
100
AcDbEntity
  8
0
100
AcDbCircle
 10
-17.499878
 20
-190.999969
 30
0.0
 40
250.0
100
AcDbArc
 50
86.668304
 51
93.331696
  0
ARC
  5
12F0
330
12B1
100
AcDbEntity
  8
0
100
AcDbCircle
 10
-31.249878
 20
56.939209
 30
0.0
 40
1.0
100
AcDbArc
 50
106.958199
 51
180.0
  0
ARC
  5
12F1
330
12B1
100
AcDbEntity
  8
0
100
AcDbCircle
 10
-27.749878
 20
56.939209
 30
0.0
 40
1.0
100
AcDbArc
 50
0.0
 51
73.043098
  0
ARC
  5
12F2
330
12B1
100
AcDbEntity
  8
0
100
AcDbCircle
 10
-29.499878
 20
51.200012
 30
0.0
 40
7.0
100
AcDbArc
 50
73.043488
 51
106.958
  0
LINE
  5
12F3
330
12B1
100
AcDbEntity
  8
0
100
AcDbLine
 10
-32.249878
 20
56.200012
 30
0.0
 11
-26.749878
 21
56.200012
 31
0.0
  0
LINE
  5
12F4
330
12B1
100
AcDbEntity
  8
0
100
AcDbLine
 10
-26.749878
 20
55.499817
 30
0.0
 11
-26.749878
 21
56.939209
 31
0.0
  0
LINE
  5
12F5
330
12B1
100
AcDbEntity
  8
0
100
AcDbLine
 10
-32.249878
 20
55.5
 30
0.0
 11
-32.249878
 21
56.939209
 31
0.0
  0
ARC
  5
12F6
330
12B1
100
AcDbEntity
  8
0
100
AcDbCircle
 10
-25.500122
 20
58.371735
 30
0.0
 40
0.5
100
AcDbArc
 50
91.837456
 51
180.0
  0
LINE
  5
12F7
330
12B1
100
AcDbEntity
  8
0
100
AcDbLine
 10
-26.000122
 20
56.0
 30
0.0
 11
-26.000122
 21
58.371735
 31
0.0
  0
ARC
  5
12F8
330
12B1
100
AcDbEntity
  8
0
100
AcDbCircle
 10
-26.500122
 20
56.0
 30
0.0
 40
0.5
100
AcDbArc
 50
270.0
 51
0.0
  0
LINE
  5
12F9
330
12B1
100
AcDbEntity
  8
0
100
AcDbLine
 10
-26.500122
 20
55.5
 30
0.0
 11
-32.000122
 21
55.5
 31
0.0
  0
ARC
  5
12FA
330
12B1
100
AcDbEntity
  8
0
100
AcDbCircle
 10
-7.249878
 20
56.939209
 30
0.0
 40
1.0
100
AcDbArc
 50
106.958199
 51
180.0
  0
ARC
  5
12FB
330
12B1
100
AcDbEntity
  8
0
100
AcDbCircle
 10
-3.749878
 20
56.939209
 30
0.0
 40
1.0
100
AcDbArc
 50
0.0
 51
73.043098
  0
ARC
  5
12FC
330
12B1
100
AcDbEntity
  8
0
100
AcDbCircle
 10
-5.499878
 20
51.200012
 30
0.0
 40
7.0
100
AcDbArc
 50
73.043488
 51
106.958
  0
LINE
  5
12FD
330
12B1
100
AcDbEntity
  8
0
100
AcDbLine
 10
-8.249878
 20
56.200012
 30
0.0
 11
-2.749878
 21
56.200012
 31
0.0
  0
LINE
  5
12FE
330
12B1
100
AcDbEntity
  8
0
100
AcDbLine
 10
-2.749878
 20
55.499817
 30
0.0
 11
-2.749878
 21
56.939209
 31
0.0
  0
LINE
  5
12FF
330
12B1
100
AcDbEntity
  8
0
100
AcDbLine
 10
-8.249878
 20
55.5
 30
0.0
 11
-8.249878
 21
56.939209
 31
0.0
  0
ARC
  5
1300
330
12B1
100
AcDbEntity
  8
0
100
AcDbCircle
 10
-2.999878
 20
55.0
 30
0.0
 40
0.5
100
AcDbArc
 50
0.0
 51
90.0
  0
ARC
  5
1301
330
12B1
100
AcDbEntity
  8
0
100
AcDbCircle
 10
-8.499878
 20
56.0
 30
0.0
 40
0.5
100
AcDbArc
 50
180.0
 51
270.0
  0
LINE
  5
1302
330
12B1
100
AcDbEntity
  8
0
100
AcDbLine
 10
-8.999878
 20
56.0
 30
0.0
 11
-8.999878
 21
58.371735
 31
0.0
  0
LINE
  5
1303
330
12B1
100
AcDbEntity
  8
0
100
AcDbLine
 10
-8.499878
 20
55.5
 30
0.0
 11
-2.999878
 21
55.5
 31
0.0
  0
ARC
  5
1304
330
12B1
100
AcDbEntity
  8
0
100
AcDbCircle
 10
-2.999878
 20
58.078339
 30
0.0
 40
0.5
100
AcDbArc
 50
0.0
 51
86.668304
  0
ARC
  5
1305
330
12B1
100
AcDbEntity
  8
0
100
AcDbCircle
 10
-1.999878
 20
43.500024
 30
0.0
 40
0.5
100
AcDbArc
 50
90.0
 51
180.0
  0
ARC
  5
1306
330
12B1
100
AcDbEntity
  8
0
100
AcDbCircle
 10
-32.9997082848
 20
43.500024
 30
0.0
 40
0.5
100
AcDbArc
 50
359.9985816336
 51
90.0
  0
LINE
  5
1307
330
12B1
100
AcDbEntity
  8
0
100
AcDbLine
 10
-34.499878
 20
50.500024
 30
0.0
 11
-0.499882
 21
50.500024
 31
0.0
  0
LINE
  5
1308
330
12B1
100
AcDbEntity
  8
0
100
AcDbLine
 10
-34.499878
 20
51.500024
 30
0.0
 11
-32.500084
 21
51.500024
 31
0.0
  0
LINE
  5
1309
330
12B1
100
AcDbEntity
  8
0
100
AcDbLine
 10
-24.500084
 20
51.500024
 30
0.0
 11
-10.499878
 21
51.500024
 31
0.0
  0
LINE
  5
130A
330
12B1
100
AcDbEntity
  8
0
100
AcDbLine
 10
-2.499878
 20
51.500024
 30
0.0
 11
-0.499882
 21
51.500024
 31
0.0
  0
ARC
  5
130B
330
12B1
100
AcDbEntity
  8
0
100
AcDbCircle
 10
-32.906617134
 20
58.500024
 30
0.0
 40
0.5
100
AcDbArc
 50
270.0
 51
335.0585433099
  0
LINE
  5
130C
330
12B1
100
AcDbEntity
  8
0
100
AcDbLine
 10
-34.499878
 20
50.500024
 30
0.0
 11
-34.499878
 21
44.500024
 31
0.0
  0
ARC
  5
130D
330
12B1
100
AcDbEntity
  8
0
100
AcDbCircle
 10
-33.999878
 20
44.500024
 30
0.0
 40
0.5
100
AcDbArc
 50
180.0
 51
270.0
  0
LINE
  5
130E
330
12B1
100
AcDbEntity
  8
0
100
AcDbLine
 10
-32.999878
 20
44.000024
 30
0.0
 11
-33.999878
 21
44.000024
 31
0.0
  0
LINE
  5
130F
330
12B1
100
AcDbEntity
  8
0
100
AcDbLine
 10
-32.906617134
 20
58.000024
 30
0.0
 11
-33.999878
 21
58.000024
 31
0.0
  0
LINE
  5
1310
330
12B1
100
AcDbEntity
  8
0
100
AcDbLine
 10
-34.499878
 20
55.250024
 30
0.0
 11
-34.499878
 21
51.500024
 31
0.0
  0
LINE
  5
1311
330
12B1
100
AcDbEntity
  8
0
100
AcDbLine
 10
-34.499878
 20
57.500024
 30
0.0
 11
-34.499878
 21
55.250024
 31
0.0
  0
ARC
  5
1312
330
12B1
100
AcDbEntity
  8
0
100
AcDbCircle
 10
-33.999878
 20
57.500024
 30
0.0
 40
0.5
100
AcDbArc
 50
90.0
 51
180.0
  0
ARC
  5
1313
330
12B1
100
AcDbEntity
  8
0
100
AcDbCircle
 10
-2.093138866
 20
58.500024
 30
0.0
 40
0.5
100
AcDbArc
 50
204.9414566901
 51
270.0
  0
LINE
  5
1314
330
12B1
100
AcDbEntity
  8
0
100
AcDbLine
 10
-0.499882
 20
50.500024
 30
0.0
 11
-0.499882
 21
44.500024
 31
0.0
  0
LINE
  5
1315
330
12B1
100
AcDbEntity
  8
0
100
AcDbLine
 10
-1.999882
 20
44.000024
 30
0.0
 11
-0.999882
 21
44.000024
 31
0.0
  0
ARC
  5
1316
330
12B1
100
AcDbEntity
  8
0
100
AcDbCircle
 10
-0.999882
 20
44.500024
 30
0.0
 40
0.5
100
AcDbArc
 50
270.0
 51
0.0
  0
LINE
  5
1317
330
12B1
100
AcDbEntity
  8
0
100
AcDbLine
 10
-2.093138866
 20
58.000024
 30
0.0
 11
-0.999882
 21
58.000024
 31
0.0
  0
ARC
  5
1318
330
12B1
100
AcDbEntity
  8
0
100
AcDbCircle
 10
-0.999882
 20
57.500024
 30
0.0
 40
0.5
100
AcDbArc
 50
0.0
 51
90.0
  0
LINE
  5
1319
330
12B1
100
AcDbEntity
  8
0
100
AcDbLine
 10
-0.499882
 20
57.500024
 30
0.0
 11
-0.499882
 21
51.500024
 31
0.0
  0
LINE
  5
131A
330
12B1
100
AcDbEntity
  8
0
100
AcDbLine
 10
-32.500084
 20
51.500024
 30
0.0
 11
-32.500084
 21
50.500024
 31
0.0
  0
LINE
  5
131B
330
12B1
100
AcDbEntity
  8
0
100
AcDbLine
 10
-24.500084
 20
51.500024
 30
0.0
 11
-24.500084
 21
50.500024
 31
0.0
  0
LINE
  5
131C
330
12B1
100
AcDbEntity
  8
0
100
AcDbLine
 10
-34.199878
 20
51.500024
 30
0.0
 11
-34.199878
 21
50.500024
 31
0.0
  0
LINE
  5
131D
330
12B1
100
AcDbEntity
  8
0
100
AcDbLine
 10
-10.499878
 20
51.500024
 30
0.0
 11
-10.499878
 21
50.500024
 31
0.0
  0
LINE
  5
131E
330
12B1
100
AcDbEntity
  8
0
100
AcDbLine
 10
-2.499878
 20
51.500024
 30
0.0
 11
-2.499878
 21
50.500024
 31
0.0
  0
LINE
  5
131F
330
12B1
100
AcDbEntity
  8
0
100
AcDbLine
 10
-0.799882
 20
51.500024
 30
0.0
 11
-0.799882
 21
50.500024
 31
0.0
  0
LINE
  5
1320
330
12B1
100
AcDbEntity
  8
0
100
AcDbLine
 10
-0.499882
 20
51.500024
 30
0.0
 11
-0.499882
 21
50.500024
 31
0.0
  0
ENDBLK
  5
1321
330
12B1
100
AcDbEntity
  8
0
100
AcDbBlockEnd
  0
ENDSEC
  0
SECTION
  2
ENTITIES
  0
LINE
  5
86F
330
2
100
AcDbEntity
  8
0
100
AcDbLine
 10
114.0102114273
 20
66.5488412527
 30
0.0
 11
186.5102514273
 21
66.5488412527
 31
0.0
  0
LINE
  5
870
330
2
100
AcDbEntity
  8
0
100
AcDbLine
 10
114.0102114273
 20
127.0468422527
 30
0.0
 11
186.5102514273
 21
127.0468422527
 31
0.0
  0
LINE
  5
871
330
2
100
AcDbEntity
  8
0
100
AcDbLine
 10
114.0102604273
 20
58.7978412527
 30
0.0
 11
186.5102584273
 21
58.7978412527
 31
0.0
  0
LINE
  5
872
330
2
100
AcDbEntity
  8
0
100
AcDbLine
 10
114.0102604273
 20
134.7978422527
 30
0.0
 11
189.9299444273
 21
134.7978422527
 31
0.0
  0
LINE
  5
873
330
2
100
AcDbEntity
  8
CENTER
100
AcDbLine
 10
81.2102614273
 20
96.7978422527
 30
0.0
 11
205.7602584273
 21
96.7978422527
 31
0.0
  0
LINE
  5
876
330
2
100
AcDbEntity
  8
0
100
AcDbLine
 10
114.0102604273
 20
276.634745929
 30
0.0
 11
189.9299444273
 21
276.634745929
 31
0.0
  0
LINE
  5
877
330
2
100
AcDbEntity
  8
0
100
AcDbLine
 10
114.0102604273
 20
261.634745929
 30
0.0
 11
184.5102584273
 21
261.634745929
 31
0.0
  0
LINE
  5
878
330
2
100
AcDbEntity
  8
0
100
AcDbLine
 10
114.0102604273
 20
322.634745929
 30
0.0
 11
189.9299444273
 21
322.634745929
 31
0.0
  0
LINE
  5
879
330
2
100
AcDbEntity
  8
0
100
AcDbLine
 10
184.5102584273
 20
337.634745929
 30
0.0
 11
114.0102604273
 21
337.634745929
 31
0.0
  0
LINE
  5
87A
330
2
100
AcDbEntity
  8
CENTER
100
AcDbLine
 10
57.8105888032
 20
299.634745929
 30
0.0
 11
278.5102664273
 21
299.634745929
 31
0.0
  0
LINE
  5
881
330
2
100
AcDbEntity
  8
0
100
AcDbLine
 10
114.0102604273
 20
58.7978612527
 30
0.0
 11
114.0102604273
 21
134.7978422527
 31
0.0
  0
LINE
  5
8ED
330
2
100
AcDbEntity
  8
0
100
AcDbLine
 10
114.0102604273
 20
261.634745929
 30
0.0
 11
114.0102604273
 21
337.634745929
 31
0.0
  0
LINE
  5
955
330
2
100
AcDbEntity
  8
CENTER
100
AcDbLine
 10
350.0952096278
 20
119.0978452527
 30
0.0
 11
492.0951946278
 21
119.0978452527
 31
0.0
  0
ARC
  5
957
330
2
100
AcDbEntity
  8
0
100
AcDbCircle
 10
229.0102664273
 20
106.0978412527
 30
0.0
 40
42.5
100
AcDbArc
 50
19.749901
 51
160.250107
  0
ARC
  5
958
330
2
100
AcDbEntity
  8
0
100
AcDbCircle
 10
229.0102664273
 20
106.0978412527
 30
0.0
 40
42.5
100
AcDbArc
 50
199.749893
 51
340.250092
  0
LINE
  5
959
330
2
100
AcDbEntity
  8
0
100
AcDbLine
 10
188.5102744273
 20
62.0978412527
 30
0.0
 11
269.5102664273
 21
62.0978412527
 31
0.0
  0
LINE
  5
95A
330
2
100
AcDbEntity
  8
0
100
AcDbLine
 10
186.5102584273
 20
54.0978412527
 30
0.0
 11
271.5102664273
 21
54.0978412527
 31
0.0
  0
LINE
  5
95B
330
2
100
AcDbEntity
  8
0
100
AcDbLine
 10
269.3825654273
 20
133.8910962527
 30
0.0
 11
245.3031284273
 21
150.7904492527
 31
0.0
  0
LINE
  5
95C
330
2
100
AcDbEntity
  8
CENTER
100
AcDbLine
 10
202.2603289349
 20
119.0978452527
 30
0.0
 11
256.2602039197
 21
119.0978452527
 31
0.0
  0
LINE
  5
961
330
2
100
AcDbEntity
  8
0
100
AcDbLine
 10
186.5102584273
 20
129.7984442527
 30
0.0
 11
186.5102584273
 21
54.0978412527
 31
0.0
  0
LINE
  5
962
330
2
100
AcDbEntity
  8
CENTER
100
AcDbLine
 10
229.0102664273
 20
158.6978432527
 30
0.0
 11
229.0102664273
 21
47.0978412527
 31
0.0
  0
ARC
  5
963
330
2
100
AcDbEntity
  8
0
100
AcDbCircle
 10
188.5102744273
 20
60.0978512527
 30
0.0
 40
2.0
100
AcDbArc
 50
90.0
 51
180.0
  0
LINE
  5
964
330
2
100
AcDbEntity
  8
HIDS
  6
sekkei_H
100
AcDbLine
 10
191.7602584273
 20
62.0978412527
 30
0.0
 11
191.7602584273
 21
54.0978412527
 31
0.0
  0
LINE
  5
965
330
2
100
AcDbEntity
  8
HIDS
  6
sekkei_H
100
AcDbLine
 10
198.2602584273
 20
62.0978412527
 30
0.0
 11
198.2602584273
 21
54.0978412527
 31
0.0
  0
LINE
  5
966
330
2
100
AcDbEntity
  8
CENTER
100
AcDbLine
 10
195.0102584273
 20
65.5978412527
 30
0.0
 11
195.0102584273
 21
50.5978412527
 31
0.0
  0
LINE
  5
967
330
2
100
AcDbEntity
  8
0
100
AcDbLine
 10
188.6379514273
 20
133.8911032527
 30
0.0
 11
212.7173584273
 21
150.7904952527
 31
0.0
  0
LINE
  5
969
330
2
100
AcDbEntity
  8
0
100
AcDbLine
 10
189.0102584273
 20
120.4591122527
 30
0.0
 11
189.0102584273
 21
91.7363032527
 31
0.0
  0
ARC
  5
96A
330
2
100
AcDbEntity
  8
0
100
AcDbCircle
 10
191.5102814273
 20
129.7984602527
 30
0.0
 40
5.0
100
AcDbArc
 50
125.062302
 51
180.0
  0
LINE
  5
96B
330
2
100
AcDbEntity
  8
0
100
AcDbLine
 10
233.5102664273
 20
116.5978412527
 30
0.0
 11
233.5102664273
 21
121.5978452527
 31
0.0
  0
LINE
  5
96C
330
2
100
AcDbEntity
  8
0
100
AcDbLine
 10
238.5102664273
 20
121.5978452527
 30
0.0
 11
238.5102664273
 21
116.5978412527
 31
0.0
  0
CIRCLE
  5
96D
330
2
100
AcDbEntity
  8
0
100
AcDbCircle
 10
229.0102664273
 20
119.0978452527
 30
0.0
 40
20.0
  0
ARC
  5
96E
330
2
100
AcDbEntity
  8
0
100
AcDbCircle
 10
229.0102664273
 20
119.0978452527
 30
0.0
 40
7.5
100
AcDbArc
 50
19.47121
 51
340.528809
  0
LINE
  5
9AF
330
2
100
AcDbEntity
  8
0
100
AcDbLine
 10
233.5102664273
 20
116.5978412527
 30
0.0
 11
238.5102664273
 21
116.5978412527
 31
0.0
  0
LINE
  5
9B0
330
2
100
AcDbEntity
  8
0
100
AcDbLine
 10
215.5897644273
 20
151.6978432527
 30
0.0
 11
242.4308594273
 21
151.6978432527
 31
0.0
  0
ARC
  5
9B1
330
2
100
AcDbEntity
  8
0
100
AcDbCircle
 10
215.5897644273
 20
146.6978512527
 30
0.0
 40
5.0
100
AcDbArc
 50
90.0
 51
125.062202
  0
LINE
  5
9B2
330
2
100
AcDbEntity
  8
0
100
AcDbLine
 10
233.5102664273
 20
121.5978452527
 30
0.0
 11
238.5102664273
 21
121.5978452527
 31
0.0
  0
ARC
  5
9B3
330
2
100
AcDbEntity
  8
0
100
AcDbCircle
 10
242.4308594273
 20
146.6978282527
 30
0.0
 40
5.0
100
AcDbArc
 50
54.938431
 51
90.0
  0
LINE
  5
9B4
330
2
100
AcDbEntity
  8
0
100
AcDbLine
 10
271.5102664273
 20
129.7984212527
 30
0.0
 11
271.5102664273
 21
54.0978412527
 31
0.0
  0
LINE
  5
9B6
330
2
100
AcDbEntity
  8
HIDS
  6
sekkei_H
100
AcDbLine
 10
259.7602664273
 20
62.0978412527
 30
0.0
 11
259.7602664273
 21
54.0978412527
 31
0.0
  0
LINE
  5
9B7
330
2
100
AcDbEntity
  8
CENTER
100
AcDbLine
 10
263.0102664273
 20
65.5978412527
 30
0.0
 11
263.0102664273
 21
50.5978412527
 31
0.0
  0
LINE
  5
9B8
330
2
100
AcDbEntity
  8
HIDS
  6
sekkei_H
100
AcDbLine
 10
266.2602664273
 20
62.0978412527
 30
0.0
 11
266.2602664273
 21
54.0978412527
 31
0.0
  0
ARC
  5
9B9
330
2
100
AcDbEntity
  8
0
100
AcDbCircle
 10
269.5102664273
 20
60.0978312527
 30
0.0
 40
2.0
100
AcDbArc
 50
0.0
 51
90.0
  0
LINE
  5
9BB
330
2
100
AcDbEntity
  8
0
100
AcDbLine
 10
269.0102664273
 20
120.4592412527
 30
0.0
 11
269.0102664273
 21
91.7367032527
 31
0.0
  0
ARC
  5
9BC
330
2
100
AcDbEntity
  8
0
100
AcDbCircle
 10
266.5102664273
 20
129.7984212527
 30
0.0
 40
5.0
100
AcDbArc
 50
0.0
 51
54.93837
  0
ARC
  5
9BD
330
2
100
AcDbEntity
  8
0
100
AcDbCircle
 10
421.0951946278
 20
96.7978422527
 30
0.0
 40
38.0
100
AcDbArc
 50
324.665501
 51
21.294262
  0
LINE
  5
9BF
330
2
100
AcDbEntity
  8
0
100
AcDbLine
 10
374.0951946278
 20
54.0978412527
 30
0.0
 11
468.0951946278
 21
54.0978412527
 31
0.0
  0
LINE
  5
9C0
330
2
100
AcDbEntity
  8
CENTER
100
AcDbLine
 10
376.0951946278
 20
96.7978422527
 30
0.0
 11
466.0951946278
 21
96.7978422527
 31
0.0
  0
ARC
  5
9C2
330
2
100
AcDbEntity
  8
0
100
AcDbCircle
 10
455.0951946278
 20
65.0978412527
 30
0.0
 40
3.0
100
AcDbArc
 50
180.0
 51
270.0
  0
ARC
  5
9C3
330
2
100
AcDbEntity
  8
HIDS
100
AcDbCircle
 10
421.0951946278
 20
96.7978422527
 30
0.0
 40
38.0
100
AcDbArc
 50
21.29426
 51
50.643299
  0
LINE
  5
9C4
330
2
100
AcDbEntity
  8
0
100
AcDbLine
 10
455.0951946278
 20
99.0978412527
 30
0.0
 11
454.0911946298
 21
99.0978412527
 31
0.0
  0
LINE
  5
9C5
330
2
100
AcDbEntity
  8
0
100
AcDbLine
 10
455.0951946278
 20
139.0978452527
 30
0.0
 11
454.0951946278
 21
139.0978452527
 31
0.0
  0
ARC
  5
9C6
330
2
100
AcDbEntity
  8
HIDS
100
AcDbCircle
 10
421.0951946278
 20
96.7978422527
 30
0.0
 40
38.0
100
AcDbArc
 50
309.356701
 51
324.665497
  0
LINE
  5
9C7
330
2
100
AcDbEntity
  8
0
100
AcDbLine
 10
452.0951946278
 20
65.0978412527
 30
0.0
 11
452.0951946278
 21
149.1913512527
 31
0.0
  0
ARC
  5
9C8
330
2
100
AcDbEntity
  8
HIDS
100
AcDbCircle
 10
421.0951946278
 20
96.7978422527
 30
0.0
 40
38.0
100
AcDbArc
 50
215.334503
 51
230.643295
  0
LINE
  5
9C9
330
2
100
AcDbEntity
  8
0
100
AcDbLine
 10
390.0951946278
 20
65.0978412527
 30
0.0
 11
390.0951946278
 21
149.1912442527
 31
0.0
  0
LINE
  5
9CB
330
2
100
AcDbEntity
  8
CENTER
100
AcDbLine
 10
421.0951946278
 20
47.0978412527
 30
0.0
 11
421.0951946278
 21
162.7978572527
 31
0.0
  0
LINE
  5
9CD
330
2
100
AcDbEntity
  8
HIDS
100
AcDbLine
 10
400.0951946278
 20
58.7978422527
 30
0.0
 11
442.0951946278
 21
58.7978422527
 31
0.0
  0
LINE
  5
9CE
330
2
100
AcDbEntity
  8
0
100
AcDbLine
 10
387.0951946278
 20
62.0978412527
 30
0.0
 11
376.0951946278
 21
62.0978412527
 31
0.0
  0
LINE
  5
9CF
330
2
100
AcDbEntity
  8
0
100
AcDbLine
 10
374.0951946278
 20
60.0978412527
 30
0.0
 11
374.0951946278
 21
54.0978412527
 31
0.0
  0
ARC
  5
9D0
330
2
100
AcDbEntity
  8
0
100
AcDbCircle
 10
376.0951946278
 20
60.0978512527
 30
0.0
 40
2.0
100
AcDbArc
 50
90.0
 51
180.0
  0
ARC
  5
9D1
330
2
100
AcDbEntity
  8
0
100
AcDbCircle
 10
387.0951946278
 20
65.0978312527
 30
0.0
 40
3.0
100
AcDbArc
 50
270.0
 51
0.0
  0
LINE
  5
9D2
330
2
100
AcDbEntity
  8
HIDS
  6
sekkei_H
100
AcDbLine
 10
377.8451946278
 20
62.0978412527
 30
0.0
 11
377.8451946278
 21
54.0978412527
 31
0.0
  0
LINE
  5
9D3
330
2
100
AcDbEntity
  8
HIDS
  6
sekkei_H
100
AcDbLine
 10
384.3451946278
 20
62.0978412527
 30
0.0
 11
384.3451946278
 21
54.0978412527
 31
0.0
  0
LINE
  5
9D4
330
2
100
AcDbEntity
  8
CENTER
100
AcDbLine
 10
381.0951946278
 20
65.5978412527
 30
0.0
 11
381.0951946278
 21
50.5978412527
 31
0.0
  0
ARC
  5
9D5
330
2
100
AcDbEntity
  8
HIDS
100
AcDbCircle
 10
395.0951946278
 20
65.0961062527
 30
0.0
 40
3.0
100
AcDbArc
 50
0.0
 51
50.643299
  0
ARC
  5
9D6
330
2
100
AcDbEntity
  8
HIDS
100
AcDbCircle
 10
400.0951946278
 20
60.7978422527
 30
0.0
 40
2.0
100
AcDbArc
 50
180.0
 51
199.21669
  0
ARC
  5
9D7
330
2
100
AcDbEntity
  8
HIDS
100
AcDbCircle
 10
400.0951946278
 20
60.7978422527
 30
0.0
 40
2.0
100
AcDbArc
 50
199.21669
 51
270.0
  0
LINE
  5
9D8
330
2
100
AcDbEntity
  8
HIDS
100
AcDbLine
 10
398.0951946278
 20
60.7978422527
 30
0.0
 11
398.0951946278
 21
65.0961062527
 31
0.0
  0
ARC
  5
9D9
330
2
100
AcDbEntity
  8
HIDS
100
AcDbCircle
 10
447.0951946278
 20
65.0961062527
 30
0.0
 40
3.0
100
AcDbArc
 50
129.356705
 51
180.0
  0
ARC
  5
9DA
330
2
100
AcDbEntity
  8
HIDS
100
AcDbCircle
 10
442.0951946278
 20
60.7978422527
 30
0.0
 40
2.0
100
AcDbArc
 50
270.0
 51
0.0
  0
LINE
  5
9DB
330
2
100
AcDbEntity
  8
HIDS
100
AcDbLine
 10
444.0951946278
 20
60.9407112527
 30
0.0
 11
444.0951946278
 21
65.0961062527
 31
0.0
  0
LINE
  5
9DC
330
2
100
AcDbEntity
  8
0
100
AcDbLine
 10
392.0603126278
 20
151.1910532527
 30
0.0
 11
421.0951946278
 21
151.6978512527
 31
0.0
  0
LINE
  5
9DD
330
2
100
AcDbEntity
  8
HIDS
100
AcDbLine
 10
400.0603126278
 20
134.4306852527
 30
0.0
 11
421.0951946278
 21
134.7978342527
 31
0.0
  0
LINE
  5
9DE
330
2
100
AcDbEntity
  8
0
100
AcDbLine
 10
391.7689006278
 20
132.3978482527
 30
0.0
 11
450.4876206278
 21
132.3978482527
 31
0.0
  0
ARC
  5
9DF
330
2
100
AcDbEntity
  8
0
100
AcDbCircle
 10
421.0951946278
 20
-94.2021427473
 30
0.0
 40
250.0
100
AcDbArc
 50
84.826019
 51
95.173981
  0
LINE
  5
9E0
330
2
100
AcDbEntity
  8
0
100
AcDbLine
 10
398.3451946278
 20
152.2978422527
 30
0.0
 11
404.0951946278
 21
152.2978422527
 31
0.0
  0
LINE
  5
9E1
330
2
100
AcDbEntity
  8
0
100
AcDbLine
 10
398.3451946278
 20
152.9978392527
 30
0.0
 11
403.8451946278
 21
152.9978392527
 31
0.0
  0
ARC
  5
9E2
330
2
100
AcDbEntity
  8
0
100
AcDbCircle
 10
401.0951946278
 20
147.9978392527
 30
0.0
 40
7.0
100
AcDbArc
 50
73.043503
 51
106.958023
  0
LINE
  5
9E3
330
2
100
AcDbEntity
  8
0
100
AcDbLine
 10
378.5951946278
 20
121.5978452527
 30
0.0
 11
378.5951946278
 21
116.5978412527
 31
0.0
  0
ARC
  5
9E4
330
2
100
AcDbEntity
  8
0
100
AcDbCircle
 10
378.5951946278
 20
119.0978292527
 30
0.0
 40
2.5
100
AcDbArc
 50
0.0
 51
90.0
  0
LINE
  5
9E5
330
2
100
AcDbEntity
  8
0
100
AcDbLine
 10
357.0952096278
 20
126.5978452527
 30
0.0
 11
357.0952096278
 21
111.5978412527
 31
0.0
  0
LINE
  5
9E6
330
2
100
AcDbEntity
  8
0
100
AcDbLine
 10
386.0951946278
 20
100.0978412527
 30
0.0
 11
386.0951946278
 21
138.0978452527
 31
0.0
  0
LINE
  5
9E7
330
2
100
AcDbEntity
  8
0
100
AcDbLine
 10
384.0951946278
 20
127.5978452527
 30
0.0
 11
384.0951946278
 21
110.5978412527
 31
0.0
  0
ARC
  5
9E8
330
2
100
AcDbEntity
  8
HIDS
100
AcDbCircle
 10
421.0951946278
 20
96.7978422527
 30
0.0
 40
38.0
100
AcDbArc
 50
129.356705
 51
158.705734
  0
LINE
  5
9E9
330
2
100
AcDbEntity
  8
0
100
AcDbLine
 10
357.0952096278
 20
116.5978412527
 30
0.0
 11
378.5951946278
 21
116.5978412527
 31
0.0
  0
LINE
  5
9EA
330
2
100
AcDbEntity
  8
0
100
AcDbLine
 10
357.0952096278
 20
111.5978412527
 30
0.0
 11
384.0951946278
 21
111.5978412527
 31
0.0
  0
ARC
  5
9EB
330
2
100
AcDbEntity
  8
0
100
AcDbCircle
 10
421.0951946278
 20
96.7978422527
 30
0.0
 40
38.0
100
AcDbArc
 50
158.705734
 51
215.334503
  0
ARC
  5
9EC
330
2
100
AcDbEntity
  8
0
100
AcDbCircle
 10
378.5951946278
 20
119.0978452527
 30
0.0
 40
2.5
100
AcDbArc
 50
270.0
 51
0.0
  0
LINE
  5
9ED
330
2
100
AcDbEntity
  8
0
100
AcDbLine
 10
384.0951946278
 20
110.5978412527
 30
0.0
 11
386.0951946278
 21
110.5978412527
 31
0.0
  0
LINE
  5
9EE
330
2
100
AcDbEntity
  8
0
100
AcDbLine
 10
387.0951946278
 20
99.0978412527
 30
0.0
 11
388.0991946258
 21
99.0978412527
 31
0.0
  0
ARC
  5
9EF
330
2
100
AcDbEntity
  8
0
100
AcDbCircle
 10
387.0951946278
 20
100.0978372527
 30
0.0
 40
1.0
100
AcDbArc
 50
180.0
 51
270.0
  0
LINE
  5
9F0
330
2
100
AcDbEntity
  8
0
100
AcDbLine
 10
357.0952096278
 20
121.5978452527
 30
0.0
 11
378.5951946278
 21
121.5978452527
 31
0.0
  0
LINE
  5
9F2
330
2
100
AcDbEntity
  8
0
100
AcDbLine
 10
357.0952096278
 20
126.5978452527
 30
0.0
 11
384.0951946278
 21
126.5978452527
 31
0.0
  0
LINE
  5
9F4
330
2
100
AcDbEntity
  8
0
100
AcDbLine
 10
384.0951946278
 20
127.5978452527
 30
0.0
 11
386.0951946278
 21
127.5978452527
 31
0.0
  0
LINE
  5
9F5
330
2
100
AcDbEntity
  8
0
100
AcDbLine
 10
387.0951946278
 20
139.0978452527
 30
0.0
 11
388.0951946278
 21
139.0978452527
 31
0.0
  0
ARC
  5
9F6
330
2
100
AcDbEntity
  8
0
100
AcDbCircle
 10
387.0951946278
 20
138.0978452527
 30
0.0
 40
1.0
100
AcDbArc
 50
90.0
 51
180.0
  0
ARC
  5
9F8
330
2
100
AcDbEntity
  8
HIDS
100
AcDbCircle
 10
400.0951946278
 20
132.4309752527
 30
0.0
 40
2.0
100
AcDbArc
 50
90.999863
 51
180.0
  0
LINE
  5
9F9
330
2
100
AcDbEntity
  8
HIDS
100
AcDbLine
 10
398.0951946278
 20
132.4309752527
 30
0.0
 11
398.0951946278
 21
128.4995782527
 31
0.0
  0
ARC
  5
9FA
330
2
100
AcDbEntity
  8
HIDS
100
AcDbCircle
 10
395.0951946278
 20
128.4995782527
 30
0.0
 40
3.0
100
AcDbArc
 50
309.356701
 51
0.0
  0
LINE
  5
9FB
330
2
100
AcDbEntity
  8
HIDS
100
AcDbLine
 10
398.0951946278
 20
151.2963908989
 30
0.0
 11
398.0951946278
 21
132.4309752527
 31
0.0
  0
ARC
  5
9FC
330
2
100
AcDbEntity
  8
0
100
AcDbCircle
 10
392.0951946278
 20
149.1912512527
 30
0.0
 40
2.0
100
AcDbArc
 50
91.000641
 51
180.0
  0
LINE
  5
9FD
330
2
100
AcDbEntity
  8
0
100
AcDbLine
 10
398.0951946278
 20
151.2963922527
 30
0.0
 11
398.0951946278
 21
154.2812632527
 31
0.0
  0
ARC
  5
9FE
330
2
100
AcDbEntity
  8
0
100
AcDbCircle
 10
399.3451946278
 20
153.7370432527
 30
0.0
 40
1.0
100
AcDbArc
 50
106.958153
 51
180.0
  0
ARC
  5
9FF
330
2
100
AcDbEntity
  8
0
100
AcDbCircle
 10
398.5951946278
 20
151.7978422527
 30
0.0
 40
0.5
100
AcDbArc
 50
90.0
 51
180.0
  0
LINE
  5
A00
330
2
100
AcDbEntity
  8
0
100
AcDbLine
 10
398.3451946278
 20
152.2978422527
 30
0.0
 11
398.3451946278
 21
153.7370432527
 31
0.0
  0
ARC
  5
A03
330
2
100
AcDbEntity
  8
0
100
AcDbCircle
 10
398.5951946278
 20
154.2812632527
 30
0.0
 40
0.5
100
AcDbArc
 50
95.173981
 51
180.0
  0
LINE
  5
A04
330
2
100
AcDbEntity
  8
0
100
AcDbLine
 10
450.1301066278
 20
151.1910532527
 30
0.0
 11
421.0951946278
 21
151.6978512527
 31
0.0
  0
LINE
  5
A05
330
2
100
AcDbEntity
  8
HIDS
100
AcDbLine
 10
442.1301066278
 20
134.4306852527
 30
0.0
 11
421.0951946278
 21
134.7978342527
 31
0.0
  0
ARC
  5
A06
330
2
100
AcDbEntity
  8
0
100
AcDbCircle
 10
402.8451946278
 20
153.7370432527
 30
0.0
 40
1.0
100
AcDbArc
 50
0.0
 51
73.043098
  0
LINE
  5
A07
330
2
100
AcDbEntity
  8
0
100
AcDbLine
 10
404.5951946278
 20
154.7843072527
 30
0.0
 11
404.5951946278
 21
152.7978422527
 31
0.0
  0
ARC
  5
A08
330
2
100
AcDbEntity
  8
0
100
AcDbCircle
 10
404.0951946278
 20
152.7978422527
 30
0.0
 40
0.5
100
AcDbArc
 50
270.0
 51
0.0
  0
LINE
  5
A09
330
2
100
AcDbEntity
  8
0
100
AcDbLine
 10
403.8451946278
 20
152.2976432527
 30
0.0
 11
403.8451946278
 21
153.7370432527
 31
0.0
  0
ARC
  5
A0A
330
2
100
AcDbEntity
  8
0
100
AcDbCircle
 10
405.0951946278
 20
154.7843072527
 30
0.0
 40
0.5
100
AcDbArc
 50
93.676804
 51
180.0
  0
ARC
  5
A0B
330
2
100
AcDbEntity
  8
0
100
AcDbCircle
 10
421.0951946278
 20
147.7978422527
 30
0.0
 40
6.0
100
AcDbArc
 50
39.534275
 51
140.465729
  0
ARC
  5
A0E
330
2
100
AcDbEntity
  8
HIDS
100
AcDbCircle
 10
447.0951946278
 20
128.4995782527
 30
0.0
 40
3.0
100
AcDbArc
 50
180.0
 51
230.643295
  0
LINE
  5
A0F
330
2
100
AcDbEntity
  8
HIDS
100
AcDbLine
 10
444.0951946278
 20
132.3978482527
 30
0.0
 11
444.0951946278
 21
128.4995782527
 31
0.0
  0
ARC
  5
A10
330
2
100
AcDbEntity
  8
HIDS
100
AcDbCircle
 10
442.0951946278
 20
132.4309752527
 30
0.0
 40
2.0
100
AcDbArc
 50
0.0
 51
89.000137
  0
LINE
  5
A11
330
2
100
AcDbEntity
  8
HIDS
100
AcDbLine
 10
444.0951946278
 20
151.2963913137
 30
0.0
 11
444.0951946278
 21
132.4309752527
 31
0.0
  0
ARC
  5
A12
330
2
100
AcDbEntity
  8
0
100
AcDbCircle
 10
441.0951946278
 20
147.9978392527
 30
0.0
 40
7.0
100
AcDbArc
 50
73.041977
 51
106.956497
  0
LINE
  5
A13
330
2
100
AcDbEntity
  8
0
100
AcDbLine
 10
443.8451946278
 20
152.2978422527
 30
0.0
 11
438.0951946278
 21
152.2978422527
 31
0.0
  0
LINE
  5
A14
330
2
100
AcDbEntity
  8
0
100
AcDbLine
 10
443.8451946278
 20
152.9978392527
 30
0.0
 11
438.3451946278
 21
152.9978392527
 31
0.0
  0
LINE
  5
A15
330
2
100
AcDbEntity
  8
0
100
AcDbLine
 10
437.5951946278
 20
154.7843072527
 30
0.0
 11
437.5951946278
 21
152.7978422527
 31
0.0
  0
ARC
  5
A16
330
2
100
AcDbEntity
  8
0
100
AcDbCircle
 10
439.3451946278
 20
153.7370432527
 30
0.0
 40
1.0
100
AcDbArc
 50
106.956902
 51
180.0
  0
ARC
  5
A17
330
2
100
AcDbEntity
  8
0
100
AcDbCircle
 10
438.0951946278
 20
152.7978422527
 30
0.0
 40
0.5
100
AcDbArc
 50
180.0
 51
270.0
  0
LINE
  5
A18
330
2
100
AcDbEntity
  8
0
100
AcDbLine
 10
438.3451946278
 20
152.2976432527
 30
0.0
 11
438.3451946278
 21
153.7370432527
 31
0.0
  0
ARC
  5
A19
330
2
100
AcDbEntity
  8
0
100
AcDbCircle
 10
437.0951946278
 20
154.7843072527
 30
0.0
 40
0.5
100
AcDbArc
 50
0.0
 51
86.323196
  0
LINE
  5
A1A
330
2
100
AcDbEntity
  8
0
100
AcDbLine
 10
444.0951946278
 20
151.2963922527
 30
0.0
 11
444.0951946278
 21
154.2812632527
 31
0.0
  0
LINE
  5
A1B
330
2
100
AcDbEntity
  8
0
100
AcDbLine
 10
443.8451946278
 20
152.2978422527
 30
0.0
 11
443.8451946278
 21
153.7370432527
 31
0.0
  0
ARC
  5
A1D
330
2
100
AcDbEntity
  8
0
100
AcDbCircle
 10
442.8451946278
 20
153.7370432527
 30
0.0
 40
1.0
100
AcDbArc
 50
0.0
 51
73.041847
  0
ARC
  5
A1E
330
2
100
AcDbEntity
  8
0
100
AcDbCircle
 10
443.5951946278
 20
151.7978422527
 30
0.0
 40
0.5
100
AcDbArc
 50
0.0
 51
90.0
  0
ARC
  5
A20
330
2
100
AcDbEntity
  8
0
100
AcDbCircle
 10
443.5951946278
 20
154.2812632527
 30
0.0
 40
0.5
100
AcDbArc
 50
0.0
 51
84.826019
  0
ARC
  5
A21
330
2
100
AcDbEntity
  8
0
100
AcDbCircle
 10
450.0951946278
 20
149.1913512527
 30
0.0
 40
2.0
100
AcDbArc
 50
0.0
 51
89.000137
  0
ARC
  5
A23
330
2
100
AcDbEntity
  8
0
100
AcDbCircle
 10
466.0951946278
 20
60.0978312527
 30
0.0
 40
2.0
100
AcDbArc
 50
0.0
 51
90.0
  0
LINE
  5
A24
330
2
100
AcDbEntity
  8
0
100
AcDbLine
 10
455.0951946278
 20
62.0978412527
 30
0.0
 11
466.0951946278
 21
62.0978412527
 31
0.0
  0
LINE
  5
A25
330
2
100
AcDbEntity
  8
HIDS
  6
sekkei_H
100
AcDbLine
 10
457.8451946278
 20
62.0978412527
 30
0.0
 11
457.8451946278
 21
54.0978412527
 31
0.0
  0
LINE
  5
A26
330
2
100
AcDbEntity
  8
HIDS
  6
sekkei_H
100
AcDbLine
 10
464.3451946278
 20
62.0978412527
 30
0.0
 11
464.3451946278
 21
54.0978412527
 31
0.0
  0
LINE
  5
A27
330
2
100
AcDbEntity
  8
CENTER
100
AcDbLine
 10
461.0951946278
 20
65.5978412527
 30
0.0
 11
461.0951946278
 21
50.5978412527
 31
0.0
  0
LINE
  5
A28
330
2
100
AcDbEntity
  8
0
100
AcDbLine
 10
468.0951946278
 20
60.0978412527
 30
0.0
 11
468.0951946278
 21
54.0978412527
 31
0.0
  0
LINE
  5
A29
330
2
100
AcDbEntity
  8
0
100
AcDbLine
 10
463.5951946278
 20
121.5978452527
 30
0.0
 11
463.5951946278
 21
116.5978412527
 31
0.0
  0
ARC
  5
A2A
330
2
100
AcDbEntity
  8
0
100
AcDbCircle
 10
463.5951946278
 20
119.0978292527
 30
0.0
 40
2.5
100
AcDbArc
 50
90.0
 51
180.0
  0
LINE
  5
A2B
330
2
100
AcDbEntity
  8
0
100
AcDbLine
 10
456.0951946278
 20
100.0978412527
 30
0.0
 11
456.0951946278
 21
138.0978452527
 31
0.0
  0
LINE
  5
A2C
330
2
100
AcDbEntity
  8
0
100
AcDbLine
 10
458.0951946278
 20
127.5978452527
 30
0.0
 11
458.0951946278
 21
110.5978412527
 31
0.0
  0
LINE
  5
A2D
330
2
100
AcDbEntity
  8
0
100
AcDbLine
 10
485.0951946278
 20
126.5978452527
 30
0.0
 11
485.0951946278
 21
111.5978412527
 31
0.0
  0
LINE
  5
A2F
330
2
100
AcDbEntity
  8
0
100
AcDbLine
 10
485.0951946278
 20
116.5978412527
 30
0.0
 11
463.5951946278
 21
116.5978412527
 31
0.0
  0
LINE
  5
A30
330
2
100
AcDbEntity
  8
0
100
AcDbLine
 10
485.0951946278
 20
111.5978412527
 30
0.0
 11
458.0951946278
 21
111.5978412527
 31
0.0
  0
ARC
  5
A31
330
2
100
AcDbEntity
  8
0
100
AcDbCircle
 10
463.5951946278
 20
119.0978452527
 30
0.0
 40
2.5
100
AcDbArc
 50
180.0
 51
270.0
  0
ARC
  5
A32
330
2
100
AcDbEntity
  8
0
100
AcDbCircle
 10
455.0951946278
 20
100.0978372527
 30
0.0
 40
1.0
100
AcDbArc
 50
270.0
 51
0.0
  0
LINE
  5
A33
330
2
100
AcDbEntity
  8
0
100
AcDbLine
 10
456.0951946278
 20
110.5978412527
 30
0.0
 11
458.0951946278
 21
110.5978412527
 31
0.0
  0
LINE
  5
A34
330
2
100
AcDbEntity
  8
0
100
AcDbLine
 10
485.0951946278
 20
126.5978452527
 30
0.0
 11
458.0951946278
 21
126.5978452527
 31
0.0
  0
LINE
  5
A36
330
2
100
AcDbEntity
  8
0
100
AcDbLine
 10
485.0951946278
 20
121.5978452527
 30
0.0
 11
463.5951946278
 21
121.5978452527
 31
0.0
  0
ARC
  5
A37
330
2
100
AcDbEntity
  8
0
100
AcDbCircle
 10
455.0951946278
 20
138.0978452527
 30
0.0
 40
1.0
100
AcDbArc
 50
0.0
 51
90.0
  0
LINE
  5
A38
330
2
100
AcDbEntity
  8
0
100
AcDbLine
 10
456.0951946278
 20
127.5978452527
 30
0.0
 11
458.0951946278
 21
127.5978452527
 31
0.0
  0
LINE
  5
A39
330
2
100
AcDbEntity
  8
0
100
AcDbLine
 10
189.0167664273
 20
268.634745929
 30
0.0
 11
269.0037664273
 21
268.634745929
 31
0.0
  0
LINE
  5
A3A
330
2
100
AcDbEntity
  8
0
100
AcDbLine
 10
238.5102664273
 20
252.634745929
 30
0.0
 11
267.7417874273
 21
252.634745929
 31
0.0
  0
LINE
  5
A3B
330
2
100
AcDbEntity
  8
0
100
AcDbLine
 10
189.0167664273
 20
330.634745929
 30
0.0
 11
269.0037664273
 21
330.634745929
 31
0.0
  0
LINE
  5
A3C
330
2
100
AcDbEntity
  8
0
100
AcDbLine
 10
238.5102664273
 20
346.634729929
 30
0.0
 11
267.7417874273
 21
346.634729929
 31
0.0
  0
LINE
  5
A3D
330
2
100
AcDbEntity
  8
0
100
AcDbLine
 10
189.9299444273
 20
278.634745929
 30
0.0
 11
189.9299444273
 21
320.635004929
 31
0.0
  0
LINE
  5
A3E
330
2
100
AcDbEntity
  8
0
100
AcDbLine
 10
214.0102664273
 20
328.669642929
 30
0.0
 11
214.0102664273
 21
270.599833929
 31
0.0
  0
LINE
  5
A3F
330
2
100
AcDbEntity
  8
0
100
AcDbLine
 10
244.0102664273
 20
328.669642929
 30
0.0
 11
244.0102664273
 21
270.599833929
 31
0.0
  0
LINE
  5
A40
330
2
100
AcDbEntity
  8
CENTER
100
AcDbLine
 10
229.0102664273
 20
370.634729929
 30
0.0
 11
229.0102664273
 21
228.634745929
 31
0.0
  0
LINE
  5
A41
330
2
100
AcDbEntity
  8
0
100
AcDbLine
 10
190.2786224273
 20
252.634745929
 30
0.0
 11
221.5102664273
 21
252.634745929
 31
0.0
  0
ARC
  5
A42
330
2
100
AcDbEntity
  8
0
100
AcDbCircle
 10
190.2786224273
 20
255.634745929
 30
0.0
 40
3.0
100
AcDbArc
 50
180.999847
 51
270.0
  0
LINE
  5
A43
330
2
100
AcDbEntity
  8
CENTER
100
AcDbLine
 10
195.0102664273
 20
265.5472154278
 30
0.0
 11
195.0102664273
 21
253.7222764301
 31
0.0
  0
ARC
  5
A44
330
2
100
AcDbEntity
  8
0
100
AcDbCircle
 10
189.0167664273
 20
270.634745929
 30
0.0
 40
2.0
100
AcDbArc
 50
181.0
 51
270.0
  0
ARC
  5
A45
330
2
100
AcDbEntity
  8
0
100
AcDbCircle
 10
188.0102584273
 20
267.282587929
 30
0.0
 40
1.5
100
AcDbArc
 50
73.287354
 51
180.0
  0
ARC
  5
A46
330
2
100
AcDbEntity
  8
0
100
AcDbCircle
 10
184.5102584273
 20
263.634745929
 30
0.0
 40
2.0
100
AcDbArc
 50
270.0
 51
0.0
  0
LINE
  5
A47
330
2
100
AcDbEntity
  8
0
100
AcDbLine
 10
186.5102584273
 20
263.634745929
 30
0.0
 11
186.5102584273
 21
267.282587929
 31
0.0
  0
LINE
  5
A48
330
2
100
AcDbEntity
  8
0
100
AcDbLine
 10
187.0169874273
 20
270.599833929
 30
0.0
 11
186.9116644273
 21
276.634745929
 31
0.0
  0
LINE
  5
A49
330
2
100
AcDbEntity
  8
0
100
AcDbLine
 10
187.2790804273
 20
255.582392929
 30
0.0
 11
187.0547074273
 21
268.438837929
 31
0.0
  0
LINE
  5
A4A
330
2
100
AcDbEntity
  8
CENTER
100
AcDbLine
 10
200.9227359261
 20
259.634745929
 30
0.0
 11
189.0977969285
 21
259.634745929
 31
0.0
  0
CIRCLE
  5
A4B
330
2
100
AcDbEntity
  8
0
100
AcDbCircle
 10
195.0102584273
 20
259.634745929
 30
0.0
 40
3.25
  0
LINE
  5
A4C
330
2
100
AcDbEntity
  8
0
100
AcDbLine
 10
248.0102664273
 20
264.634745929
 30
0.0
 11
210.0102584273
 21
264.634745929
 31
0.0
  0
LINE
  5
A4D
330
2
100
AcDbEntity
  8
0
100
AcDbLine
 10
220.5102664273
 20
262.634745929
 30
0.0
 11
237.5102664273
 21
262.634745929
 31
0.0
  0
LINE
  5
A4E
330
2
100
AcDbEntity
  8
0
100
AcDbLine
 10
221.5102664273
 20
235.634745929
 30
0.0
 11
238.5102664273
 21
235.634745929
 31
0.0
  0
LINE
  5
A4F
330
2
100
AcDbEntity
  8
0
100
AcDbLine
 10
221.5102664273
 20
235.634745929
 30
0.0
 11
221.5102664273
 21
262.634745929
 31
0.0
  0
ARC
  5
A50
330
2
100
AcDbEntity
  8
0
100
AcDbCircle
 10
210.0102584273
 20
265.634745929
 30
0.0
 40
1.0
100
AcDbArc
 50
180.0
 51
270.0
  0
LINE
  5
A51
330
2
100
AcDbEntity
  8
0
100
AcDbLine
 10
209.0102584273
 20
265.634745929
 30
0.0
 11
209.0102584273
 21
266.6404027775
 31
0.0
  0
LINE
  5
A52
330
2
100
AcDbEntity
  8
0
100
AcDbLine
 10
220.5102664273
 20
262.634745929
 30
0.0
 11
220.5102664273
 21
264.634745929
 31
0.0
  0
LINE
  5
A53
330
2
100
AcDbEntity
  8
0
100
AcDbLine
 10
236.0812654273
 20
257.134745929
 30
0.0
 11
236.0812654273
 21
235.634745929
 31
0.0
  0
LINE
  5
A54
330
2
100
AcDbEntity
  8
0
100
AcDbLine
 10
238.5102664273
 20
257.134745929
 30
0.0
 11
238.5102664273
 21
235.634745929
 31
0.0
  0
LINE
  5
A55
330
2
100
AcDbEntity
  8
0
100
AcDbLine
 10
236.0812654273
 20
257.134745929
 30
0.0
 11
238.5102664273
 21
257.134745929
 31
0.0
  0
LINE
  5
A56
330
2
100
AcDbEntity
  8
0
100
AcDbLine
 10
236.5102664273
 20
257.134745929
 30
0.0
 11
236.5102664273
 21
262.634745929
 31
0.0
  0
LINE
  5
A57
330
2
100
AcDbEntity
  8
0
100
AcDbLine
 10
237.5102664273
 20
262.634745929
 30
0.0
 11
237.5102664273
 21
264.634745929
 31
0.0
  0
ARC
  5
A58
330
2
100
AcDbEntity
  8
0
100
AcDbCircle
 10
248.0102664273
 20
265.634745929
 30
0.0
 40
1.0
100
AcDbArc
 50
270.0
 51
0.0
  0
LINE
  5
A59
330
2
100
AcDbEntity
  8
0
100
AcDbLine
 10
249.0102664273
 20
265.634745929
 30
0.0
 11
249.0102664273
 21
266.634745929
 31
0.0
  0
LINE
  5
A5A
330
2
100
AcDbEntity
  8
0
100
AcDbLine
 10
190.2786224273
 20
346.634729929
 30
0.0
 11
221.5102664273
 21
346.634729929
 31
0.0
  0
LINE
  5
A5B
330
2
100
AcDbEntity
  8
0
100
AcDbLine
 10
186.5102584273
 20
335.634745929
 30
0.0
 11
186.5102584273
 21
331.986902929
 31
0.0
  0
LINE
  5
A5C
330
2
100
AcDbEntity
  8
0
100
AcDbLine
 10
187.2790804273
 20
343.687098929
 30
0.0
 11
187.0547074273
 21
330.830652929
 31
0.0
  0
LINE
  5
A5D
330
2
100
AcDbEntity
  8
CENTER
100
AcDbLine
 10
195.0102664273
 20
345.5472154278
 30
0.0
 11
195.0102664273
 21
333.7222764301
 31
0.0
  0
ARC
  5
A5E
330
2
100
AcDbEntity
  8
0
100
AcDbCircle
 10
188.0102584273
 20
331.986902929
 30
0.0
 40
1.5
100
AcDbArc
 50
180.0
 51
286.712646
  0
ARC
  5
A5F
330
2
100
AcDbEntity
  8
0
100
AcDbCircle
 10
189.0167664273
 20
328.634745929
 30
0.0
 40
2.0
100
AcDbArc
 50
90.0
 51
179.0
  0
LINE
  5
A60
330
2
100
AcDbEntity
  8
0
100
AcDbLine
 10
187.0169874273
 20
328.669642929
 30
0.0
 11
186.9116644273
 21
322.634745929
 31
0.0
  0
ARC
  5
A61
330
2
100
AcDbEntity
  8
0
100
AcDbCircle
 10
190.2786224273
 20
343.634729929
 30
0.0
 40
3.0
100
AcDbArc
 50
90.0
 51
179.000153
  0
ARC
  5
A62
330
2
100
AcDbEntity
  8
0
100
AcDbCircle
 10
184.5102584273
 20
335.634745929
 30
0.0
 40
2.0
100
AcDbArc
 50
0.0
 51
90.0
  0
LINE
  5
A63
330
2
100
AcDbEntity
  8
CENTER
100
AcDbLine
 10
200.9227359261
 20
339.634745929
 30
0.0
 11
189.0977969285
 21
339.634745929
 31
0.0
  0
CIRCLE
  5
A64
330
2
100
AcDbEntity
  8
0
100
AcDbCircle
 10
195.0102584273
 20
339.634745929
 30
0.0
 40
3.25
  0
ARC
  5
A65
330
2
100
AcDbEntity
  8
0
100
AcDbCircle
 10
248.0102664273
 20
333.634745929
 30
0.0
 40
1.0
100
AcDbArc
 50
0.0
 51
90.0
  0
ARC
  5
A66
330
2
100
AcDbEntity
  8
0
100
AcDbCircle
 10
210.0102584273
 20
333.634745929
 30
0.0
 40
1.0
100
AcDbArc
 50
90.0
 51
180.0
  0
LINE
  5
A67
330
2
100
AcDbEntity
  8
0
100
AcDbLine
 10
209.0102584273
 20
333.634745929
 30
0.0
 11
209.0102584273
 21
332.6290890804
 31
0.0
  0
LINE
  5
A68
330
2
100
AcDbEntity
  8
0
100
AcDbLine
 10
249.0102664273
 20
333.634745929
 30
0.0
 11
249.0102664273
 21
332.634745929
 31
0.0
  0
LINE
  5
A69
330
2
100
AcDbEntity
  8
0
100
AcDbLine
 10
221.5102664273
 20
363.634729929
 30
0.0
 11
238.5102664273
 21
363.634729929
 31
0.0
  0
LINE
  5
A6A
330
2
100
AcDbEntity
  8
0
100
AcDbLine
 10
220.5102664273
 20
336.634745929
 30
0.0
 11
237.5102664273
 21
336.634745929
 31
0.0
  0
LINE
  5
A6B
330
2
100
AcDbEntity
  8
0
100
AcDbLine
 10
248.0102664273
 20
334.634745929
 30
0.0
 11
210.0102584273
 21
334.634745929
 31
0.0
  0
LINE
  5
A6C
330
2
100
AcDbEntity
  8
0
100
AcDbLine
 10
221.5102664273
 20
363.634729929
 30
0.0
 11
221.5102664273
 21
336.634745929
 31
0.0
  0
LINE
  5
A6D
330
2
100
AcDbEntity
  8
0
100
AcDbLine
 10
220.5102664273
 20
336.634745929
 30
0.0
 11
220.5102664273
 21
334.634745929
 31
0.0
  0
LINE
  5
A6E
330
2
100
AcDbEntity
  8
0
100
AcDbLine
 10
236.0812654273
 20
342.134745929
 30
0.0
 11
236.0812654273
 21
363.634729929
 31
0.0
  0
LINE
  5
A6F
330
2
100
AcDbEntity
  8
0
100
AcDbLine
 10
238.5102664273
 20
342.134745929
 30
0.0
 11
238.5102664273
 21
363.634729929
 31
0.0
  0
LINE
  5
A70
330
2
100
AcDbEntity
  8
0
100
AcDbLine
 10
236.5102664273
 20
342.134745929
 30
0.0
 11
236.5102664273
 21
336.634745929
 31
0.0
  0
LINE
  5
A71
330
2
100
AcDbEntity
  8
0
100
AcDbLine
 10
236.0812654273
 20
342.134745929
 30
0.0
 11
238.5102664273
 21
342.134745929
 31
0.0
  0
LINE
  5
A72
330
2
100
AcDbEntity
  8
0
100
AcDbLine
 10
237.5102664273
 20
336.634745929
 30
0.0
 11
237.5102664273
 21
334.634745929
 31
0.0
  0
LINE
  5
A73
330
2
100
AcDbEntity
  8
0
100
AcDbLine
 10
270.7413304273
 20
255.582377929
 30
0.0
 11
271.5102664273
 21
299.634745929
 31
0.0
  0
ARC
  5
A74
330
2
100
AcDbEntity
  8
0
100
AcDbCircle
 10
267.7417874273
 20
255.634745929
 30
0.0
 40
3.0
100
AcDbArc
 50
270.0
 51
359.0
  0
LINE
  5
A75
330
2
100
AcDbEntity
  8
CENTER
100
AcDbLine
 10
263.0102664273
 20
265.5472154278
 30
0.0
 11
263.0102664273
 21
253.7222764301
 31
0.0
  0
LINE
  5
A76
330
2
100
AcDbEntity
  8
CENTER
100
AcDbLine
 10
268.9227359261
 20
259.634745929
 30
0.0
 11
257.0977969285
 21
259.634745929
 31
0.0
  0
CIRCLE
  5
A77
330
2
100
AcDbEntity
  8
0
100
AcDbCircle
 10
263.0102664273
 20
259.634745929
 30
0.0
 40
3.25
  0
ARC
  5
A78
330
2
100
AcDbEntity
  8
0
100
AcDbCircle
 10
269.0037664273
 20
270.634745929
 30
0.0
 40
2.0
100
AcDbArc
 50
270.0
 51
359.0
  0
LINE
  5
A79
330
2
100
AcDbEntity
  8
CENTER
100
AcDbLine
 10
263.0102664273
 20
345.5472154278
 30
0.0
 11
263.0102664273
 21
333.7222764301
 31
0.0
  0
LINE
  5
A7A
330
2
100
AcDbEntity
  8
0
100
AcDbLine
 10
270.7413304273
 20
343.687098929
 30
0.0
 11
271.5102664273
 21
299.634745929
 31
0.0
  0
ARC
  5
A7B
330
2
100
AcDbEntity
  8
0
100
AcDbCircle
 10
269.0037664273
 20
328.634745929
 30
0.0
 40
2.0
100
AcDbArc
 50
1.0
 51
90.0
  0
LINE
  5
A7C
330
2
100
AcDbEntity
  8
CENTER
100
AcDbLine
 10
268.9227359261
 20
339.634745929
 30
0.0
 11
257.0977969285
 21
339.634745929
 31
0.0
  0
CIRCLE
  5
A7D
330
2
100
AcDbEntity
  8
0
100
AcDbCircle
 10
263.0102664273
 20
339.634745929
 30
0.0
 40
3.25
  0
ARC
  5
A7E
330
2
100
AcDbEntity
  8
0
100
AcDbCircle
 10
267.7417874273
 20
343.634729929
 30
0.0
 40
3.0
100
AcDbArc
 50
1.0
 51
90.0
  0
TEXT
  5
A7F
330
2
100
AcDbEntity
  8
TITLE
100
AcDbText
 10
361.0293571507
 20
277.256000406
 30
0.0
 40
5.0
  1
HLW-15T-10~240-S25
100
AcDbText
  0
TEXT
  5
A80
330
2
100
AcDbEntity
  8
TITLE
100
AcDbText
 10
361.0293571507
 20
285.256000406
 30
0.0
 40
5.0
  1
HLW-15T-10~240-S15
100
AcDbText
  0
TEXT
  5
A81
330
2
100
AcDbEntity
  8
TITLE
100
AcDbText
 10
361.0293571507
 20
293.256000406
 30
0.0
 40
5.0
  1
HLW-15T-10~120-T40
100
AcDbText
  0
TEXT
  5
A82
330
2
100
AcDbEntity
  8
TITLE
100
AcDbText
 10
361.0293571507
 20
309.256000406
 30
0.0
 40
5.0
  1
HLW-15T-10~240-T15
100
AcDbText
  0
TEXT
  5
A83
330
2
100
AcDbEntity
  8
TITLE
100
AcDbText
 10
361.0293571507
 20
301.256000406
 30
0.0
 40
5.0
  1
HLW-15T-10~240-T25
100
AcDbText
  0
ARC
  5
10D5
330
2
100
AcDbEntity
  8
0
100
AcDbCircle
 10
454.0951946278
 20
141.0978452527
 30
0.0
 40
2.0
100
AcDbArc
 50
180.0
 51
270.0
  0
ARC
  5
10D6
330
2
100
AcDbEntity
  8
0
100
AcDbCircle
 10
454.0951946278
 20
97.0978452527
 30
0.0
 40
2.0
100
AcDbArc
 50
90.0
 51
180.0
  0
ARC
  5
10D7
330
2
100
AcDbEntity
  8
0
100
AcDbCircle
 10
388.0951946278
 20
97.0978452527
 30
0.0
 40
2.0
100
AcDbArc
 50
0.0
 51
90.0
  0
ARC
  5
10D8
330
2
100
AcDbEntity
  8
0
100
AcDbCircle
 10
388.0951946278
 20
141.0978452527
 30
0.0
 40
2.0
100
AcDbArc
 50
270.0
 51
0.0
  0
ARC
  5
10DE
330
2
100
AcDbEntity
  8
0
100
AcDbCircle
 10
251.0102664273
 20
332.634745929
 30
0.0
 40
2.0
100
AcDbArc
 50
180.0
 51
270.0
  0
ARC
  5
10E0
330
2
100
AcDbEntity
  8
0
100
AcDbCircle
 10
251.0102664273
 20
266.634745929
 30
0.0
 40
2.0
100
AcDbArc
 50
90.0
 51
180.0
  0
ARC
  5
10E1
330
2
100
AcDbEntity
  8
0
100
AcDbCircle
 10
207.0102664273
 20
266.634745929
 30
0.0
 40
2.0
100
AcDbArc
 50
0.0
 51
90.0
  0
ARC
  5
10E2
330
2
100
AcDbEntity
  8
0
100
AcDbCircle
 10
207.0102664273
 20
332.634745929
 30
0.0
 40
2.0
100
AcDbArc
 50
270.0
 51
0.0
  0
INSERT
  5
12B0
330
2
100
AcDbEntity
  8
0
100
AcDbBlockReference
  2
G$C828323CB
 10
114.0102604273
 20
299.634745929
 30
0.0
  0
INSERT
  5
1327
330
2
100
AcDbEntity
  8
0
100
AcDbBlockReference
  2
G$C8ED97162
 10
114.0102604273
 20
96.7978422527
 30
0.0
  0
ENDSEC
  0
SECTION
  2
OBJECTS
  0
DICTIONARY
  5
7
330
0
100
AcDbDictionary
281
     1
  3
ACAD_CIP_PREVIOUS_PRODUCT_INFO
350
11D9
  3
ACAD_COLOR
350
110F
  3
ACAD_DETAILVIEWSTYLE
350
11D5
  3
ACAD_GROUP
350
75
  3
ACAD_LAYOUT
350
61
  3
ACAD_MATERIAL
350
10E5
  3
ACAD_MLEADERSTYLE
350
1134
  3
ACAD_MLINESTYLE
350
76
  3
ACAD_PLOTSETTINGS
350
77
  3
ACAD_PLOTSTYLENAME
350
6
  3
ACAD_SCALELIST
350
1112
  3
ACAD_SECTIONVIEWSTYLE
350
11D3
  3
ACAD_TABLESTYLE
350
1110
  3
ACAD_VISUALSTYLE
350
10FE
  3
AcadDim
350
480
  3
ACDB_RECOMPOSE_DATA
350
142C
  3
AcDbVariableDictionary
350
102
  3
DWGPROPS
350
142D
  0
DICTIONARY
  5
1163
330
6E
100
AcDbDictionary
280
     1
281
     1
  0
DICTIONARY
  5
12A9
330
66
100
AcDbDictionary
280
     1
281
     1
  3
ACAD_LAYERSTATES
360
12AA
  0
DICTIONARY
  5
1139
330
5E
100
AcDbDictionary
280
     1
281
     1
  3
ADSK_XREC_LAYER_RECONCILED
360
113A
  0
DICTIONARY
  5
113B
330
3E
100
AcDbDictionary
280
     1
281
     1
  3
ADSK_XREC_LAYER_RECONCILED
360
113C
  0
DICTIONARY
  5
1141
330
2B5
100
AcDbDictionary
280
     1
281
     1
  3
ADSK_XREC_LAYER_RECONCILED
360
1142
  0
DICTIONARY
  5
1143
330
2BA
100
AcDbDictionary
280
     1
281
     1
  3
ADSK_XREC_LAYER_RECONCILED
360
1144
  0
DICTIONARY
  5
1147
330
3FA
100
AcDbDictionary
280
     1
281
     1
  3
ADSK_XREC_LAYER_RECONCILED
360
1148
  0
DICTIONARY
  5
1242
330
1241
100
AcDbDictionary
280
     1
281
     1
  3
ACAD_SORTENTS
360
1243
  0
DICTIONARY
  5
1259
330
1258
100
AcDbDictionary
280
     1
281
     1
  3
ACAD_SORTENTS
360
125A
  0
DICTIONARY
  5
12B2
330
12B1
100
AcDbDictionary
280
     1
281
     1
  3
ACAD_SORTENTS
360
12B3
  0
XRECORD
  5
11D9
102
{ACAD_REACTORS
330
7
102
}
330
7
100
AcDbXrecord
280
     1
300
ACD
300
2020
300
87224ACD_2020_0F
  0
DICTIONARY
  5
110F
102
{ACAD_REACTORS
330
7
102
}
330
7
100
AcDbDictionary
281
     1
  0
DICTIONARY
  5
11D5
102
{ACAD_REACTORS
330
7
102
}
330
7
100
AcDbDictionary
281
     1
  3
Imperial24
350
11D6
  0
DICTIONARY
  5
75
102
{ACAD_REACTORS
330
7
102
}
330
7
100
AcDbDictionary
281
     1
  0
DICTIONARY
  5
61
102
{ACAD_REACTORS
330
7
102
}
330
7
100
AcDbDictionary
281
     1
  3
Model
350
60
  3
レイアウト1
350
1426
  0
DICTIONARY
  5
10E5
102
{ACAD_REACTORS
330
7
102
}
330
7
100
AcDbDictionary
281
     1
  3
ByBlock
350
10EE
  3
ByLayer
350
10E6
  3
Global
350
10F6
  0
DICTIONARY
  5
1134
102
{ACAD_REACTORS
330
7
102
}
330
7
100
AcDbDictionary
281
     1
  3
Standard
350
1135
  0
DICTIONARY
  5
76
102
{ACAD_REACTORS
330
7
102
}
330
7
100
AcDbDictionary
281
     1
  3
STANDARD
350
78
  0
DICTIONARY
  5
77
102
{ACAD_REACTORS
330
7
102
}
330
7
100
AcDbDictionary
281
     1
  0
ACDBDICTIONARYWDFLT
  5
6
102
{ACAD_REACTORS
330
7
102
}
330
7
100
AcDbDictionary
281
     1
  3
Normal
350
5
100
AcDbDictionaryWithDefault
340
5
  0
DICTIONARY
  5
1112
102
{ACAD_REACTORS
330
7
102
}
330
7
100
AcDbDictionary
281
     1
  3
A0
350
1113
  3
A1
350
1114
  3
A2
350
1115
  3
A3
350
1116
  3
A4
350
1117
  3
A5
350
1118
  3
A6
350
1119
  3
A7
350
111A
  3
A8
350
111B
  3
A9
350
111C
  3
B0
350
111D
  3
B1
350
111E
  3
B2
350
111F
  3
B3
350
1120
  3
B4
350
1121
  3
B5
350
1122
  3
B6
350
1123
  3
B7
350
1124
  3
B8
350
1125
  3
B9
350
1126
  3
C0
350
1127
  3
C1
350
1128
  3
C2
350
1129
  3
C3
350
112A
  3
C4
350
112B
  3
C5
350
112C
  3
C6
350
112D
  3
C7
350
112E
  3
C8
350
112F
  3
C9
350
1130
  3
D0
350
1131
  3
D1
350
1132
  3
D2
350
1133
  0
DICTIONARY
  5
11D3
102
{ACAD_REACTORS
330
7
102
}
330
7
100
AcDbDictionary
281
     1
  3
Imperial24
350
11D4
  0
DICTIONARY
  5
1110
102
{ACAD_REACTORS
330
7
102
}
330
7
100
AcDbDictionary
281
     1
  3
Standard
350
1111
  0
DICTIONARY
  5
10FE
102
{ACAD_REACTORS
330
7
102
}
330
7
100
AcDbDictionary
281
     1
  3
2dWireframe
350
1104
  3
3D Hidden
350
1106
  3
3dWireframe
350
1105
  3
Basic
350
1103
  3
Brighten
350
110A
  3
ColorChange
350
110E
  3
Conceptual
350
1107
  3
Dim
350
1109
  3
EdgeColorOff
350
11D2
  3
Facepattern
350
110D
  3
Flat
350
10FF
  3
FlatWithEdges
350
1100
  3
Gouraud
350
1101
  3
GouraudWithEdges
350
1102
  3
Hidden
350
11CA
  3
JitterOff
350
11D0
  3
Linepattern
350
110C
  3
OverhangOff
350
11D1
  3
Realistic
350
1108
  3
Shaded
350
11CF
  3
Shaded with edges
350
11CE
  3
Shades of Gray
350
11CB
  3
Sketchy
350
11CC
  3
Thicken
350
110B
  3
Wireframe
350
11C9
  3
X-Ray
350
11CD
  0
XRECORD
  5
480
102
{ACAD_REACTORS
330
7
102
}
330
7
100
AcDbXrecord
280
     1
 90
   990106
  3

 60
     0
 61
     0
 62
     1
 63
     3
 64
     1
 65
     0
 66
     0
 67
     3
 68
     1
 69
     0
 70
     0
 71
     0
 72
     0
 40
0.0
170
     2
340
0
  0
XRECORD
  5
142C
102
{ACAD_REACTORS
330
7
102
}
330
7
100
AcDbXrecord
280
     1
 90
        1
330
1111
  0
DICTIONARY
  5
102
102
{ACAD_REACTORS
330
7
102
}
330
7
100
AcDbDictionary
281
     1
  3
CANNOSCALE
350
114B
  3
CMLEADERSTYLE
350
114A
  3
CTABLESTYLE
350
1149
  3
CVIEWDETAILSTYLE
350
123B
  3
CVIEWSECTIONSTYLE
350
123C
  3
DIMASSOC
350
103
  3
INDEXCTL
350
118A
  3
SORTENTS
350
1189
  3
XCLIPFRAME
350
142A
  0
XRECORD
  5
142D
102
{ACAD_REACTORS
330
7
102
}
330
7
100
AcDbXrecord
280
     1
  1
DWGPROPS COOKIE
  2

  3

  4

  6

  7

  8
ykitaga
  9

300
=
301
=
302
=
303
=
304
=
305
=
306
=
307
=
308
=
309
=
 40
0.1961378472
 41
2453761.463043982
 42
2460516.514525463
  1

 90
        0
  0
DICTIONARY
  5
12AA
102
{ACAD_REACTORS
330
12A9
102
}
330
12A9
100
AcDbDictionary
281
     1
  0
XRECORD
  5
113A
102
{ACAD_REACTORS
330
1139
102
}
330
1139
100
AcDbXrecord
280
     1
290
     1
  0
XRECORD
  5
113C
102
{ACAD_REACTORS
330
113B
102
}
330
113B
100
AcDbXrecord
280
     1
290
     1
  0
XRECORD
  5
1142
102
{ACAD_REACTORS
330
1141
102
}
330
1141
100
AcDbXrecord
280
     1
290
     1
  0
XRECORD
  5
1144
102
{ACAD_REACTORS
330
1143
102
}
330
1143
100
AcDbXrecord
280
     1
290
     1
  0
XRECORD
  5
1148
102
{ACAD_REACTORS
330
1147
102
}
330
1147
100
AcDbXrecord
280
     1
290
     1
  0
SORTENTSTABLE
  5
1243
102
{ACAD_REACTORS
330
1242
102
}
330
1242
100
AcDbSortentsTable
330
1241
  0
SORTENTSTABLE
  5
125A
102
{ACAD_REACTORS
330
1259
102
}
330
1259
100
AcDbSortentsTable
330
1258
  0
SORTENTSTABLE
  5
12B3
102
{ACAD_REACTORS
330
12B2
102
}
330
12B2
100
AcDbSortentsTable
330
12B1
  0
ACDBDETAILVIEWSTYLE
  5
11D6
102
{ACAD_XDICTIONARY
360
147E
102
}
102
{ACAD_REACTORS
330
11D5
102
}
330
11D5
100
AcDbModelDocViewStyle
 70
     0
  3
Imperial24
290
     0
100
AcDbDetailViewStyle
 70
     0
 71
     0
 90
        3
 71
     1
340
16
 40
0.24
340
0
 40
0.24
300

 40
0.36
280
     3
 71
     2
340
8
 90
       25
 71
     3
340
16
 40
0.24
 90
        1
 40
0.75
 90
        1
300
%<\AcVar ViewType \f "%tc1">% %<\AcVar ViewDetailId>%\PSCALE %<\AcVar ViewScale \f "%sn">%
 71
     4
340
8
 90
       25
340
8
 90
       25
280
     0
  0
LAYOUT
  5
60
102
{ACAD_XDICTIONARY
360
142E
102
}
102
{ACAD_REACTORS
330
61
102
}
330
61
100
AcDbPlotSettings
  1

  2
Canon LBP-1420
  4
A4
  6

 40
5.873749733
 41
5.8737478256
 42
5.8737487793
 43
5.8737487793
 44
209.9733276367
 45
296.925994873
 46
0.0
 47
5.37
 48
0.0
 49
0.0
140
0.0
141
0.0
142
1.0
143
0.088099941
 70
 11956
 72
     1
 73
     1
 74
     1
  7
Sekkei.ctb
 75
     0
147
11.3507453947
148
-88.9740150773
149
-101.3630682339
100
AcDbLayout
  1
Model
 70
     1
 71
     0
 10
0.0
 20
0.0
 11
12.0
 21
9.0
 12
0.0
 22
0.0
 32
0.0
 14
0.0
 24
0.0
 34
0.0
 15
0.0
 25
0.0
 35
0.0
146
0.0
 13
0.0
 23
0.0
 33
0.0
 16
1.0
 26
0.0
 36
0.0
 17
0.0
 27
1.0
 37
0.0
 76
     0
330
2
331
10E3
  0
LAYOUT
  5
1426
102
{ACAD_XDICTIONARY
360
1480
102
}
102
{ACAD_REACTORS
330
61
102
}
330
61
100
AcDbPlotSettings
  1

  2
LBP8610
  4

  6

 40
0.0
 41
0.0
 42
0.0
 43
0.0
 44
0.0
 45
0.0
 46
0.0
 47
0.0
 48
0.0
 49
0.0
140
0.0
141
0.0
142
1.0
143
1.0
 70
   688
 72
     0
 73
     0
 74
     5
  7

 75
    16
147
1.0
148
0.0
149
0.0
100
AcDbLayout
  1
レイアウト1
 70
     1
 71
     1
 10
0.0
 20
0.0
 11
12.0
 21
9.0
 12
0.0
 22
0.0
 32
0.0
 14
0.0
 24
0.0
 34
0.0
 15
0.0
 25
0.0
 35
0.0
146
0.0
 13
0.0
 23
0.0
 33
0.0
 16
1.0
 26
0.0
 36
0.0
 17
0.0
 27
1.0
 37
0.0
 76
     0
330
1425
  0
MATERIAL
  5
10EE
102
{ACAD_XDICTIONARY
360
10EF
102
}
102
{ACAD_REACTORS
330
10E5
102
}
330
10E5
100
AcDbMaterial
  1
ByBlock
 72
     0
 43
0.0208333333
 43
0.0
 43
0.0
 43
0.0
 43
0.0
 43
0.0208333333
 43
0.0
 43
0.0
 43
0.0
 43
0.0
 43
1.0
 43
0.0
 43
0.0
 43
0.0
 43
0.0
 43
1.0
 77
     0
 47
0.0208333333
 47
0.0
 47
0.0
 47
0.0
 47
0.0
 47
0.0208333333
 47
0.0
 47
0.0
 47
0.0
 47
0.0
 47
1.0
 47
0.0
 47
0.0
 47
0.0
 47
0.0
 47
1.0
171
     0
 49
0.0208333333
 49
0.0
 49
0.0
 49
0.0
 49
0.0
 49
0.0208333333
 49
0.0
 49
0.0
 49
0.0
 49
0.0
 49
1.0
 49
0.0
 49
0.0
 49
0.0
 49
0.0
 49
1.0
175
     0
142
0.0208333333
142
0.0
142
0.0
142
0.0
142
0.0
142
0.0208333333
142
0.0
142
0.0
142
0.0
142
0.0
142
1.0
142
0.0
142
0.0
142
0.0
142
0.0
142
1.0
179
     0
144
0.0208333333
144
0.0
144
0.0
144
0.0
144
0.0
144
0.0208333333
144
0.0
144
0.0
144
0.0
144
0.0
144
1.0
144
0.0
144
0.0
144
0.0
144
0.0
144
1.0
147
0.0208333333
147
0.0
147
0.0
147
0.0
147
0.0
147
0.0208333333
147
0.0
147
0.0
147
0.0
147
0.0
147
1.0
147
0.0
147
0.0
147
0.0
147
0.0
147
1.0
  0
MATERIAL
  5
10E6
102
{ACAD_XDICTIONARY
360
10E7
102
}
102
{ACAD_REACTORS
330
10E5
102
}
330
10E5
100
AcDbMaterial
  1
ByLayer
 72
     0
 43
0.0208333333
 43
0.0
 43
0.0
 43
0.0
 43
0.0
 43
0.0208333333
 43
0.0
 43
0.0
 43
0.0
 43
0.0
 43
1.0
 43
0.0
 43
0.0
 43
0.0
 43
0.0
 43
1.0
 77
     0
 47
0.0208333333
 47
0.0
 47
0.0
 47
0.0
 47
0.0
 47
0.0208333333
 47
0.0
 47
0.0
 47
0.0
 47
0.0
 47
1.0
 47
0.0
 47
0.0
 47
0.0
 47
0.0
 47
1.0
171
     0
 49
0.0208333333
 49
0.0
 49
0.0
 49
0.0
 49
0.0
 49
0.0208333333
 49
0.0
 49
0.0
 49
0.0
 49
0.0
 49
1.0
 49
0.0
 49
0.0
 49
0.0
 49
0.0
 49
1.0
175
     0
142
0.0208333333
142
0.0
142
0.0
142
0.0
142
0.0
142
0.0208333333
142
0.0
142
0.0
142
0.0
142
0.0
142
1.0
142
0.0
142
0.0
142
0.0
142
0.0
142
1.0
179
     0
144
0.0208333333
144
0.0
144
0.0
144
0.0
144
0.0
144
0.0208333333
144
0.0
144
0.0
144
0.0
144
0.0
144
1.0
144
0.0
144
0.0
144
0.0
144
0.0
144
1.0
147
0.0208333333
147
0.0
147
0.0
147
0.0
147
0.0
147
0.0208333333
147
0.0
147
0.0
147
0.0
147
0.0
147
1.0
147
0.0
147
0.0
147
0.0
147
0.0
147
1.0
  0
MATERIAL
  5
10F6
102
{ACAD_XDICTIONARY
360
10F7
102
}
102
{ACAD_REACTORS
330
10E5
102
}
330
10E5
100
AcDbMaterial
  1
Global
 72
     0
 43
0.0208333333
 43
0.0
 43
0.0
 43
0.0
 43
0.0
 43
0.0208333333
 43
0.0
 43
0.0
 43
0.0
 43
0.0
 43
1.0
 43
0.0
 43
0.0
 43
0.0
 43
0.0
 43
1.0
 77
     0
 47
0.0208333333
 47
0.0
 47
0.0
 47
0.0
 47
0.0
 47
0.0208333333
 47
0.0
 47
0.0
 47
0.0
 47
0.0
 47
1.0
 47
0.0
 47
0.0
 47
0.0
 47
0.0
 47
1.0
171
     0
 49
0.0208333333
 49
0.0
 49
0.0
 49
0.0
 49
0.0
 49
0.0208333333
 49
0.0
 49
0.0
 49
0.0
 49
0.0
 49
1.0
 49
0.0
 49
0.0
 49
0.0
 49
0.0
 49
1.0
175
     0
142
0.0208333333
142
0.0
142
0.0
142
0.0
142
0.0
142
0.0208333333
142
0.0
142
0.0
142
0.0
142
0.0
142
1.0
142
0.0
142
0.0
142
0.0
142
0.0
142
1.0
179
     0
144
0.0208333333
144
0.0
144
0.0
144
0.0
144
0.0
144
0.0208333333
144
0.0
144
0.0
144
0.0
144
0.0
144
1.0
144
0.0
144
0.0
144
0.0
144
0.0
144
1.0
147
0.0208333333
147
0.0
147
0.0
147
0.0
147
0.0
147
0.0208333333
147
0.0
147
0.0
147
0.0
147
0.0
147
1.0
147
0.0
147
0.0
147
0.0
147
0.0
147
1.0
  0
MLEADERSTYLE
  5
1135
102
{ACAD_REACTORS
330
1134
102
}
330
1134
100
AcDbMLeaderStyle
170
     2
171
     1
172
     0
 90
        2
 40
0.0
 41
0.0
173
     1
 91
-1056964608
340
6A
 92
       -2
290
     1
 42
0.09
291
     1
 43
0.36
  3
Standard
 44
0.18
300

342
16
174
     1
178
     6
175
     1
176
     0
 93
-1056964608
 45
0.18
292
     0
297
     0
 46
0.18
 94
-1056964608
 47
1.0
 49
1.0
140
1.0
293
     1
141
0.0
294
     1
177
     0
142
1.0
295
     0
296
     0
143
0.125
1001
ACAD_MLEADERVER
1070
     2
  0
MLINESTYLE
  5
78
102
{ACAD_REACTORS
330
76
102
}
330
76
100
AcDbMlineStyle
  2
STANDARD
 70
     0
  3

 62
     0
 51
90.0
 52
90.0
 71
     2
 49
0.5
 62
   256
  6
BYLAYER
 49
-0.5
 62
   256
  6
BYLAYER
  0
ACDBPLACEHOLDER
  5
5
102
{ACAD_REACTORS
330
6
102
}
330
6
  0
SCALE
  5
1113
102
{ACAD_REACTORS
330
1112
102
}
330
1112
100
AcDbScale
 70
     0
300
1:1
140
1.0
141
1.0
290
     1
  0
SCALE
  5
1114
102
{ACAD_REACTORS
330
1112
102
}
330
1112
100
AcDbScale
 70
     0
300
1:2
140
1.0
141
2.0
290
     0
  0
SCALE
  5
1115
102
{ACAD_REACTORS
330
1112
102
}
330
1112
100
AcDbScale
 70
     0
300
1:4
140
1.0
141
4.0
290
     0
  0
SCALE
  5
1116
102
{ACAD_REACTORS
330
1112
102
}
330
1112
100
AcDbScale
 70
     0
300
1:5
140
1.0
141
5.0
290
     0
  0
SCALE
  5
1117
102
{ACAD_REACTORS
330
1112
102
}
330
1112
100
AcDbScale
 70
     0
300
1:8
140
1.0
141
8.0
290
     0
  0
SCALE
  5
1118
102
{ACAD_REACTORS
330
1112
102
}
330
1112
100
AcDbScale
 70
     0
300
1:10
140
1.0
141
10.0
290
     0
  0
SCALE
  5
1119
102
{ACAD_REACTORS
330
1112
102
}
330
1112
100
AcDbScale
 70
     0
300
1:16
140
1.0
141
16.0
290
     0
  0
SCALE
  5
111A
102
{ACAD_REACTORS
330
1112
102
}
330
1112
100
AcDbScale
 70
     0
300
1:20
140
1.0
141
20.0
290
     0
  0
SCALE
  5
111B
102
{ACAD_REACTORS
330
1112
102
}
330
1112
100
AcDbScale
 70
     0
300
1:30
140
1.0
141
30.0
290
     0
  0
SCALE
  5
111C
102
{ACAD_REACTORS
330
1112
102
}
330
1112
100
AcDbScale
 70
     0
300
1:40
140
1.0
141
40.0
290
     0
  0
SCALE
  5
111D
102
{ACAD_REACTORS
330
1112
102
}
330
1112
100
AcDbScale
 70
     0
300
1:50
140
1.0
141
50.0
290
     0
  0
SCALE
  5
111E
102
{ACAD_REACTORS
330
1112
102
}
330
1112
100
AcDbScale
 70
     0
300
1:100
140
1.0
141
100.0
290
     0
  0
SCALE
  5
111F
102
{ACAD_REACTORS
330
1112
102
}
330
1112
100
AcDbScale
 70
     0
300
2:1
140
2.0
141
1.0
290
     0
  0
SCALE
  5
1120
102
{ACAD_REACTORS
330
1112
102
}
330
1112
100
AcDbScale
 70
     0
300
4:1
140
4.0
141
1.0
290
     0
  0
SCALE
  5
1121
102
{ACAD_REACTORS
330
1112
102
}
330
1112
100
AcDbScale
 70
     0
300
8:1
140
8.0
141
1.0
290
     0
  0
SCALE
  5
1122
102
{ACAD_REACTORS
330
1112
102
}
330
1112
100
AcDbScale
 70
     0
300
10:1
140
10.0
141
1.0
290
     0
  0
SCALE
  5
1123
102
{ACAD_REACTORS
330
1112
102
}
330
1112
100
AcDbScale
 70
     0
300
100:1
140
100.0
141
1.0
290
     0
  0
SCALE
  5
1124
102
{ACAD_REACTORS
330
1112
102
}
330
1112
100
AcDbScale
 70
     0
300
1/128" = 1'-0"
140
0.0078125
141
12.0
290
     0
  0
SCALE
  5
1125
102
{ACAD_REACTORS
330
1112
102
}
330
1112
100
AcDbScale
 70
     0
300
1/64" = 1'-0"
140
0.015625
141
12.0
290
     0
  0
SCALE
  5
1126
102
{ACAD_REACTORS
330
1112
102
}
330
1112
100
AcDbScale
 70
     0
300
1/32" = 1'-0"
140
0.03125
141
12.0
290
     0
  0
SCALE
  5
1127
102
{ACAD_REACTORS
330
1112
102
}
330
1112
100
AcDbScale
 70
     0
300
1/16" = 1'-0"
140
0.0625
141
12.0
290
     0
  0
SCALE
  5
1128
102
{ACAD_REACTORS
330
1112
102
}
330
1112
100
AcDbScale
 70
     0
300
3/32" = 1'-0"
140
0.09375
141
12.0
290
     0
  0
SCALE
  5
1129
102
{ACAD_REACTORS
330
1112
102
}
330
1112
100
AcDbScale
 70
     0
300
1/8" = 1'-0"
140
0.125
141
12.0
290
     0
  0
SCALE
  5
112A
102
{ACAD_REACTORS
330
1112
102
}
330
1112
100
AcDbScale
 70
     0
300
3/16" = 1'-0"
140
0.1875
141
12.0
290
     0
  0
SCALE
  5
112B
102
{ACAD_REACTORS
330
1112
102
}
330
1112
100
AcDbScale
 70
     0
300
1/4" = 1'-0"
140
0.25
141
12.0
290
     0
  0
SCALE
  5
112C
102
{ACAD_REACTORS
330
1112
102
}
330
1112
100
AcDbScale
 70
     0
300
3/8" = 1'-0"
140
0.375
141
12.0
290
     0
  0
SCALE
  5
112D
102
{ACAD_REACTORS
330
1112
102
}
330
1112
100
AcDbScale
 70
     0
300
1/2" = 1'-0"
140
0.5
141
12.0
290
     0
  0
SCALE
  5
112E
102
{ACAD_REACTORS
330
1112
102
}
330
1112
100
AcDbScale
 70
     0
300
3/4" = 1'-0"
140
0.75
141
12.0
290
     0
  0
SCALE
  5
112F
102
{ACAD_REACTORS
330
1112
102
}
330
1112
100
AcDbScale
 70
     0
300
1" = 1'-0"
140
1.0
141
12.0
290
     0
  0
SCALE
  5
1130
102
{ACAD_REACTORS
330
1112
102
}
330
1112
100
AcDbScale
 70
     0
300
1-1/2" = 1'-0"
140
1.5
141
12.0
290
     0
  0
SCALE
  5
1131
102
{ACAD_REACTORS
330
1112
102
}
330
1112
100
AcDbScale
 70
     0
300
3" = 1'-0"
140
3.0
141
12.0
290
     0
  0
SCALE
  5
1132
102
{ACAD_REACTORS
330
1112
102
}
330
1112
100
AcDbScale
 70
     0
300
6" = 1'-0"
140
6.0
141
12.0
290
     0
  0
SCALE
  5
1133
102
{ACAD_REACTORS
330
1112
102
}
330
1112
100
AcDbScale
 70
     0
300
1'-0" = 1'-0"
140
12.0
141
12.0
290
     0
  0
ACDBSECTIONVIEWSTYLE
  5
11D4
102
{ACAD_XDICTIONARY
360
147C
102
}
102
{ACAD_REACTORS
330
11D3
102
}
330
11D3
100
AcDbModelDocViewStyle
 70
     0
  3
Imperial24
290
     0
100
AcDbSectionViewStyle
 70
     0
 71
     0
 90
       78
 71
     1
340
16
 40
0.24
340
0
340
0
 40
0.24
300
I, O, Q, S, X, Z
 40
0.48
 90
        3
 40
0.18
 90
        1
 71
     2
340
8
 90
       25
340
8
 90
       50
 40
0.24
 40
0.0
 40
0.24
 71
     3
340
16
 40
0.24
 90
        1
 40
0.75
 90
        1
300
%<\AcVar ViewType \f "%tc1">% %<\AcVar ViewSectionStartId>%-%<\AcVar ViewSectionEndId>%\PSCALE %<\AcVar ViewScale \f "%sn">%
 71
     4
300
ANSI31
 40
1.0
 90
        0
290
     0
290
     0
 90
        6
 40
0.0
 40
1.5707963268
 40
0.2617993878
 40
1.308996939
 40
-0.2617993878
 40
1.8325957146
  0
TABLESTYLE
  5
1111
102
{ACAD_XDICTIONARY
360
114C
102
}
102
{ACAD_REACTORS
330
1110
102
}
330
1110
100
AcDbTableStyle
  3
Standard
 70
     0
 71
     0
 40
0.06
 41
0.06
280
     0
281
     0
  7
STANDARD
140
0.18
170
     2
 62
     0
 63
     7
283
     0
274
    -2
284
     1
 64
     0
275
    -2
285
     1
 65
     0
276
    -2
286
     1
 66
     0
277
    -2
287
     1
 67
     0
278
    -2
288
     1
 68
     0
279
    -2
289
     1
 69
     0
  7
STANDARD
140
0.25
170
     5
 62
     0
 63
     7
283
     0
274
    -2
284
     1
 64
     0
275
    -2
285
     1
 65
     0
276
    -2
286
     1
 66
     0
277
    -2
287
     1
 67
     0
278
    -2
288
     1
 68
     0
279
    -2
289
     1
 69
     0
  7
STANDARD
140
0.18
170
     5
 62
     0
 63
     7
283
     0
274
    -2
284
     1
 64
     0
275
    -2
285
     1
 65
     0
276
    -2
286
     1
 66
     0
277
    -2
287
     1
 67
     0
278
    -2
288
     1
 68
     0
279
    -2
289
     1
 69
     0
  0
VISUALSTYLE
  5
1104
102
{ACAD_XDICTIONARY
360
1451
102
}
102
{ACAD_REACTORS
330
10FE
102
}
330
10FE
100
AcDbVisualStyle
  2
2dWireframe
 70
     4
 71
     0
 72
     2
 73
     0
 90
        0
 40
-0.6
 41
-30.0
 62
     5
 63
     7
 74
     1
 91
        4
 64
     7
 65
   257
 75
     1
175
     1
 42
1.0
 92
        0
 66
   257
 43
1.0
 76
     1
 77
     6
 78
     2
 67
     7
 79
     5
170
     0
171
     0
290
     0
174
     0
 93
        1
 44
0.0
173
     0
291
     0
 45
0.0
1001
ACAD
1000
AcDbSavedByObjectVersion
1070
     0
  0
VISUALSTYLE
  5
1106
102
{ACAD_XDICTIONARY
360
1455
102
}
102
{ACAD_REACTORS
330
10FE
102
}
330
10FE
100
AcDbVisualStyle
  2
3D Hidden
 70
     6
 71
     1
 72
     2
 73
     2
 90
        0
 40
-0.6
 41
-30.0
 62
     5
 63
     7
 74
     2
 91
        2
 64
     7
 65
   257
 75
     2
175
     1
 42
40.0
 92
        0
 66
   257
 43
1.0
 76
     1
 77
     6
 78
     2
 67
     7
 79
     3
170
     0
171
     0
290
     0
174
     0
 93
        1
 44
0.0
173
     0
291
     0
 45
0.0
1001
ACAD
1000
AcDbSavedByObjectVersion
1070
     0
  0
VISUALSTYLE
  5
1105
102
{ACAD_XDICTIONARY
360
1453
102
}
102
{ACAD_REACTORS
330
10FE
102
}
330
10FE
100
AcDbVisualStyle
  2
3dWireframe
 70
     5
 71
     0
 72
     2
 73
     0
 90
        0
 40
-0.6
 41
-30.0
 62
     5
 63
     7
 74
     1
 91
        4
 64
     7
 65
   257
 75
     1
175
     1
 42
1.0
 92
        0
 66
   257
 43
1.0
 76
     1
 77
     6
 78
     2
 67
     7
 79
     5
170
     0
171
     0
290
     0
174
     0
 93
        1
 44
0.0
173
     0
291
     0
 45
0.0
1001
ACAD
1000
AcDbSavedByObjectVersion
1070
     0
  0
VISUALSTYLE
  5
1103
102
{ACAD_XDICTIONARY
360
144F
102
}
102
{ACAD_REACTORS
330
10FE
102
}
330
10FE
100
AcDbVisualStyle
  2
Basic
 70
     7
 71
     1
 72
     0
 73
     1
 90
        0
 40
-0.6
 41
-30.0
 62
     5
 63
     7
 74
     0
 91
        4
 64
     7
 65
   257
 75
     1
175
     1
 42
1.0
 92
        8
 66
     7
 43
1.0
 76
     1
 77
     6
 78
     2
 67
     7
 79
     5
170
     0
171
     0
290
     0
174
     0
 93
        1
 44
0.0
173
     0
291
     1
 45
0.0
1001
ACAD
1000
AcDbSavedByObjectVersion
1070
     0
  0
VISUALSTYLE
  5
110A
102
{ACAD_XDICTIONARY
360
145D
102
}
102
{ACAD_REACTORS
330
10FE
102
}
330
10FE
100
AcDbVisualStyle
  2
Brighten
 70
    12
 71
     2
 72
     2
 73
     0
 90
        0
 40
-0.6
 41
-30.0
 62
     5
 63
     7
 74
     1
 91
        4
 64
     7
 65
   257
 75
     1
175
     1
 42
1.0
 92
        8
 66
     7
 43
1.0
 76
     1
 77
     6
 78
     2
 67
     7
 79
     5
170
     0
171
     0
290
     0
174
     0
 93
        1
 44
50.0
173
     0
291
     1
 45
0.0
1001
ACAD
1000
AcDbSavedByObjectVersion
1070
     0
  0
VISUALSTYLE
  5
110E
102
{ACAD_XDICTIONARY
360
1465
102
}
102
{ACAD_REACTORS
330
10FE
102
}
330
10FE
100
AcDbVisualStyle
  2
ColorChange
 70
    16
 71
     2
 72
     2
 73
     3
 90
        0
 40
-0.6
 41
-30.0
 62
     5
 63
     8
 74
     1
 91
        4
 64
     7
 65
   257
 75
     1
175
     1
 42
1.0
 92
        8
 66
     8
 43
1.0
 76
     1
 77
     6
 78
     2
 67
     7
 79
     5
170
     0
171
     0
290
     0
174
     0
 93
        1
 44
0.0
173
     0
291
     1
 45
0.0
1001
ACAD
1000
AcDbSavedByObjectVersion
1070
     0
  0
VISUALSTYLE
  5
1107
102
{ACAD_XDICTIONARY
360
1457
102
}
102
{ACAD_REACTORS
330
10FE
102
}
330
10FE
100
AcDbVisualStyle
  2
Conceptual
 70
     9
 71
     3
 72
     2
 73
     0
 90
        0
 40
-0.6
 41
-30.0
 62
     5
 63
     7
 74
     2
 91
        2
 64
     7
 65
   257
 75
     1
175
     1
 42
40.0
 92
        8
 66
     7
 43
1.0
 76
     1
 77
     6
 78
     2
 67
     7
 79
     3
170
     0
171
     0
290
     0
174
     0
 93
        1
 44
0.0
173
     0
291
     0
 45
0.0
1001
ACAD
1000
AcDbSavedByObjectVersion
1070
     0
  0
VISUALSTYLE
  5
1109
102
{ACAD_XDICTIONARY
360
145B
102
}
102
{ACAD_REACTORS
330
10FE
102
}
330
10FE
100
AcDbVisualStyle
  2
Dim
 70
    11
 71
     2
 72
     2
 73
     0
 90
        0
 40
-0.6
 41
-30.0
 62
     5
 63
     7
 74
     1
 91
        4
 64
     7
 65
   257
 75
     1
175
     1
 42
1.0
 92
        8
 66
     7
 43
1.0
 76
     1
 77
     6
 78
     2
 67
     7
 79
     5
170
     0
171
     0
290
     0
174
     0
 93
        1
 44
-50.0
173
     0
291
     1
 45
0.0
1001
ACAD
1000
AcDbSavedByObjectVersion
1070
     0
  0
VISUALSTYLE
  5
11D2
102
{ACAD_XDICTIONARY
360
147A
102
}
102
{ACAD_REACTORS
330
10FE
102
}
330
10FE
100
AcDbVisualStyle
  2
EdgeColorOff
 70
    22
 71
     2
 72
     2
 73
     0
 90
        0
 40
-0.6
 41
-30.0
 62
     5
 63
     7
 74
     1
 91
        4
 64
     7
 65
   257
 75
     1
175
     1
 42
1.0
 92
        8
 66
     7
 43
1.0
 76
     1
 77
     6
 78
     2
 67
     7
 79
     5
170
     0
171
     0
290
     0
174
     0
 93
        1
 44
0.0
173
     0
291
     1
 45
0.0
1001
ACAD
1000
AcDbSavedByObjectVersion
1070
     0
  0
VISUALSTYLE
  5
110D
102
{ACAD_XDICTIONARY
360
1463
102
}
102
{ACAD_REACTORS
330
10FE
102
}
330
10FE
100
AcDbVisualStyle
  2
Facepattern
 70
    15
 71
     2
 72
     2
 73
     0
 90
        0
 40
-0.6
 41
-30.0
 62
     5
 63
     7
 74
     1
 91
        4
 64
     7
 65
   257
 75
     1
175
     1
 42
1.0
 92
        8
 66
     7
 43
1.0
 76
     1
 77
     6
 78
     2
 67
     7
 79
     5
170
     0
171
     0
290
     0
174
     0
 93
        1
 44
0.0
173
     0
291
     1
 45
0.0
1001
ACAD
1000
AcDbSavedByObjectVersion
1070
     0
  0
VISUALSTYLE
  5
10FF
102
{ACAD_XDICTIONARY
360
1447
102
}
102
{ACAD_REACTORS
330
10FE
102
}
330
10FE
100
AcDbVisualStyle
  2
Flat
 70
     0
 71
     2
 72
     1
 73
     1
 90
        2
 40
-0.6
 41
30.0
 62
     5
 63
     7
 74
     0
 91
        4
 64
     7
 65
   257
 75
     1
175
     1
 42
1.0
 92
        8
 66
     7
 43
1.0
 76
     1
 77
     6
 78
     2
 67
     7
 79
     5
170
     0
171
     0
290
     0
174
     0
 93
       13
 44
0.0
173
     0
291
     1
 45
0.0
1001
ACAD
1000
AcDbSavedByObjectVersion
1070
     0
  0
VISUALSTYLE
  5
1100
102
{ACAD_XDICTIONARY
360
1449
102
}
102
{ACAD_REACTORS
330
10FE
102
}
330
10FE
100
AcDbVisualStyle
  2
FlatWithEdges
 70
     1
 71
     2
 72
     1
 73
     1
 90
        2
 40
-0.6
 41
30.0
 62
     5
 63
     7
 74
     1
 91
        4
 64
     7
 65
   257
 75
     1
175
     1
 42
1.0
 92
        0
 66
   257
 43
1.0
 76
     1
 77
     6
 78
     2
 67
     7
 79
     5
170
     0
171
     0
290
     0
174
     0
 93
       13
 44
0.0
173
     0
291
     1
 45
0.0
1001
ACAD
1000
AcDbSavedByObjectVersion
1070
     0
  0
VISUALSTYLE
  5
1101
102
{ACAD_XDICTIONARY
360
144B
102
}
102
{ACAD_REACTORS
330
10FE
102
}
330
10FE
100
AcDbVisualStyle
  2
Gouraud
 70
     2
 71
     2
 72
     2
 73
     1
 90
        2
 40
-0.6
 41
30.0
 62
     5
 63
     7
 74
     0
 91
        4
 64
     7
 65
   257
 75
     1
175
     1
 42
1.0
 92
        0
 66
     7
 43
1.0
 76
     1
 77
     6
 78
     2
 67
     7
 79
     5
170
     0
171
     0
290
     0
174
     0
 93
       13
 44
0.0
173
     0
291
     1
 45
0.0
1001
ACAD
1000
AcDbSavedByObjectVersion
1070
     0
  0
VISUALSTYLE
  5
1102
102
{ACAD_XDICTIONARY
360
144D
102
}
102
{ACAD_REACTORS
330
10FE
102
}
330
10FE
100
AcDbVisualStyle
  2
GouraudWithEdges
 70
     3
 71
     2
 72
     2
 73
     1
 90
        2
 40
-0.6
 41
30.0
 62
     5
 63
     7
 74
     1
 91
        4
 64
     7
 65
   257
 75
     1
175
     1
 42
1.0
 92
        0
 66
   257
 43
1.0
 76
     1
 77
     6
 78
     2
 67
     7
 79
     5
170
     0
171
     0
290
     0
174
     0
 93
       13
 44
0.0
173
     0
291
     1
 45
0.0
1001
ACAD
1000
AcDbSavedByObjectVersion
1070
     0
  0
VISUALSTYLE
  5
11CA
102
{ACAD_XDICTIONARY
360
146A
102
}
102
{ACAD_REACTORS
330
10FE
102
}
330
10FE
100
AcDbVisualStyle
  2
Hidden
 70
     6
 71
     1
 72
     2
 73
     2
 90
        0
 40
-0.6
 41
-30.0
 62
     5
 63
     7
 74
     2
 91
        2
 64
     7
 65
   257
 75
     2
175
     1
 42
40.0
 92
        0
 66
   257
 43
1.0
 76
     1
 77
     6
 78
     2
 67
     7
 79
     3
170
     0
171
     0
290
     0
174
     0
 93
        1
 44
0.0
173
     0
291
     0
 45
0.0
1001
ACAD
1000
AcDbSavedByObjectVersion
1070
     0
  0
VISUALSTYLE
  5
11D0
102
{ACAD_XDICTIONARY
360
1476
102
}
102
{ACAD_REACTORS
330
10FE
102
}
330
10FE
100
AcDbVisualStyle
  2
JitterOff
 70
    20
 71
     2
 72
     2
 73
     0
 90
        0
 40
-0.6
 41
-30.0
 62
     5
 63
     7
 74
     1
 91
        4
 64
     7
 65
   257
 75
     1
175
     1
 42
1.0
 92
       10
 66
     7
 43
1.0
 76
     1
 77
     6
 78
     2
 67
     7
 79
     5
170
     0
171
     0
290
     0
174
     0
 93
        1
 44
0.0
173
     0
291
     1
 45
0.0
1001
ACAD
1000
AcDbSavedByObjectVersion
1070
     0
  0
VISUALSTYLE
  5
110C
102
{ACAD_XDICTIONARY
360
1461
102
}
102
{ACAD_REACTORS
330
10FE
102
}
330
10FE
100
AcDbVisualStyle
  2
Linepattern
 70
    14
 71
     2
 72
     2
 73
     0
 90
        0
 40
-0.6
 41
-30.0
 62
     5
 63
     7
 74
     1
 91
        4
 64
     7
 65
   257
 75
     7
175
     7
 42
1.0
 92
        8
 66
     7
 43
1.0
 76
     1
 77
     6
 78
     2
 67
     7
 79
     5
170
     0
171
     0
290
     0
174
     0
 93
        1
 44
0.0
173
     0
291
     1
 45
0.0
1001
ACAD
1000
AcDbSavedByObjectVersion
1070
     0
  0
VISUALSTYLE
  5
11D1
102
{ACAD_XDICTIONARY
360
1478
102
}
102
{ACAD_REACTORS
330
10FE
102
}
330
10FE
100
AcDbVisualStyle
  2
OverhangOff
 70
    21
 71
     2
 72
     2
 73
     0
 90
        0
 40
-0.6
 41
-30.0
 62
     5
 63
     7
 74
     1
 91
        4
 64
     7
 65
   257
 75
     1
175
     1
 42
1.0
 92
        9
 66
     7
 43
1.0
 76
     1
 77
     6
 78
     2
 67
     7
 79
     5
170
     0
171
     0
290
     0
174
     0
 93
        1
 44
0.0
173
     0
291
     1
 45
0.0
1001
ACAD
1000
AcDbSavedByObjectVersion
1070
     0
  0
VISUALSTYLE
  5
1108
102
{ACAD_XDICTIONARY
360
1459
102
}
102
{ACAD_REACTORS
330
10FE
102
}
330
10FE
100
AcDbVisualStyle
  2
Realistic
 70
     8
 71
     2
 72
     2
 73
     0
 90
        0
 40
-0.6
 41
-30.0
 62
     5
 63
     7
 74
     1
 91
        0
 64
     7
 65
   257
 75
     1
175
     1
 42
1.0
 92
        8
 66
     8
 43
1.0
 76
     1
 77
     6
 78
     2
 67
     7
 79
     5
170
     0
171
     0
290
     0
174
     0
 93
       13
 44
0.0
173
     0
291
     0
 45
0.0
1001
ACAD
1000
AcDbSavedByObjectVersion
1070
     0
  0
VISUALSTYLE
  5
11CF
102
{ACAD_XDICTIONARY
360
1474
102
}
102
{ACAD_REACTORS
330
10FE
102
}
330
10FE
100
AcDbVisualStyle
  2
Shaded
 70
    27
 71
     2
 72
     2
 73
     1
 90
        2
 40
-0.6
 41
30.0
 62
     5
 63
     7
 74
     0
 91
        4
 64
     7
 65
   257
 75
     1
175
     1
 42
1.0
 92
        8
 66
   257
 43
1.0
 76
     1
 77
     6
 78
     2
 67
     8
 79
     3
170
     0
171
     0
290
     0
174
     0
 93
        5
 44
0.0
173
     0
291
     0
 45
0.0
1001
ACAD
1000
AcDbSavedByObjectVersion
1070
     0
  0
VISUALSTYLE
  5
11CE
102
{ACAD_XDICTIONARY
360
1472
102
}
102
{ACAD_REACTORS
330
10FE
102
}
330
10FE
100
AcDbVisualStyle
  2
Shaded with edges
 70
    26
 71
     2
 72
     2
 73
     1
 90
        2
 40
-0.6
 41
30.0
 62
     5
 63
     7
 74
     1
 91
        2
 64
     7
 65
   257
 75
     2
175
     1
 42
1.0
 92
        8
 66
   257
 43
1.0
 76
     1
 77
     6
 78
     2
 67
     7
 79
     3
170
     0
171
     0
290
     0
174
     0
 93
        5
 44
0.0
173
     0
291
     0
 45
0.0
1001
ACAD
1000
AcDbSavedByObjectVersion
1070
     0
  0
VISUALSTYLE
  5
11CB
102
{ACAD_XDICTIONARY
360
146C
102
}
102
{ACAD_REACTORS
330
10FE
102
}
330
10FE
100
AcDbVisualStyle
  2
Shades of Gray
 70
    23
 71
     2
 72
     2
 73
     3
 90
        0
 40
-0.6
 41
-30.0
 62
     5
 63
     7
 74
     2
 91
        2
 64
     7
 65
     7
 75
     1
175
     1
 42
40.0
 92
        8
 66
     7
 43
1.0
 76
     1
 77
     6
 78
     2
 67
     7
 79
     3
170
     0
171
     0
290
     0
174
     0
 93
        1
 44
0.0
173
     0
291
     0
 45
0.0
1001
ACAD
1000
AcDbSavedByObjectVersion
1070
     0
  0
VISUALSTYLE
  5
11CC
102
{ACAD_XDICTIONARY
360
146E
102
}
102
{ACAD_REACTORS
330
10FE
102
}
330
10FE
100
AcDbVisualStyle
  2
Sketchy
 70
    24
 71
     1
 72
     2
 73
     2
 90
        0
 40
-0.6
 41
-30.0
 62
     5
 63
     7
 74
     2
 91
        2
 64
     7
 65
     7
 75
     1
175
     1
 42
40.0
 92
       11
 66
     7
 43
1.0
 76
     1
 77
     6
 78
     2
 67
     7
 79
     6
170
     0
171
     0
290
     0
174
     0
 93
        1
 44
0.0
173
     0
291
     0
 45
0.0
1001
ACAD
1000
AcDbSavedByObjectVersion
1070
     0
  0
VISUALSTYLE
  5
110B
102
{ACAD_XDICTIONARY
360
145F
102
}
102
{ACAD_REACTORS
330
10FE
102
}
330
10FE
100
AcDbVisualStyle
  2
Thicken
 70
    13
 71
     2
 72
     2
 73
     0
 90
        0
 40
-0.6
 41
-30.0
 62
     5
 63
     7
 74
     1
 91
        4
 64
     7
 65
   257
 75
     1
175
     1
 42
1.0
 92
       12
 66
     7
 43
1.0
 76
     1
 77
     6
 78
     2
 67
     7
 79
     5
170
     0
171
     0
290
     0
174
     0
 93
        1
 44
0.0
173
     0
291
     1
 45
0.0
1001
ACAD
1000
AcDbSavedByObjectVersion
1070
     0
  0
VISUALSTYLE
  5
11C9
102
{ACAD_XDICTIONARY
360
1468
102
}
102
{ACAD_REACTORS
330
10FE
102
}
330
10FE
100
AcDbVisualStyle
  2
Wireframe
 70
     5
 71
     0
 72
     2
 73
     0
 90
        0
 40
-0.6
 41
-30.0
 62
     5
 63
     7
 74
     1
 91
        4
 64
     7
 65
   257
 75
     1
175
     1
 42
1.0
 92
        0
 66
   257
 43
1.0
 76
     1
 77
     6
 78
     2
 67
     7
 79
     3
170
     0
171
     0
290
     0
174
     0
 93
        1
 44
0.0
173
     0
291
     0
 45
0.0
1001
ACAD
1000
AcDbSavedByObjectVersion
1070
     0
  0
VISUALSTYLE
  5
11CD
102
{ACAD_XDICTIONARY
360
1470
102
}
102
{ACAD_REACTORS
330
10FE
102
}
330
10FE
100
AcDbVisualStyle
  2
X-Ray
 70
    25
 71
     2
 72
     2
 73
     1
 90
        1
 40
0.5
 41
-30.0
 62
     5
 63
     7
 74
     1
 91
        0
 64
     7
 65
   257
 75
     1
175
     1
 42
1.0
 92
        8
 66
     7
 43
1.0
 76
     1
 77
     6
 78
     2
 67
     7
 79
     3
170
     0
171
     0
290
     0
174
     0
 93
       13
 44
0.0
173
     0
291
     0
 45
0.0
1001
ACAD
1000
AcDbSavedByObjectVersion
1070
     0
  0
DICTIONARYVAR
  5
114B
102
{ACAD_REACTORS
330
102
102
}
330
102
100
DictionaryVariables
280
     0
  1
1:1
  0
DICTIONARYVAR
  5
114A
102
{ACAD_REACTORS
330
102
102
}
330
102
100
DictionaryVariables
280
     0
  1
STANDARD
  0
DICTIONARYVAR
  5
1149
102
{ACAD_REACTORS
330
102
102
}
330
102
100
DictionaryVariables
280
     0
  1
STANDARD
  0
DICTIONARYVAR
  5
123B
102
{ACAD_REACTORS
330
102
102
}
330
102
100
DictionaryVariables
280
     0
  1
Imperial24
  0
DICTIONARYVAR
  5
123C
102
{ACAD_REACTORS
330
102
102
}
330
102
100
DictionaryVariables
280
     0
  1
Imperial24
  0
DICTIONARYVAR
  5
103
102
{ACAD_REACTORS
330
102
102
}
330
102
100
DictionaryVariables
280
     0
  1
1
  0
DICTIONARYVAR
  5
118A
102
{ACAD_REACTORS
330
102
102
}
330
102
100
DictionaryVariables
280
     0
  1
0
  0
DICTIONARYVAR
  5
1189
102
{ACAD_REACTORS
330
102
102
}
330
102
100
DictionaryVariables
280
     0
  1
127
  0
DICTIONARYVAR
  5
142A
102
{ACAD_REACTORS
330
102
102
}
330
102
100
DictionaryVariables
280
     0
  1
2
  0
DICTIONARY
  5
147E
330
11D6
100
AcDbDictionary
280
     1
281
     1
  3
ACAD_XREC_ROUNDTRIP
360
147F
  0
DICTIONARY
  5
142E
330
60
100
AcDbDictionary
280
     1
281
     1
  3
ACAD_XREC_ROUNDTRIP
360
142F
  0
DICTIONARY
  5
1480
330
1426
100
AcDbDictionary
280
     1
281
     1
  3
ACAD_XREC_ROUNDTRIP
360
1481
  0
DICTIONARY
  5
10EF
330
10EE
100
AcDbDictionary
280
     1
281
     1
  3
ACAD_XREC_ROUNDTRIP
360
1445
  3
BUMPTILE
360
10F1
  3
DIFFUSETILE
360
10F0
  3
OPACITYTILE
360
10F4
  3
REFLECTIONTILE
360
10F3
  3
REFRACTIONTILE
360
10F5
  3
SPECULARTILE
360
10F2
  0
DICTIONARY
  5
10E7
330
10E6
100
AcDbDictionary
280
     1
281
     1
  3
ACAD_XREC_ROUNDTRIP
360
1444
  3
BUMPTILE
360
10E9
  3
DIFFUSETILE
360
10E8
  3
OPACITYTILE
360
10EC
  3
REFLECTIONTILE
360
10EB
  3
REFRACTIONTILE
360
10ED
  3
SPECULARTILE
360
10EA
  0
DICTIONARY
  5
10F7
330
10F6
100
AcDbDictionary
280
     1
281
     1
  3
ACAD_XREC_ROUNDTRIP
360
1446
  3
BUMPTILE
360
10F9
  3
DIFFUSETILE
360
10F8
  3
OPACITYTILE
360
10FC
  3
REFLECTIONTILE
360
10FB
  3
REFRACTIONTILE
360
10FD
  3
SPECULARTILE
360
10FA
  0
DICTIONARY
  5
147C
330
11D4
100
AcDbDictionary
280
     1
281
     1
  3
ACAD_XREC_ROUNDTRIP
360
147D
  0
DICTIONARY
  5
114C
330
1111
100
AcDbDictionary
280
     1
281
     1
  3
ACAD_ROUNDTRIP_2008_TABLESTYLE_CELLSTYLEMAP
360
142B
  3
ACAD_XREC_ROUNDTRIP
360
1467
  0
DICTIONARY
  5
1451
330
1104
100
AcDbDictionary
280
     1
281
     1
  3
ACAD_XREC_ROUNDTRIP
360
1452
  0
DICTIONARY
  5
1455
330
1106
100
AcDbDictionary
280
     1
281
     1
  3
ACAD_XREC_ROUNDTRIP
360
1456
  0
DICTIONARY
  5
1453
330
1105
100
AcDbDictionary
280
     1
281
     1
  3
ACAD_XREC_ROUNDTRIP
360
1454
  0
DICTIONARY
  5
144F
330
1103
100
AcDbDictionary
280
     1
281
     1
  3
ACAD_XREC_ROUNDTRIP
360
1450
  0
DICTIONARY
  5
145D
330
110A
100
AcDbDictionary
280
     1
281
     1
  3
ACAD_XREC_ROUNDTRIP
360
145E
  0
DICTIONARY
  5
1465
330
110E
100
AcDbDictionary
280
     1
281
     1
  3
ACAD_XREC_ROUNDTRIP
360
1466
  0
DICTIONARY
  5
1457
330
1107
100
AcDbDictionary
280
     1
281
     1
  3
ACAD_XREC_ROUNDTRIP
360
1458
  0
DICTIONARY
  5
145B
330
1109
100
AcDbDictionary
280
     1
281
     1
  3
ACAD_XREC_ROUNDTRIP
360
145C
  0
DICTIONARY
  5
147A
330
11D2
100
AcDbDictionary
280
     1
281
     1
  3
ACAD_XREC_ROUNDTRIP
360
147B
  0
DICTIONARY
  5
1463
330
110D
100
AcDbDictionary
280
     1
281
     1
  3
ACAD_XREC_ROUNDTRIP
360
1464
  0
DICTIONARY
  5
1447
330
10FF
100
AcDbDictionary
280
     1
281
     1
  3
ACAD_XREC_ROUNDTRIP
360
1448
  0
DICTIONARY
  5
1449
330
1100
100
AcDbDictionary
280
     1
281
     1
  3
ACAD_XREC_ROUNDTRIP
360
144A
  0
DICTIONARY
  5
144B
330
1101
100
AcDbDictionary
280
     1
281
     1
  3
ACAD_XREC_ROUNDTRIP
360
144C
  0
DICTIONARY
  5
144D
330
1102
100
AcDbDictionary
280
     1
281
     1
  3
ACAD_XREC_ROUNDTRIP
360
144E
  0
DICTIONARY
  5
146A
330
11CA
100
AcDbDictionary
280
     1
281
     1
  3
ACAD_XREC_ROUNDTRIP
360
146B
  0
DICTIONARY
  5
1476
330
11D0
100
AcDbDictionary
280
     1
281
     1
  3
ACAD_XREC_ROUNDTRIP
360
1477
  0
DICTIONARY
  5
1461
330
110C
100
AcDbDictionary
280
     1
281
     1
  3
ACAD_XREC_ROUNDTRIP
360
1462
  0
DICTIONARY
  5
1478
330
11D1
100
AcDbDictionary
280
     1
281
     1
  3
ACAD_XREC_ROUNDTRIP
360
1479
  0
DICTIONARY
  5
1459
330
1108
100
AcDbDictionary
280
     1
281
     1
  3
ACAD_XREC_ROUNDTRIP
360
145A
  0
DICTIONARY
  5
1474
330
11CF
100
AcDbDictionary
280
     1
281
     1
  3
ACAD_XREC_ROUNDTRIP
360
1475
  0
DICTIONARY
  5
1472
330
11CE
100
AcDbDictionary
280
     1
281
     1
  3
ACAD_XREC_ROUNDTRIP
360
1473
  0
DICTIONARY
  5
146C
330
11CB
100
AcDbDictionary
280
     1
281
     1
  3
ACAD_XREC_ROUNDTRIP
360
146D
  0
DICTIONARY
  5
146E
330
11CC
100
AcDbDictionary
280
     1
281
     1
  3
ACAD_XREC_ROUNDTRIP
360
146F
  0
DICTIONARY
  5
145F
330
110B
100
AcDbDictionary
280
     1
281
     1
  3
ACAD_XREC_ROUNDTRIP
360
1460
  0
DICTIONARY
  5
1468
330
11C9
100
AcDbDictionary
280
     1
281
     1
  3
ACAD_XREC_ROUNDTRIP
360
1469
  0
DICTIONARY
  5
1470
330
11CD
100
AcDbDictionary
280
     1
281
     1
  3
ACAD_XREC_ROUNDTRIP
360
1471
  0
XRECORD
  5
147F
102
{ACAD_REACTORS
330
147E
102
}
330
147E
100
AcDbXrecord
280
     1
102
DISPLAYNAME
  1
Imperial24
102
FLAGS
 90
        0
  0
XRECORD
  5
142F
102
{ACAD_REACTORS
330
142E
102
}
330
142E
100
AcDbXrecord
280
     1
102
SHADEPLOT
 70
     0
102
SHADEPLOTRESLEVEL
 70
     2
102
SHADEPLOTCUSTOMDPI
 70
   300
  0
XRECORD
  5
1481
102
{ACAD_REACTORS
330
1480
102
}
330
1480
100
AcDbXrecord
280
     1
102
SHADEPLOT
 70
     0
102
SHADEPLOTRESLEVEL
 70
     2
102
SHADEPLOTCUSTOMDPI
 70
   300
  0
XRECORD
  5
1445
102
{ACAD_REACTORS
330
10EF
102
}
330
10EF
100
AcDbXrecord
280
     1
102
MATERIAL
148
0.0
149
0.0
149
0.0
 93
        0
 94
      127
282
     0
 72
     0
 77
     0
171
     0
175
     0
179
     0
273
     0
  0
XRECORD
  5
10F1
102
{ACAD_REACTORS
330
10EF
102
}
330
10EF
100
AcDbXrecord
280
     1
270
     1
271
     1
  0
XRECORD
  5
10F0
102
{ACAD_REACTORS
330
10EF
102
}
330
10EF
100
AcDbXrecord
280
     1
270
     1
271
     1
  0
XRECORD
  5
10F4
102
{ACAD_REACTORS
330
10EF
102
}
330
10EF
100
AcDbXrecord
280
     1
270
     1
271
     1
  0
XRECORD
  5
10F3
102
{ACAD_REACTORS
330
10EF
102
}
330
10EF
100
AcDbXrecord
280
     1
270
     1
271
     1
  0
XRECORD
  5
10F5
102
{ACAD_REACTORS
330
10EF
102
}
330
10EF
100
AcDbXrecord
280
     1
270
     1
271
     1
  0
XRECORD
  5
10F2
102
{ACAD_REACTORS
330
10EF
102
}
330
10EF
100
AcDbXrecord
280
     1
270
     1
271
     1
  0
XRECORD
  5
1444
102
{ACAD_REACTORS
330
10E7
102
}
330
10E7
100
AcDbXrecord
280
     1
102
MATERIAL
148
0.0
149
0.0
149
0.0
 93
        0
 94
      127
282
     0
 72
     0
 77
     0
171
     0
175
     0
179
     0
273
     0
  0
XRECORD
  5
10E9
102
{ACAD_REACTORS
330
10E7
102
}
330
10E7
100
AcDbXrecord
280
     1
270
     1
271
     1
  0
XRECORD
  5
10E8
102
{ACAD_REACTORS
330
10E7
102
}
330
10E7
100
AcDbXrecord
280
     1
270
     1
271
     1
  0
XRECORD
  5
10EC
102
{ACAD_REACTORS
330
10E7
102
}
330
10E7
100
AcDbXrecord
280
     1
270
     1
271
     1
  0
XRECORD
  5
10EB
102
{ACAD_REACTORS
330
10E7
102
}
330
10E7
100
AcDbXrecord
280
     1
270
     1
271
     1
  0
XRECORD
  5
10ED
102
{ACAD_REACTORS
330
10E7
102
}
330
10E7
100
AcDbXrecord
280
     1
270
     1
271
     1
  0
XRECORD
  5
10EA
102
{ACAD_REACTORS
330
10E7
102
}
330
10E7
100
AcDbXrecord
280
     1
270
     1
271
     1
  0
XRECORD
  5
1446
102
{ACAD_REACTORS
330
10F7
102
}
330
10F7
100
AcDbXrecord
280
     1
102
MATERIAL
148
0.0
149
0.0
149
0.0
 93
        0
 94
      127
282
     0
 72
     0
 77
     0
171
     0
175
     0
179
     0
273
     0
  0
XRECORD
  5
10F9
102
{ACAD_REACTORS
330
10F7
102
}
330
10F7
100
AcDbXrecord
280
     1
270
     1
271
     1
  0
XRECORD
  5
10F8
102
{ACAD_REACTORS
330
10F7
102
}
330
10F7
100
AcDbXrecord
280
     1
270
     1
271
     1
  0
XRECORD
  5
10FC
102
{ACAD_REACTORS
330
10F7
102
}
330
10F7
100
AcDbXrecord
280
     1
270
     1
271
     1
  0
XRECORD
  5
10FB
102
{ACAD_REACTORS
330
10F7
102
}
330
10F7
100
AcDbXrecord
280
     1
270
     1
271
     1
  0
XRECORD
  5
10FD
102
{ACAD_REACTORS
330
10F7
102
}
330
10F7
100
AcDbXrecord
280
     1
270
     1
271
     1
  0
XRECORD
  5
10FA
102
{ACAD_REACTORS
330
10F7
102
}
330
10F7
100
AcDbXrecord
280
     1
270
     1
271
     1
  0
XRECORD
  5
147D
102
{ACAD_REACTORS
330
147C
102
}
330
147C
100
AcDbXrecord
280
     1
102
DISPLAYNAME
  1
Imperial24
102
FLAGS
 90
        0
  0
CELLSTYLEMAP
  5
142B
102
{ACAD_REACTORS
330
114C
102
}
330
114C
100
AcDbCellStyleMap
 90
        3
300
CELLSTYLE
  1
TABLEFORMAT_BEGIN
 90
        5
170
     1
 91
        0
 92
    32768
 62
   257
 93
        1
300
CONTENTFORMAT
  1
CONTENTFORMAT_BEGIN
 90
        0
 91
        0
 92
      512
 93
        0
300

 40
0.0
140
1.0
 94
        5
 62
     0
340
16
144
0.25
309
CONTENTFORMAT_END
171
     1
301
MARGIN
  1
CELLMARGIN_BEGIN
 40
0.06
 40
0.06
 40
0.06
 40
0.06
 40
0.18
 40
0.18
309
CELLMARGIN_END
 94
        6
 95
        1
302
GRIDFORMAT
  1
GRIDFORMAT_BEGIN
 90
        0
 91
        1
 62
     0
 92
       -2
340
0
 93
        0
 40
0.045
309
GRIDFORMAT_END
 95
        2
302
GRIDFORMAT
  1
GRIDFORMAT_BEGIN
 90
        0
 91
        1
 62
     0
 92
       -2
340
0
 93
        0
 40
0.045
309
GRIDFORMAT_END
 95
        4
302
GRIDFORMAT
  1
GRIDFORMAT_BEGIN
 90
        0
 91
        1
 62
     0
 92
       -2
340
0
 93
        0
 40
0.045
309
GRIDFORMAT_END
 95
        8
302
GRIDFORMAT
  1
GRIDFORMAT_BEGIN
 90
        0
 91
        1
 62
     0
 92
       -2
340
0
 93
        0
 40
0.045
309
GRIDFORMAT_END
 95
       16
302
GRIDFORMAT
  1
GRIDFORMAT_BEGIN
 90
        0
 91
        1
 62
     0
 92
       -2
340
0
 93
        0
 40
0.045
309
GRIDFORMAT_END
 95
       32
302
GRIDFORMAT
  1
GRIDFORMAT_BEGIN
 90
        0
 91
        1
 62
     0
 92
       -2
340
0
 93
        0
 40
0.045
309
GRIDFORMAT_END
309
TABLEFORMAT_END
  1
CELLSTYLE_BEGIN
 90
        1
 91
        1
300
_TITLE
309
CELLSTYLE_END
300
CELLSTYLE
  1
TABLEFORMAT_BEGIN
 90
        5
170
     1
 91
        0
 92
        0
 62
   257
 93
        1
300
CONTENTFORMAT
  1
CONTENTFORMAT_BEGIN
 90
        0
 91
        0
 92
      512
 93
        0
300

 40
0.0
140
1.0
 94
        5
 62
     0
340
16
144
0.18
309
CONTENTFORMAT_END
171
     1
301
MARGIN
  1
CELLMARGIN_BEGIN
 40
0.06
 40
0.06
 40
0.06
 40
0.06
 40
0.18
 40
0.18
309
CELLMARGIN_END
 94
        6
 95
        1
302
GRIDFORMAT
  1
GRIDFORMAT_BEGIN
 90
        0
 91
        1
 62
     0
 92
       -2
340
0
 93
        0
 40
0.045
309
GRIDFORMAT_END
 95
        2
302
GRIDFORMAT
  1
GRIDFORMAT_BEGIN
 90
        0
 91
        1
 62
     0
 92
       -2
340
0
 93
        0
 40
0.045
309
GRIDFORMAT_END
 95
        4
302
GRIDFORMAT
  1
GRIDFORMAT_BEGIN
 90
        0
 91
        1
 62
     0
 92
       -2
340
0
 93
        0
 40
0.045
309
GRIDFORMAT_END
 95
        8
302
GRIDFORMAT
  1
GRIDFORMAT_BEGIN
 90
        0
 91
        1
 62
     0
 92
       -2
340
0
 93
        0
 40
0.045
309
GRIDFORMAT_END
 95
       16
302
GRIDFORMAT
  1
GRIDFORMAT_BEGIN
 90
        0
 91
        1
 62
     0
 92
       -2
340
0
 93
        0
 40
0.045
309
GRIDFORMAT_END
 95
       32
302
GRIDFORMAT
  1
GRIDFORMAT_BEGIN
 90
        0
 91
        1
 62
     0
 92
       -2
340
0
 93
        0
 40
0.045
309
GRIDFORMAT_END
309
TABLEFORMAT_END
  1
CELLSTYLE_BEGIN
 90
        2
 91
        1
300
_HEADER
309
CELLSTYLE_END
300
CELLSTYLE
  1
TABLEFORMAT_BEGIN
 90
        5
170
     1
 91
        0
 92
        0
 62
   257
 93
        1
300
CONTENTFORMAT
  1
CONTENTFORMAT_BEGIN
 90
        0
 91
        0
 92
      512
 93
        0
300

 40
0.0
140
1.0
 94
        2
 62
     0
340
16
144
0.18
309
CONTENTFORMAT_END
171
     1
301
MARGIN
  1
CELLMARGIN_BEGIN
 40
0.06
 40
0.06
 40
0.06
 40
0.06
 40
0.18
 40
0.18
309
CELLMARGIN_END
 94
        6
 95
        1
302
GRIDFORMAT
  1
GRIDFORMAT_BEGIN
 90
        0
 91
        1
 62
     0
 92
       -2
340
0
 93
        0
 40
0.045
309
GRIDFORMAT_END
 95
        2
302
GRIDFORMAT
  1
GRIDFORMAT_BEGIN
 90
        0
 91
        1
 62
     0
 92
       -2
340
0
 93
        0
 40
0.045
309
GRIDFORMAT_END
 95
        4
302
GRIDFORMAT
  1
GRIDFORMAT_BEGIN
 90
        0
 91
        1
 62
     0
 92
       -2
340
0
 93
        0
 40
0.045
309
GRIDFORMAT_END
 95
        8
302
GRIDFORMAT
  1
GRIDFORMAT_BEGIN
 90
        0
 91
        1
 62
     0
 92
       -2
340
0
 93
        0
 40
0.045
309
GRIDFORMAT_END
 95
       16
302
GRIDFORMAT
  1
GRIDFORMAT_BEGIN
 90
        0
 91
        1
 62
     0
 92
       -2
340
0
 93
        0
 40
0.045
309
GRIDFORMAT_END
 95
       32
302
GRIDFORMAT
  1
GRIDFORMAT_BEGIN
 90
        0
 91
        1
 62
     0
 92
       -2
340
0
 93
        0
 40
0.045
309
GRIDFORMAT_END
309
TABLEFORMAT_END
  1
CELLSTYLE_BEGIN
 90
        3
 91
        2
300
_DATA
309
CELLSTYLE_END
  0
XRECORD
  5
1467
102
{ACAD_REACTORS
330
114C
102
}
330
114C
100
AcDbXrecord
280
     1
102
ACAD_ROUNDTRIP_PRE2007_TABLESTYLE
 90
      512
 91
        0
  1

 92
      512
 93
        0
  2

 94
      512
 95
        0
  3

  0
XRECORD
  5
1452
102
{ACAD_REACTORS
330
1451
102
}
330
1451
100
AcDbXrecord
280
     1
102
RTVSPost2010Prop28
280
     1
102
RTVSPost2010PropOp28
 70
     1
102
RTVSPost2010Prop29
280
     1
102
RTVSPost2010PropOp29
 70
     1
102
RTVSPost2010Prop30
280
     0
102
RTVSPost2010PropOp30
 70
     1
102
RTVSPost2010Prop31
280
     0
102
RTVSPost2010PropOp31
 70
     1
102
RTVSPost2010Prop32
280
     0
102
RTVSPost2010PropOp32
 70
     1
102
RTVSPost2010Prop33
280
     0
102
RTVSPost2010PropOp33
 70
     1
102
RTVSPost2010Prop34
280
     0
102
RTVSPost2010PropOp34
 70
     1
102
RTVSPost2010Prop35
280
     0
102
RTVSPost2010PropOp35
 70
     1
102
RTVSPost2010Prop36
280
     0
102
RTVSPost2010PropOp36
 70
     1
102
RTVSPost2010Prop37
 90
       50
102
RTVSPost2010PropOp37
 70
     1
102
RTVSPost2010Prop38
140
0.0
102
RTVSPost2010PropOp38
 70
     1
102
RTVSPost2010Prop39
140
1.0
102
RTVSPost2010PropOp39
 70
     1
102
RTVSPost2010Prop40
 90
        0
102
RTVSPost2010PropOp40
 70
     1
102
RTVSPost2010Prop41ColorIndex
 90
       18
102
RTVSPost2010Prop41ColorRGB
 90
        0
102
RTVSPost2010PropOp41
 70
     1
102
RTVSPost2010Prop42
 90
       50
102
RTVSPost2010PropOp42
 70
     1
102
RTVSPost2010Prop43
 90
        3
102
RTVSPost2010PropOp43
 70
     1
102
RTVSPost2010Prop44ColorIndex
 90
        5
102
RTVSPost2010Prop44ColorRGB
 90
      255
102
RTVSPost2010PropOp44
 70
     1
102
RTVSPost2010Prop45
280
     0
102
RTVSPost2010PropOp45
 70
     1
102
RTVSPost2010Prop46
 90
       50
102
RTVSPost2010PropOp46
 70
     1
102
RTVSPost2010Prop47
 90
       50
102
RTVSPost2010PropOp47
 70
     1
102
RTVSPost2010Prop48
 90
       50
102
RTVSPost2010PropOp48
 70
     1
102
RTVSPost2010Prop49
280
     0
102
RTVSPost2010PropOp49
 70
     1
102
RTVSPost2010Prop50
 90
       50
102
RTVSPost2010PropOp50
 70
     1
102
RTVSPost2010Prop51ColorIndex
 90
      256
102
RTVSPost2010Prop51ColorRGB
 90
-16777216
102
RTVSPost2010PropOp51
 70
     0
102
RTVSPost2010Prop52
140
1.0
102
RTVSPost2010PropOp52
 70
     0
102
RTVSPost2010Prop53
 90
        2
102
RTVSPost2010PropOp53
 70
     1
102
RTVSPost2010Prop54
  1
strokes_ogs.tif
102
RTVSPost2010PropOp54
 70
     1
102
RTVSPost2010Prop55
280
     0
102
RTVSPost2010PropOp55
 70
     1
102
RTVSPost2010Prop56
140
1.0
102
RTVSPost2010PropOp56
 70
     1
102
RTVSPost2010Prop57
140
1.0
102
RTVSPost2010PropOp57
 70
     1
102
RTVSPropertyOp0
 70
     1
102
RTVSPropertyOp1
 70
     1
102
RTVSPropertyOp2
 70
     1
102
RTVSPropertyOp3
 70
     1
102
RTVSPropertyOp4
 70
     1
102
RTVSPropertyOp5
 70
     1
102
RTVSPropertyOp6
 70
     1
102
RTVSPropertyOp7
 70
     1
102
RTVSPropertyOp8
 70
     1
102
RTVSPropertyOp9
 70
     1
102
RTVSPropertyOp10
 70
     1
102
RTVSPropertyOp11
 70
     1
102
RTVSPropertyOp12
 70
     1
102
RTVSPropertyOp13
 70
     1
102
RTVSPropertyOp14
 70
     1
102
RTVSPropertyOp15
 70
     1
102
RTVSPropertyOp16
 70
     1
102
RTVSPropertyOp17
 70
     1
102
RTVSPropertyOp18
 70
     1
102
RTVSPropertyOp19
 70
     1
102
RTVSPropertyOp20
 70
     1
102
RTVSPropertyOp21
 70
     1
102
RTVSPropertyOp22
 70
     1
102
RTVSPropertyOp23
 70
     1
102
RTVSPropertyOp24
 70
     1
102
RTVSPropertyOp25
 70
     1
102
RTVSPropertyOp26
 70
     1
102
RTVSPropertyOp27
 70
     1
102
RTVSPropertyOp28
 70
     1
102
RTVSPropertyOp29
 70
     1
102
RTVSPropertyOp30
 70
     1
102
RTVSPropertyOp31
 70
     1
102
RTVSPropertyOp32
 70
     1
102
RTVSPropertyOp33
 70
     1
102
RTVSPropertyOp34
 70
     1
102
RTVSPropertyOp35
 70
     1
102
RTVSPropertyOp36
 70
     1
102
RTVSPropertyOp37
 70
     1
102
RTVSPropertyOp38
 70
     1
102
RTVSPropertyOp39
 70
     1
102
RTVSPropertyOp40
 70
     1
102
RTVSPropertyOp41
 70
     1
102
RTVSPropertyOp42
 70
     1
102
RTVSPropertyOp43
 70
     1
102
RTVSPropertyOp44
 70
     1
102
RTVSPropertyOp45
 70
     1
102
RTVSPropertyOp46
 70
     1
102
RTVSPropertyOp47
 70
     1
102
RTVSPropertyOp48
 70
     1
102
RTVSPropertyOp49
 70
     1
102
RTVSPropertyOp50
 70
     1
102
RTVSPropertyOp51
 70
     0
102
RTVSPropertyOp52
 70
     0
102
RTVSPropertyOp53
 70
     1
102
RTVSPropertyOp54
 70
     1
102
RTVSPropertyOp55
 70
     1
102
RTVSPropertyOp56
 70
     1
102
RTVSPropertyOp57
 70
     1
102
RTVSPropertyOp58
 70
     1
102
RTVSPropertyOp59
 70
     1
102
RTVSPropertyOp60
 70
     1
102
RTVSPropertyOp61
 70
     1
102
RTVSPropertyOp62
 70
     1
  0
XRECORD
  5
1456
102
{ACAD_REACTORS
330
1455
102
}
330
1455
100
AcDbXrecord
280
     1
102
RTVSPost2010Prop28
280
     0
102
RTVSPost2010PropOp28
 70
     1
102
RTVSPost2010Prop29
280
     1
102
RTVSPost2010PropOp29
 70
     1
102
RTVSPost2010Prop30
280
     1
102
RTVSPost2010PropOp30
 70
     1
102
RTVSPost2010Prop31
280
     0
102
RTVSPost2010PropOp31
 70
     1
102
RTVSPost2010Prop32
280
     0
102
RTVSPost2010PropOp32
 70
     1
102
RTVSPost2010Prop33
280
     0
102
RTVSPost2010PropOp33
 70
     1
102
RTVSPost2010Prop34
280
     0
102
RTVSPost2010PropOp34
 70
     1
102
RTVSPost2010Prop35
280
     0
102
RTVSPost2010PropOp35
 70
     1
102
RTVSPost2010Prop36
280
     0
102
RTVSPost2010PropOp36
 70
     1
102
RTVSPost2010Prop37
 90
       50
102
RTVSPost2010PropOp37
 70
     1
102
RTVSPost2010Prop38
140
0.0
102
RTVSPost2010PropOp38
 70
     1
102
RTVSPost2010Prop39
140
1.0
102
RTVSPost2010PropOp39
 70
     1
102
RTVSPost2010Prop40
 90
        0
102
RTVSPost2010PropOp40
 70
     1
102
RTVSPost2010Prop41ColorIndex
 90
       18
102
RTVSPost2010Prop41ColorRGB
 90
        0
102
RTVSPost2010PropOp41
 70
     1
102
RTVSPost2010Prop42
 90
       50
102
RTVSPost2010PropOp42
 70
     1
102
RTVSPost2010Prop43
 90
        3
102
RTVSPost2010PropOp43
 70
     1
102
RTVSPost2010Prop44ColorIndex
 90
        5
102
RTVSPost2010Prop44ColorRGB
 90
      255
102
RTVSPost2010PropOp44
 70
     1
102
RTVSPost2010Prop45
280
     0
102
RTVSPost2010PropOp45
 70
     1
102
RTVSPost2010Prop46
 90
       50
102
RTVSPost2010PropOp46
 70
     1
102
RTVSPost2010Prop47
 90
       50
102
RTVSPost2010PropOp47
 70
     1
102
RTVSPost2010Prop48
 90
       50
102
RTVSPost2010PropOp48
 70
     1
102
RTVSPost2010Prop49
280
     0
102
RTVSPost2010PropOp49
 70
     1
102
RTVSPost2010Prop50
 90
       50
102
RTVSPost2010PropOp50
 70
     1
102
RTVSPost2010Prop51ColorIndex
 90
      256
102
RTVSPost2010Prop51ColorRGB
 90
-16777216
102
RTVSPost2010PropOp51
 70
     0
102
RTVSPost2010Prop52
140
1.0
102
RTVSPost2010PropOp52
 70
     0
102
RTVSPost2010Prop53
 90
        2
102
RTVSPost2010PropOp53
 70
     1
102
RTVSPost2010Prop54
  1
strokes_ogs.tif
102
RTVSPost2010PropOp54
 70
     1
102
RTVSPost2010Prop55
280
     0
102
RTVSPost2010PropOp55
 70
     1
102
RTVSPost2010Prop56
140
1.0
102
RTVSPost2010PropOp56
 70
     1
102
RTVSPost2010Prop57
140
1.0
102
RTVSPost2010PropOp57
 70
     1
102
RTVSPropertyOp0
 70
     1
102
RTVSPropertyOp1
 70
     1
102
RTVSPropertyOp2
 70
     1
102
RTVSPropertyOp3
 70
     1
102
RTVSPropertyOp4
 70
     1
102
RTVSPropertyOp5
 70
     1
102
RTVSPropertyOp6
 70
     1
102
RTVSPropertyOp7
 70
     1
102
RTVSPropertyOp8
 70
     1
102
RTVSPropertyOp9
 70
     1
102
RTVSPropertyOp10
 70
     1
102
RTVSPropertyOp11
 70
     1
102
RTVSPropertyOp12
 70
     1
102
RTVSPropertyOp13
 70
     1
102
RTVSPropertyOp14
 70
     1
102
RTVSPropertyOp15
 70
     1
102
RTVSPropertyOp16
 70
     1
102
RTVSPropertyOp17
 70
     1
102
RTVSPropertyOp18
 70
     1
102
RTVSPropertyOp19
 70
     1
102
RTVSPropertyOp20
 70
     1
102
RTVSPropertyOp21
 70
     1
102
RTVSPropertyOp22
 70
     1
102
RTVSPropertyOp23
 70
     1
102
RTVSPropertyOp24
 70
     1
102
RTVSPropertyOp25
 70
     1
102
RTVSPropertyOp26
 70
     1
102
RTVSPropertyOp27
 70
     1
102
RTVSPropertyOp28
 70
     1
102
RTVSPropertyOp29
 70
     1
102
RTVSPropertyOp30
 70
     1
102
RTVSPropertyOp31
 70
     1
102
RTVSPropertyOp32
 70
     1
102
RTVSPropertyOp33
 70
     1
102
RTVSPropertyOp34
 70
     1
102
RTVSPropertyOp35
 70
     1
102
RTVSPropertyOp36
 70
     1
102
RTVSPropertyOp37
 70
     1
102
RTVSPropertyOp38
 70
     1
102
RTVSPropertyOp39
 70
     1
102
RTVSPropertyOp40
 70
     1
102
RTVSPropertyOp41
 70
     1
102
RTVSPropertyOp42
 70
     1
102
RTVSPropertyOp43
 70
     1
102
RTVSPropertyOp44
 70
     1
102
RTVSPropertyOp45
 70
     1
102
RTVSPropertyOp46
 70
     1
102
RTVSPropertyOp47
 70
     1
102
RTVSPropertyOp48
 70
     1
102
RTVSPropertyOp49
 70
     1
102
RTVSPropertyOp50
 70
     1
102
RTVSPropertyOp51
 70
     0
102
RTVSPropertyOp52
 70
     0
102
RTVSPropertyOp53
 70
     1
102
RTVSPropertyOp54
 70
     1
102
RTVSPropertyOp55
 70
     1
102
RTVSPropertyOp56
 70
     1
102
RTVSPropertyOp57
 70
     1
102
RTVSPropertyOp58
 70
     1
102
RTVSPropertyOp59
 70
     1
102
RTVSPropertyOp60
 70
     1
102
RTVSPropertyOp61
 70
     1
102
RTVSPropertyOp62
 70
     1
  0
XRECORD
  5
1454
102
{ACAD_REACTORS
330
1453
102
}
330
1453
100
AcDbXrecord
280
     1
102
RTVSPost2010Prop28
280
     0
102
RTVSPost2010PropOp28
 70
     1
102
RTVSPost2010Prop29
280
     1
102
RTVSPost2010PropOp29
 70
     1
102
RTVSPost2010Prop30
280
     1
102
RTVSPost2010PropOp30
 70
     1
102
RTVSPost2010Prop31
280
     0
102
RTVSPost2010PropOp31
 70
     1
102
RTVSPost2010Prop32
280
     0
102
RTVSPost2010PropOp32
 70
     1
102
RTVSPost2010Prop33
280
     0
102
RTVSPost2010PropOp33
 70
     1
102
RTVSPost2010Prop34
280
     0
102
RTVSPost2010PropOp34
 70
     1
102
RTVSPost2010Prop35
280
     0
102
RTVSPost2010PropOp35
 70
     1
102
RTVSPost2010Prop36
280
     0
102
RTVSPost2010PropOp36
 70
     1
102
RTVSPost2010Prop37
 90
       50
102
RTVSPost2010PropOp37
 70
     1
102
RTVSPost2010Prop38
140
0.0
102
RTVSPost2010PropOp38
 70
     1
102
RTVSPost2010Prop39
140
1.0
102
RTVSPost2010PropOp39
 70
     1
102
RTVSPost2010Prop40
 90
        0
102
RTVSPost2010PropOp40
 70
     1
102
RTVSPost2010Prop41ColorIndex
 90
       18
102
RTVSPost2010Prop41ColorRGB
 90
        0
102
RTVSPost2010PropOp41
 70
     1
102
RTVSPost2010Prop42
 90
       50
102
RTVSPost2010PropOp42
 70
     1
102
RTVSPost2010Prop43
 90
        3
102
RTVSPost2010PropOp43
 70
     1
102
RTVSPost2010Prop44ColorIndex
 90
        5
102
RTVSPost2010Prop44ColorRGB
 90
      255
102
RTVSPost2010PropOp44
 70
     1
102
RTVSPost2010Prop45
280
     0
102
RTVSPost2010PropOp45
 70
     1
102
RTVSPost2010Prop46
 90
       50
102
RTVSPost2010PropOp46
 70
     1
102
RTVSPost2010Prop47
 90
       50
102
RTVSPost2010PropOp47
 70
     1
102
RTVSPost2010Prop48
 90
       50
102
RTVSPost2010PropOp48
 70
     1
102
RTVSPost2010Prop49
280
     0
102
RTVSPost2010PropOp49
 70
     1
102
RTVSPost2010Prop50
 90
       50
102
RTVSPost2010PropOp50
 70
     1
102
RTVSPost2010Prop51ColorIndex
 90
      256
102
RTVSPost2010Prop51ColorRGB
 90
-16777216
102
RTVSPost2010PropOp51
 70
     0
102
RTVSPost2010Prop52
140
1.0
102
RTVSPost2010PropOp52
 70
     0
102
RTVSPost2010Prop53
 90
        2
102
RTVSPost2010PropOp53
 70
     1
102
RTVSPost2010Prop54
  1
strokes_ogs.tif
102
RTVSPost2010PropOp54
 70
     1
102
RTVSPost2010Prop55
280
     0
102
RTVSPost2010PropOp55
 70
     1
102
RTVSPost2010Prop56
140
1.0
102
RTVSPost2010PropOp56
 70
     1
102
RTVSPost2010Prop57
140
1.0
102
RTVSPost2010PropOp57
 70
     1
102
RTVSPropertyOp0
 70
     1
102
RTVSPropertyOp1
 70
     1
102
RTVSPropertyOp2
 70
     1
102
RTVSPropertyOp3
 70
     1
102
RTVSPropertyOp4
 70
     1
102
RTVSPropertyOp5
 70
     1
102
RTVSPropertyOp6
 70
     1
102
RTVSPropertyOp7
 70
     1
102
RTVSPropertyOp8
 70
     1
102
RTVSPropertyOp9
 70
     1
102
RTVSPropertyOp10
 70
     1
102
RTVSPropertyOp11
 70
     1
102
RTVSPropertyOp12
 70
     1
102
RTVSPropertyOp13
 70
     1
102
RTVSPropertyOp14
 70
     1
102
RTVSPropertyOp15
 70
     1
102
RTVSPropertyOp16
 70
     1
102
RTVSPropertyOp17
 70
     1
102
RTVSPropertyOp18
 70
     1
102
RTVSPropertyOp19
 70
     1
102
RTVSPropertyOp20
 70
     1
102
RTVSPropertyOp21
 70
     1
102
RTVSPropertyOp22
 70
     1
102
RTVSPropertyOp23
 70
     1
102
RTVSPropertyOp24
 70
     1
102
RTVSPropertyOp25
 70
     1
102
RTVSPropertyOp26
 70
     1
102
RTVSPropertyOp27
 70
     1
102
RTVSPropertyOp28
 70
     1
102
RTVSPropertyOp29
 70
     1
102
RTVSPropertyOp30
 70
     1
102
RTVSPropertyOp31
 70
     1
102
RTVSPropertyOp32
 70
     1
102
RTVSPropertyOp33
 70
     1
102
RTVSPropertyOp34
 70
     1
102
RTVSPropertyOp35
 70
     1
102
RTVSPropertyOp36
 70
     1
102
RTVSPropertyOp37
 70
     1
102
RTVSPropertyOp38
 70
     1
102
RTVSPropertyOp39
 70
     1
102
RTVSPropertyOp40
 70
     1
102
RTVSPropertyOp41
 70
     1
102
RTVSPropertyOp42
 70
     1
102
RTVSPropertyOp43
 70
     1
102
RTVSPropertyOp44
 70
     1
102
RTVSPropertyOp45
 70
     1
102
RTVSPropertyOp46
 70
     1
102
RTVSPropertyOp47
 70
     1
102
RTVSPropertyOp48
 70
     1
102
RTVSPropertyOp49
 70
     1
102
RTVSPropertyOp50
 70
     1
102
RTVSPropertyOp51
 70
     0
102
RTVSPropertyOp52
 70
     0
102
RTVSPropertyOp53
 70
     1
102
RTVSPropertyOp54
 70
     1
102
RTVSPropertyOp55
 70
     1
102
RTVSPropertyOp56
 70
     1
102
RTVSPropertyOp57
 70
     1
102
RTVSPropertyOp58
 70
     1
102
RTVSPropertyOp59
 70
     1
102
RTVSPropertyOp60
 70
     1
102
RTVSPropertyOp61
 70
     1
102
RTVSPropertyOp62
 70
     1
  0
XRECORD
  5
1450
102
{ACAD_REACTORS
330
144F
102
}
330
144F
100
AcDbXrecord
280
     1
102
RTVSPost2010Prop28
280
     0
102
RTVSPost2010PropOp28
 70
     1
102
RTVSPost2010Prop29
280
     1
102
RTVSPost2010PropOp29
 70
     1
102
RTVSPost2010Prop30
280
     1
102
RTVSPost2010PropOp30
 70
     1
102
RTVSPost2010Prop31
280
     0
102
RTVSPost2010PropOp31
 70
     1
102
RTVSPost2010Prop32
280
     0
102
RTVSPost2010PropOp32
 70
     1
102
RTVSPost2010Prop33
280
     0
102
RTVSPost2010PropOp33
 70
     1
102
RTVSPost2010Prop34
280
     0
102
RTVSPost2010PropOp34
 70
     1
102
RTVSPost2010Prop35
280
     0
102
RTVSPost2010PropOp35
 70
     1
102
RTVSPost2010Prop36
280
     0
102
RTVSPost2010PropOp36
 70
     1
102
RTVSPost2010Prop37
 90
       50
102
RTVSPost2010PropOp37
 70
     1
102
RTVSPost2010Prop38
140
0.0
102
RTVSPost2010PropOp38
 70
     1
102
RTVSPost2010Prop39
140
1.0
102
RTVSPost2010PropOp39
 70
     1
102
RTVSPost2010Prop40
 90
        0
102
RTVSPost2010PropOp40
 70
     1
102
RTVSPost2010Prop41ColorIndex
 90
       18
102
RTVSPost2010Prop41ColorRGB
 90
        0
102
RTVSPost2010PropOp41
 70
     1
102
RTVSPost2010Prop42
 90
       50
102
RTVSPost2010PropOp42
 70
     1
102
RTVSPost2010Prop43
 90
        3
102
RTVSPost2010PropOp43
 70
     1
102
RTVSPost2010Prop44ColorIndex
 90
        5
102
RTVSPost2010Prop44ColorRGB
 90
      255
102
RTVSPost2010PropOp44
 70
     1
102
RTVSPost2010Prop45
280
     0
102
RTVSPost2010PropOp45
 70
     1
102
RTVSPost2010Prop46
 90
       50
102
RTVSPost2010PropOp46
 70
     1
102
RTVSPost2010Prop47
 90
       50
102
RTVSPost2010PropOp47
 70
     1
102
RTVSPost2010Prop48
 90
       50
102
RTVSPost2010PropOp48
 70
     1
102
RTVSPost2010Prop49
280
     0
102
RTVSPost2010PropOp49
 70
     1
102
RTVSPost2010Prop50
 90
       50
102
RTVSPost2010PropOp50
 70
     1
102
RTVSPost2010Prop51ColorIndex
 90
      256
102
RTVSPost2010Prop51ColorRGB
 90
-16777216
102
RTVSPost2010PropOp51
 70
     0
102
RTVSPost2010Prop52
140
1.0
102
RTVSPost2010PropOp52
 70
     0
102
RTVSPost2010Prop53
 90
        2
102
RTVSPost2010PropOp53
 70
     1
102
RTVSPost2010Prop54
  1
strokes_ogs.tif
102
RTVSPost2010PropOp54
 70
     1
102
RTVSPost2010Prop55
280
     0
102
RTVSPost2010PropOp55
 70
     1
102
RTVSPost2010Prop56
140
1.0
102
RTVSPost2010PropOp56
 70
     1
102
RTVSPost2010Prop57
140
1.0
102
RTVSPost2010PropOp57
 70
     1
102
RTVSPropertyOp0
 70
     1
102
RTVSPropertyOp1
 70
     1
102
RTVSPropertyOp2
 70
     1
102
RTVSPropertyOp3
 70
     1
102
RTVSPropertyOp4
 70
     1
102
RTVSPropertyOp5
 70
     1
102
RTVSPropertyOp6
 70
     1
102
RTVSPropertyOp7
 70
     1
102
RTVSPropertyOp8
 70
     1
102
RTVSPropertyOp9
 70
     1
102
RTVSPropertyOp10
 70
     1
102
RTVSPropertyOp11
 70
     1
102
RTVSPropertyOp12
 70
     1
102
RTVSPropertyOp13
 70
     1
102
RTVSPropertyOp14
 70
     1
102
RTVSPropertyOp15
 70
     1
102
RTVSPropertyOp16
 70
     1
102
RTVSPropertyOp17
 70
     1
102
RTVSPropertyOp18
 70
     1
102
RTVSPropertyOp19
 70
     1
102
RTVSPropertyOp20
 70
     1
102
RTVSPropertyOp21
 70
     1
102
RTVSPropertyOp22
 70
     1
102
RTVSPropertyOp23
 70
     1
102
RTVSPropertyOp24
 70
     1
102
RTVSPropertyOp25
 70
     1
102
RTVSPropertyOp26
 70
     1
102
RTVSPropertyOp27
 70
     1
102
RTVSPropertyOp28
 70
     1
102
RTVSPropertyOp29
 70
     1
102
RTVSPropertyOp30
 70
     1
102
RTVSPropertyOp31
 70
     1
102
RTVSPropertyOp32
 70
     1
102
RTVSPropertyOp33
 70
     1
102
RTVSPropertyOp34
 70
     1
102
RTVSPropertyOp35
 70
     1
102
RTVSPropertyOp36
 70
     1
102
RTVSPropertyOp37
 70
     1
102
RTVSPropertyOp38
 70
     1
102
RTVSPropertyOp39
 70
     1
102
RTVSPropertyOp40
 70
     1
102
RTVSPropertyOp41
 70
     1
102
RTVSPropertyOp42
 70
     1
102
RTVSPropertyOp43
 70
     1
102
RTVSPropertyOp44
 70
     1
102
RTVSPropertyOp45
 70
     1
102
RTVSPropertyOp46
 70
     1
102
RTVSPropertyOp47
 70
     1
102
RTVSPropertyOp48
 70
     1
102
RTVSPropertyOp49
 70
     1
102
RTVSPropertyOp50
 70
     1
102
RTVSPropertyOp51
 70
     0
102
RTVSPropertyOp52
 70
     0
102
RTVSPropertyOp53
 70
     1
102
RTVSPropertyOp54
 70
     1
102
RTVSPropertyOp55
 70
     1
102
RTVSPropertyOp56
 70
     1
102
RTVSPropertyOp57
 70
     1
102
RTVSPropertyOp58
 70
     1
102
RTVSPropertyOp59
 70
     1
102
RTVSPropertyOp60
 70
     1
102
RTVSPropertyOp61
 70
     1
102
RTVSPropertyOp62
 70
     1
  0
XRECORD
  5
145E
102
{ACAD_REACTORS
330
145D
102
}
330
145D
100
AcDbXrecord
280
     1
102
RTVSPost2010Prop28
280
     0
102
RTVSPost2010PropOp28
 70
     1
102
RTVSPost2010Prop29
280
     1
102
RTVSPost2010PropOp29
 70
     1
102
RTVSPost2010Prop30
280
     1
102
RTVSPost2010PropOp30
 70
     1
102
RTVSPost2010Prop31
280
     0
102
RTVSPost2010PropOp31
 70
     1
102
RTVSPost2010Prop32
280
     0
102
RTVSPost2010PropOp32
 70
     1
102
RTVSPost2010Prop33
280
     0
102
RTVSPost2010PropOp33
 70
     1
102
RTVSPost2010Prop34
280
     0
102
RTVSPost2010PropOp34
 70
     1
102
RTVSPost2010Prop35
280
     0
102
RTVSPost2010PropOp35
 70
     1
102
RTVSPost2010Prop36
280
     0
102
RTVSPost2010PropOp36
 70
     1
102
RTVSPost2010Prop37
 90
       50
102
RTVSPost2010PropOp37
 70
     1
102
RTVSPost2010Prop38
140
0.0
102
RTVSPost2010PropOp38
 70
     1
102
RTVSPost2010Prop39
140
1.0
102
RTVSPost2010PropOp39
 70
     1
102
RTVSPost2010Prop40
 90
        0
102
RTVSPost2010PropOp40
 70
     1
102
RTVSPost2010Prop41ColorIndex
 90
       18
102
RTVSPost2010Prop41ColorRGB
 90
        0
102
RTVSPost2010PropOp41
 70
     1
102
RTVSPost2010Prop42
 90
       50
102
RTVSPost2010PropOp42
 70
     1
102
RTVSPost2010Prop43
 90
        3
102
RTVSPost2010PropOp43
 70
     1
102
RTVSPost2010Prop44ColorIndex
 90
        5
102
RTVSPost2010Prop44ColorRGB
 90
      255
102
RTVSPost2010PropOp44
 70
     1
102
RTVSPost2010Prop45
280
     0
102
RTVSPost2010PropOp45
 70
     1
102
RTVSPost2010Prop46
 90
       50
102
RTVSPost2010PropOp46
 70
     1
102
RTVSPost2010Prop47
 90
       50
102
RTVSPost2010PropOp47
 70
     1
102
RTVSPost2010Prop48
 90
       50
102
RTVSPost2010PropOp48
 70
     1
102
RTVSPost2010Prop49
280
     0
102
RTVSPost2010PropOp49
 70
     1
102
RTVSPost2010Prop50
 90
       50
102
RTVSPost2010PropOp50
 70
     1
102
RTVSPost2010Prop51ColorIndex
 90
      256
102
RTVSPost2010Prop51ColorRGB
 90
-16777216
102
RTVSPost2010PropOp51
 70
     0
102
RTVSPost2010Prop52
140
1.0
102
RTVSPost2010PropOp52
 70
     0
102
RTVSPost2010Prop53
 90
        2
102
RTVSPost2010PropOp53
 70
     1
102
RTVSPost2010Prop54
  1
strokes_ogs.tif
102
RTVSPost2010PropOp54
 70
     1
102
RTVSPost2010Prop55
280
     0
102
RTVSPost2010PropOp55
 70
     1
102
RTVSPost2010Prop56
140
1.0
102
RTVSPost2010PropOp56
 70
     1
102
RTVSPost2010Prop57
140
1.0
102
RTVSPost2010PropOp57
 70
     1
102
RTVSPropertyOp0
 70
     1
102
RTVSPropertyOp1
 70
     1
102
RTVSPropertyOp2
 70
     1
102
RTVSPropertyOp3
 70
     1
102
RTVSPropertyOp4
 70
     1
102
RTVSPropertyOp5
 70
     1
102
RTVSPropertyOp6
 70
     1
102
RTVSPropertyOp7
 70
     1
102
RTVSPropertyOp8
 70
     1
102
RTVSPropertyOp9
 70
     1
102
RTVSPropertyOp10
 70
     1
102
RTVSPropertyOp11
 70
     1
102
RTVSPropertyOp12
 70
     1
102
RTVSPropertyOp13
 70
     1
102
RTVSPropertyOp14
 70
     1
102
RTVSPropertyOp15
 70
     1
102
RTVSPropertyOp16
 70
     1
102
RTVSPropertyOp17
 70
     1
102
RTVSPropertyOp18
 70
     1
102
RTVSPropertyOp19
 70
     1
102
RTVSPropertyOp20
 70
     1
102
RTVSPropertyOp21
 70
     1
102
RTVSPropertyOp22
 70
     1
102
RTVSPropertyOp23
 70
     1
102
RTVSPropertyOp24
 70
     1
102
RTVSPropertyOp25
 70
     1
102
RTVSPropertyOp26
 70
     1
102
RTVSPropertyOp27
 70
     1
102
RTVSPropertyOp28
 70
     1
102
RTVSPropertyOp29
 70
     1
102
RTVSPropertyOp30
 70
     1
102
RTVSPropertyOp31
 70
     1
102
RTVSPropertyOp32
 70
     1
102
RTVSPropertyOp33
 70
     1
102
RTVSPropertyOp34
 70
     1
102
RTVSPropertyOp35
 70
     1
102
RTVSPropertyOp36
 70
     1
102
RTVSPropertyOp37
 70
     1
102
RTVSPropertyOp38
 70
     1
102
RTVSPropertyOp39
 70
     1
102
RTVSPropertyOp40
 70
     1
102
RTVSPropertyOp41
 70
     1
102
RTVSPropertyOp42
 70
     1
102
RTVSPropertyOp43
 70
     1
102
RTVSPropertyOp44
 70
     1
102
RTVSPropertyOp45
 70
     1
102
RTVSPropertyOp46
 70
     1
102
RTVSPropertyOp47
 70
     1
102
RTVSPropertyOp48
 70
     1
102
RTVSPropertyOp49
 70
     1
102
RTVSPropertyOp50
 70
     1
102
RTVSPropertyOp51
 70
     0
102
RTVSPropertyOp52
 70
     0
102
RTVSPropertyOp53
 70
     1
102
RTVSPropertyOp54
 70
     1
102
RTVSPropertyOp55
 70
     1
102
RTVSPropertyOp56
 70
     1
102
RTVSPropertyOp57
 70
     1
102
RTVSPropertyOp58
 70
     1
102
RTVSPropertyOp59
 70
     1
102
RTVSPropertyOp60
 70
     1
102
RTVSPropertyOp61
 70
     1
102
RTVSPropertyOp62
 70
     1
  0
XRECORD
  5
1466
102
{ACAD_REACTORS
330
1465
102
}
330
1465
100
AcDbXrecord
280
     1
102
RTVSPost2010Prop28
280
     0
102
RTVSPost2010PropOp28
 70
     1
102
RTVSPost2010Prop29
280
     1
102
RTVSPost2010PropOp29
 70
     1
102
RTVSPost2010Prop30
280
     1
102
RTVSPost2010PropOp30
 70
     1
102
RTVSPost2010Prop31
280
     0
102
RTVSPost2010PropOp31
 70
     1
102
RTVSPost2010Prop32
280
     0
102
RTVSPost2010PropOp32
 70
     1
102
RTVSPost2010Prop33
280
     0
102
RTVSPost2010PropOp33
 70
     1
102
RTVSPost2010Prop34
280
     0
102
RTVSPost2010PropOp34
 70
     1
102
RTVSPost2010Prop35
280
     0
102
RTVSPost2010PropOp35
 70
     1
102
RTVSPost2010Prop36
280
     0
102
RTVSPost2010PropOp36
 70
     1
102
RTVSPost2010Prop37
 90
       50
102
RTVSPost2010PropOp37
 70
     1
102
RTVSPost2010Prop38
140
0.0
102
RTVSPost2010PropOp38
 70
     1
102
RTVSPost2010Prop39
140
1.0
102
RTVSPost2010PropOp39
 70
     1
102
RTVSPost2010Prop40
 90
        0
102
RTVSPost2010PropOp40
 70
     1
102
RTVSPost2010Prop41ColorIndex
 90
       18
102
RTVSPost2010Prop41ColorRGB
 90
        0
102
RTVSPost2010PropOp41
 70
     1
102
RTVSPost2010Prop42
 90
       50
102
RTVSPost2010PropOp42
 70
     1
102
RTVSPost2010Prop43
 90
        3
102
RTVSPost2010PropOp43
 70
     1
102
RTVSPost2010Prop44ColorIndex
 90
        5
102
RTVSPost2010Prop44ColorRGB
 90
      255
102
RTVSPost2010PropOp44
 70
     1
102
RTVSPost2010Prop45
280
     0
102
RTVSPost2010PropOp45
 70
     1
102
RTVSPost2010Prop46
 90
       50
102
RTVSPost2010PropOp46
 70
     1
102
RTVSPost2010Prop47
 90
       50
102
RTVSPost2010PropOp47
 70
     1
102
RTVSPost2010Prop48
 90
       50
102
RTVSPost2010PropOp48
 70
     1
102
RTVSPost2010Prop49
280
     0
102
RTVSPost2010PropOp49
 70
     1
102
RTVSPost2010Prop50
 90
       50
102
RTVSPost2010PropOp50
 70
     1
102
RTVSPost2010Prop51ColorIndex
 90
      256
102
RTVSPost2010Prop51ColorRGB
 90
-16777216
102
RTVSPost2010PropOp51
 70
     0
102
RTVSPost2010Prop52
140
1.0
102
RTVSPost2010PropOp52
 70
     0
102
RTVSPost2010Prop53
 90
        2
102
RTVSPost2010PropOp53
 70
     1
102
RTVSPost2010Prop54
  1
strokes_ogs.tif
102
RTVSPost2010PropOp54
 70
     1
102
RTVSPost2010Prop55
280
     0
102
RTVSPost2010PropOp55
 70
     1
102
RTVSPost2010Prop56
140
1.0
102
RTVSPost2010PropOp56
 70
     1
102
RTVSPost2010Prop57
140
1.0
102
RTVSPost2010PropOp57
 70
     1
102
RTVSPropertyOp0
 70
     1
102
RTVSPropertyOp1
 70
     1
102
RTVSPropertyOp2
 70
     1
102
RTVSPropertyOp3
 70
     1
102
RTVSPropertyOp4
 70
     1
102
RTVSPropertyOp5
 70
     1
102
RTVSPropertyOp6
 70
     1
102
RTVSPropertyOp7
 70
     1
102
RTVSPropertyOp8
 70
     1
102
RTVSPropertyOp9
 70
     1
102
RTVSPropertyOp10
 70
     1
102
RTVSPropertyOp11
 70
     1
102
RTVSPropertyOp12
 70
     1
102
RTVSPropertyOp13
 70
     1
102
RTVSPropertyOp14
 70
     1
102
RTVSPropertyOp15
 70
     1
102
RTVSPropertyOp16
 70
     1
102
RTVSPropertyOp17
 70
     1
102
RTVSPropertyOp18
 70
     1
102
RTVSPropertyOp19
 70
     1
102
RTVSPropertyOp20
 70
     1
102
RTVSPropertyOp21
 70
     1
102
RTVSPropertyOp22
 70
     1
102
RTVSPropertyOp23
 70
     1
102
RTVSPropertyOp24
 70
     1
102
RTVSPropertyOp25
 70
     1
102
RTVSPropertyOp26
 70
     1
102
RTVSPropertyOp27
 70
     1
102
RTVSPropertyOp28
 70
     1
102
RTVSPropertyOp29
 70
     1
102
RTVSPropertyOp30
 70
     1
102
RTVSPropertyOp31
 70
     1
102
RTVSPropertyOp32
 70
     1
102
RTVSPropertyOp33
 70
     1
102
RTVSPropertyOp34
 70
     1
102
RTVSPropertyOp35
 70
     1
102
RTVSPropertyOp36
 70
     1
102
RTVSPropertyOp37
 70
     1
102
RTVSPropertyOp38
 70
     1
102
RTVSPropertyOp39
 70
     1
102
RTVSPropertyOp40
 70
     1
102
RTVSPropertyOp41
 70
     1
102
RTVSPropertyOp42
 70
     1
102
RTVSPropertyOp43
 70
     1
102
RTVSPropertyOp44
 70
     1
102
RTVSPropertyOp45
 70
     1
102
RTVSPropertyOp46
 70
     1
102
RTVSPropertyOp47
 70
     1
102
RTVSPropertyOp48
 70
     1
102
RTVSPropertyOp49
 70
     1
102
RTVSPropertyOp50
 70
     1
102
RTVSPropertyOp51
 70
     0
102
RTVSPropertyOp52
 70
     0
102
RTVSPropertyOp53
 70
     1
102
RTVSPropertyOp54
 70
     1
102
RTVSPropertyOp55
 70
     1
102
RTVSPropertyOp56
 70
     1
102
RTVSPropertyOp57
 70
     1
102
RTVSPropertyOp58
 70
     1
102
RTVSPropertyOp59
 70
     1
102
RTVSPropertyOp60
 70
     1
102
RTVSPropertyOp61
 70
     1
102
RTVSPropertyOp62
 70
     1
  0
XRECORD
  5
1458
102
{ACAD_REACTORS
330
1457
102
}
330
1457
100
AcDbXrecord
280
     1
102
RTVSPost2010Prop28
280
     0
102
RTVSPost2010PropOp28
 70
     1
102
RTVSPost2010Prop29
280
     1
102
RTVSPost2010PropOp29
 70
     1
102
RTVSPost2010Prop30
280
     1
102
RTVSPost2010PropOp30
 70
     1
102
RTVSPost2010Prop31
280
     0
102
RTVSPost2010PropOp31
 70
     1
102
RTVSPost2010Prop32
280
     0
102
RTVSPost2010PropOp32
 70
     1
102
RTVSPost2010Prop33
280
     0
102
RTVSPost2010PropOp33
 70
     1
102
RTVSPost2010Prop34
280
     0
102
RTVSPost2010PropOp34
 70
     1
102
RTVSPost2010Prop35
280
     0
102
RTVSPost2010PropOp35
 70
     1
102
RTVSPost2010Prop36
280
     0
102
RTVSPost2010PropOp36
 70
     1
102
RTVSPost2010Prop37
 90
       50
102
RTVSPost2010PropOp37
 70
     1
102
RTVSPost2010Prop38
140
0.0
102
RTVSPost2010PropOp38
 70
     1
102
RTVSPost2010Prop39
140
1.0
102
RTVSPost2010PropOp39
 70
     1
102
RTVSPost2010Prop40
 90
        0
102
RTVSPost2010PropOp40
 70
     1
102
RTVSPost2010Prop41ColorIndex
 90
       18
102
RTVSPost2010Prop41ColorRGB
 90
        0
102
RTVSPost2010PropOp41
 70
     1
102
RTVSPost2010Prop42
 90
       50
102
RTVSPost2010PropOp42
 70
     1
102
RTVSPost2010Prop43
 90
        3
102
RTVSPost2010PropOp43
 70
     1
102
RTVSPost2010Prop44ColorIndex
 90
        5
102
RTVSPost2010Prop44ColorRGB
 90
      255
102
RTVSPost2010PropOp44
 70
     1
102
RTVSPost2010Prop45
280
     0
102
RTVSPost2010PropOp45
 70
     1
102
RTVSPost2010Prop46
 90
       50
102
RTVSPost2010PropOp46
 70
     1
102
RTVSPost2010Prop47
 90
       50
102
RTVSPost2010PropOp47
 70
     1
102
RTVSPost2010Prop48
 90
       50
102
RTVSPost2010PropOp48
 70
     1
102
RTVSPost2010Prop49
280
     0
102
RTVSPost2010PropOp49
 70
     1
102
RTVSPost2010Prop50
 90
       50
102
RTVSPost2010PropOp50
 70
     1
102
RTVSPost2010Prop51ColorIndex
 90
      256
102
RTVSPost2010Prop51ColorRGB
 90
-16777216
102
RTVSPost2010PropOp51
 70
     0
102
RTVSPost2010Prop52
140
1.0
102
RTVSPost2010PropOp52
 70
     0
102
RTVSPost2010Prop53
 90
        2
102
RTVSPost2010PropOp53
 70
     1
102
RTVSPost2010Prop54
  1
strokes_ogs.tif
102
RTVSPost2010PropOp54
 70
     1
102
RTVSPost2010Prop55
280
     0
102
RTVSPost2010PropOp55
 70
     1
102
RTVSPost2010Prop56
140
1.0
102
RTVSPost2010PropOp56
 70
     1
102
RTVSPost2010Prop57
140
1.0
102
RTVSPost2010PropOp57
 70
     1
102
RTVSPropertyOp0
 70
     1
102
RTVSPropertyOp1
 70
     1
102
RTVSPropertyOp2
 70
     1
102
RTVSPropertyOp3
 70
     1
102
RTVSPropertyOp4
 70
     1
102
RTVSPropertyOp5
 70
     1
102
RTVSPropertyOp6
 70
     1
102
RTVSPropertyOp7
 70
     1
102
RTVSPropertyOp8
 70
     1
102
RTVSPropertyOp9
 70
     1
102
RTVSPropertyOp10
 70
     1
102
RTVSPropertyOp11
 70
     1
102
RTVSPropertyOp12
 70
     1
102
RTVSPropertyOp13
 70
     1
102
RTVSPropertyOp14
 70
     1
102
RTVSPropertyOp15
 70
     1
102
RTVSPropertyOp16
 70
     1
102
RTVSPropertyOp17
 70
     1
102
RTVSPropertyOp18
 70
     1
102
RTVSPropertyOp19
 70
     1
102
RTVSPropertyOp20
 70
     1
102
RTVSPropertyOp21
 70
     1
102
RTVSPropertyOp22
 70
     1
102
RTVSPropertyOp23
 70
     1
102
RTVSPropertyOp24
 70
     1
102
RTVSPropertyOp25
 70
     1
102
RTVSPropertyOp26
 70
     1
102
RTVSPropertyOp27
 70
     1
102
RTVSPropertyOp28
 70
     1
102
RTVSPropertyOp29
 70
     1
102
RTVSPropertyOp30
 70
     1
102
RTVSPropertyOp31
 70
     1
102
RTVSPropertyOp32
 70
     1
102
RTVSPropertyOp33
 70
     1
102
RTVSPropertyOp34
 70
     1
102
RTVSPropertyOp35
 70
     1
102
RTVSPropertyOp36
 70
     1
102
RTVSPropertyOp37
 70
     1
102
RTVSPropertyOp38
 70
     1
102
RTVSPropertyOp39
 70
     1
102
RTVSPropertyOp40
 70
     1
102
RTVSPropertyOp41
 70
     1
102
RTVSPropertyOp42
 70
     1
102
RTVSPropertyOp43
 70
     1
102
RTVSPropertyOp44
 70
     1
102
RTVSPropertyOp45
 70
     1
102
RTVSPropertyOp46
 70
     1
102
RTVSPropertyOp47
 70
     1
102
RTVSPropertyOp48
 70
     1
102
RTVSPropertyOp49
 70
     1
102
RTVSPropertyOp50
 70
     1
102
RTVSPropertyOp51
 70
     0
102
RTVSPropertyOp52
 70
     0
102
RTVSPropertyOp53
 70
     1
102
RTVSPropertyOp54
 70
     1
102
RTVSPropertyOp55
 70
     1
102
RTVSPropertyOp56
 70
     1
102
RTVSPropertyOp57
 70
     1
102
RTVSPropertyOp58
 70
     1
102
RTVSPropertyOp59
 70
     1
102
RTVSPropertyOp60
 70
     1
102
RTVSPropertyOp61
 70
     1
102
RTVSPropertyOp62
 70
     1
  0
XRECORD
  5
145C
102
{ACAD_REACTORS
330
145B
102
}
330
145B
100
AcDbXrecord
280
     1
102
RTVSPost2010Prop28
280
     0
102
RTVSPost2010PropOp28
 70
     1
102
RTVSPost2010Prop29
280
     1
102
RTVSPost2010PropOp29
 70
     1
102
RTVSPost2010Prop30
280
     1
102
RTVSPost2010PropOp30
 70
     1
102
RTVSPost2010Prop31
280
     0
102
RTVSPost2010PropOp31
 70
     1
102
RTVSPost2010Prop32
280
     0
102
RTVSPost2010PropOp32
 70
     1
102
RTVSPost2010Prop33
280
     0
102
RTVSPost2010PropOp33
 70
     1
102
RTVSPost2010Prop34
280
     0
102
RTVSPost2010PropOp34
 70
     1
102
RTVSPost2010Prop35
280
     0
102
RTVSPost2010PropOp35
 70
     1
102
RTVSPost2010Prop36
280
     0
102
RTVSPost2010PropOp36
 70
     1
102
RTVSPost2010Prop37
 90
       50
102
RTVSPost2010PropOp37
 70
     1
102
RTVSPost2010Prop38
140
0.0
102
RTVSPost2010PropOp38
 70
     1
102
RTVSPost2010Prop39
140
1.0
102
RTVSPost2010PropOp39
 70
     1
102
RTVSPost2010Prop40
 90
        0
102
RTVSPost2010PropOp40
 70
     1
102
RTVSPost2010Prop41ColorIndex
 90
       18
102
RTVSPost2010Prop41ColorRGB
 90
        0
102
RTVSPost2010PropOp41
 70
     1
102
RTVSPost2010Prop42
 90
       50
102
RTVSPost2010PropOp42
 70
     1
102
RTVSPost2010Prop43
 90
        3
102
RTVSPost2010PropOp43
 70
     1
102
RTVSPost2010Prop44ColorIndex
 90
        5
102
RTVSPost2010Prop44ColorRGB
 90
      255
102
RTVSPost2010PropOp44
 70
     1
102
RTVSPost2010Prop45
280
     0
102
RTVSPost2010PropOp45
 70
     1
102
RTVSPost2010Prop46
 90
       50
102
RTVSPost2010PropOp46
 70
     1
102
RTVSPost2010Prop47
 90
       50
102
RTVSPost2010PropOp47
 70
     1
102
RTVSPost2010Prop48
 90
       50
102
RTVSPost2010PropOp48
 70
     1
102
RTVSPost2010Prop49
280
     0
102
RTVSPost2010PropOp49
 70
     1
102
RTVSPost2010Prop50
 90
       50
102
RTVSPost2010PropOp50
 70
     1
102
RTVSPost2010Prop51ColorIndex
 90
      256
102
RTVSPost2010Prop51ColorRGB
 90
-16777216
102
RTVSPost2010PropOp51
 70
     0
102
RTVSPost2010Prop52
140
1.0
102
RTVSPost2010PropOp52
 70
     0
102
RTVSPost2010Prop53
 90
        2
102
RTVSPost2010PropOp53
 70
     1
102
RTVSPost2010Prop54
  1
strokes_ogs.tif
102
RTVSPost2010PropOp54
 70
     1
102
RTVSPost2010Prop55
280
     0
102
RTVSPost2010PropOp55
 70
     1
102
RTVSPost2010Prop56
140
1.0
102
RTVSPost2010PropOp56
 70
     1
102
RTVSPost2010Prop57
140
1.0
102
RTVSPost2010PropOp57
 70
     1
102
RTVSPropertyOp0
 70
     1
102
RTVSPropertyOp1
 70
     1
102
RTVSPropertyOp2
 70
     1
102
RTVSPropertyOp3
 70
     1
102
RTVSPropertyOp4
 70
     1
102
RTVSPropertyOp5
 70
     1
102
RTVSPropertyOp6
 70
     1
102
RTVSPropertyOp7
 70
     1
102
RTVSPropertyOp8
 70
     1
102
RTVSPropertyOp9
 70
     1
102
RTVSPropertyOp10
 70
     1
102
RTVSPropertyOp11
 70
     1
102
RTVSPropertyOp12
 70
     1
102
RTVSPropertyOp13
 70
     1
102
RTVSPropertyOp14
 70
     1
102
RTVSPropertyOp15
 70
     1
102
RTVSPropertyOp16
 70
     1
102
RTVSPropertyOp17
 70
     1
102
RTVSPropertyOp18
 70
     1
102
RTVSPropertyOp19
 70
     1
102
RTVSPropertyOp20
 70
     1
102
RTVSPropertyOp21
 70
     1
102
RTVSPropertyOp22
 70
     1
102
RTVSPropertyOp23
 70
     1
102
RTVSPropertyOp24
 70
     1
102
RTVSPropertyOp25
 70
     1
102
RTVSPropertyOp26
 70
     1
102
RTVSPropertyOp27
 70
     1
102
RTVSPropertyOp28
 70
     1
102
RTVSPropertyOp29
 70
     1
102
RTVSPropertyOp30
 70
     1
102
RTVSPropertyOp31
 70
     1
102
RTVSPropertyOp32
 70
     1
102
RTVSPropertyOp33
 70
     1
102
RTVSPropertyOp34
 70
     1
102
RTVSPropertyOp35
 70
     1
102
RTVSPropertyOp36
 70
     1
102
RTVSPropertyOp37
 70
     1
102
RTVSPropertyOp38
 70
     1
102
RTVSPropertyOp39
 70
     1
102
RTVSPropertyOp40
 70
     1
102
RTVSPropertyOp41
 70
     1
102
RTVSPropertyOp42
 70
     1
102
RTVSPropertyOp43
 70
     1
102
RTVSPropertyOp44
 70
     1
102
RTVSPropertyOp45
 70
     1
102
RTVSPropertyOp46
 70
     1
102
RTVSPropertyOp47
 70
     1
102
RTVSPropertyOp48
 70
     1
102
RTVSPropertyOp49
 70
     1
102
RTVSPropertyOp50
 70
     1
102
RTVSPropertyOp51
 70
     0
102
RTVSPropertyOp52
 70
     0
102
RTVSPropertyOp53
 70
     1
102
RTVSPropertyOp54
 70
     1
102
RTVSPropertyOp55
 70
     1
102
RTVSPropertyOp56
 70
     1
102
RTVSPropertyOp57
 70
     1
102
RTVSPropertyOp58
 70
     1
102
RTVSPropertyOp59
 70
     1
102
RTVSPropertyOp60
 70
     1
102
RTVSPropertyOp61
 70
     1
102
RTVSPropertyOp62
 70
     1
  0
XRECORD
  5
147B
102
{ACAD_REACTORS
330
147A
102
}
330
147A
100
AcDbXrecord
280
     1
102
RTVSPost2010Prop28
280
     0
102
RTVSPost2010PropOp28
 70
     0
102
RTVSPost2010Prop29
280
     1
102
RTVSPost2010PropOp29
 70
     0
102
RTVSPost2010Prop30
280
     1
102
RTVSPost2010PropOp30
 70
     0
102
RTVSPost2010Prop31
280
     0
102
RTVSPost2010PropOp31
 70
     0
102
RTVSPost2010Prop32
280
     0
102
RTVSPost2010PropOp32
 70
     0
102
RTVSPost2010Prop33
280
     0
102
RTVSPost2010PropOp33
 70
     0
102
RTVSPost2010Prop34
280
     0
102
RTVSPost2010PropOp34
 70
     0
102
RTVSPost2010Prop35
280
     0
102
RTVSPost2010PropOp35
 70
     0
102
RTVSPost2010Prop36
280
     0
102
RTVSPost2010PropOp36
 70
     0
102
RTVSPost2010Prop37
 90
       50
102
RTVSPost2010PropOp37
 70
     0
102
RTVSPost2010Prop38
140
0.0
102
RTVSPost2010PropOp38
 70
     0
102
RTVSPost2010Prop39
140
1.0
102
RTVSPost2010PropOp39
 70
     0
102
RTVSPost2010Prop40
 90
        0
102
RTVSPost2010PropOp40
 70
     0
102
RTVSPost2010Prop41ColorIndex
 90
       18
102
RTVSPost2010Prop41ColorRGB
 90
        0
102
RTVSPost2010PropOp41
 70
     0
102
RTVSPost2010Prop42
 90
       50
102
RTVSPost2010PropOp42
 70
     0
102
RTVSPost2010Prop43
 90
        3
102
RTVSPost2010PropOp43
 70
     0
102
RTVSPost2010Prop44ColorIndex
 90
        5
102
RTVSPost2010Prop44ColorRGB
 90
      255
102
RTVSPost2010PropOp44
 70
     0
102
RTVSPost2010Prop45
280
     0
102
RTVSPost2010PropOp45
 70
     0
102
RTVSPost2010Prop46
 90
       50
102
RTVSPost2010PropOp46
 70
     0
102
RTVSPost2010Prop47
 90
       50
102
RTVSPost2010PropOp47
 70
     0
102
RTVSPost2010Prop48
 90
       50
102
RTVSPost2010PropOp48
 70
     0
102
RTVSPost2010Prop49
280
     0
102
RTVSPost2010PropOp49
 70
     0
102
RTVSPost2010Prop50
 90
       50
102
RTVSPost2010PropOp50
 70
     0
102
RTVSPost2010Prop51ColorIndex
 90
      256
102
RTVSPost2010Prop51ColorRGB
 90
-16777216
102
RTVSPost2010PropOp51
 70
     0
102
RTVSPost2010Prop52
140
1.0
102
RTVSPost2010PropOp52
 70
     0
102
RTVSPost2010Prop53
 90
        2
102
RTVSPost2010PropOp53
 70
     0
102
RTVSPost2010Prop54
  1
strokes_ogs.tif
102
RTVSPost2010PropOp54
 70
     0
102
RTVSPost2010Prop55
280
     0
102
RTVSPost2010PropOp55
 70
     0
102
RTVSPost2010Prop56
140
1.0
102
RTVSPost2010PropOp56
 70
     0
102
RTVSPost2010Prop57
140
1.0
102
RTVSPost2010PropOp57
 70
     0
102
RTVSPropertyOp0
 70
     0
102
RTVSPropertyOp1
 70
     0
102
RTVSPropertyOp2
 70
     0
102
RTVSPropertyOp3
 70
     0
102
RTVSPropertyOp4
 70
     0
102
RTVSPropertyOp5
 70
     0
102
RTVSPropertyOp6
 70
     0
102
RTVSPropertyOp7
 70
     0
102
RTVSPropertyOp8
 70
     0
102
RTVSPropertyOp9
 70
     0
102
RTVSPropertyOp10
 70
     0
102
RTVSPropertyOp11
 70
     0
102
RTVSPropertyOp12
 70
     0
102
RTVSPropertyOp13
 70
     0
102
RTVSPropertyOp14
 70
     2
102
RTVSPropertyOp15
 70
     0
102
RTVSPropertyOp16
 70
     0
102
RTVSPropertyOp17
 70
     0
102
RTVSPropertyOp18
 70
     0
102
RTVSPropertyOp19
 70
     0
102
RTVSPropertyOp20
 70
     0
102
RTVSPropertyOp21
 70
     0
102
RTVSPropertyOp22
 70
     0
102
RTVSPropertyOp23
 70
     0
102
RTVSPropertyOp24
 70
     0
102
RTVSPropertyOp25
 70
     0
102
RTVSPropertyOp26
 70
     0
102
RTVSPropertyOp27
 70
     0
102
RTVSPropertyOp28
 70
     0
102
RTVSPropertyOp29
 70
     0
102
RTVSPropertyOp30
 70
     0
102
RTVSPropertyOp31
 70
     0
102
RTVSPropertyOp32
 70
     0
102
RTVSPropertyOp33
 70
     0
102
RTVSPropertyOp34
 70
     0
102
RTVSPropertyOp35
 70
     0
102
RTVSPropertyOp36
 70
     0
102
RTVSPropertyOp37
 70
     0
102
RTVSPropertyOp38
 70
     0
102
RTVSPropertyOp39
 70
     0
102
RTVSPropertyOp40
 70
     0
102
RTVSPropertyOp41
 70
     0
102
RTVSPropertyOp42
 70
     0
102
RTVSPropertyOp43
 70
     0
102
RTVSPropertyOp44
 70
     0
102
RTVSPropertyOp45
 70
     0
102
RTVSPropertyOp46
 70
     0
102
RTVSPropertyOp47
 70
     0
102
RTVSPropertyOp48
 70
     0
102
RTVSPropertyOp49
 70
     0
102
RTVSPropertyOp50
 70
     0
102
RTVSPropertyOp51
 70
     0
102
RTVSPropertyOp52
 70
     0
102
RTVSPropertyOp53
 70
     0
102
RTVSPropertyOp54
 70
     0
102
RTVSPropertyOp55
 70
     0
102
RTVSPropertyOp56
 70
     0
102
RTVSPropertyOp57
 70
     0
102
RTVSPropertyOp58
 70
     0
102
RTVSPropertyOp59
 70
     0
102
RTVSPropertyOp60
 70
     0
102
RTVSPropertyOp61
 70
     0
102
RTVSPropertyOp62
 70
     0
  0
XRECORD
  5
1464
102
{ACAD_REACTORS
330
1463
102
}
330
1463
100
AcDbXrecord
280
     1
102
RTVSPost2010Prop28
280
     0
102
RTVSPost2010PropOp28
 70
     1
102
RTVSPost2010Prop29
280
     1
102
RTVSPost2010PropOp29
 70
     1
102
RTVSPost2010Prop30
280
     1
102
RTVSPost2010PropOp30
 70
     1
102
RTVSPost2010Prop31
280
     0
102
RTVSPost2010PropOp31
 70
     1
102
RTVSPost2010Prop32
280
     0
102
RTVSPost2010PropOp32
 70
     1
102
RTVSPost2010Prop33
280
     0
102
RTVSPost2010PropOp33
 70
     1
102
RTVSPost2010Prop34
280
     0
102
RTVSPost2010PropOp34
 70
     1
102
RTVSPost2010Prop35
280
     0
102
RTVSPost2010PropOp35
 70
     1
102
RTVSPost2010Prop36
280
     0
102
RTVSPost2010PropOp36
 70
     1
102
RTVSPost2010Prop37
 90
       50
102
RTVSPost2010PropOp37
 70
     1
102
RTVSPost2010Prop38
140
0.0
102
RTVSPost2010PropOp38
 70
     1
102
RTVSPost2010Prop39
140
1.0
102
RTVSPost2010PropOp39
 70
     1
102
RTVSPost2010Prop40
 90
        0
102
RTVSPost2010PropOp40
 70
     1
102
RTVSPost2010Prop41ColorIndex
 90
       18
102
RTVSPost2010Prop41ColorRGB
 90
        0
102
RTVSPost2010PropOp41
 70
     1
102
RTVSPost2010Prop42
 90
       50
102
RTVSPost2010PropOp42
 70
     1
102
RTVSPost2010Prop43
 90
        3
102
RTVSPost2010PropOp43
 70
     1
102
RTVSPost2010Prop44ColorIndex
 90
        5
102
RTVSPost2010Prop44ColorRGB
 90
      255
102
RTVSPost2010PropOp44
 70
     1
102
RTVSPost2010Prop45
280
     0
102
RTVSPost2010PropOp45
 70
     1
102
RTVSPost2010Prop46
 90
       50
102
RTVSPost2010PropOp46
 70
     1
102
RTVSPost2010Prop47
 90
       50
102
RTVSPost2010PropOp47
 70
     1
102
RTVSPost2010Prop48
 90
       50
102
RTVSPost2010PropOp48
 70
     1
102
RTVSPost2010Prop49
280
     0
102
RTVSPost2010PropOp49
 70
     1
102
RTVSPost2010Prop50
 90
       50
102
RTVSPost2010PropOp50
 70
     1
102
RTVSPost2010Prop51ColorIndex
 90
      256
102
RTVSPost2010Prop51ColorRGB
 90
-16777216
102
RTVSPost2010PropOp51
 70
     0
102
RTVSPost2010Prop52
140
1.0
102
RTVSPost2010PropOp52
 70
     0
102
RTVSPost2010Prop53
 90
        2
102
RTVSPost2010PropOp53
 70
     1
102
RTVSPost2010Prop54
  1
strokes_ogs.tif
102
RTVSPost2010PropOp54
 70
     1
102
RTVSPost2010Prop55
280
     0
102
RTVSPost2010PropOp55
 70
     1
102
RTVSPost2010Prop56
140
1.0
102
RTVSPost2010PropOp56
 70
     1
102
RTVSPost2010Prop57
140
1.0
102
RTVSPost2010PropOp57
 70
     1
102
RTVSPropertyOp0
 70
     1
102
RTVSPropertyOp1
 70
     1
102
RTVSPropertyOp2
 70
     1
102
RTVSPropertyOp3
 70
     1
102
RTVSPropertyOp4
 70
     1
102
RTVSPropertyOp5
 70
     1
102
RTVSPropertyOp6
 70
     1
102
RTVSPropertyOp7
 70
     1
102
RTVSPropertyOp8
 70
     1
102
RTVSPropertyOp9
 70
     1
102
RTVSPropertyOp10
 70
     1
102
RTVSPropertyOp11
 70
     1
102
RTVSPropertyOp12
 70
     1
102
RTVSPropertyOp13
 70
     1
102
RTVSPropertyOp14
 70
     1
102
RTVSPropertyOp15
 70
     1
102
RTVSPropertyOp16
 70
     1
102
RTVSPropertyOp17
 70
     1
102
RTVSPropertyOp18
 70
     1
102
RTVSPropertyOp19
 70
     1
102
RTVSPropertyOp20
 70
     1
102
RTVSPropertyOp21
 70
     1
102
RTVSPropertyOp22
 70
     1
102
RTVSPropertyOp23
 70
     1
102
RTVSPropertyOp24
 70
     1
102
RTVSPropertyOp25
 70
     1
102
RTVSPropertyOp26
 70
     1
102
RTVSPropertyOp27
 70
     1
102
RTVSPropertyOp28
 70
     1
102
RTVSPropertyOp29
 70
     1
102
RTVSPropertyOp30
 70
     1
102
RTVSPropertyOp31
 70
     1
102
RTVSPropertyOp32
 70
     1
102
RTVSPropertyOp33
 70
     1
102
RTVSPropertyOp34
 70
     1
102
RTVSPropertyOp35
 70
     1
102
RTVSPropertyOp36
 70
     1
102
RTVSPropertyOp37
 70
     1
102
RTVSPropertyOp38
 70
     1
102
RTVSPropertyOp39
 70
     1
102
RTVSPropertyOp40
 70
     1
102
RTVSPropertyOp41
 70
     1
102
RTVSPropertyOp42
 70
     1
102
RTVSPropertyOp43
 70
     1
102
RTVSPropertyOp44
 70
     1
102
RTVSPropertyOp45
 70
     1
102
RTVSPropertyOp46
 70
     1
102
RTVSPropertyOp47
 70
     1
102
RTVSPropertyOp48
 70
     1
102
RTVSPropertyOp49
 70
     1
102
RTVSPropertyOp50
 70
     1
102
RTVSPropertyOp51
 70
     0
102
RTVSPropertyOp52
 70
     0
102
RTVSPropertyOp53
 70
     1
102
RTVSPropertyOp54
 70
     1
102
RTVSPropertyOp55
 70
     1
102
RTVSPropertyOp56
 70
     1
102
RTVSPropertyOp57
 70
     1
102
RTVSPropertyOp58
 70
     1
102
RTVSPropertyOp59
 70
     1
102
RTVSPropertyOp60
 70
     1
102
RTVSPropertyOp61
 70
     1
102
RTVSPropertyOp62
 70
     1
  0
XRECORD
  5
1448
102
{ACAD_REACTORS
330
1447
102
}
330
1447
100
AcDbXrecord
280
     1
102
RTVSPost2010Prop28
280
     0
102
RTVSPost2010PropOp28
 70
     1
102
RTVSPost2010Prop29
280
     1
102
RTVSPost2010PropOp29
 70
     1
102
RTVSPost2010Prop30
280
     1
102
RTVSPost2010PropOp30
 70
     1
102
RTVSPost2010Prop31
280
     0
102
RTVSPost2010PropOp31
 70
     1
102
RTVSPost2010Prop32
280
     0
102
RTVSPost2010PropOp32
 70
     1
102
RTVSPost2010Prop33
280
     0
102
RTVSPost2010PropOp33
 70
     1
102
RTVSPost2010Prop34
280
     0
102
RTVSPost2010PropOp34
 70
     1
102
RTVSPost2010Prop35
280
     0
102
RTVSPost2010PropOp35
 70
     1
102
RTVSPost2010Prop36
280
     0
102
RTVSPost2010PropOp36
 70
     1
102
RTVSPost2010Prop37
 90
       50
102
RTVSPost2010PropOp37
 70
     1
102
RTVSPost2010Prop38
140
0.0
102
RTVSPost2010PropOp38
 70
     1
102
RTVSPost2010Prop39
140
1.0
102
RTVSPost2010PropOp39
 70
     1
102
RTVSPost2010Prop40
 90
        0
102
RTVSPost2010PropOp40
 70
     1
102
RTVSPost2010Prop41ColorIndex
 90
       18
102
RTVSPost2010Prop41ColorRGB
 90
        0
102
RTVSPost2010PropOp41
 70
     1
102
RTVSPost2010Prop42
 90
       50
102
RTVSPost2010PropOp42
 70
     1
102
RTVSPost2010Prop43
 90
        3
102
RTVSPost2010PropOp43
 70
     1
102
RTVSPost2010Prop44ColorIndex
 90
        5
102
RTVSPost2010Prop44ColorRGB
 90
      255
102
RTVSPost2010PropOp44
 70
     1
102
RTVSPost2010Prop45
280
     0
102
RTVSPost2010PropOp45
 70
     1
102
RTVSPost2010Prop46
 90
       50
102
RTVSPost2010PropOp46
 70
     1
102
RTVSPost2010Prop47
 90
       50
102
RTVSPost2010PropOp47
 70
     1
102
RTVSPost2010Prop48
 90
       50
102
RTVSPost2010PropOp48
 70
     1
102
RTVSPost2010Prop49
280
     0
102
RTVSPost2010PropOp49
 70
     1
102
RTVSPost2010Prop50
 90
       50
102
RTVSPost2010PropOp50
 70
     1
102
RTVSPost2010Prop51ColorIndex
 90
      256
102
RTVSPost2010Prop51ColorRGB
 90
-16777216
102
RTVSPost2010PropOp51
 70
     0
102
RTVSPost2010Prop52
140
1.0
102
RTVSPost2010PropOp52
 70
     0
102
RTVSPost2010Prop53
 90
        2
102
RTVSPost2010PropOp53
 70
     1
102
RTVSPost2010Prop54
  1
strokes_ogs.tif
102
RTVSPost2010PropOp54
 70
     1
102
RTVSPost2010Prop55
280
     0
102
RTVSPost2010PropOp55
 70
     1
102
RTVSPost2010Prop56
140
1.0
102
RTVSPost2010PropOp56
 70
     1
102
RTVSPost2010Prop57
140
1.0
102
RTVSPost2010PropOp57
 70
     1
102
RTVSPropertyOp0
 70
     1
102
RTVSPropertyOp1
 70
     1
102
RTVSPropertyOp2
 70
     1
102
RTVSPropertyOp3
 70
     1
102
RTVSPropertyOp4
 70
     1
102
RTVSPropertyOp5
 70
     1
102
RTVSPropertyOp6
 70
     1
102
RTVSPropertyOp7
 70
     1
102
RTVSPropertyOp8
 70
     1
102
RTVSPropertyOp9
 70
     1
102
RTVSPropertyOp10
 70
     1
102
RTVSPropertyOp11
 70
     1
102
RTVSPropertyOp12
 70
     1
102
RTVSPropertyOp13
 70
     1
102
RTVSPropertyOp14
 70
     1
102
RTVSPropertyOp15
 70
     1
102
RTVSPropertyOp16
 70
     1
102
RTVSPropertyOp17
 70
     1
102
RTVSPropertyOp18
 70
     1
102
RTVSPropertyOp19
 70
     1
102
RTVSPropertyOp20
 70
     1
102
RTVSPropertyOp21
 70
     1
102
RTVSPropertyOp22
 70
     1
102
RTVSPropertyOp23
 70
     1
102
RTVSPropertyOp24
 70
     1
102
RTVSPropertyOp25
 70
     1
102
RTVSPropertyOp26
 70
     1
102
RTVSPropertyOp27
 70
     1
102
RTVSPropertyOp28
 70
     1
102
RTVSPropertyOp29
 70
     1
102
RTVSPropertyOp30
 70
     1
102
RTVSPropertyOp31
 70
     1
102
RTVSPropertyOp32
 70
     1
102
RTVSPropertyOp33
 70
     1
102
RTVSPropertyOp34
 70
     1
102
RTVSPropertyOp35
 70
     1
102
RTVSPropertyOp36
 70
     1
102
RTVSPropertyOp37
 70
     1
102
RTVSPropertyOp38
 70
     1
102
RTVSPropertyOp39
 70
     1
102
RTVSPropertyOp40
 70
     1
102
RTVSPropertyOp41
 70
     1
102
RTVSPropertyOp42
 70
     1
102
RTVSPropertyOp43
 70
     1
102
RTVSPropertyOp44
 70
     1
102
RTVSPropertyOp45
 70
     1
102
RTVSPropertyOp46
 70
     1
102
RTVSPropertyOp47
 70
     1
102
RTVSPropertyOp48
 70
     1
102
RTVSPropertyOp49
 70
     1
102
RTVSPropertyOp50
 70
     1
102
RTVSPropertyOp51
 70
     0
102
RTVSPropertyOp52
 70
     0
102
RTVSPropertyOp53
 70
     1
102
RTVSPropertyOp54
 70
     1
102
RTVSPropertyOp55
 70
     1
102
RTVSPropertyOp56
 70
     1
102
RTVSPropertyOp57
 70
     1
102
RTVSPropertyOp58
 70
     1
102
RTVSPropertyOp59
 70
     1
102
RTVSPropertyOp60
 70
     1
102
RTVSPropertyOp61
 70
     1
102
RTVSPropertyOp62
 70
     1
  0
XRECORD
  5
144A
102
{ACAD_REACTORS
330
1449
102
}
330
1449
100
AcDbXrecord
280
     1
102
RTVSPost2010Prop28
280
     0
102
RTVSPost2010PropOp28
 70
     1
102
RTVSPost2010Prop29
280
     1
102
RTVSPost2010PropOp29
 70
     1
102
RTVSPost2010Prop30
280
     1
102
RTVSPost2010PropOp30
 70
     1
102
RTVSPost2010Prop31
280
     0
102
RTVSPost2010PropOp31
 70
     1
102
RTVSPost2010Prop32
280
     0
102
RTVSPost2010PropOp32
 70
     1
102
RTVSPost2010Prop33
280
     0
102
RTVSPost2010PropOp33
 70
     1
102
RTVSPost2010Prop34
280
     0
102
RTVSPost2010PropOp34
 70
     1
102
RTVSPost2010Prop35
280
     0
102
RTVSPost2010PropOp35
 70
     1
102
RTVSPost2010Prop36
280
     0
102
RTVSPost2010PropOp36
 70
     1
102
RTVSPost2010Prop37
 90
       50
102
RTVSPost2010PropOp37
 70
     1
102
RTVSPost2010Prop38
140
0.0
102
RTVSPost2010PropOp38
 70
     1
102
RTVSPost2010Prop39
140
1.0
102
RTVSPost2010PropOp39
 70
     1
102
RTVSPost2010Prop40
 90
        0
102
RTVSPost2010PropOp40
 70
     1
102
RTVSPost2010Prop41ColorIndex
 90
       18
102
RTVSPost2010Prop41ColorRGB
 90
        0
102
RTVSPost2010PropOp41
 70
     1
102
RTVSPost2010Prop42
 90
       50
102
RTVSPost2010PropOp42
 70
     1
102
RTVSPost2010Prop43
 90
        3
102
RTVSPost2010PropOp43
 70
     1
102
RTVSPost2010Prop44ColorIndex
 90
        5
102
RTVSPost2010Prop44ColorRGB
 90
      255
102
RTVSPost2010PropOp44
 70
     1
102
RTVSPost2010Prop45
280
     0
102
RTVSPost2010PropOp45
 70
     1
102
RTVSPost2010Prop46
 90
       50
102
RTVSPost2010PropOp46
 70
     1
102
RTVSPost2010Prop47
 90
       50
102
RTVSPost2010PropOp47
 70
     1
102
RTVSPost2010Prop48
 90
       50
102
RTVSPost2010PropOp48
 70
     1
102
RTVSPost2010Prop49
280
     0
102
RTVSPost2010PropOp49
 70
     1
102
RTVSPost2010Prop50
 90
       50
102
RTVSPost2010PropOp50
 70
     1
102
RTVSPost2010Prop51ColorIndex
 90
      256
102
RTVSPost2010Prop51ColorRGB
 90
-16777216
102
RTVSPost2010PropOp51
 70
     0
102
RTVSPost2010Prop52
140
1.0
102
RTVSPost2010PropOp52
 70
     0
102
RTVSPost2010Prop53
 90
        2
102
RTVSPost2010PropOp53
 70
     1
102
RTVSPost2010Prop54
  1
strokes_ogs.tif
102
RTVSPost2010PropOp54
 70
     1
102
RTVSPost2010Prop55
280
     0
102
RTVSPost2010PropOp55
 70
     1
102
RTVSPost2010Prop56
140
1.0
102
RTVSPost2010PropOp56
 70
     1
102
RTVSPost2010Prop57
140
1.0
102
RTVSPost2010PropOp57
 70
     1
102
RTVSPropertyOp0
 70
     1
102
RTVSPropertyOp1
 70
     1
102
RTVSPropertyOp2
 70
     1
102
RTVSPropertyOp3
 70
     1
102
RTVSPropertyOp4
 70
     1
102
RTVSPropertyOp5
 70
     1
102
RTVSPropertyOp6
 70
     1
102
RTVSPropertyOp7
 70
     1
102
RTVSPropertyOp8
 70
     1
102
RTVSPropertyOp9
 70
     1
102
RTVSPropertyOp10
 70
     1
102
RTVSPropertyOp11
 70
     1
102
RTVSPropertyOp12
 70
     1
102
RTVSPropertyOp13
 70
     1
102
RTVSPropertyOp14
 70
     1
102
RTVSPropertyOp15
 70
     1
102
RTVSPropertyOp16
 70
     1
102
RTVSPropertyOp17
 70
     1
102
RTVSPropertyOp18
 70
     1
102
RTVSPropertyOp19
 70
     1
102
RTVSPropertyOp20
 70
     1
102
RTVSPropertyOp21
 70
     1
102
RTVSPropertyOp22
 70
     1
102
RTVSPropertyOp23
 70
     1
102
RTVSPropertyOp24
 70
     1
102
RTVSPropertyOp25
 70
     1
102
RTVSPropertyOp26
 70
     1
102
RTVSPropertyOp27
 70
     1
102
RTVSPropertyOp28
 70
     1
102
RTVSPropertyOp29
 70
     1
102
RTVSPropertyOp30
 70
     1
102
RTVSPropertyOp31
 70
     1
102
RTVSPropertyOp32
 70
     1
102
RTVSPropertyOp33
 70
     1
102
RTVSPropertyOp34
 70
     1
102
RTVSPropertyOp35
 70
     1
102
RTVSPropertyOp36
 70
     1
102
RTVSPropertyOp37
 70
     1
102
RTVSPropertyOp38
 70
     1
102
RTVSPropertyOp39
 70
     1
102
RTVSPropertyOp40
 70
     1
102
RTVSPropertyOp41
 70
     1
102
RTVSPropertyOp42
 70
     1
102
RTVSPropertyOp43
 70
     1
102
RTVSPropertyOp44
 70
     1
102
RTVSPropertyOp45
 70
     1
102
RTVSPropertyOp46
 70
     1
102
RTVSPropertyOp47
 70
     1
102
RTVSPropertyOp48
 70
     1
102
RTVSPropertyOp49
 70
     1
102
RTVSPropertyOp50
 70
     1
102
RTVSPropertyOp51
 70
     0
102
RTVSPropertyOp52
 70
     0
102
RTVSPropertyOp53
 70
     1
102
RTVSPropertyOp54
 70
     1
102
RTVSPropertyOp55
 70
     1
102
RTVSPropertyOp56
 70
     1
102
RTVSPropertyOp57
 70
     1
102
RTVSPropertyOp58
 70
     1
102
RTVSPropertyOp59
 70
     1
102
RTVSPropertyOp60
 70
     1
102
RTVSPropertyOp61
 70
     1
102
RTVSPropertyOp62
 70
     1
  0
XRECORD
  5
144C
102
{ACAD_REACTORS
330
144B
102
}
330
144B
100
AcDbXrecord
280
     1
102
RTVSPost2010Prop28
280
     0
102
RTVSPost2010PropOp28
 70
     1
102
RTVSPost2010Prop29
280
     1
102
RTVSPost2010PropOp29
 70
     1
102
RTVSPost2010Prop30
280
     1
102
RTVSPost2010PropOp30
 70
     1
102
RTVSPost2010Prop31
280
     0
102
RTVSPost2010PropOp31
 70
     1
102
RTVSPost2010Prop32
280
     0
102
RTVSPost2010PropOp32
 70
     1
102
RTVSPost2010Prop33
280
     0
102
RTVSPost2010PropOp33
 70
     1
102
RTVSPost2010Prop34
280
     0
102
RTVSPost2010PropOp34
 70
     1
102
RTVSPost2010Prop35
280
     0
102
RTVSPost2010PropOp35
 70
     1
102
RTVSPost2010Prop36
280
     0
102
RTVSPost2010PropOp36
 70
     1
102
RTVSPost2010Prop37
 90
       50
102
RTVSPost2010PropOp37
 70
     1
102
RTVSPost2010Prop38
140
0.0
102
RTVSPost2010PropOp38
 70
     1
102
RTVSPost2010Prop39
140
1.0
102
RTVSPost2010PropOp39
 70
     1
102
RTVSPost2010Prop40
 90
        0
102
RTVSPost2010PropOp40
 70
     1
102
RTVSPost2010Prop41ColorIndex
 90
       18
102
RTVSPost2010Prop41ColorRGB
 90
        0
102
RTVSPost2010PropOp41
 70
     1
102
RTVSPost2010Prop42
 90
       50
102
RTVSPost2010PropOp42
 70
     1
102
RTVSPost2010Prop43
 90
        3
102
RTVSPost2010PropOp43
 70
     1
102
RTVSPost2010Prop44ColorIndex
 90
        5
102
RTVSPost2010Prop44ColorRGB
 90
      255
102
RTVSPost2010PropOp44
 70
     1
102
RTVSPost2010Prop45
280
     0
102
RTVSPost2010PropOp45
 70
     1
102
RTVSPost2010Prop46
 90
       50
102
RTVSPost2010PropOp46
 70
     1
102
RTVSPost2010Prop47
 90
       50
102
RTVSPost2010PropOp47
 70
     1
102
RTVSPost2010Prop48
 90
       50
102
RTVSPost2010PropOp48
 70
     1
102
RTVSPost2010Prop49
280
     0
102
RTVSPost2010PropOp49
 70
     1
102
RTVSPost2010Prop50
 90
       50
102
RTVSPost2010PropOp50
 70
     1
102
RTVSPost2010Prop51ColorIndex
 90
      256
102
RTVSPost2010Prop51ColorRGB
 90
-16777216
102
RTVSPost2010PropOp51
 70
     0
102
RTVSPost2010Prop52
140
1.0
102
RTVSPost2010PropOp52
 70
     0
102
RTVSPost2010Prop53
 90
        2
102
RTVSPost2010PropOp53
 70
     1
102
RTVSPost2010Prop54
  1
strokes_ogs.tif
102
RTVSPost2010PropOp54
 70
     1
102
RTVSPost2010Prop55
280
     0
102
RTVSPost2010PropOp55
 70
     1
102
RTVSPost2010Prop56
140
1.0
102
RTVSPost2010PropOp56
 70
     1
102
RTVSPost2010Prop57
140
1.0
102
RTVSPost2010PropOp57
 70
     1
102
RTVSPropertyOp0
 70
     1
102
RTVSPropertyOp1
 70
     1
102
RTVSPropertyOp2
 70
     1
102
RTVSPropertyOp3
 70
     1
102
RTVSPropertyOp4
 70
     1
102
RTVSPropertyOp5
 70
     1
102
RTVSPropertyOp6
 70
     1
102
RTVSPropertyOp7
 70
     1
102
RTVSPropertyOp8
 70
     1
102
RTVSPropertyOp9
 70
     1
102
RTVSPropertyOp10
 70
     1
102
RTVSPropertyOp11
 70
     1
102
RTVSPropertyOp12
 70
     1
102
RTVSPropertyOp13
 70
     1
102
RTVSPropertyOp14
 70
     1
102
RTVSPropertyOp15
 70
     1
102
RTVSPropertyOp16
 70
     1
102
RTVSPropertyOp17
 70
     1
102
RTVSPropertyOp18
 70
     1
102
RTVSPropertyOp19
 70
     1
102
RTVSPropertyOp20
 70
     1
102
RTVSPropertyOp21
 70
     1
102
RTVSPropertyOp22
 70
     1
102
RTVSPropertyOp23
 70
     1
102
RTVSPropertyOp24
 70
     1
102
RTVSPropertyOp25
 70
     1
102
RTVSPropertyOp26
 70
     1
102
RTVSPropertyOp27
 70
     1
102
RTVSPropertyOp28
 70
     1
102
RTVSPropertyOp29
 70
     1
102
RTVSPropertyOp30
 70
     1
102
RTVSPropertyOp31
 70
     1
102
RTVSPropertyOp32
 70
     1
102
RTVSPropertyOp33
 70
     1
102
RTVSPropertyOp34
 70
     1
102
RTVSPropertyOp35
 70
     1
102
RTVSPropertyOp36
 70
     1
102
RTVSPropertyOp37
 70
     1
102
RTVSPropertyOp38
 70
     1
102
RTVSPropertyOp39
 70
     1
102
RTVSPropertyOp40
 70
     1
102
RTVSPropertyOp41
 70
     1
102
RTVSPropertyOp42
 70
     1
102
RTVSPropertyOp43
 70
     1
102
RTVSPropertyOp44
 70
     1
102
RTVSPropertyOp45
 70
     1
102
RTVSPropertyOp46
 70
     1
102
RTVSPropertyOp47
 70
     1
102
RTVSPropertyOp48
 70
     1
102
RTVSPropertyOp49
 70
     1
102
RTVSPropertyOp50
 70
     1
102
RTVSPropertyOp51
 70
     0
102
RTVSPropertyOp52
 70
     0
102
RTVSPropertyOp53
 70
     1
102
RTVSPropertyOp54
 70
     1
102
RTVSPropertyOp55
 70
     1
102
RTVSPropertyOp56
 70
     1
102
RTVSPropertyOp57
 70
     1
102
RTVSPropertyOp58
 70
     1
102
RTVSPropertyOp59
 70
     1
102
RTVSPropertyOp60
 70
     1
102
RTVSPropertyOp61
 70
     1
102
RTVSPropertyOp62
 70
     1
  0
XRECORD
  5
144E
102
{ACAD_REACTORS
330
144D
102
}
330
144D
100
AcDbXrecord
280
     1
102
RTVSPost2010Prop28
280
     0
102
RTVSPost2010PropOp28
 70
     1
102
RTVSPost2010Prop29
280
     1
102
RTVSPost2010PropOp29
 70
     1
102
RTVSPost2010Prop30
280
     1
102
RTVSPost2010PropOp30
 70
     1
102
RTVSPost2010Prop31
280
     0
102
RTVSPost2010PropOp31
 70
     1
102
RTVSPost2010Prop32
280
     0
102
RTVSPost2010PropOp32
 70
     1
102
RTVSPost2010Prop33
280
     0
102
RTVSPost2010PropOp33
 70
     1
102
RTVSPost2010Prop34
280
     0
102
RTVSPost2010PropOp34
 70
     1
102
RTVSPost2010Prop35
280
     0
102
RTVSPost2010PropOp35
 70
     1
102
RTVSPost2010Prop36
280
     0
102
RTVSPost2010PropOp36
 70
     1
102
RTVSPost2010Prop37
 90
       50
102
RTVSPost2010PropOp37
 70
     1
102
RTVSPost2010Prop38
140
0.0
102
RTVSPost2010PropOp38
 70
     1
102
RTVSPost2010Prop39
140
1.0
102
RTVSPost2010PropOp39
 70
     1
102
RTVSPost2010Prop40
 90
        0
102
RTVSPost2010PropOp40
 70
     1
102
RTVSPost2010Prop41ColorIndex
 90
       18
102
RTVSPost2010Prop41ColorRGB
 90
        0
102
RTVSPost2010PropOp41
 70
     1
102
RTVSPost2010Prop42
 90
       50
102
RTVSPost2010PropOp42
 70
     1
102
RTVSPost2010Prop43
 90
        3
102
RTVSPost2010PropOp43
 70
     1
102
RTVSPost2010Prop44ColorIndex
 90
        5
102
RTVSPost2010Prop44ColorRGB
 90
      255
102
RTVSPost2010PropOp44
 70
     1
102
RTVSPost2010Prop45
280
     0
102
RTVSPost2010PropOp45
 70
     1
102
RTVSPost2010Prop46
 90
       50
102
RTVSPost2010PropOp46
 70
     1
102
RTVSPost2010Prop47
 90
       50
102
RTVSPost2010PropOp47
 70
     1
102
RTVSPost2010Prop48
 90
       50
102
RTVSPost2010PropOp48
 70
     1
102
RTVSPost2010Prop49
280
     0
102
RTVSPost2010PropOp49
 70
     1
102
RTVSPost2010Prop50
 90
       50
102
RTVSPost2010PropOp50
 70
     1
102
RTVSPost2010Prop51ColorIndex
 90
      256
102
RTVSPost2010Prop51ColorRGB
 90
-16777216
102
RTVSPost2010PropOp51
 70
     0
102
RTVSPost2010Prop52
140
1.0
102
RTVSPost2010PropOp52
 70
     0
102
RTVSPost2010Prop53
 90
        2
102
RTVSPost2010PropOp53
 70
     1
102
RTVSPost2010Prop54
  1
strokes_ogs.tif
102
RTVSPost2010PropOp54
 70
     1
102
RTVSPost2010Prop55
280
     0
102
RTVSPost2010PropOp55
 70
     1
102
RTVSPost2010Prop56
140
1.0
102
RTVSPost2010PropOp56
 70
     1
102
RTVSPost2010Prop57
140
1.0
102
RTVSPost2010PropOp57
 70
     1
102
RTVSPropertyOp0
 70
     1
102
RTVSPropertyOp1
 70
     1
102
RTVSPropertyOp2
 70
     1
102
RTVSPropertyOp3
 70
     1
102
RTVSPropertyOp4
 70
     1
102
RTVSPropertyOp5
 70
     1
102
RTVSPropertyOp6
 70
     1
102
RTVSPropertyOp7
 70
     1
102
RTVSPropertyOp8
 70
     1
102
RTVSPropertyOp9
 70
     1
102
RTVSPropertyOp10
 70
     1
102
RTVSPropertyOp11
 70
     1
102
RTVSPropertyOp12
 70
     1
102
RTVSPropertyOp13
 70
     1
102
RTVSPropertyOp14
 70
     1
102
RTVSPropertyOp15
 70
     1
102
RTVSPropertyOp16
 70
     1
102
RTVSPropertyOp17
 70
     1
102
RTVSPropertyOp18
 70
     1
102
RTVSPropertyOp19
 70
     1
102
RTVSPropertyOp20
 70
     1
102
RTVSPropertyOp21
 70
     1
102
RTVSPropertyOp22
 70
     1
102
RTVSPropertyOp23
 70
     1
102
RTVSPropertyOp24
 70
     1
102
RTVSPropertyOp25
 70
     1
102
RTVSPropertyOp26
 70
     1
102
RTVSPropertyOp27
 70
     1
102
RTVSPropertyOp28
 70
     1
102
RTVSPropertyOp29
 70
     1
102
RTVSPropertyOp30
 70
     1
102
RTVSPropertyOp31
 70
     1
102
RTVSPropertyOp32
 70
     1
102
RTVSPropertyOp33
 70
     1
102
RTVSPropertyOp34
 70
     1
102
RTVSPropertyOp35
 70
     1
102
RTVSPropertyOp36
 70
     1
102
RTVSPropertyOp37
 70
     1
102
RTVSPropertyOp38
 70
     1
102
RTVSPropertyOp39
 70
     1
102
RTVSPropertyOp40
 70
     1
102
RTVSPropertyOp41
 70
     1
102
RTVSPropertyOp42
 70
     1
102
RTVSPropertyOp43
 70
     1
102
RTVSPropertyOp44
 70
     1
102
RTVSPropertyOp45
 70
     1
102
RTVSPropertyOp46
 70
     1
102
RTVSPropertyOp47
 70
     1
102
RTVSPropertyOp48
 70
     1
102
RTVSPropertyOp49
 70
     1
102
RTVSPropertyOp50
 70
     1
102
RTVSPropertyOp51
 70
     0
102
RTVSPropertyOp52
 70
     0
102
RTVSPropertyOp53
 70
     1
102
RTVSPropertyOp54
 70
     1
102
RTVSPropertyOp55
 70
     1
102
RTVSPropertyOp56
 70
     1
102
RTVSPropertyOp57
 70
     1
102
RTVSPropertyOp58
 70
     1
102
RTVSPropertyOp59
 70
     1
102
RTVSPropertyOp60
 70
     1
102
RTVSPropertyOp61
 70
     1
102
RTVSPropertyOp62
 70
     1
  0
XRECORD
  5
146B
102
{ACAD_REACTORS
330
146A
102
}
330
146A
100
AcDbXrecord
280
     1
102
RTVSPost2010Prop28
280
     0
102
RTVSPost2010PropOp28
 70
     1
102
RTVSPost2010Prop29
280
     1
102
RTVSPost2010PropOp29
 70
     1
102
RTVSPost2010Prop30
280
     1
102
RTVSPost2010PropOp30
 70
     1
102
RTVSPost2010Prop31
280
     0
102
RTVSPost2010PropOp31
 70
     1
102
RTVSPost2010Prop32
280
     0
102
RTVSPost2010PropOp32
 70
     1
102
RTVSPost2010Prop33
280
     0
102
RTVSPost2010PropOp33
 70
     1
102
RTVSPost2010Prop34
280
     0
102
RTVSPost2010PropOp34
 70
     1
102
RTVSPost2010Prop35
280
     0
102
RTVSPost2010PropOp35
 70
     1
102
RTVSPost2010Prop36
280
     0
102
RTVSPost2010PropOp36
 70
     1
102
RTVSPost2010Prop37
 90
       50
102
RTVSPost2010PropOp37
 70
     1
102
RTVSPost2010Prop38
140
0.0
102
RTVSPost2010PropOp38
 70
     1
102
RTVSPost2010Prop39
140
1.0
102
RTVSPost2010PropOp39
 70
     1
102
RTVSPost2010Prop40
 90
        0
102
RTVSPost2010PropOp40
 70
     1
102
RTVSPost2010Prop41ColorIndex
 90
       18
102
RTVSPost2010Prop41ColorRGB
 90
        0
102
RTVSPost2010PropOp41
 70
     1
102
RTVSPost2010Prop42
 90
       50
102
RTVSPost2010PropOp42
 70
     1
102
RTVSPost2010Prop43
 90
        3
102
RTVSPost2010PropOp43
 70
     1
102
RTVSPost2010Prop44ColorIndex
 90
        5
102
RTVSPost2010Prop44ColorRGB
 90
      255
102
RTVSPost2010PropOp44
 70
     1
102
RTVSPost2010Prop45
280
     0
102
RTVSPost2010PropOp45
 70
     1
102
RTVSPost2010Prop46
 90
       50
102
RTVSPost2010PropOp46
 70
     1
102
RTVSPost2010Prop47
 90
       50
102
RTVSPost2010PropOp47
 70
     1
102
RTVSPost2010Prop48
 90
       50
102
RTVSPost2010PropOp48
 70
     1
102
RTVSPost2010Prop49
280
     0
102
RTVSPost2010PropOp49
 70
     1
102
RTVSPost2010Prop50
 90
       50
102
RTVSPost2010PropOp50
 70
     1
102
RTVSPost2010Prop51ColorIndex
 90
      256
102
RTVSPost2010Prop51ColorRGB
 90
-16777216
102
RTVSPost2010PropOp51
 70
     0
102
RTVSPost2010Prop52
140
1.0
102
RTVSPost2010PropOp52
 70
     0
102
RTVSPost2010Prop53
 90
        2
102
RTVSPost2010PropOp53
 70
     1
102
RTVSPost2010Prop54
  1
strokes_ogs.tif
102
RTVSPost2010PropOp54
 70
     1
102
RTVSPost2010Prop55
280
     0
102
RTVSPost2010PropOp55
 70
     1
102
RTVSPost2010Prop56
140
1.0
102
RTVSPost2010PropOp56
 70
     1
102
RTVSPost2010Prop57
140
1.0
102
RTVSPost2010PropOp57
 70
     1
102
RTVSPropertyOp0
 70
     1
102
RTVSPropertyOp1
 70
     1
102
RTVSPropertyOp2
 70
     1
102
RTVSPropertyOp3
 70
     1
102
RTVSPropertyOp4
 70
     1
102
RTVSPropertyOp5
 70
     1
102
RTVSPropertyOp6
 70
     1
102
RTVSPropertyOp7
 70
     1
102
RTVSPropertyOp8
 70
     1
102
RTVSPropertyOp9
 70
     1
102
RTVSPropertyOp10
 70
     1
102
RTVSPropertyOp11
 70
     1
102
RTVSPropertyOp12
 70
     1
102
RTVSPropertyOp13
 70
     1
102
RTVSPropertyOp14
 70
     1
102
RTVSPropertyOp15
 70
     1
102
RTVSPropertyOp16
 70
     1
102
RTVSPropertyOp17
 70
     1
102
RTVSPropertyOp18
 70
     1
102
RTVSPropertyOp19
 70
     1
102
RTVSPropertyOp20
 70
     1
102
RTVSPropertyOp21
 70
     1
102
RTVSPropertyOp22
 70
     1
102
RTVSPropertyOp23
 70
     1
102
RTVSPropertyOp24
 70
     1
102
RTVSPropertyOp25
 70
     1
102
RTVSPropertyOp26
 70
     1
102
RTVSPropertyOp27
 70
     1
102
RTVSPropertyOp28
 70
     1
102
RTVSPropertyOp29
 70
     1
102
RTVSPropertyOp30
 70
     1
102
RTVSPropertyOp31
 70
     1
102
RTVSPropertyOp32
 70
     1
102
RTVSPropertyOp33
 70
     1
102
RTVSPropertyOp34
 70
     1
102
RTVSPropertyOp35
 70
     1
102
RTVSPropertyOp36
 70
     1
102
RTVSPropertyOp37
 70
     1
102
RTVSPropertyOp38
 70
     1
102
RTVSPropertyOp39
 70
     1
102
RTVSPropertyOp40
 70
     1
102
RTVSPropertyOp41
 70
     1
102
RTVSPropertyOp42
 70
     1
102
RTVSPropertyOp43
 70
     1
102
RTVSPropertyOp44
 70
     1
102
RTVSPropertyOp45
 70
     1
102
RTVSPropertyOp46
 70
     1
102
RTVSPropertyOp47
 70
     1
102
RTVSPropertyOp48
 70
     1
102
RTVSPropertyOp49
 70
     1
102
RTVSPropertyOp50
 70
     1
102
RTVSPropertyOp51
 70
     0
102
RTVSPropertyOp52
 70
     0
102
RTVSPropertyOp53
 70
     1
102
RTVSPropertyOp54
 70
     1
102
RTVSPropertyOp55
 70
     1
102
RTVSPropertyOp56
 70
     1
102
RTVSPropertyOp57
 70
     1
102
RTVSPropertyOp58
 70
     1
102
RTVSPropertyOp59
 70
     1
102
RTVSPropertyOp60
 70
     1
102
RTVSPropertyOp61
 70
     1
102
RTVSPropertyOp62
 70
     1
  0
XRECORD
  5
1477
102
{ACAD_REACTORS
330
1476
102
}
330
1476
100
AcDbXrecord
280
     1
102
RTVSPost2010Prop28
280
     0
102
RTVSPost2010PropOp28
 70
     0
102
RTVSPost2010Prop29
280
     1
102
RTVSPost2010PropOp29
 70
     0
102
RTVSPost2010Prop30
280
     1
102
RTVSPost2010PropOp30
 70
     0
102
RTVSPost2010Prop31
280
     0
102
RTVSPost2010PropOp31
 70
     0
102
RTVSPost2010Prop32
280
     0
102
RTVSPost2010PropOp32
 70
     0
102
RTVSPost2010Prop33
280
     0
102
RTVSPost2010PropOp33
 70
     0
102
RTVSPost2010Prop34
280
     0
102
RTVSPost2010PropOp34
 70
     0
102
RTVSPost2010Prop35
280
     0
102
RTVSPost2010PropOp35
 70
     0
102
RTVSPost2010Prop36
280
     0
102
RTVSPost2010PropOp36
 70
     0
102
RTVSPost2010Prop37
 90
       50
102
RTVSPost2010PropOp37
 70
     0
102
RTVSPost2010Prop38
140
0.0
102
RTVSPost2010PropOp38
 70
     0
102
RTVSPost2010Prop39
140
1.0
102
RTVSPost2010PropOp39
 70
     0
102
RTVSPost2010Prop40
 90
        0
102
RTVSPost2010PropOp40
 70
     0
102
RTVSPost2010Prop41ColorIndex
 90
       18
102
RTVSPost2010Prop41ColorRGB
 90
        0
102
RTVSPost2010PropOp41
 70
     0
102
RTVSPost2010Prop42
 90
       50
102
RTVSPost2010PropOp42
 70
     0
102
RTVSPost2010Prop43
 90
        3
102
RTVSPost2010PropOp43
 70
     0
102
RTVSPost2010Prop44ColorIndex
 90
        5
102
RTVSPost2010Prop44ColorRGB
 90
      255
102
RTVSPost2010PropOp44
 70
     0
102
RTVSPost2010Prop45
280
     0
102
RTVSPost2010PropOp45
 70
     0
102
RTVSPost2010Prop46
 90
       50
102
RTVSPost2010PropOp46
 70
     0
102
RTVSPost2010Prop47
 90
       50
102
RTVSPost2010PropOp47
 70
     0
102
RTVSPost2010Prop48
 90
       50
102
RTVSPost2010PropOp48
 70
     0
102
RTVSPost2010Prop49
280
     0
102
RTVSPost2010PropOp49
 70
     0
102
RTVSPost2010Prop50
 90
       50
102
RTVSPost2010PropOp50
 70
     0
102
RTVSPost2010Prop51ColorIndex
 90
      256
102
RTVSPost2010Prop51ColorRGB
 90
-16777216
102
RTVSPost2010PropOp51
 70
     0
102
RTVSPost2010Prop52
140
1.0
102
RTVSPost2010PropOp52
 70
     0
102
RTVSPost2010Prop53
 90
        2
102
RTVSPost2010PropOp53
 70
     0
102
RTVSPost2010Prop54
  1
strokes_ogs.tif
102
RTVSPost2010PropOp54
 70
     0
102
RTVSPost2010Prop55
280
     0
102
RTVSPost2010PropOp55
 70
     0
102
RTVSPost2010Prop56
140
1.0
102
RTVSPost2010PropOp56
 70
     0
102
RTVSPost2010Prop57
140
1.0
102
RTVSPost2010PropOp57
 70
     0
102
RTVSPropertyOp0
 70
     0
102
RTVSPropertyOp1
 70
     0
102
RTVSPropertyOp2
 70
     0
102
RTVSPropertyOp3
 70
     0
102
RTVSPropertyOp4
 70
     0
102
RTVSPropertyOp5
 70
     0
102
RTVSPropertyOp6
 70
     0
102
RTVSPropertyOp7
 70
     0
102
RTVSPropertyOp8
 70
     0
102
RTVSPropertyOp9
 70
     0
102
RTVSPropertyOp10
 70
     0
102
RTVSPropertyOp11
 70
     0
102
RTVSPropertyOp12
 70
     0
102
RTVSPropertyOp13
 70
     0
102
RTVSPropertyOp14
 70
     2
102
RTVSPropertyOp15
 70
     0
102
RTVSPropertyOp16
 70
     0
102
RTVSPropertyOp17
 70
     0
102
RTVSPropertyOp18
 70
     0
102
RTVSPropertyOp19
 70
     0
102
RTVSPropertyOp20
 70
     0
102
RTVSPropertyOp21
 70
     0
102
RTVSPropertyOp22
 70
     0
102
RTVSPropertyOp23
 70
     0
102
RTVSPropertyOp24
 70
     0
102
RTVSPropertyOp25
 70
     0
102
RTVSPropertyOp26
 70
     0
102
RTVSPropertyOp27
 70
     0
102
RTVSPropertyOp28
 70
     0
102
RTVSPropertyOp29
 70
     0
102
RTVSPropertyOp30
 70
     0
102
RTVSPropertyOp31
 70
     0
102
RTVSPropertyOp32
 70
     0
102
RTVSPropertyOp33
 70
     0
102
RTVSPropertyOp34
 70
     0
102
RTVSPropertyOp35
 70
     0
102
RTVSPropertyOp36
 70
     0
102
RTVSPropertyOp37
 70
     0
102
RTVSPropertyOp38
 70
     0
102
RTVSPropertyOp39
 70
     0
102
RTVSPropertyOp40
 70
     0
102
RTVSPropertyOp41
 70
     0
102
RTVSPropertyOp42
 70
     0
102
RTVSPropertyOp43
 70
     0
102
RTVSPropertyOp44
 70
     0
102
RTVSPropertyOp45
 70
     0
102
RTVSPropertyOp46
 70
     0
102
RTVSPropertyOp47
 70
     0
102
RTVSPropertyOp48
 70
     0
102
RTVSPropertyOp49
 70
     0
102
RTVSPropertyOp50
 70
     0
102
RTVSPropertyOp51
 70
     0
102
RTVSPropertyOp52
 70
     0
102
RTVSPropertyOp53
 70
     0
102
RTVSPropertyOp54
 70
     0
102
RTVSPropertyOp55
 70
     0
102
RTVSPropertyOp56
 70
     0
102
RTVSPropertyOp57
 70
     0
102
RTVSPropertyOp58
 70
     0
102
RTVSPropertyOp59
 70
     0
102
RTVSPropertyOp60
 70
     0
102
RTVSPropertyOp61
 70
     0
102
RTVSPropertyOp62
 70
     0
  0
XRECORD
  5
1462
102
{ACAD_REACTORS
330
1461
102
}
330
1461
100
AcDbXrecord
280
     1
102
RTVSPost2010Prop28
280
     0
102
RTVSPost2010PropOp28
 70
     1
102
RTVSPost2010Prop29
280
     1
102
RTVSPost2010PropOp29
 70
     1
102
RTVSPost2010Prop30
280
     1
102
RTVSPost2010PropOp30
 70
     1
102
RTVSPost2010Prop31
280
     0
102
RTVSPost2010PropOp31
 70
     1
102
RTVSPost2010Prop32
280
     0
102
RTVSPost2010PropOp32
 70
     1
102
RTVSPost2010Prop33
280
     0
102
RTVSPost2010PropOp33
 70
     1
102
RTVSPost2010Prop34
280
     0
102
RTVSPost2010PropOp34
 70
     1
102
RTVSPost2010Prop35
280
     0
102
RTVSPost2010PropOp35
 70
     1
102
RTVSPost2010Prop36
280
     0
102
RTVSPost2010PropOp36
 70
     1
102
RTVSPost2010Prop37
 90
       50
102
RTVSPost2010PropOp37
 70
     1
102
RTVSPost2010Prop38
140
0.0
102
RTVSPost2010PropOp38
 70
     1
102
RTVSPost2010Prop39
140
1.0
102
RTVSPost2010PropOp39
 70
     1
102
RTVSPost2010Prop40
 90
        0
102
RTVSPost2010PropOp40
 70
     1
102
RTVSPost2010Prop41ColorIndex
 90
       18
102
RTVSPost2010Prop41ColorRGB
 90
        0
102
RTVSPost2010PropOp41
 70
     1
102
RTVSPost2010Prop42
 90
       50
102
RTVSPost2010PropOp42
 70
     1
102
RTVSPost2010Prop43
 90
        3
102
RTVSPost2010PropOp43
 70
     1
102
RTVSPost2010Prop44ColorIndex
 90
        5
102
RTVSPost2010Prop44ColorRGB
 90
      255
102
RTVSPost2010PropOp44
 70
     1
102
RTVSPost2010Prop45
280
     0
102
RTVSPost2010PropOp45
 70
     1
102
RTVSPost2010Prop46
 90
       50
102
RTVSPost2010PropOp46
 70
     1
102
RTVSPost2010Prop47
 90
       50
102
RTVSPost2010PropOp47
 70
     1
102
RTVSPost2010Prop48
 90
       50
102
RTVSPost2010PropOp48
 70
     1
102
RTVSPost2010Prop49
280
     0
102
RTVSPost2010PropOp49
 70
     1
102
RTVSPost2010Prop50
 90
       50
102
RTVSPost2010PropOp50
 70
     1
102
RTVSPost2010Prop51ColorIndex
 90
      256
102
RTVSPost2010Prop51ColorRGB
 90
-16777216
102
RTVSPost2010PropOp51
 70
     0
102
RTVSPost2010Prop52
140
1.0
102
RTVSPost2010PropOp52
 70
     0
102
RTVSPost2010Prop53
 90
        2
102
RTVSPost2010PropOp53
 70
     1
102
RTVSPost2010Prop54
  1
strokes_ogs.tif
102
RTVSPost2010PropOp54
 70
     1
102
RTVSPost2010Prop55
280
     0
102
RTVSPost2010PropOp55
 70
     1
102
RTVSPost2010Prop56
140
1.0
102
RTVSPost2010PropOp56
 70
     1
102
RTVSPost2010Prop57
140
1.0
102
RTVSPost2010PropOp57
 70
     1
102
RTVSPropertyOp0
 70
     1
102
RTVSPropertyOp1
 70
     1
102
RTVSPropertyOp2
 70
     1
102
RTVSPropertyOp3
 70
     1
102
RTVSPropertyOp4
 70
     1
102
RTVSPropertyOp5
 70
     1
102
RTVSPropertyOp6
 70
     1
102
RTVSPropertyOp7
 70
     1
102
RTVSPropertyOp8
 70
     1
102
RTVSPropertyOp9
 70
     1
102
RTVSPropertyOp10
 70
     1
102
RTVSPropertyOp11
 70
     1
102
RTVSPropertyOp12
 70
     1
102
RTVSPropertyOp13
 70
     1
102
RTVSPropertyOp14
 70
     1
102
RTVSPropertyOp15
 70
     1
102
RTVSPropertyOp16
 70
     1
102
RTVSPropertyOp17
 70
     1
102
RTVSPropertyOp18
 70
     1
102
RTVSPropertyOp19
 70
     1
102
RTVSPropertyOp20
 70
     1
102
RTVSPropertyOp21
 70
     1
102
RTVSPropertyOp22
 70
     1
102
RTVSPropertyOp23
 70
     1
102
RTVSPropertyOp24
 70
     1
102
RTVSPropertyOp25
 70
     1
102
RTVSPropertyOp26
 70
     1
102
RTVSPropertyOp27
 70
     1
102
RTVSPropertyOp28
 70
     1
102
RTVSPropertyOp29
 70
     1
102
RTVSPropertyOp30
 70
     1
102
RTVSPropertyOp31
 70
     1
102
RTVSPropertyOp32
 70
     1
102
RTVSPropertyOp33
 70
     1
102
RTVSPropertyOp34
 70
     1
102
RTVSPropertyOp35
 70
     1
102
RTVSPropertyOp36
 70
     1
102
RTVSPropertyOp37
 70
     1
102
RTVSPropertyOp38
 70
     1
102
RTVSPropertyOp39
 70
     1
102
RTVSPropertyOp40
 70
     1
102
RTVSPropertyOp41
 70
     1
102
RTVSPropertyOp42
 70
     1
102
RTVSPropertyOp43
 70
     1
102
RTVSPropertyOp44
 70
     1
102
RTVSPropertyOp45
 70
     1
102
RTVSPropertyOp46
 70
     1
102
RTVSPropertyOp47
 70
     1
102
RTVSPropertyOp48
 70
     1
102
RTVSPropertyOp49
 70
     1
102
RTVSPropertyOp50
 70
     1
102
RTVSPropertyOp51
 70
     0
102
RTVSPropertyOp52
 70
     0
102
RTVSPropertyOp53
 70
     1
102
RTVSPropertyOp54
 70
     1
102
RTVSPropertyOp55
 70
     1
102
RTVSPropertyOp56
 70
     1
102
RTVSPropertyOp57
 70
     1
102
RTVSPropertyOp58
 70
     1
102
RTVSPropertyOp59
 70
     1
102
RTVSPropertyOp60
 70
     1
102
RTVSPropertyOp61
 70
     1
102
RTVSPropertyOp62
 70
     1
  0
XRECORD
  5
1479
102
{ACAD_REACTORS
330
1478
102
}
330
1478
100
AcDbXrecord
280
     1
102
RTVSPost2010Prop28
280
     0
102
RTVSPost2010PropOp28
 70
     0
102
RTVSPost2010Prop29
280
     1
102
RTVSPost2010PropOp29
 70
     0
102
RTVSPost2010Prop30
280
     1
102
RTVSPost2010PropOp30
 70
     0
102
RTVSPost2010Prop31
280
     0
102
RTVSPost2010PropOp31
 70
     0
102
RTVSPost2010Prop32
280
     0
102
RTVSPost2010PropOp32
 70
     0
102
RTVSPost2010Prop33
280
     0
102
RTVSPost2010PropOp33
 70
     0
102
RTVSPost2010Prop34
280
     0
102
RTVSPost2010PropOp34
 70
     0
102
RTVSPost2010Prop35
280
     0
102
RTVSPost2010PropOp35
 70
     0
102
RTVSPost2010Prop36
280
     0
102
RTVSPost2010PropOp36
 70
     0
102
RTVSPost2010Prop37
 90
       50
102
RTVSPost2010PropOp37
 70
     0
102
RTVSPost2010Prop38
140
0.0
102
RTVSPost2010PropOp38
 70
     0
102
RTVSPost2010Prop39
140
1.0
102
RTVSPost2010PropOp39
 70
     0
102
RTVSPost2010Prop40
 90
        0
102
RTVSPost2010PropOp40
 70
     0
102
RTVSPost2010Prop41ColorIndex
 90
       18
102
RTVSPost2010Prop41ColorRGB
 90
        0
102
RTVSPost2010PropOp41
 70
     0
102
RTVSPost2010Prop42
 90
       50
102
RTVSPost2010PropOp42
 70
     0
102
RTVSPost2010Prop43
 90
        3
102
RTVSPost2010PropOp43
 70
     0
102
RTVSPost2010Prop44ColorIndex
 90
        5
102
RTVSPost2010Prop44ColorRGB
 90
      255
102
RTVSPost2010PropOp44
 70
     0
102
RTVSPost2010Prop45
280
     0
102
RTVSPost2010PropOp45
 70
     0
102
RTVSPost2010Prop46
 90
       50
102
RTVSPost2010PropOp46
 70
     0
102
RTVSPost2010Prop47
 90
       50
102
RTVSPost2010PropOp47
 70
     0
102
RTVSPost2010Prop48
 90
       50
102
RTVSPost2010PropOp48
 70
     0
102
RTVSPost2010Prop49
280
     0
102
RTVSPost2010PropOp49
 70
     0
102
RTVSPost2010Prop50
 90
       50
102
RTVSPost2010PropOp50
 70
     0
102
RTVSPost2010Prop51ColorIndex
 90
      256
102
RTVSPost2010Prop51ColorRGB
 90
-16777216
102
RTVSPost2010PropOp51
 70
     0
102
RTVSPost2010Prop52
140
1.0
102
RTVSPost2010PropOp52
 70
     0
102
RTVSPost2010Prop53
 90
        2
102
RTVSPost2010PropOp53
 70
     0
102
RTVSPost2010Prop54
  1
strokes_ogs.tif
102
RTVSPost2010PropOp54
 70
     0
102
RTVSPost2010Prop55
280
     0
102
RTVSPost2010PropOp55
 70
     0
102
RTVSPost2010Prop56
140
1.0
102
RTVSPost2010PropOp56
 70
     0
102
RTVSPost2010Prop57
140
1.0
102
RTVSPost2010PropOp57
 70
     0
102
RTVSPropertyOp0
 70
     0
102
RTVSPropertyOp1
 70
     0
102
RTVSPropertyOp2
 70
     0
102
RTVSPropertyOp3
 70
     0
102
RTVSPropertyOp4
 70
     0
102
RTVSPropertyOp5
 70
     0
102
RTVSPropertyOp6
 70
     0
102
RTVSPropertyOp7
 70
     0
102
RTVSPropertyOp8
 70
     0
102
RTVSPropertyOp9
 70
     0
102
RTVSPropertyOp10
 70
     0
102
RTVSPropertyOp11
 70
     0
102
RTVSPropertyOp12
 70
     0
102
RTVSPropertyOp13
 70
     0
102
RTVSPropertyOp14
 70
     2
102
RTVSPropertyOp15
 70
     0
102
RTVSPropertyOp16
 70
     0
102
RTVSPropertyOp17
 70
     0
102
RTVSPropertyOp18
 70
     0
102
RTVSPropertyOp19
 70
     0
102
RTVSPropertyOp20
 70
     0
102
RTVSPropertyOp21
 70
     0
102
RTVSPropertyOp22
 70
     0
102
RTVSPropertyOp23
 70
     0
102
RTVSPropertyOp24
 70
     0
102
RTVSPropertyOp25
 70
     0
102
RTVSPropertyOp26
 70
     0
102
RTVSPropertyOp27
 70
     0
102
RTVSPropertyOp28
 70
     0
102
RTVSPropertyOp29
 70
     0
102
RTVSPropertyOp30
 70
     0
102
RTVSPropertyOp31
 70
     0
102
RTVSPropertyOp32
 70
     0
102
RTVSPropertyOp33
 70
     0
102
RTVSPropertyOp34
 70
     0
102
RTVSPropertyOp35
 70
     0
102
RTVSPropertyOp36
 70
     0
102
RTVSPropertyOp37
 70
     0
102
RTVSPropertyOp38
 70
     0
102
RTVSPropertyOp39
 70
     0
102
RTVSPropertyOp40
 70
     0
102
RTVSPropertyOp41
 70
     0
102
RTVSPropertyOp42
 70
     0
102
RTVSPropertyOp43
 70
     0
102
RTVSPropertyOp44
 70
     0
102
RTVSPropertyOp45
 70
     0
102
RTVSPropertyOp46
 70
     0
102
RTVSPropertyOp47
 70
     0
102
RTVSPropertyOp48
 70
     0
102
RTVSPropertyOp49
 70
     0
102
RTVSPropertyOp50
 70
     0
102
RTVSPropertyOp51
 70
     0
102
RTVSPropertyOp52
 70
     0
102
RTVSPropertyOp53
 70
     0
102
RTVSPropertyOp54
 70
     0
102
RTVSPropertyOp55
 70
     0
102
RTVSPropertyOp56
 70
     0
102
RTVSPropertyOp57
 70
     0
102
RTVSPropertyOp58
 70
     0
102
RTVSPropertyOp59
 70
     0
102
RTVSPropertyOp60
 70
     0
102
RTVSPropertyOp61
 70
     0
102
RTVSPropertyOp62
 70
     0
  0
XRECORD
  5
145A
102
{ACAD_REACTORS
330
1459
102
}
330
1459
100
AcDbXrecord
280
     1
102
RTVSPost2010Prop28
280
     0
102
RTVSPost2010PropOp28
 70
     1
102
RTVSPost2010Prop29
280
     1
102
RTVSPost2010PropOp29
 70
     1
102
RTVSPost2010Prop30
280
     1
102
RTVSPost2010PropOp30
 70
     1
102
RTVSPost2010Prop31
280
     0
102
RTVSPost2010PropOp31
 70
     1
102
RTVSPost2010Prop32
280
     0
102
RTVSPost2010PropOp32
 70
     1
102
RTVSPost2010Prop33
280
     0
102
RTVSPost2010PropOp33
 70
     1
102
RTVSPost2010Prop34
280
     0
102
RTVSPost2010PropOp34
 70
     1
102
RTVSPost2010Prop35
280
     0
102
RTVSPost2010PropOp35
 70
     1
102
RTVSPost2010Prop36
280
     0
102
RTVSPost2010PropOp36
 70
     1
102
RTVSPost2010Prop37
 90
       50
102
RTVSPost2010PropOp37
 70
     1
102
RTVSPost2010Prop38
140
0.0
102
RTVSPost2010PropOp38
 70
     1
102
RTVSPost2010Prop39
140
1.0
102
RTVSPost2010PropOp39
 70
     1
102
RTVSPost2010Prop40
 90
        0
102
RTVSPost2010PropOp40
 70
     1
102
RTVSPost2010Prop41ColorIndex
 90
       18
102
RTVSPost2010Prop41ColorRGB
 90
        0
102
RTVSPost2010PropOp41
 70
     1
102
RTVSPost2010Prop42
 90
       50
102
RTVSPost2010PropOp42
 70
     1
102
RTVSPost2010Prop43
 90
        3
102
RTVSPost2010PropOp43
 70
     1
102
RTVSPost2010Prop44ColorIndex
 90
        5
102
RTVSPost2010Prop44ColorRGB
 90
      255
102
RTVSPost2010PropOp44
 70
     1
102
RTVSPost2010Prop45
280
     0
102
RTVSPost2010PropOp45
 70
     1
102
RTVSPost2010Prop46
 90
       50
102
RTVSPost2010PropOp46
 70
     1
102
RTVSPost2010Prop47
 90
       50
102
RTVSPost2010PropOp47
 70
     1
102
RTVSPost2010Prop48
 90
       50
102
RTVSPost2010PropOp48
 70
     1
102
RTVSPost2010Prop49
280
     0
102
RTVSPost2010PropOp49
 70
     1
102
RTVSPost2010Prop50
 90
       50
102
RTVSPost2010PropOp50
 70
     1
102
RTVSPost2010Prop51ColorIndex
 90
      256
102
RTVSPost2010Prop51ColorRGB
 90
-16777216
102
RTVSPost2010PropOp51
 70
     0
102
RTVSPost2010Prop52
140
1.0
102
RTVSPost2010PropOp52
 70
     0
102
RTVSPost2010Prop53
 90
        2
102
RTVSPost2010PropOp53
 70
     1
102
RTVSPost2010Prop54
  1
strokes_ogs.tif
102
RTVSPost2010PropOp54
 70
     1
102
RTVSPost2010Prop55
280
     0
102
RTVSPost2010PropOp55
 70
     1
102
RTVSPost2010Prop56
140
1.0
102
RTVSPost2010PropOp56
 70
     1
102
RTVSPost2010Prop57
140
1.0
102
RTVSPost2010PropOp57
 70
     1
102
RTVSPropertyOp0
 70
     1
102
RTVSPropertyOp1
 70
     1
102
RTVSPropertyOp2
 70
     1
102
RTVSPropertyOp3
 70
     1
102
RTVSPropertyOp4
 70
     1
102
RTVSPropertyOp5
 70
     1
102
RTVSPropertyOp6
 70
     1
102
RTVSPropertyOp7
 70
     1
102
RTVSPropertyOp8
 70
     1
102
RTVSPropertyOp9
 70
     1
102
RTVSPropertyOp10
 70
     1
102
RTVSPropertyOp11
 70
     1
102
RTVSPropertyOp12
 70
     1
102
RTVSPropertyOp13
 70
     1
102
RTVSPropertyOp14
 70
     1
102
RTVSPropertyOp15
 70
     1
102
RTVSPropertyOp16
 70
     1
102
RTVSPropertyOp17
 70
     1
102
RTVSPropertyOp18
 70
     1
102
RTVSPropertyOp19
 70
     1
102
RTVSPropertyOp20
 70
     1
102
RTVSPropertyOp21
 70
     1
102
RTVSPropertyOp22
 70
     1
102
RTVSPropertyOp23
 70
     1
102
RTVSPropertyOp24
 70
     1
102
RTVSPropertyOp25
 70
     1
102
RTVSPropertyOp26
 70
     1
102
RTVSPropertyOp27
 70
     1
102
RTVSPropertyOp28
 70
     1
102
RTVSPropertyOp29
 70
     1
102
RTVSPropertyOp30
 70
     1
102
RTVSPropertyOp31
 70
     1
102
RTVSPropertyOp32
 70
     1
102
RTVSPropertyOp33
 70
     1
102
RTVSPropertyOp34
 70
     1
102
RTVSPropertyOp35
 70
     1
102
RTVSPropertyOp36
 70
     1
102
RTVSPropertyOp37
 70
     1
102
RTVSPropertyOp38
 70
     1
102
RTVSPropertyOp39
 70
     1
102
RTVSPropertyOp40
 70
     1
102
RTVSPropertyOp41
 70
     1
102
RTVSPropertyOp42
 70
     1
102
RTVSPropertyOp43
 70
     1
102
RTVSPropertyOp44
 70
     1
102
RTVSPropertyOp45
 70
     1
102
RTVSPropertyOp46
 70
     1
102
RTVSPropertyOp47
 70
     1
102
RTVSPropertyOp48
 70
     1
102
RTVSPropertyOp49
 70
     1
102
RTVSPropertyOp50
 70
     1
102
RTVSPropertyOp51
 70
     0
102
RTVSPropertyOp52
 70
     0
102
RTVSPropertyOp53
 70
     1
102
RTVSPropertyOp54
 70
     1
102
RTVSPropertyOp55
 70
     1
102
RTVSPropertyOp56
 70
     1
102
RTVSPropertyOp57
 70
     1
102
RTVSPropertyOp58
 70
     1
102
RTVSPropertyOp59
 70
     1
102
RTVSPropertyOp60
 70
     1
102
RTVSPropertyOp61
 70
     1
102
RTVSPropertyOp62
 70
     1
  0
XRECORD
  5
1475
102
{ACAD_REACTORS
330
1474
102
}
330
1474
100
AcDbXrecord
280
     1
102
RTVSPost2010Prop28
280
     0
102
RTVSPost2010PropOp28
 70
     1
102
RTVSPost2010Prop29
280
     1
102
RTVSPost2010PropOp29
 70
     1
102
RTVSPost2010Prop30
280
     1
102
RTVSPost2010PropOp30
 70
     1
102
RTVSPost2010Prop31
280
     0
102
RTVSPost2010PropOp31
 70
     1
102
RTVSPost2010Prop32
280
     0
102
RTVSPost2010PropOp32
 70
     1
102
RTVSPost2010Prop33
280
     0
102
RTVSPost2010PropOp33
 70
     1
102
RTVSPost2010Prop34
280
     0
102
RTVSPost2010PropOp34
 70
     1
102
RTVSPost2010Prop35
280
     0
102
RTVSPost2010PropOp35
 70
     1
102
RTVSPost2010Prop36
280
     0
102
RTVSPost2010PropOp36
 70
     1
102
RTVSPost2010Prop37
 90
       50
102
RTVSPost2010PropOp37
 70
     1
102
RTVSPost2010Prop38
140
0.0
102
RTVSPost2010PropOp38
 70
     1
102
RTVSPost2010Prop39
140
1.0
102
RTVSPost2010PropOp39
 70
     1
102
RTVSPost2010Prop40
 90
        0
102
RTVSPost2010PropOp40
 70
     1
102
RTVSPost2010Prop41ColorIndex
 90
       18
102
RTVSPost2010Prop41ColorRGB
 90
        0
102
RTVSPost2010PropOp41
 70
     1
102
RTVSPost2010Prop42
 90
       50
102
RTVSPost2010PropOp42
 70
     1
102
RTVSPost2010Prop43
 90
        3
102
RTVSPost2010PropOp43
 70
     1
102
RTVSPost2010Prop44ColorIndex
 90
        5
102
RTVSPost2010Prop44ColorRGB
 90
      255
102
RTVSPost2010PropOp44
 70
     1
102
RTVSPost2010Prop45
280
     0
102
RTVSPost2010PropOp45
 70
     1
102
RTVSPost2010Prop46
 90
       50
102
RTVSPost2010PropOp46
 70
     1
102
RTVSPost2010Prop47
 90
       50
102
RTVSPost2010PropOp47
 70
     1
102
RTVSPost2010Prop48
 90
       50
102
RTVSPost2010PropOp48
 70
     1
102
RTVSPost2010Prop49
280
     0
102
RTVSPost2010PropOp49
 70
     1
102
RTVSPost2010Prop50
 90
       50
102
RTVSPost2010PropOp50
 70
     1
102
RTVSPost2010Prop51ColorIndex
 90
      256
102
RTVSPost2010Prop51ColorRGB
 90
-16777216
102
RTVSPost2010PropOp51
 70
     0
102
RTVSPost2010Prop52
140
1.0
102
RTVSPost2010PropOp52
 70
     0
102
RTVSPost2010Prop53
 90
        2
102
RTVSPost2010PropOp53
 70
     1
102
RTVSPost2010Prop54
  1
strokes_ogs.tif
102
RTVSPost2010PropOp54
 70
     1
102
RTVSPost2010Prop55
280
     0
102
RTVSPost2010PropOp55
 70
     1
102
RTVSPost2010Prop56
140
1.0
102
RTVSPost2010PropOp56
 70
     1
102
RTVSPost2010Prop57
140
1.0
102
RTVSPost2010PropOp57
 70
     1
102
RTVSPropertyOp0
 70
     1
102
RTVSPropertyOp1
 70
     1
102
RTVSPropertyOp2
 70
     1
102
RTVSPropertyOp3
 70
     1
102
RTVSPropertyOp4
 70
     1
102
RTVSPropertyOp5
 70
     1
102
RTVSPropertyOp6
 70
     1
102
RTVSPropertyOp7
 70
     1
102
RTVSPropertyOp8
 70
     1
102
RTVSPropertyOp9
 70
     1
102
RTVSPropertyOp10
 70
     1
102
RTVSPropertyOp11
 70
     1
102
RTVSPropertyOp12
 70
     1
102
RTVSPropertyOp13
 70
     1
102
RTVSPropertyOp14
 70
     1
102
RTVSPropertyOp15
 70
     1
102
RTVSPropertyOp16
 70
     1
102
RTVSPropertyOp17
 70
     1
102
RTVSPropertyOp18
 70
     1
102
RTVSPropertyOp19
 70
     1
102
RTVSPropertyOp20
 70
     1
102
RTVSPropertyOp21
 70
     1
102
RTVSPropertyOp22
 70
     1
102
RTVSPropertyOp23
 70
     1
102
RTVSPropertyOp24
 70
     1
102
RTVSPropertyOp25
 70
     1
102
RTVSPropertyOp26
 70
     1
102
RTVSPropertyOp27
 70
     1
102
RTVSPropertyOp28
 70
     1
102
RTVSPropertyOp29
 70
     1
102
RTVSPropertyOp30
 70
     1
102
RTVSPropertyOp31
 70
     1
102
RTVSPropertyOp32
 70
     1
102
RTVSPropertyOp33
 70
     1
102
RTVSPropertyOp34
 70
     1
102
RTVSPropertyOp35
 70
     1
102
RTVSPropertyOp36
 70
     1
102
RTVSPropertyOp37
 70
     1
102
RTVSPropertyOp38
 70
     1
102
RTVSPropertyOp39
 70
     1
102
RTVSPropertyOp40
 70
     1
102
RTVSPropertyOp41
 70
     1
102
RTVSPropertyOp42
 70
     1
102
RTVSPropertyOp43
 70
     1
102
RTVSPropertyOp44
 70
     1
102
RTVSPropertyOp45
 70
     1
102
RTVSPropertyOp46
 70
     1
102
RTVSPropertyOp47
 70
     1
102
RTVSPropertyOp48
 70
     1
102
RTVSPropertyOp49
 70
     1
102
RTVSPropertyOp50
 70
     1
102
RTVSPropertyOp51
 70
     0
102
RTVSPropertyOp52
 70
     0
102
RTVSPropertyOp53
 70
     1
102
RTVSPropertyOp54
 70
     1
102
RTVSPropertyOp55
 70
     1
102
RTVSPropertyOp56
 70
     1
102
RTVSPropertyOp57
 70
     1
102
RTVSPropertyOp58
 70
     1
102
RTVSPropertyOp59
 70
     1
102
RTVSPropertyOp60
 70
     1
102
RTVSPropertyOp61
 70
     1
102
RTVSPropertyOp62
 70
     1
  0
XRECORD
  5
1473
102
{ACAD_REACTORS
330
1472
102
}
330
1472
100
AcDbXrecord
280
     1
102
RTVSPost2010Prop28
280
     0
102
RTVSPost2010PropOp28
 70
     1
102
RTVSPost2010Prop29
280
     1
102
RTVSPost2010PropOp29
 70
     1
102
RTVSPost2010Prop30
280
     1
102
RTVSPost2010PropOp30
 70
     1
102
RTVSPost2010Prop31
280
     0
102
RTVSPost2010PropOp31
 70
     1
102
RTVSPost2010Prop32
280
     0
102
RTVSPost2010PropOp32
 70
     1
102
RTVSPost2010Prop33
280
     0
102
RTVSPost2010PropOp33
 70
     1
102
RTVSPost2010Prop34
280
     0
102
RTVSPost2010PropOp34
 70
     1
102
RTVSPost2010Prop35
280
     0
102
RTVSPost2010PropOp35
 70
     1
102
RTVSPost2010Prop36
280
     0
102
RTVSPost2010PropOp36
 70
     1
102
RTVSPost2010Prop37
 90
       50
102
RTVSPost2010PropOp37
 70
     1
102
RTVSPost2010Prop38
140
0.0
102
RTVSPost2010PropOp38
 70
     1
102
RTVSPost2010Prop39
140
1.0
102
RTVSPost2010PropOp39
 70
     1
102
RTVSPost2010Prop40
 90
        0
102
RTVSPost2010PropOp40
 70
     1
102
RTVSPost2010Prop41ColorIndex
 90
       18
102
RTVSPost2010Prop41ColorRGB
 90
        0
102
RTVSPost2010PropOp41
 70
     1
102
RTVSPost2010Prop42
 90
       50
102
RTVSPost2010PropOp42
 70
     1
102
RTVSPost2010Prop43
 90
        3
102
RTVSPost2010PropOp43
 70
     1
102
RTVSPost2010Prop44ColorIndex
 90
        5
102
RTVSPost2010Prop44ColorRGB
 90
      255
102
RTVSPost2010PropOp44
 70
     1
102
RTVSPost2010Prop45
280
     0
102
RTVSPost2010PropOp45
 70
     1
102
RTVSPost2010Prop46
 90
       50
102
RTVSPost2010PropOp46
 70
     1
102
RTVSPost2010Prop47
 90
       50
102
RTVSPost2010PropOp47
 70
     1
102
RTVSPost2010Prop48
 90
       50
102
RTVSPost2010PropOp48
 70
     1
102
RTVSPost2010Prop49
280
     0
102
RTVSPost2010PropOp49
 70
     1
102
RTVSPost2010Prop50
 90
       50
102
RTVSPost2010PropOp50
 70
     1
102
RTVSPost2010Prop51ColorIndex
 90
      256
102
RTVSPost2010Prop51ColorRGB
 90
-16777216
102
RTVSPost2010PropOp51
 70
     0
102
RTVSPost2010Prop52
140
1.0
102
RTVSPost2010PropOp52
 70
     0
102
RTVSPost2010Prop53
 90
        2
102
RTVSPost2010PropOp53
 70
     1
102
RTVSPost2010Prop54
  1
strokes_ogs.tif
102
RTVSPost2010PropOp54
 70
     1
102
RTVSPost2010Prop55
280
     0
102
RTVSPost2010PropOp55
 70
     1
102
RTVSPost2010Prop56
140
1.0
102
RTVSPost2010PropOp56
 70
     1
102
RTVSPost2010Prop57
140
1.0
102
RTVSPost2010PropOp57
 70
     1
102
RTVSPropertyOp0
 70
     1
102
RTVSPropertyOp1
 70
     1
102
RTVSPropertyOp2
 70
     1
102
RTVSPropertyOp3
 70
     1
102
RTVSPropertyOp4
 70
     1
102
RTVSPropertyOp5
 70
     1
102
RTVSPropertyOp6
 70
     1
102
RTVSPropertyOp7
 70
     1
102
RTVSPropertyOp8
 70
     1
102
RTVSPropertyOp9
 70
     1
102
RTVSPropertyOp10
 70
     1
102
RTVSPropertyOp11
 70
     1
102
RTVSPropertyOp12
 70
     1
102
RTVSPropertyOp13
 70
     1
102
RTVSPropertyOp14
 70
     1
102
RTVSPropertyOp15
 70
     1
102
RTVSPropertyOp16
 70
     1
102
RTVSPropertyOp17
 70
     1
102
RTVSPropertyOp18
 70
     1
102
RTVSPropertyOp19
 70
     1
102
RTVSPropertyOp20
 70
     1
102
RTVSPropertyOp21
 70
     1
102
RTVSPropertyOp22
 70
     1
102
RTVSPropertyOp23
 70
     1
102
RTVSPropertyOp24
 70
     1
102
RTVSPropertyOp25
 70
     1
102
RTVSPropertyOp26
 70
     1
102
RTVSPropertyOp27
 70
     1
102
RTVSPropertyOp28
 70
     1
102
RTVSPropertyOp29
 70
     1
102
RTVSPropertyOp30
 70
     1
102
RTVSPropertyOp31
 70
     1
102
RTVSPropertyOp32
 70
     1
102
RTVSPropertyOp33
 70
     1
102
RTVSPropertyOp34
 70
     1
102
RTVSPropertyOp35
 70
     1
102
RTVSPropertyOp36
 70
     1
102
RTVSPropertyOp37
 70
     1
102
RTVSPropertyOp38
 70
     1
102
RTVSPropertyOp39
 70
     1
102
RTVSPropertyOp40
 70
     1
102
RTVSPropertyOp41
 70
     1
102
RTVSPropertyOp42
 70
     1
102
RTVSPropertyOp43
 70
     1
102
RTVSPropertyOp44
 70
     1
102
RTVSPropertyOp45
 70
     1
102
RTVSPropertyOp46
 70
     1
102
RTVSPropertyOp47
 70
     1
102
RTVSPropertyOp48
 70
     1
102
RTVSPropertyOp49
 70
     1
102
RTVSPropertyOp50
 70
     1
102
RTVSPropertyOp51
 70
     0
102
RTVSPropertyOp52
 70
     0
102
RTVSPropertyOp53
 70
     1
102
RTVSPropertyOp54
 70
     1
102
RTVSPropertyOp55
 70
     1
102
RTVSPropertyOp56
 70
     1
102
RTVSPropertyOp57
 70
     1
102
RTVSPropertyOp58
 70
     1
102
RTVSPropertyOp59
 70
     1
102
RTVSPropertyOp60
 70
     1
102
RTVSPropertyOp61
 70
     1
102
RTVSPropertyOp62
 70
     1
  0
XRECORD
  5
146D
102
{ACAD_REACTORS
330
146C
102
}
330
146C
100
AcDbXrecord
280
     1
102
RTVSPost2010Prop28
280
     0
102
RTVSPost2010PropOp28
 70
     1
102
RTVSPost2010Prop29
280
     1
102
RTVSPost2010PropOp29
 70
     1
102
RTVSPost2010Prop30
280
     1
102
RTVSPost2010PropOp30
 70
     1
102
RTVSPost2010Prop31
280
     0
102
RTVSPost2010PropOp31
 70
     1
102
RTVSPost2010Prop32
280
     0
102
RTVSPost2010PropOp32
 70
     1
102
RTVSPost2010Prop33
280
     0
102
RTVSPost2010PropOp33
 70
     1
102
RTVSPost2010Prop34
280
     0
102
RTVSPost2010PropOp34
 70
     1
102
RTVSPost2010Prop35
280
     0
102
RTVSPost2010PropOp35
 70
     1
102
RTVSPost2010Prop36
280
     0
102
RTVSPost2010PropOp36
 70
     1
102
RTVSPost2010Prop37
 90
       50
102
RTVSPost2010PropOp37
 70
     1
102
RTVSPost2010Prop38
140
0.0
102
RTVSPost2010PropOp38
 70
     1
102
RTVSPost2010Prop39
140
1.0
102
RTVSPost2010PropOp39
 70
     1
102
RTVSPost2010Prop40
 90
        0
102
RTVSPost2010PropOp40
 70
     1
102
RTVSPost2010Prop41ColorIndex
 90
       18
102
RTVSPost2010Prop41ColorRGB
 90
        0
102
RTVSPost2010PropOp41
 70
     1
102
RTVSPost2010Prop42
 90
       50
102
RTVSPost2010PropOp42
 70
     1
102
RTVSPost2010Prop43
 90
        3
102
RTVSPost2010PropOp43
 70
     1
102
RTVSPost2010Prop44ColorIndex
 90
        5
102
RTVSPost2010Prop44ColorRGB
 90
      255
102
RTVSPost2010PropOp44
 70
     1
102
RTVSPost2010Prop45
280
     0
102
RTVSPost2010PropOp45
 70
     1
102
RTVSPost2010Prop46
 90
       50
102
RTVSPost2010PropOp46
 70
     1
102
RTVSPost2010Prop47
 90
       50
102
RTVSPost2010PropOp47
 70
     1
102
RTVSPost2010Prop48
 90
       50
102
RTVSPost2010PropOp48
 70
     1
102
RTVSPost2010Prop49
280
     0
102
RTVSPost2010PropOp49
 70
     1
102
RTVSPost2010Prop50
 90
       50
102
RTVSPost2010PropOp50
 70
     1
102
RTVSPost2010Prop51ColorIndex
 90
      256
102
RTVSPost2010Prop51ColorRGB
 90
-16777216
102
RTVSPost2010PropOp51
 70
     0
102
RTVSPost2010Prop52
140
1.0
102
RTVSPost2010PropOp52
 70
     0
102
RTVSPost2010Prop53
 90
        2
102
RTVSPost2010PropOp53
 70
     1
102
RTVSPost2010Prop54
  1
strokes_ogs.tif
102
RTVSPost2010PropOp54
 70
     1
102
RTVSPost2010Prop55
280
     0
102
RTVSPost2010PropOp55
 70
     1
102
RTVSPost2010Prop56
140
1.0
102
RTVSPost2010PropOp56
 70
     1
102
RTVSPost2010Prop57
140
1.0
102
RTVSPost2010PropOp57
 70
     1
102
RTVSPropertyOp0
 70
     1
102
RTVSPropertyOp1
 70
     1
102
RTVSPropertyOp2
 70
     1
102
RTVSPropertyOp3
 70
     1
102
RTVSPropertyOp4
 70
     1
102
RTVSPropertyOp5
 70
     1
102
RTVSPropertyOp6
 70
     1
102
RTVSPropertyOp7
 70
     1
102
RTVSPropertyOp8
 70
     1
102
RTVSPropertyOp9
 70
     1
102
RTVSPropertyOp10
 70
     1
102
RTVSPropertyOp11
 70
     1
102
RTVSPropertyOp12
 70
     1
102
RTVSPropertyOp13
 70
     1
102
RTVSPropertyOp14
 70
     1
102
RTVSPropertyOp15
 70
     1
102
RTVSPropertyOp16
 70
     1
102
RTVSPropertyOp17
 70
     1
102
RTVSPropertyOp18
 70
     1
102
RTVSPropertyOp19
 70
     1
102
RTVSPropertyOp20
 70
     1
102
RTVSPropertyOp21
 70
     1
102
RTVSPropertyOp22
 70
     1
102
RTVSPropertyOp23
 70
     1
102
RTVSPropertyOp24
 70
     1
102
RTVSPropertyOp25
 70
     1
102
RTVSPropertyOp26
 70
     1
102
RTVSPropertyOp27
 70
     1
102
RTVSPropertyOp28
 70
     1
102
RTVSPropertyOp29
 70
     1
102
RTVSPropertyOp30
 70
     1
102
RTVSPropertyOp31
 70
     1
102
RTVSPropertyOp32
 70
     1
102
RTVSPropertyOp33
 70
     1
102
RTVSPropertyOp34
 70
     1
102
RTVSPropertyOp35
 70
     1
102
RTVSPropertyOp36
 70
     1
102
RTVSPropertyOp37
 70
     1
102
RTVSPropertyOp38
 70
     1
102
RTVSPropertyOp39
 70
     1
102
RTVSPropertyOp40
 70
     1
102
RTVSPropertyOp41
 70
     1
102
RTVSPropertyOp42
 70
     1
102
RTVSPropertyOp43
 70
     1
102
RTVSPropertyOp44
 70
     1
102
RTVSPropertyOp45
 70
     1
102
RTVSPropertyOp46
 70
     1
102
RTVSPropertyOp47
 70
     1
102
RTVSPropertyOp48
 70
     1
102
RTVSPropertyOp49
 70
     1
102
RTVSPropertyOp50
 70
     1
102
RTVSPropertyOp51
 70
     0
102
RTVSPropertyOp52
 70
     0
102
RTVSPropertyOp53
 70
     1
102
RTVSPropertyOp54
 70
     1
102
RTVSPropertyOp55
 70
     1
102
RTVSPropertyOp56
 70
     1
102
RTVSPropertyOp57
 70
     1
102
RTVSPropertyOp58
 70
     1
102
RTVSPropertyOp59
 70
     1
102
RTVSPropertyOp60
 70
     1
102
RTVSPropertyOp61
 70
     1
102
RTVSPropertyOp62
 70
     1
  0
XRECORD
  5
146F
102
{ACAD_REACTORS
330
146E
102
}
330
146E
100
AcDbXrecord
280
     1
102
RTVSPost2010Prop28
280
     0
102
RTVSPost2010PropOp28
 70
     1
102
RTVSPost2010Prop29
280
     1
102
RTVSPost2010PropOp29
 70
     1
102
RTVSPost2010Prop30
280
     1
102
RTVSPost2010PropOp30
 70
     1
102
RTVSPost2010Prop31
280
     0
102
RTVSPost2010PropOp31
 70
     1
102
RTVSPost2010Prop32
280
     0
102
RTVSPost2010PropOp32
 70
     1
102
RTVSPost2010Prop33
280
     0
102
RTVSPost2010PropOp33
 70
     1
102
RTVSPost2010Prop34
280
     0
102
RTVSPost2010PropOp34
 70
     1
102
RTVSPost2010Prop35
280
     0
102
RTVSPost2010PropOp35
 70
     1
102
RTVSPost2010Prop36
280
     0
102
RTVSPost2010PropOp36
 70
     1
102
RTVSPost2010Prop37
 90
       50
102
RTVSPost2010PropOp37
 70
     1
102
RTVSPost2010Prop38
140
0.0
102
RTVSPost2010PropOp38
 70
     1
102
RTVSPost2010Prop39
140
1.0
102
RTVSPost2010PropOp39
 70
     1
102
RTVSPost2010Prop40
 90
        0
102
RTVSPost2010PropOp40
 70
     1
102
RTVSPost2010Prop41ColorIndex
 90
       18
102
RTVSPost2010Prop41ColorRGB
 90
        0
102
RTVSPost2010PropOp41
 70
     1
102
RTVSPost2010Prop42
 90
       50
102
RTVSPost2010PropOp42
 70
     1
102
RTVSPost2010Prop43
 90
        3
102
RTVSPost2010PropOp43
 70
     1
102
RTVSPost2010Prop44ColorIndex
 90
        5
102
RTVSPost2010Prop44ColorRGB
 90
      255
102
RTVSPost2010PropOp44
 70
     1
102
RTVSPost2010Prop45
280
     0
102
RTVSPost2010PropOp45
 70
     1
102
RTVSPost2010Prop46
 90
       50
102
RTVSPost2010PropOp46
 70
     1
102
RTVSPost2010Prop47
 90
       50
102
RTVSPost2010PropOp47
 70
     1
102
RTVSPost2010Prop48
 90
       50
102
RTVSPost2010PropOp48
 70
     1
102
RTVSPost2010Prop49
280
     0
102
RTVSPost2010PropOp49
 70
     1
102
RTVSPost2010Prop50
 90
       50
102
RTVSPost2010PropOp50
 70
     1
102
RTVSPost2010Prop51ColorIndex
 90
      256
102
RTVSPost2010Prop51ColorRGB
 90
-16777216
102
RTVSPost2010PropOp51
 70
     0
102
RTVSPost2010Prop52
140
1.0
102
RTVSPost2010PropOp52
 70
     0
102
RTVSPost2010Prop53
 90
        2
102
RTVSPost2010PropOp53
 70
     1
102
RTVSPost2010Prop54
  1
strokes_ogs.tif
102
RTVSPost2010PropOp54
 70
     1
102
RTVSPost2010Prop55
280
     0
102
RTVSPost2010PropOp55
 70
     1
102
RTVSPost2010Prop56
140
1.0
102
RTVSPost2010PropOp56
 70
     1
102
RTVSPost2010Prop57
140
1.0
102
RTVSPost2010PropOp57
 70
     1
102
RTVSPropertyOp0
 70
     1
102
RTVSPropertyOp1
 70
     1
102
RTVSPropertyOp2
 70
     1
102
RTVSPropertyOp3
 70
     1
102
RTVSPropertyOp4
 70
     1
102
RTVSPropertyOp5
 70
     1
102
RTVSPropertyOp6
 70
     1
102
RTVSPropertyOp7
 70
     1
102
RTVSPropertyOp8
 70
     1
102
RTVSPropertyOp9
 70
     1
102
RTVSPropertyOp10
 70
     1
102
RTVSPropertyOp11
 70
     1
102
RTVSPropertyOp12
 70
     1
102
RTVSPropertyOp13
 70
     1
102
RTVSPropertyOp14
 70
     1
102
RTVSPropertyOp15
 70
     1
102
RTVSPropertyOp16
 70
     1
102
RTVSPropertyOp17
 70
     1
102
RTVSPropertyOp18
 70
     1
102
RTVSPropertyOp19
 70
     1
102
RTVSPropertyOp20
 70
     1
102
RTVSPropertyOp21
 70
     1
102
RTVSPropertyOp22
 70
     1
102
RTVSPropertyOp23
 70
     1
102
RTVSPropertyOp24
 70
     1
102
RTVSPropertyOp25
 70
     1
102
RTVSPropertyOp26
 70
     1
102
RTVSPropertyOp27
 70
     1
102
RTVSPropertyOp28
 70
     1
102
RTVSPropertyOp29
 70
     1
102
RTVSPropertyOp30
 70
     1
102
RTVSPropertyOp31
 70
     1
102
RTVSPropertyOp32
 70
     1
102
RTVSPropertyOp33
 70
     1
102
RTVSPropertyOp34
 70
     1
102
RTVSPropertyOp35
 70
     1
102
RTVSPropertyOp36
 70
     1
102
RTVSPropertyOp37
 70
     1
102
RTVSPropertyOp38
 70
     1
102
RTVSPropertyOp39
 70
     1
102
RTVSPropertyOp40
 70
     1
102
RTVSPropertyOp41
 70
     1
102
RTVSPropertyOp42
 70
     1
102
RTVSPropertyOp43
 70
     1
102
RTVSPropertyOp44
 70
     1
102
RTVSPropertyOp45
 70
     1
102
RTVSPropertyOp46
 70
     1
102
RTVSPropertyOp47
 70
     1
102
RTVSPropertyOp48
 70
     1
102
RTVSPropertyOp49
 70
     1
102
RTVSPropertyOp50
 70
     1
102
RTVSPropertyOp51
 70
     0
102
RTVSPropertyOp52
 70
     0
102
RTVSPropertyOp53
 70
     1
102
RTVSPropertyOp54
 70
     1
102
RTVSPropertyOp55
 70
     1
102
RTVSPropertyOp56
 70
     1
102
RTVSPropertyOp57
 70
     1
102
RTVSPropertyOp58
 70
     1
102
RTVSPropertyOp59
 70
     1
102
RTVSPropertyOp60
 70
     1
102
RTVSPropertyOp61
 70
     1
102
RTVSPropertyOp62
 70
     1
  0
XRECORD
  5
1460
102
{ACAD_REACTORS
330
145F
102
}
330
145F
100
AcDbXrecord
280
     1
102
RTVSPost2010Prop28
280
     0
102
RTVSPost2010PropOp28
 70
     1
102
RTVSPost2010Prop29
280
     1
102
RTVSPost2010PropOp29
 70
     1
102
RTVSPost2010Prop30
280
     1
102
RTVSPost2010PropOp30
 70
     1
102
RTVSPost2010Prop31
280
     0
102
RTVSPost2010PropOp31
 70
     1
102
RTVSPost2010Prop32
280
     0
102
RTVSPost2010PropOp32
 70
     1
102
RTVSPost2010Prop33
280
     0
102
RTVSPost2010PropOp33
 70
     1
102
RTVSPost2010Prop34
280
     0
102
RTVSPost2010PropOp34
 70
     1
102
RTVSPost2010Prop35
280
     0
102
RTVSPost2010PropOp35
 70
     1
102
RTVSPost2010Prop36
280
     0
102
RTVSPost2010PropOp36
 70
     1
102
RTVSPost2010Prop37
 90
       50
102
RTVSPost2010PropOp37
 70
     1
102
RTVSPost2010Prop38
140
0.0
102
RTVSPost2010PropOp38
 70
     1
102
RTVSPost2010Prop39
140
1.0
102
RTVSPost2010PropOp39
 70
     1
102
RTVSPost2010Prop40
 90
        0
102
RTVSPost2010PropOp40
 70
     1
102
RTVSPost2010Prop41ColorIndex
 90
       18
102
RTVSPost2010Prop41ColorRGB
 90
        0
102
RTVSPost2010PropOp41
 70
     1
102
RTVSPost2010Prop42
 90
       50
102
RTVSPost2010PropOp42
 70
     1
102
RTVSPost2010Prop43
 90
        3
102
RTVSPost2010PropOp43
 70
     1
102
RTVSPost2010Prop44ColorIndex
 90
        5
102
RTVSPost2010Prop44ColorRGB
 90
      255
102
RTVSPost2010PropOp44
 70
     1
102
RTVSPost2010Prop45
280
     0
102
RTVSPost2010PropOp45
 70
     1
102
RTVSPost2010Prop46
 90
       50
102
RTVSPost2010PropOp46
 70
     1
102
RTVSPost2010Prop47
 90
       50
102
RTVSPost2010PropOp47
 70
     1
102
RTVSPost2010Prop48
 90
       50
102
RTVSPost2010PropOp48
 70
     1
102
RTVSPost2010Prop49
280
     0
102
RTVSPost2010PropOp49
 70
     1
102
RTVSPost2010Prop50
 90
       50
102
RTVSPost2010PropOp50
 70
     1
102
RTVSPost2010Prop51ColorIndex
 90
      256
102
RTVSPost2010Prop51ColorRGB
 90
-16777216
102
RTVSPost2010PropOp51
 70
     0
102
RTVSPost2010Prop52
140
1.0
102
RTVSPost2010PropOp52
 70
     0
102
RTVSPost2010Prop53
 90
        2
102
RTVSPost2010PropOp53
 70
     1
102
RTVSPost2010Prop54
  1
strokes_ogs.tif
102
RTVSPost2010PropOp54
 70
     1
102
RTVSPost2010Prop55
280
     0
102
RTVSPost2010PropOp55
 70
     1
102
RTVSPost2010Prop56
140
1.0
102
RTVSPost2010PropOp56
 70
     1
102
RTVSPost2010Prop57
140
1.0
102
RTVSPost2010PropOp57
 70
     1
102
RTVSPropertyOp0
 70
     1
102
RTVSPropertyOp1
 70
     1
102
RTVSPropertyOp2
 70
     1
102
RTVSPropertyOp3
 70
     1
102
RTVSPropertyOp4
 70
     1
102
RTVSPropertyOp5
 70
     1
102
RTVSPropertyOp6
 70
     1
102
RTVSPropertyOp7
 70
     1
102
RTVSPropertyOp8
 70
     1
102
RTVSPropertyOp9
 70
     1
102
RTVSPropertyOp10
 70
     1
102
RTVSPropertyOp11
 70
     1
102
RTVSPropertyOp12
 70
     1
102
RTVSPropertyOp13
 70
     1
102
RTVSPropertyOp14
 70
     1
102
RTVSPropertyOp15
 70
     1
102
RTVSPropertyOp16
 70
     1
102
RTVSPropertyOp17
 70
     1
102
RTVSPropertyOp18
 70
     1
102
RTVSPropertyOp19
 70
     1
102
RTVSPropertyOp20
 70
     1
102
RTVSPropertyOp21
 70
     1
102
RTVSPropertyOp22
 70
     1
102
RTVSPropertyOp23
 70
     1
102
RTVSPropertyOp24
 70
     1
102
RTVSPropertyOp25
 70
     1
102
RTVSPropertyOp26
 70
     1
102
RTVSPropertyOp27
 70
     1
102
RTVSPropertyOp28
 70
     1
102
RTVSPropertyOp29
 70
     1
102
RTVSPropertyOp30
 70
     1
102
RTVSPropertyOp31
 70
     1
102
RTVSPropertyOp32
 70
     1
102
RTVSPropertyOp33
 70
     1
102
RTVSPropertyOp34
 70
     1
102
RTVSPropertyOp35
 70
     1
102
RTVSPropertyOp36
 70
     1
102
RTVSPropertyOp37
 70
     1
102
RTVSPropertyOp38
 70
     1
102
RTVSPropertyOp39
 70
     1
102
RTVSPropertyOp40
 70
     1
102
RTVSPropertyOp41
 70
     1
102
RTVSPropertyOp42
 70
     1
102
RTVSPropertyOp43
 70
     1
102
RTVSPropertyOp44
 70
     1
102
RTVSPropertyOp45
 70
     1
102
RTVSPropertyOp46
 70
     1
102
RTVSPropertyOp47
 70
     1
102
RTVSPropertyOp48
 70
     1
102
RTVSPropertyOp49
 70
     1
102
RTVSPropertyOp50
 70
     1
102
RTVSPropertyOp51
 70
     0
102
RTVSPropertyOp52
 70
     0
102
RTVSPropertyOp53
 70
     1
102
RTVSPropertyOp54
 70
     1
102
RTVSPropertyOp55
 70
     1
102
RTVSPropertyOp56
 70
     1
102
RTVSPropertyOp57
 70
     1
102
RTVSPropertyOp58
 70
     1
102
RTVSPropertyOp59
 70
     1
102
RTVSPropertyOp60
 70
     1
102
RTVSPropertyOp61
 70
     1
102
RTVSPropertyOp62
 70
     1
  0
XRECORD
  5
1469
102
{ACAD_REACTORS
330
1468
102
}
330
1468
100
AcDbXrecord
280
     1
102
RTVSPost2010Prop28
280
     0
102
RTVSPost2010PropOp28
 70
     1
102
RTVSPost2010Prop29
280
     1
102
RTVSPost2010PropOp29
 70
     1
102
RTVSPost2010Prop30
280
     1
102
RTVSPost2010PropOp30
 70
     1
102
RTVSPost2010Prop31
280
     0
102
RTVSPost2010PropOp31
 70
     1
102
RTVSPost2010Prop32
280
     0
102
RTVSPost2010PropOp32
 70
     1
102
RTVSPost2010Prop33
280
     0
102
RTVSPost2010PropOp33
 70
     1
102
RTVSPost2010Prop34
280
     0
102
RTVSPost2010PropOp34
 70
     1
102
RTVSPost2010Prop35
280
     0
102
RTVSPost2010PropOp35
 70
     1
102
RTVSPost2010Prop36
280
     0
102
RTVSPost2010PropOp36
 70
     1
102
RTVSPost2010Prop37
 90
       50
102
RTVSPost2010PropOp37
 70
     1
102
RTVSPost2010Prop38
140
0.0
102
RTVSPost2010PropOp38
 70
     1
102
RTVSPost2010Prop39
140
1.0
102
RTVSPost2010PropOp39
 70
     1
102
RTVSPost2010Prop40
 90
        0
102
RTVSPost2010PropOp40
 70
     1
102
RTVSPost2010Prop41ColorIndex
 90
       18
102
RTVSPost2010Prop41ColorRGB
 90
        0
102
RTVSPost2010PropOp41
 70
     1
102
RTVSPost2010Prop42
 90
       50
102
RTVSPost2010PropOp42
 70
     1
102
RTVSPost2010Prop43
 90
        3
102
RTVSPost2010PropOp43
 70
     1
102
RTVSPost2010Prop44ColorIndex
 90
        5
102
RTVSPost2010Prop44ColorRGB
 90
      255
102
RTVSPost2010PropOp44
 70
     1
102
RTVSPost2010Prop45
280
     0
102
RTVSPost2010PropOp45
 70
     1
102
RTVSPost2010Prop46
 90
       50
102
RTVSPost2010PropOp46
 70
     1
102
RTVSPost2010Prop47
 90
       50
102
RTVSPost2010PropOp47
 70
     1
102
RTVSPost2010Prop48
 90
       50
102
RTVSPost2010PropOp48
 70
     1
102
RTVSPost2010Prop49
280
     0
102
RTVSPost2010PropOp49
 70
     1
102
RTVSPost2010Prop50
 90
       50
102
RTVSPost2010PropOp50
 70
     1
102
RTVSPost2010Prop51ColorIndex
 90
      256
102
RTVSPost2010Prop51ColorRGB
 90
-16777216
102
RTVSPost2010PropOp51
 70
     0
102
RTVSPost2010Prop52
140
1.0
102
RTVSPost2010PropOp52
 70
     0
102
RTVSPost2010Prop53
 90
        2
102
RTVSPost2010PropOp53
 70
     1
102
RTVSPost2010Prop54
  1
strokes_ogs.tif
102
RTVSPost2010PropOp54
 70
     1
102
RTVSPost2010Prop55
280
     0
102
RTVSPost2010PropOp55
 70
     1
102
RTVSPost2010Prop56
140
1.0
102
RTVSPost2010PropOp56
 70
     1
102
RTVSPost2010Prop57
140
1.0
102
RTVSPost2010PropOp57
 70
     1
102
RTVSPropertyOp0
 70
     1
102
RTVSPropertyOp1
 70
     1
102
RTVSPropertyOp2
 70
     1
102
RTVSPropertyOp3
 70
     1
102
RTVSPropertyOp4
 70
     1
102
RTVSPropertyOp5
 70
     1
102
RTVSPropertyOp6
 70
     1
102
RTVSPropertyOp7
 70
     1
102
RTVSPropertyOp8
 70
     1
102
RTVSPropertyOp9
 70
     1
102
RTVSPropertyOp10
 70
     1
102
RTVSPropertyOp11
 70
     1
102
RTVSPropertyOp12
 70
     1
102
RTVSPropertyOp13
 70
     1
102
RTVSPropertyOp14
 70
     1
102
RTVSPropertyOp15
 70
     1
102
RTVSPropertyOp16
 70
     1
102
RTVSPropertyOp17
 70
     1
102
RTVSPropertyOp18
 70
     1
102
RTVSPropertyOp19
 70
     1
102
RTVSPropertyOp20
 70
     1
102
RTVSPropertyOp21
 70
     1
102
RTVSPropertyOp22
 70
     1
102
RTVSPropertyOp23
 70
     1
102
RTVSPropertyOp24
 70
     1
102
RTVSPropertyOp25
 70
     1
102
RTVSPropertyOp26
 70
     1
102
RTVSPropertyOp27
 70
     1
102
RTVSPropertyOp28
 70
     1
102
RTVSPropertyOp29
 70
     1
102
RTVSPropertyOp30
 70
     1
102
RTVSPropertyOp31
 70
     1
102
RTVSPropertyOp32
 70
     1
102
RTVSPropertyOp33
 70
     1
102
RTVSPropertyOp34
 70
     1
102
RTVSPropertyOp35
 70
     1
102
RTVSPropertyOp36
 70
     1
102
RTVSPropertyOp37
 70
     1
102
RTVSPropertyOp38
 70
     1
102
RTVSPropertyOp39
 70
     1
102
RTVSPropertyOp40
 70
     1
102
RTVSPropertyOp41
 70
     1
102
RTVSPropertyOp42
 70
     1
102
RTVSPropertyOp43
 70
     1
102
RTVSPropertyOp44
 70
     1
102
RTVSPropertyOp45
 70
     1
102
RTVSPropertyOp46
 70
     1
102
RTVSPropertyOp47
 70
     1
102
RTVSPropertyOp48
 70
     1
102
RTVSPropertyOp49
 70
     1
102
RTVSPropertyOp50
 70
     1
102
RTVSPropertyOp51
 70
     0
102
RTVSPropertyOp52
 70
     0
102
RTVSPropertyOp53
 70
     1
102
RTVSPropertyOp54
 70
     1
102
RTVSPropertyOp55
 70
     1
102
RTVSPropertyOp56
 70
     1
102
RTVSPropertyOp57
 70
     1
102
RTVSPropertyOp58
 70
     1
102
RTVSPropertyOp59
 70
     1
102
RTVSPropertyOp60
 70
     1
102
RTVSPropertyOp61
 70
     1
102
RTVSPropertyOp62
 70
     1
  0
XRECORD
  5
1471
102
{ACAD_REACTORS
330
1470
102
}
330
1470
100
AcDbXrecord
280
     1
102
RTVSPost2010Prop28
280
     0
102
RTVSPost2010PropOp28
 70
     1
102
RTVSPost2010Prop29
280
     1
102
RTVSPost2010PropOp29
 70
     1
102
RTVSPost2010Prop30
280
     1
102
RTVSPost2010PropOp30
 70
     1
102
RTVSPost2010Prop31
280
     0
102
RTVSPost2010PropOp31
 70
     1
102
RTVSPost2010Prop32
280
     0
102
RTVSPost2010PropOp32
 70
     1
102
RTVSPost2010Prop33
280
     0
102
RTVSPost2010PropOp33
 70
     1
102
RTVSPost2010Prop34
280
     0
102
RTVSPost2010PropOp34
 70
     1
102
RTVSPost2010Prop35
280
     0
102
RTVSPost2010PropOp35
 70
     1
102
RTVSPost2010Prop36
280
     0
102
RTVSPost2010PropOp36
 70
     1
102
RTVSPost2010Prop37
 90
       50
102
RTVSPost2010PropOp37
 70
     1
102
RTVSPost2010Prop38
140
0.0
102
RTVSPost2010PropOp38
 70
     1
102
RTVSPost2010Prop39
140
1.0
102
RTVSPost2010PropOp39
 70
     1
102
RTVSPost2010Prop40
 90
        0
102
RTVSPost2010PropOp40
 70
     1
102
RTVSPost2010Prop41ColorIndex
 90
       18
102
RTVSPost2010Prop41ColorRGB
 90
        0
102
RTVSPost2010PropOp41
 70
     1
102
RTVSPost2010Prop42
 90
       50
102
RTVSPost2010PropOp42
 70
     1
102
RTVSPost2010Prop43
 90
        3
102
RTVSPost2010PropOp43
 70
     1
102
RTVSPost2010Prop44ColorIndex
 90
        5
102
RTVSPost2010Prop44ColorRGB
 90
      255
102
RTVSPost2010PropOp44
 70
     1
102
RTVSPost2010Prop45
280
     0
102
RTVSPost2010PropOp45
 70
     1
102
RTVSPost2010Prop46
 90
       50
102
RTVSPost2010PropOp46
 70
     1
102
RTVSPost2010Prop47
 90
       50
102
RTVSPost2010PropOp47
 70
     1
102
RTVSPost2010Prop48
 90
       50
102
RTVSPost2010PropOp48
 70
     1
102
RTVSPost2010Prop49
280
     0
102
RTVSPost2010PropOp49
 70
     1
102
RTVSPost2010Prop50
 90
       50
102
RTVSPost2010PropOp50
 70
     1
102
RTVSPost2010Prop51ColorIndex
 90
      256
102
RTVSPost2010Prop51ColorRGB
 90
-16777216
102
RTVSPost2010PropOp51
 70
     0
102
RTVSPost2010Prop52
140
1.0
102
RTVSPost2010PropOp52
 70
     0
102
RTVSPost2010Prop53
 90
        2
102
RTVSPost2010PropOp53
 70
     1
102
RTVSPost2010Prop54
  1
strokes_ogs.tif
102
RTVSPost2010PropOp54
 70
     1
102
RTVSPost2010Prop55
280
     0
102
RTVSPost2010PropOp55
 70
     1
102
RTVSPost2010Prop56
140
1.0
102
RTVSPost2010PropOp56
 70
     1
102
RTVSPost2010Prop57
140
1.0
102
RTVSPost2010PropOp57
 70
     1
102
RTVSPropertyOp0
 70
     1
102
RTVSPropertyOp1
 70
     1
102
RTVSPropertyOp2
 70
     1
102
RTVSPropertyOp3
 70
     1
102
RTVSPropertyOp4
 70
     1
102
RTVSPropertyOp5
 70
     1
102
RTVSPropertyOp6
 70
     1
102
RTVSPropertyOp7
 70
     1
102
RTVSPropertyOp8
 70
     1
102
RTVSPropertyOp9
 70
     1
102
RTVSPropertyOp10
 70
     1
102
RTVSPropertyOp11
 70
     1
102
RTVSPropertyOp12
 70
     1
102
RTVSPropertyOp13
 70
     1
102
RTVSPropertyOp14
 70
     1
102
RTVSPropertyOp15
 70
     1
102
RTVSPropertyOp16
 70
     1
102
RTVSPropertyOp17
 70
     1
102
RTVSPropertyOp18
 70
     1
102
RTVSPropertyOp19
 70
     1
102
RTVSPropertyOp20
 70
     1
102
RTVSPropertyOp21
 70
     1
102
RTVSPropertyOp22
 70
     1
102
RTVSPropertyOp23
 70
     1
102
RTVSPropertyOp24
 70
     1
102
RTVSPropertyOp25
 70
     1
102
RTVSPropertyOp26
 70
     1
102
RTVSPropertyOp27
 70
     1
102
RTVSPropertyOp28
 70
     1
102
RTVSPropertyOp29
 70
     1
102
RTVSPropertyOp30
 70
     1
102
RTVSPropertyOp31
 70
     1
102
RTVSPropertyOp32
 70
     1
102
RTVSPropertyOp33
 70
     1
102
RTVSPropertyOp34
 70
     1
102
RTVSPropertyOp35
 70
     1
102
RTVSPropertyOp36
 70
     1
102
RTVSPropertyOp37
 70
     1
102
RTVSPropertyOp38
 70
     1
102
RTVSPropertyOp39
 70
     1
102
RTVSPropertyOp40
 70
     1
102
RTVSPropertyOp41
 70
     1
102
RTVSPropertyOp42
 70
     1
102
RTVSPropertyOp43
 70
     1
102
RTVSPropertyOp44
 70
     1
102
RTVSPropertyOp45
 70
     1
102
RTVSPropertyOp46
 70
     1
102
RTVSPropertyOp47
 70
     1
102
RTVSPropertyOp48
 70
     1
102
RTVSPropertyOp49
 70
     1
102
RTVSPropertyOp50
 70
     1
102
RTVSPropertyOp51
 70
     0
102
RTVSPropertyOp52
 70
     0
102
RTVSPropertyOp53
 70
     1
102
RTVSPropertyOp54
 70
     1
102
RTVSPropertyOp55
 70
     1
102
RTVSPropertyOp56
 70
     1
102
RTVSPropertyOp57
 70
     1
102
RTVSPropertyOp58
 70
     1
102
RTVSPropertyOp59
 70
     1
102
RTVSPropertyOp60
 70
     1
102
RTVSPropertyOp61
 70
     1
102
RTVSPropertyOp62
 70
     1
  0
ENDSEC
  0
EOF
