  0
SECTION
  2
HEADER
  9
$CLAYER
  8
1
  9
$LTSCALE
 40
3.0
  0
ENDSEC
  0
SECTION
  2
TABLES
  0
TABLE
  2
LTYPE
 70
     4
  0
LTYPE
  2
CONTINUOUS
  3
solid line
 70
    64
 72
    65
 73
     0
 40
0.0
  0
LTYPE
  2
DASHED
  3
__ __ __ __ __ __ __ __ __ __ __ __ __ __ __
 70
    64
 72
    65
 73
     2
 40
0.75
 49
0.5
 49
-0.25
  0
LTYPE
  2
CENTER
  3
____ _ ____ _ ____ _ ____ _ ____ _ ____ _ ____
 70
    64
 72
    65
 73
     4
 40
2.0
 49
1.25
 49
-0.25
 49
0.25
 49
-0.25
  0
LTYPE
  2
PHANTOM
  3
_____ _ _ _____ _ _ _____ _ _ _____ _ _ ____
 70
    64
 72
    65
 73
     6
 40
2.5
 49
1.25
 49
-0.25
 49
0.25
 49
-0.25
 49
0.25
 49
-0.25
  0
ENDTAB
  0
TABLE
  2
LAYER
 70
     1
  0
LAYER
  2
0
 70
    64
 62
     7
  6
CONTINUOUS
  0
ENDTAB
  0
TABLE
  2
STYLE
 70
     1
  0
STYLE
  2
STANDARD
 70
     0
 40
0.000000
 41
1.000000
 50
0.000000
 71
     0
 42
3.000000
  3
txt
  4
BIGFONT
  0
ENDTAB
  0
ENDSEC
  0
SECTION
  2
BLOCKS
  0
ENDSEC
  0
SECTION
  2
ENTITIES
  0
LINE
  8
0
  6
CENTER
 10
428.252502
 20
56.439999
 11
295.866241
 21
56.439999
  0
LINE
  8
0
  6
CONTINUOUS
 10
216.585007
 20
14.140000
 11
216.585007
 21
7.140000
  0
LINE
  8
0
  6
CONTINUOUS
 10
317.584991
 20
14.139990
 11
317.584991
 21
7.140000
  0
LINE
  8
0
  6
CONTINUOUS
 10
390.084991
 20
11.440000
 11
317.584991
 21
11.440000
  0
LINE
  8
0
  6
CONTINUOUS
 10
390.084991
 20
101.440002
 11
310.742401
 21
101.440002
  0
LINE
  8
0
  6
CENTER
 10
267.084991
 20
130.127502
 11
267.084991
 21
-0.765750
  0
LINE
  8
0
  6
CENTER
 10
302.372498
 20
82.139999
 11
225.270004
 21
82.139999
  0
LINE
  8
0
  6
CONTINUOUS
 10
317.584991
 20
7.140000
 11
216.585007
 21
7.140000
  0
LINE
  8
0
  6
CONTINUOUS
 10
282.506104
 20
120.139999
 11
251.663895
 21
120.139999
  0
LINE
  8
0
  6
CONTINUOUS
 10
315.584991
 20
16.139999
 11
218.585007
 21
16.139999
  0
LINE
  8
0
  6
CENTER
 10
229.085007
 20
21.627501
 11
229.085007
 21
0.377500
  0
LINE
  8
0
  6
CENTER
 10
305.084991
 20
21.877501
 11
305.084991
 21
-0.122500
  0
LINE
  8
0
  6
CONTINUOUS
 10
218.713593
 20
98.133179
 11
248.792496
 21
119.233292
  0
LINE
  8
0
  6
CONTINUOUS
 10
315.456390
 20
98.133179
 11
285.377502
 21
119.233276
  0
ARC
  8
0
  6
CONTINUOUS
 10
251.663803
 20
115.139992
 40
5.000000
 50
90.000000
 51
125.049103
  0
ARC
  8
0
  6
CONTINUOUS
 10
282.506104
 20
115.139999
 40
5.000000
 50
54.950329
 51
90.000000
  0
ARC
  8
0
  6
CONTINUOUS
 10
312.584991
 20
94.039932
 40
5.000000
 50
0.000000
 51
54.950199
  0
ARC
  8
0
  6
CONTINUOUS
 10
221.585007
 20
94.039879
 40
5.000000
 50
125.049103
 51
180.000000
  0
LINE
  8
0
  6
CONTINUOUS
 10
216.585007
 20
14.140000
 11
216.585007
 21
94.039902
  0
ARC
  8
0
  6
CONTINUOUS
 10
218.585007
 20
14.139990
 40
2.000000
 50
90.000000
 51
180.000000
  0
LINE
  8
0
  6
CONTINUOUS
 10
317.584991
 20
14.139990
 11
317.584991
 21
94.039902
  0
ARC
  8
0
  6
CONTINUOUS
 10
315.584991
 20
14.140000
 40
2.000000
 50
0.000000
 51
90.000000
  0
LINE
  8
0
  6
DASHED
 10
224.835007
 20
16.139999
 11
224.835007
 21
7.140000
  0
LINE
  8
0
  6
DASHED
 10
233.335007
 20
16.139999
 11
233.335007
 21
7.140000
  0
LINE
  8
0
  6
DASHED
 10
300.834991
 20
16.139999
 11
300.834991
 21
7.140000
  0
LINE
  8
0
  6
DASHED
 10
309.334991
 20
16.139999
 11
309.334991
 21
7.140000
  0
CIRCLE
  8
0
  6
CONTINUOUS
 10
267.084991
 20
82.139999
 40
23.500000
  0
CIRCLE
  8
0
  6
CONTINUOUS
 10
267.084991
 20
82.139999
 40
23.500000
  0
LINE
  8
0
  6
CONTINUOUS
 10
260.710999
 20
44.694099
 11
260.710999
 21
39.139999
  0
LINE
  8
0
  6
CONTINUOUS
 10
263.898987
 20
46.711498
 11
263.898987
 21
48.704006
  0
LINE
  8
0
  6
CONTINUOUS
 10
270.274994
 20
46.711498
 11
270.274994
 21
48.704006
  0
LINE
  8
0
  6
CONTINUOUS
 10
266.464294
 20
47.533413
 11
266.464294
 21
40.186062
  0
LINE
  8
0
  6
CONTINUOUS
 10
267.659790
 20
47.533413
 11
267.659790
 21
40.186062
  0
LINE
  8
0
  6
CONTINUOUS
 10
273.936188
 20
47.533413
 11
273.936188
 21
40.136261
  0
LINE
  8
0
  6
CONTINUOUS
 10
275.032104
 20
43.610668
 11
275.032104
 21
40.136261
  0
LINE
  8
0
  6
CONTINUOUS
 10
259.198303
 20
47.433788
 11
256.125793
 21
47.433788
  0
LINE
  8
0
  6
CONTINUOUS
 10
256.125793
 20
47.433788
 11
255.406006
 21
46.541149
  0
LINE
  8
0
  6
CONTINUOUS
 10
255.492493
 20
48.704006
 11
254.335007
 21
47.221783
  0
LINE
  8
0
  6
CONTINUOUS
 10
255.406006
 20
41.031219
 11
256.137390
 21
40.260792
  0
LINE
  8
0
  6
CONTINUOUS
 10
254.335007
 20
40.381039
 11
255.565002
 21
39.139999
  0
LINE
  8
0
  6
CONTINUOUS
 10
254.335007
 20
47.221783
 11
254.335007
 21
40.381039
  0
LINE
  8
0
  6
CONTINUOUS
 10
255.406006
 20
46.541149
 11
255.406006
 21
41.031219
  0
LINE
  8
0
  6
CONTINUOUS
 10
259.789490
 20
46.862255
 11
259.186188
 21
47.433788
  0
LINE
  8
0
  6
CONTINUOUS
 10
259.779907
 20
48.704006
 11
260.710999
 21
47.670696
  0
LINE
  8
0
  6
CONTINUOUS
 10
259.789490
 20
46.711498
 11
260.710999
 21
46.711498
  0
LINE
  8
0
  6
CONTINUOUS
 10
255.492493
 20
48.704006
 11
259.779907
 21
48.704006
  0
LINE
  8
0
  6
CONTINUOUS
 10
259.789490
 20
43.648041
 11
258.120789
 21
43.648041
  0
LINE
  8
0
  6
CONTINUOUS
 10
259.789490
 20
42.651791
 11
259.789490
 21
43.448792
  0
LINE
  8
0
  6
CONTINUOUS
 10
257.796997
 20
40.260792
 11
256.137390
 21
40.260792
  0
ARC
  8
0
  6
CONTINUOUS
 10
257.796997
 20
42.253281
 40
1.992500
 50
-89.999786
 51
0.000109
  0
LINE
  8
0
  6
CONTINUOUS
 10
259.789490
 20
39.902390
 11
259.789490
 21
39.139999
  0
LINE
  8
0
  6
CONTINUOUS
 10
260.710999
 20
47.670696
 11
260.710999
 21
46.711498
  0
LINE
  8
0
  6
CONTINUOUS
 10
259.789490
 20
43.648041
 11
259.789490
 21
42.253281
  0
LINE
  8
0
  6
CONTINUOUS
 10
258.120789
 20
44.694099
 11
258.120789
 21
43.648041
  0
LINE
  8
0
  6
CONTINUOUS
 10
259.789490
 20
39.139999
 11
260.710999
 21
39.139999
  0
LINE
  8
0
  6
CONTINUOUS
 10
259.789490
 20
39.902390
 11
258.880798
 21
39.139999
  0
LINE
  8
0
  6
CONTINUOUS
 10
267.659790
 20
40.186062
 11
268.058289
 21
40.186062
  0
LINE
  8
0
  6
CONTINUOUS
 10
265.991089
 20
40.186062
 11
265.991089
 21
39.139999
  0
LINE
  8
0
  6
CONTINUOUS
 10
268.058289
 20
40.186062
 11
268.058289
 21
39.139999
  0
LINE
  8
0
  6
CONTINUOUS
 10
269.609894
 20
46.711498
 11
270.274994
 21
46.711498
  0
LINE
  8
0
  6
CONTINUOUS
 10
263.898987
 20
46.711498
 11
264.606689
 21
46.711498
  0
LINE
  8
0
  6
CONTINUOUS
 10
263.898987
 20
48.704006
 11
270.274994
 21
48.704006
  0
LINE
  8
0
  6
CONTINUOUS
 10
265.991089
 20
39.139999
 11
268.058289
 21
39.139999
  0
LINE
  8
0
  6
CONTINUOUS
 10
265.991089
 20
40.186062
 11
266.464294
 21
40.186062
  0
ARC
  8
0
  6
CONTINUOUS
 10
277.286102
 20
46.151112
 40
2.552891
 50
-73.981873
 51
90.003510
  0
ARC
  8
0
  6
CONTINUOUS
 10
277.286102
 20
46.151112
 40
1.557438
 50
-82.585274
 51
62.411850
  0
LINE
  8
0
  6
CONTINUOUS
 10
273.463013
 20
48.704006
 11
277.286102
 21
48.704006
  0
LINE
  8
0
  6
CONTINUOUS
 10
273.463013
 20
48.704006
 11
273.463013
 21
47.533413
  0
LINE
  8
0
  6
CONTINUOUS
 10
275.032104
 20
47.533413
 11
275.032104
 21
44.606689
  0
LINE
  8
0
  6
CONTINUOUS
 10
277.990601
 20
43.697338
 11
279.570587
 21
40.136261
  0
LINE
  8
0
  6
CONTINUOUS
 10
277.072815
 20
43.610668
 11
278.568207
 21
40.136261
  0
LINE
  8
0
  6
CONTINUOUS
 10
273.463013
 20
40.136261
 11
273.936188
 21
40.136261
  0
LINE
  8
0
  6
CONTINUOUS
 10
275.032104
 20
40.136261
 11
275.467896
 21
40.136261
  0
LINE
  8
0
  6
CONTINUOUS
 10
275.467896
 20
39.139999
 11
273.463013
 21
39.139999
  0
LINE
  8
0
  6
CONTINUOUS
 10
278.369507
 20
40.136261
 11
278.568207
 21
40.136261
  0
LINE
  8
0
  6
CONTINUOUS
 10
279.570587
 20
40.136261
 11
279.838989
 21
40.136261
  0
LINE
  8
0
  6
CONTINUOUS
 10
278.369507
 20
39.139999
 11
279.838989
 21
39.139999
  0
LINE
  8
0
  6
CONTINUOUS
 10
279.838989
 20
40.136261
 11
279.838989
 21
39.139999
  0
LINE
  8
0
  6
CONTINUOUS
 10
278.369507
 20
40.136261
 11
278.369507
 21
39.139999
  0
LINE
  8
0
  6
CONTINUOUS
 10
275.467896
 20
40.136261
 11
275.467896
 21
39.139999
  0
LINE
  8
0
  6
CONTINUOUS
 10
273.463013
 20
40.136261
 11
273.463013
 21
39.139999
  0
LINE
  8
0
  6
CONTINUOUS
 10
264.949188
 20
47.533413
 11
264.606689
 21
46.711498
  0
LINE
  8
0
  6
CONTINUOUS
 10
269.321106
 20
47.533413
 11
269.609894
 21
46.711498
  0
LINE
  8
0
  6
CONTINUOUS
 10
267.659790
 20
47.533413
 11
269.321106
 21
47.533413
  0
LINE
  8
0
  6
CONTINUOUS
 10
266.464294
 20
47.533413
 11
264.949188
 21
47.533413
  0
LINE
  8
0
  6
CONTINUOUS
 10
273.463013
 20
47.533413
 11
273.936188
 21
47.533413
  0
LINE
  8
0
  6
CONTINUOUS
 10
275.032104
 20
47.533413
 11
278.007385
 21
47.531475
  0
LINE
  8
0
  6
CONTINUOUS
 10
259.789490
 20
46.862255
 11
259.789490
 21
46.711498
  0
LINE
  8
0
  6
CONTINUOUS
 10
255.565002
 20
39.139999
 11
258.880798
 21
39.139999
  0
LINE
  8
0
  6
CONTINUOUS
 10
275.032104
 20
44.606689
 11
277.487091
 21
44.606689
  0
LINE
  8
0
  6
CONTINUOUS
 10
275.032104
 20
43.610668
 11
277.072815
 21
43.610668
  0
LINE
  8
0
  6
CONTINUOUS
 10
258.120789
 20
44.694099
 11
260.710999
 21
44.694099
  0
LINE
  8
0
  6
CONTINUOUS
 10
319.502899
 20
90.849297
 11
390.084991
 21
90.849297
  0
LINE
  8
0
  6
CONTINUOUS
 10
319.502899
 20
22.030701
 11
390.084991
 21
22.030701
  0
LINE
  8
0
  6
CONTINUOUS
 10
261.584991
 20
85.139999
 11
261.584991
 21
79.139999
  0
LINE
  8
0
  6
CONTINUOUS
 10
255.585007
 20
85.139999
 11
255.585007
 21
79.139999
  0
LINE
  8
0
  6
CONTINUOUS
 10
255.585007
 20
85.139999
 11
261.584991
 21
85.139999
  0
LINE
  8
0
  6
CONTINUOUS
 10
255.585007
 20
79.139999
 11
261.584991
 21
79.139999
  0
ARC
  8
0
  6
CONTINUOUS
 10
267.084991
 20
82.139999
 40
9.000000
 50
-160.528793
 51
160.528793
  0
LINE
  8
0
  6
CENTER
 10
267.084991
 20
175.066879
 11
267.084991
 21
322.921265
  0
LINE
  8
0
  6
CENTER
 10
229.085007
 20
196.718750
 11
229.085007
 21
218.048752
  0
LINE
  8
0
  6
CENTER
 10
446.522491
 20
255.944382
 11
207.865311
 21
255.944382
  0
LINE
  8
0
  6
CONTINUOUS
 10
217.425888
 20
207.769852
 11
216.585007
 21
255.944382
  0
LINE
  8
0
  6
CONTINUOUS
 10
227.424362
 20
197.944382
 11
255.585007
 21
197.944382
  0
LINE
  8
0
  6
CONTINUOUS
 10
315.584991
 20
218.944382
 11
219.196228
 21
218.944382
  0
ARC
  8
0
  6
CONTINUOUS
 10
227.424362
 20
207.944382
 40
10.000000
 50
-179.000000
 51
-90.000000
  0
ARC
  8
0
  6
CONTINUOUS
 10
219.196228
 20
220.944382
 40
2.000000
 50
-179.000000
 51
-90.000000
  0
LINE
  8
0
  6
CENTER
 10
240.577194
 20
207.944382
 11
219.444687
 21
207.944382
  0
CIRCLE
  8
0
  6
CONTINUOUS
 10
229.085007
 20
207.944382
 40
4.250000
  0
LINE
  8
0
  6
CENTER
 10
305.084991
 20
196.521255
 11
305.084991
 21
217.851257
  0
LINE
  8
0
  6
CONTINUOUS
 10
316.744110
 20
207.769852
 11
316.930084
 21
218.424484
  0
ARC
  8
0
  6
CONTINUOUS
 10
306.745636
 20
207.944382
 40
10.000000
 50
-90.000000
 51
-1.000000
  0
ARC
  8
0
  6
CONTINUOUS
 10
314.973755
 20
220.944382
 40
2.000000
 50
-90.000000
 51
-1.000000
  0
LINE
  8
0
  6
CENTER
 10
294.395935
 20
207.944382
 11
315.034698
 21
207.944382
  0
CIRCLE
  8
0
  6
CONTINUOUS
 10
305.084991
 20
207.944382
 40
4.250000
  0
LINE
  8
0
  6
CONTINUOUS
 10
317.584991
 20
216.944382
 11
317.584991
 21
212.944382
  0
LINE
  8
0
  6
CONTINUOUS
 10
319.584991
 20
210.944382
 11
390.084991
 21
210.944382
  0
ARC
  8
0
  6
CONTINUOUS
 10
319.584991
 20
212.944382
 40
2.000000
 50
-180.000000
 51
-90.000000
  0
ARC
  8
0
  6
CONTINUOUS
 10
315.584991
 20
216.944382
 40
2.000000
 50
0.000000
 51
90.000000
  0
LINE
  8
0
  6
CONTINUOUS
 10
316.973450
 20
220.909470
 11
317.078796
 21
226.944382
  0
LINE
  8
0
  6
CONTINUOUS
 10
390.084991
 20
226.944382
 11
310.742462
 21
226.944382
  0
LINE
  8
0
  6
CONTINUOUS
 10
390.084991
 20
284.944366
 11
310.742462
 21
284.944366
  0
LINE
  8
0
  6
CONTINUOUS
 10
319.584991
 20
300.944366
 11
390.084991
 21
300.944366
  0
ARC
  8
0
  6
CONTINUOUS
 10
319.584991
 20
298.944366
 40
2.000000
 50
-270.000000
 51
-180.000000
  0
LINE
  8
0
  6
CENTER
 10
229.085007
 20
317.786255
 11
229.085007
 21
293.691254
  0
LINE
  8
0
  6
CONTINUOUS
 10
217.425888
 20
304.118896
 11
216.585007
 21
255.944382
  0
LINE
  8
0
  6
CONTINUOUS
 10
227.424362
 20
313.944366
 11
267.084991
 21
313.944366
  0
LINE
  8
0
  6
CONTINUOUS
 10
315.584991
 20
292.944366
 11
219.196228
 21
292.944366
  0
ARC
  8
0
  6
CONTINUOUS
 10
227.424362
 20
303.944366
 40
10.000000
 50
-270.000000
 51
-181.000000
  0
ARC
  8
0
  6
CONTINUOUS
 10
219.196228
 20
290.944366
 40
2.000000
 50
-270.000000
 51
-181.000000
  0
LINE
  8
0
  6
CENTER
 10
239.589691
 20
303.944366
 11
219.049683
 21
303.944366
  0
CIRCLE
  8
0
  6
CONTINUOUS
 10
229.085007
 20
303.944366
 40
4.250000
  0
LINE
  8
0
  6
CENTER
 10
305.084991
 20
318.181244
 11
305.084991
 21
293.493744
  0
LINE
  8
0
  6
CONTINUOUS
 10
316.744110
 20
304.118896
 11
316.930084
 21
293.464264
  0
ARC
  8
0
  6
CONTINUOUS
 10
306.745636
 20
303.944366
 40
10.000000
 50
-359.000000
 51
-270.000000
  0
ARC
  8
0
  6
CONTINUOUS
 10
314.973755
 20
290.944366
 40
2.000000
 50
-359.000000
 51
-270.000000
  0
LINE
  8
0
  6
CENTER
 10
295.679688
 20
303.944366
 11
315.232178
 21
303.944366
  0
CIRCLE
  8
0
  6
CONTINUOUS
 10
305.084991
 20
303.944366
 40
4.250000
  0
LINE
  8
0
  6
CONTINUOUS
 10
317.584991
 20
294.944366
 11
317.584991
 21
298.944366
  0
ARC
  8
0
  6
CONTINUOUS
 10
315.584991
 20
294.944366
 40
2.000000
 50
-90.000000
 51
0.000000
  0
LINE
  8
0
  6
CONTINUOUS
 10
316.973450
 20
290.979279
 11
317.078796
 21
284.944366
  0
LINE
  8
0
  6
CONTINUOUS
 10
284.084991
 20
223.944382
 11
284.084991
 21
287.944366
  0
LINE
  8
0
  6
CONTINUOUS
 10
250.085007
 20
223.944382
 11
250.085007
 21
287.944366
  0
LINE
  8
0
  6
CONTINUOUS
 10
310.742462
 20
228.944382
 11
310.742462
 21
282.944366
  0
LINE
  8
0
  6
CONTINUOUS
 10
244.584991
 20
213.944382
 11
289.584991
 21
213.944382
  0
LINE
  8
0
  6
CONTINUOUS
 10
290.584991
 20
214.944382
 11
290.584991
 21
216.944382
  0
LINE
  8
0
  6
CONTINUOUS
 10
243.584991
 20
214.944382
 11
243.584991
 21
216.944382
  0
ARC
  8
0
  6
CONTINUOUS
 10
292.584991
 20
216.944382
 40
2.000000
 50
-270.000000
 51
-180.000000
  0
ARC
  8
0
  6
CONTINUOUS
 10
241.585007
 20
216.944382
 40
2.000000
 50
0.000000
 51
90.000000
  0
ARC
  8
0
  6
CONTINUOUS
 10
289.584991
 20
214.944382
 40
1.000000
 50
-90.000000
 51
0.000000
  0
ARC
  8
0
  6
CONTINUOUS
 10
244.584991
 20
214.944382
 40
1.000000
 50
-180.000000
 51
-90.000000
  0
LINE
  8
0
  6
CONTINUOUS
 10
255.585007
 20
181.944382
 11
276.084991
 21
181.944382
  0
LINE
  8
0
  6
CONTINUOUS
 10
276.084991
 20
211.944382
 11
276.084991
 21
181.944382
  0
LINE
  8
0
  6
CONTINUOUS
 10
258.084991
 20
211.944382
 11
258.084991
 21
205.944382
  0
LINE
  8
0
  6
CONTINUOUS
 10
277.084991
 20
211.944382
 11
257.084991
 21
211.944382
  0
LINE
  8
0
  6
CONTINUOUS
 10
277.084991
 20
213.944382
 11
277.084991
 21
211.944382
  0
LINE
  8
0
  6
CONTINUOUS
 10
257.084991
 20
213.944382
 11
257.084991
 21
211.944382
  0
LINE
  8
0
  6
CONTINUOUS
 10
255.585007
 20
181.944382
 11
255.585007
 21
205.944382
  0
LINE
  8
0
  6
CONTINUOUS
 10
255.585007
 20
205.944382
 11
258.600006
 21
205.944382
  0
LINE
  8
0
  6
CONTINUOUS
 10
258.600006
 20
181.944382
 11
258.600006
 21
205.944382
  0
LINE
  8
0
  6
CONTINUOUS
 10
276.084991
 20
197.944382
 11
306.745636
 21
197.944382
  0
LINE
  8
0
  6
CONTINUOUS
 10
244.584991
 20
297.944366
 11
289.584991
 21
297.944366
  0
LINE
  8
0
  6
CONTINUOUS
 10
290.584991
 20
296.944366
 11
290.584991
 21
294.944366
  0
LINE
  8
0
  6
CONTINUOUS
 10
243.584991
 20
296.944366
 11
243.584991
 21
294.944366
  0
ARC
  8
0
  6
CONTINUOUS
 10
292.584991
 20
294.944366
 40
2.000000
 50
-180.000000
 51
-90.000000
  0
ARC
  8
0
  6
CONTINUOUS
 10
241.585007
 20
294.944366
 40
2.000000
 50
-90.000000
 51
0.000000
  0
ARC
  8
0
  6
CONTINUOUS
 10
289.584991
 20
296.944366
 40
1.000000
 50
0.000000
 51
90.000000
  0
ARC
  8
0
  6
CONTINUOUS
 10
244.584991
 20
296.944366
 40
1.000000
 50
-270.000000
 51
-180.000000
  0
LINE
  8
0
  6
CONTINUOUS
 10
267.084991
 20
313.944366
 11
306.745636
 21
313.944366
  0
LINE
  8
0
  6
CENTER
 10
64.084999
 20
0.353310
 11
64.084999
 21
129.096252
  0
LINE
  8
0
  6
CENTER
 10
13.923594
 20
56.439999
 11
116.084999
 21
56.439999
  0
LINE
  8
0
  6
CONTINUOUS
 10
122.084999
 20
14.140000
 11
122.084999
 21
7.140000
  0
LINE
  8
0
  6
CONTINUOUS
 10
6.085000
 20
14.140000
 11
6.085000
 21
7.140000
  0
LINE
  8
0
  6
CENTER
 10
19.148594
 20
82.139999
 11
145.335007
 21
82.139999
  0
LINE
  8
0
  6
CONTINUOUS
 10
6.085000
 20
7.140000
 11
122.084999
 21
7.140000
  0
LINE
  8
0
  6
CONTINUOUS
 10
104.084999
 20
16.139999
 11
120.084999
 21
16.139999
  0
LINE
  8
0
  6
CONTINUOUS
 10
27.084999
 20
19.139999
 11
27.084999
 21
117.528633
  0
LINE
  8
0
  6
CONTINUOUS
 10
101.084999
 20
19.139999
 11
101.084999
 21
117.528763
  0
LINE
  8
0
  6
CONTINUOUS
 10
106.084999
 20
59.639996
 11
106.084999
 21
104.639999
  0
LINE
  8
0
  6
CONTINUOUS
 10
105.084999
 20
105.639999
 11
103.084999
 21
105.639999
  0
LINE
  8
0
  6
CONTINUOUS
 10
105.084999
 20
58.639996
 11
103.084999
 21
58.639996
  0
LINE
  8
0
  6
CONTINUOUS
 10
64.084999
 20
120.139999
 11
99.119904
 21
119.528473
  0
LINE
  8
0
  6
CONTINUOUS
 10
29.050100
 20
119.528328
 11
64.084999
 21
120.139999
  0
ARC
  8
0
  6
CONTINUOUS
 10
103.084999
 20
107.639999
 40
2.000000
 50
180.000000
 51
270.000000
  0
ARC
  8
0
  6
CONTINUOUS
 10
99.084999
 20
117.528763
 40
2.000000
 50
0.000000
 51
89.000137
  0
ARC
  8
0
  6
CONTINUOUS
 10
29.084999
 20
117.528641
 40
2.000000
 50
91.000641
 51
180.000000
  0
ARC
  8
0
  6
CONTINUOUS
 10
103.084999
 20
56.640007
 40
2.000000
 50
90.000000
 51
180.000000
  0
ARC
  8
0
  6
CONTINUOUS
 10
105.084999
 20
104.639992
 40
1.000000
 50
0.000000
 51
90.000000
  0
ARC
  8
0
  6
CONTINUOUS
 10
105.084999
 20
59.639996
 40
1.000000
 50
-90.000000
 51
0.000000
  0
LINE
  8
0
  6
CONTINUOUS
 10
28.334999
 20
96.639999
 11
100.084999
 21
96.639999
  0
ARC
  8
0
  6
CONTINUOUS
 10
120.084999
 20
14.139990
 40
2.000000
 50
0.000000
 51
90.000000
  0
ARC
  8
0
  6
CONTINUOUS
 10
8.085000
 20
14.140010
 40
2.000000
 50
90.000000
 51
180.000000
  0
LINE
  8
0
  6
CENTER
 10
112.084999
 20
20.096251
 11
112.084999
 21
2.846250
  0
LINE
  8
0
  6
CENTER
 10
16.084999
 20
20.096251
 11
16.084999
 21
2.096250
  0
LINE
  8
0
  6
DASHED
 10
20.334999
 20
16.139999
 11
20.334999
 21
7.140000
  0
LINE
  8
0
  6
DASHED
 10
11.835000
 20
16.139999
 11
11.835000
 21
7.140000
  0
LINE
  8
0
  6
DASHED
 10
116.334999
 20
16.139999
 11
116.334999
 21
7.140000
  0
LINE
  8
0
  6
DASHED
 10
107.834999
 20
16.139999
 11
107.834999
 21
7.140000
  0
ARC
  8
0
  6
CONTINUOUS
 10
64.084999
 20
56.439999
 40
45.000000
 50
159.580627
 51
214.692123
  0
ARC
  8
0
  6
CONTINUOUS
 10
64.084999
 20
56.439999
 40
45.000000
 50
-34.692108
 51
20.437799
  0
LINE
  8
0
  6
CONTINUOUS
 10
22.084999
 20
59.639996
 11
22.084999
 21
104.639999
  0
LINE
  8
0
  6
CONTINUOUS
 10
23.084999
 20
105.639999
 11
25.084999
 21
105.639999
  0
LINE
  8
0
  6
CONTINUOUS
 10
23.084999
 20
58.639996
 11
25.084999
 21
58.639996
  0
ARC
  8
0
  6
CONTINUOUS
 10
25.084999
 20
107.639999
 40
2.000000
 50
-90.000000
 51
0.000000
  0
ARC
  8
0
  6
CONTINUOUS
 10
25.084999
 20
56.640007
 40
2.000000
 50
0.000000
 51
90.000000
  0
ARC
  8
0
  6
CONTINUOUS
 10
23.084999
 20
104.639992
 40
1.000000
 50
90.000000
 51
180.000000
  0
ARC
  8
0
  6
CONTINUOUS
 10
23.084999
 20
59.639996
 40
1.000000
 50
180.000000
 51
270.000000
  0
LINE
  8
0
  6
CONTINUOUS
 10
24.084999
 20
16.139999
 11
8.085000
 21
16.139999
  0
ARC
  8
0
  6
CONTINUOUS
 10
24.084999
 20
19.139999
 40
3.000000
 50
-90.000000
 51
0.000000
  0
ARC
  8
0
  6
CONTINUOUS
 10
104.084999
 20
19.139999
 40
3.000000
 50
180.000000
 51
270.000000
  0
LINE
  8
0
  6
CONTINUOUS
 10
138.085007
 20
73.139999
 11
138.085007
 21
91.139999
  0
LINE
  8
0
  6
CONTINUOUS
 10
108.084999
 20
91.139999
 11
138.085007
 21
91.139999
  0
LINE
  8
0
  6
CONTINUOUS
 10
108.084999
 20
73.139999
 11
138.085007
 21
73.139999
  0
LINE
  8
0
  6
CONTINUOUS
 10
108.084999
 20
92.139999
 11
108.084999
 21
72.139999
  0
LINE
  8
0
  6
CONTINUOUS
 10
106.084999
 20
92.139999
 11
108.084999
 21
92.139999
  0
LINE
  8
0
  6
CONTINUOUS
 10
106.084999
 20
72.139999
 11
108.084999
 21
72.139999
  0
ARC
  8
0
  6
CONTINUOUS
 10
114.084999
 20
82.139999
 40
3.000000
 50
90.000000
 51
270.000000
  0
LINE
  8
0
  6
CONTINUOUS
 10
114.084999
 20
85.139999
 11
138.085007
 21
85.139999
  0
LINE
  8
0
  6
CONTINUOUS
 10
114.084999
 20
79.139999
 11
138.085007
 21
79.139999
  0
LINE
  8
0
  6
DASHED
 10
38.084999
 20
11.440000
 11
90.084999
 21
11.440000
  0
ARC
  8
0
  6
DASHED
 10
90.084999
 20
14.440000
 40
3.000000
 50
-90.000000
 51
0.000000
  0
ARC
  8
0
  6
DASHED
 10
38.084999
 20
14.440000
 40
3.000000
 50
208.811234
 51
270.000000
  0
LINE
  8
0
  6
DASHED
 10
91.119904
 20
100.969803
 11
64.084999
 21
101.441689
  0
ARC
  8
0
  6
DASHED
 10
91.084999
 20
98.970100
 40
2.000000
 50
0.000000
 51
89.000191
  0
LINE
  8
0
  6
DASHED
 10
93.084999
 20
98.970108
 11
93.084999
 21
92.217087
  0
LINE
  8
0
  6
DASHED
 10
37.050098
 20
100.969803
 11
64.084999
 21
101.441689
  0
ARC
  8
0
  6
DASHED
 10
37.084999
 20
98.970100
 40
2.000000
 50
90.999809
 51
180.000000
  0
LINE
  8
0
  6
DASHED
 10
35.084999
 20
98.970108
 11
35.084999
 21
92.217087
  0
LINE
  8
0
  6
DASHED
 10
35.084999
 20
14.440000
 11
35.084999
 21
20.662912
  0
ARC
  8
0
  6
DASHED
 10
38.084999
 20
14.440000
 40
3.000000
 50
180.000000
 51
208.811234
  0
LINE
  8
0
  6
DASHED
 10
93.084999
 20
14.440000
 11
93.084999
 21
20.662912
  0
ARC
  8
0
  6
DASHED
 10
64.084999
 20
56.439999
 40
45.000000
 50
-48.189686
 51
-34.692131
  0
ARC
  8
0
  6
DASHED
 10
96.084999
 20
92.217087
 40
3.000000
 50
180.000000
 51
228.189682
  0
ARC
  8
0
  6
DASHED
 10
32.084999
 20
92.217087
 40
3.000000
 50
-48.189686
 51
0.000000
  0
ARC
  8
0
  6
DASHED
 10
32.084999
 20
20.662912
 40
3.000000
 50
0.000000
 51
48.189686
  0
ARC
  8
0
  6
DASHED
 10
96.084999
 20
20.662912
 40
3.000000
 50
131.810318
 51
180.000000
  0
ARC
  8
0
  6
DASHED
 10
64.084999
 20
56.439999
 40
45.000000
 50
20.419371
 51
48.189686
  0
ARC
  8
0
  6
DASHED
 10
64.084999
 20
56.439999
 40
45.000000
 50
214.692123
 51
228.189682
  0
ARC
  8
0
  6
DASHED
 10
64.084999
 20
56.439999
 40
45.000000
 50
131.810318
 51
159.580627
  0
LINE
  8
0
  6
DASHED
 10
87.084999
 20
113.440300
 11
87.084999
 21
101.038528
  0
LINE
  8
0
  6
DASHED
 10
41.084999
 20
113.440300
 11
41.084999
 21
101.038528
  0
LINE
  8
0
  6
DASHED
 10
86.584999
 20
113.440300
 11
86.584999
 21
114.440300
  0
LINE
  8
0
  6
DASHED
 10
41.584999
 20
113.440300
 11
41.584999
 21
114.440300
  0
LINE
  8
0
  6
CONTINUOUS
 10
41.084999
 20
120.423698
 11
41.084999
 21
119.738449
  0
LINE
  8
0
  6
CONTINUOUS
 10
87.084999
 20
120.423698
 11
87.084999
 21
119.738541
  0
ARC
  8
0
  6
CONTINUOUS
 10
84.084999
 20
114.140198
 40
7.000000
 50
73.041977
 51
106.956497
  0
ARC
  8
0
  6
CONTINUOUS
 10
82.334999
 20
119.879501
 40
1.000000
 50
106.956902
 51
180.000000
  0
ARC
  8
0
  6
CONTINUOUS
 10
85.834999
 20
119.879501
 40
1.000000
 50
0.000000
 51
73.041847
  0
LINE
  8
0
  6
CONTINUOUS
 10
80.584999
 20
120.926743
 11
80.584999
 21
119.851997
  0
ARC
  8
0
  6
CONTINUOUS
 10
64.084999
 20
-128.059692
 40
250.000000
 50
84.826019
 51
95.173981
  0
ARC
  8
0
  6
CONTINUOUS
 10
86.584999
 20
120.423698
 40
0.500000
 50
0.000000
 51
84.826019
  0
ARC
  8
0
  6
CONTINUOUS
 10
80.084999
 20
120.926743
 40
0.500000
 50
0.000000
 51
86.323196
  0
ARC
  8
0
  6
CONTINUOUS
 10
44.084999
 20
114.140198
 40
7.000000
 50
73.043503
 51
106.958023
  0
ARC
  8
0
  6
CONTINUOUS
 10
45.834999
 20
119.879501
 40
1.000000
 50
0.000000
 51
73.043098
  0
ARC
  8
0
  6
CONTINUOUS
 10
42.334999
 20
119.879501
 40
1.000000
 50
106.958153
 51
180.000000
  0
LINE
  8
0
  6
CONTINUOUS
 10
47.584999
 20
120.926743
 11
47.584999
 21
119.851929
  0
ARC
  8
0
  6
CONTINUOUS
 10
41.584999
 20
120.423698
 40
0.500000
 50
95.173981
 51
180.000000
  0
ARC
  8
0
  6
CONTINUOUS
 10
48.084999
 20
120.926743
 40
0.500000
 50
93.676804
 51
180.000000
  0
LINE
  8
0
  6
DASHED
 10
86.584999
 20
114.440300
 11
87.084999
 21
114.440300
  0
LINE
  8
0
  6
DASHED
 10
86.584999
 20
113.440300
 11
87.084999
 21
113.440300
  0
LINE
  8
0
  6
DASHED
 10
41.584999
 20
114.440300
 11
41.084999
 21
114.440300
  0
LINE
  8
0
  6
DASHED
 10
41.584999
 20
113.440300
 11
41.084999
 21
113.440300
  0
LINE
  8
0
  6
DASHED
 10
87.084999
 20
119.738541
 11
87.084999
 21
114.440300
  0
LINE
  8
0
  6
CONTINUOUS
 10
86.834999
 20
119.742905
 11
86.834999
 21
119.879501
  0
LINE
  8
0
  6
CONTINUOUS
 10
81.334999
 20
119.838905
 11
81.334999
 21
119.879501
  0
LINE
  8
0
  6
CONTINUOUS
 10
46.834999
 20
119.838837
 11
46.834999
 21
119.879501
  0
LINE
  8
0
  6
CONTINUOUS
 10
41.334999
 20
119.742813
 11
41.334999
 21
119.879501
  0
LINE
  8
0
  6
DASHED
 10
41.084999
 20
119.738449
 11
41.084999
 21
114.440300
  0
LINE
  8
0
  6
CONTINUOUS
 10
114.084999
 20
85.139999
 11
114.084999
 21
79.139999
  0
LINE
  8
0
  6
CONTINUOUS
 10
390.584991
 20
251.060669
 11
390.584991
 21
260.828064
  0
LINE
  8
0
  6
CONTINUOUS
 10
390.084991
 20
300.944366
 11
390.084991
 21
210.944382
  0
LINE
  8
0
  6
CONTINUOUS
 10
417.084991
 20
212.674683
 11
417.084991
 21
232.944382
  0
LINE
  8
0
  6
CONTINUOUS
 10
417.084991
 20
299.214081
 11
417.084991
 21
278.944366
  0
LINE
  8
0
  6
CONTINUOUS
 10
390.084991
 20
226.944382
 11
403.598114
 21
227.298279
  0
LINE
  8
0
  6
CONTINUOUS
 10
403.598114
 20
284.590485
 11
390.084991
 21
284.944366
  0
LINE
  8
0
  6
CONTINUOUS
 10
424.584991
 20
251.060669
 11
424.584991
 21
260.828064
  0
LINE
  8
0
  6
CONTINUOUS
 10
404.084991
 20
284.090576
 11
404.084991
 21
278.944366
  0
ARC
  8
0
  6
CONTINUOUS
 10
403.584991
 20
284.090576
 40
0.500000
 50
0.000000
 51
88.496399
  0
LINE
  8
0
  6
CONTINUOUS
 10
404.084991
 20
227.798172
 11
404.084991
 21
232.944382
  0
ARC
  8
0
  6
CONTINUOUS
 10
403.584991
 20
227.798172
 40
0.500000
 50
-88.496399
 51
0.000000
  0
LINE
  8
0
  6
CONTINUOUS
 10
404.084991
 20
283.594360
 11
417.084991
 21
283.253876
  0
LINE
  8
0
  6
CONTINUOUS
 10
404.084991
 20
228.294373
 11
417.084991
 21
228.634872
  0
ARC
  8
0
  6
CONTINUOUS
 10
394.584991
 20
276.926880
 40
2.000000
 50
89.499939
 51
180.000000
  0
LINE
  8
0
  6
CONTINUOUS
 10
415.120209
 20
300.507324
 11
390.084991
 21
300.944366
  0
LINE
  8
0
  6
CONTINUOUS
 10
416.343414
 20
300.180176
 11
415.120209
 21
300.507324
  0
ARC
  8
0
  6
CONTINUOUS
 10
416.084991
 20
299.214081
 40
1.000000
 50
0.000000
 51
75.023903
  0
LINE
  8
0
  6
CONTINUOUS
 10
415.120209
 20
211.381409
 11
390.084991
 21
210.944382
  0
LINE
  8
0
  6
CONTINUOUS
 10
416.343414
 20
211.708679
 11
415.120209
 21
211.381409
  0
ARC
  8
0
  6
CONTINUOUS
 10
416.084991
 20
212.674683
 40
1.000000
 50
-75.023903
 51
0.000000
  0
LINE
  8
0
  6
CONTINUOUS
 10
417.885010
 20
278.944366
 11
417.885010
 21
293.833130
  0
LINE
  8
0
  6
CONTINUOUS
 10
417.556000
 20
294.302948
 11
417.414001
 21
294.354645
  0
ARC
  8
0
  6
CONTINUOUS
 10
417.584991
 20
294.824493
 40
0.500000
 50
180.000000
 51
250.000000
  0
ARC
  8
0
  6
CONTINUOUS
 10
417.385010
 20
293.833130
 40
0.500000
 50
0.000000
 51
70.000000
  0
LINE
  8
0
  6
CONTINUOUS
 10
417.556000
 20
217.585785
 11
417.414001
 21
217.534103
  0
ARC
  8
0
  6
CONTINUOUS
 10
417.584991
 20
217.064255
 40
0.500000
 50
110.000000
 51
180.000000
  0
ARC
  8
0
  6
CONTINUOUS
 10
417.385010
 20
218.055634
 40
0.500000
 50
-70.000000
 51
0.000000
  0
LINE
  8
0
  6
CONTINUOUS
 10
417.885010
 20
218.055634
 11
417.885010
 21
232.944382
  0
LINE
  8
0
  6
CONTINUOUS
 10
422.585114
 20
276.944366
 11
422.585114
 21
234.944382
  0
LINE
  8
0
  6
CENTER
 10
407.584991
 20
224.134369
 11
407.584991
 21
287.669373
  0
LINE
  8
0
  6
CONTINUOUS
 10
392.584991
 20
234.944382
 11
392.584991
 21
276.944366
  0
LINE
  8
0
  6
CONTINUOUS
 10
390.584991
 20
250.944382
 11
390.584991
 21
260.944366
  0
LINE
  8
0
  6
CONTINUOUS
 10
424.584991
 20
250.944382
 11
424.584991
 21
260.944366
  0
ARC
  8
0
  6
CONTINUOUS
 10
419.584991
 20
275.944366
 40
3.500000
 50
180.000000
 51
270.000000
  0
LINE
  8
0
  6
CONTINUOUS
 10
421.585114
 20
272.444366
 11
419.584991
 21
272.444366
  0
LINE
  8
0
  6
CONTINUOUS
 10
416.084991
 20
277.944366
 11
416.084991
 21
275.944366
  0
ARC
  8
0
  6
CONTINUOUS
 10
421.585114
 20
271.444366
 40
1.000000
 50
0.000000
 51
90.000000
  0
ARC
  8
0
  6
CONTINUOUS
 10
395.584991
 20
275.944366
 40
3.500000
 50
-90.000000
 51
0.000000
  0
LINE
  8
0
  6
CONTINUOUS
 10
399.084991
 20
277.944366
 11
399.084991
 21
275.944366
  0
LINE
  8
0
  6
CONTINUOUS
 10
393.584900
 20
272.444366
 11
395.584991
 21
272.444366
  0
ARC
  8
0
  6
CONTINUOUS
 10
393.584900
 20
271.444366
 40
1.000000
 50
90.000000
 51
180.000000
  0
LINE
  8
0
  6
CONTINUOUS
 10
394.584991
 20
278.944366
 11
420.585114
 21
278.944366
  0
ARC
  8
0
  6
CONTINUOUS
 10
400.084991
 20
277.944366
 40
1.000000
 50
90.000000
 51
180.000000
  0
ARC
  8
0
  6
CONTINUOUS
 10
415.084991
 20
277.944366
 40
1.000000
 50
0.000000
 51
90.000000
  0
ARC
  8
0
  6
CONTINUOUS
 10
420.585114
 20
276.944366
 40
2.000000
 50
0.000000
 51
90.000000
  0
ARC
  8
0
  6
CONTINUOUS
 10
394.584991
 20
276.944366
 40
2.000000
 50
90.000000
 51
180.000000
  0
ARC
  8
0
  6
CONTINUOUS
 10
419.584991
 20
235.944382
 40
3.500000
 50
90.000000
 51
180.000000
  0
LINE
  8
0
  6
CONTINUOUS
 10
421.585114
 20
239.444382
 11
419.584991
 21
239.444382
  0
LINE
  8
0
  6
CONTINUOUS
 10
416.084991
 20
233.944382
 11
416.084991
 21
235.944382
  0
ARC
  8
0
  6
CONTINUOUS
 10
421.585114
 20
240.444382
 40
1.000000
 50
-90.000000
 51
0.000000
  0
ARC
  8
0
  6
CONTINUOUS
 10
395.584991
 20
235.944382
 40
3.500000
 50
0.000000
 51
90.000000
  0
LINE
  8
0
  6
CONTINUOUS
 10
399.084991
 20
233.944382
 11
399.084991
 21
235.944382
  0
LINE
  8
0
  6
CONTINUOUS
 10
393.584900
 20
239.444382
 11
395.584991
 21
239.444382
  0
ARC
  8
0
  6
CONTINUOUS
 10
393.584900
 20
240.444382
 40
1.000000
 50
180.000000
 51
270.000000
  0
LINE
  8
0
  6
CONTINUOUS
 10
394.584991
 20
232.944382
 11
420.585114
 21
232.944382
  0
ARC
  8
0
  6
CONTINUOUS
 10
400.084991
 20
233.944382
 40
1.000000
 50
180.000000
 51
270.000000
  0
ARC
  8
0
  6
CONTINUOUS
 10
415.084991
 20
233.944382
 40
1.000000
 50
-90.000000
 51
0.000000
  0
ARC
  8
0
  6
CONTINUOUS
 10
420.585114
 20
234.944382
 40
2.000000
 50
-90.000000
 51
0.000000
  0
ARC
  8
0
  6
CONTINUOUS
 10
394.584991
 20
234.944382
 40
2.000000
 50
180.000000
 51
270.000000
  0
LINE
  8
0
  6
CONTINUOUS
 10
423.084991
 20
249.944382
 11
423.584991
 21
249.944382
  0
ARC
  8
0
  6
CONTINUOUS
 10
423.584991
 20
250.944382
 40
1.000000
 50
-90.000000
 51
0.000000
  0
ARC
  8
0
  6
CONTINUOUS
 10
423.084991
 20
249.444382
 40
0.500000
 50
90.000000
 51
180.000000
  0
LINE
  8
0
  6
CONTINUOUS
 10
423.084991
 20
261.944366
 11
423.584991
 21
261.944366
  0
ARC
  8
0
  6
CONTINUOUS
 10
423.584991
 20
260.944366
 40
1.000000
 50
0.000000
 51
90.000000
  0
ARC
  8
0
  6
CONTINUOUS
 10
423.084991
 20
262.444366
 40
0.500000
 50
180.000000
 51
270.000000
  0
LINE
  8
0
  6
CONTINUOUS
 10
392.084991
 20
249.944382
 11
391.584991
 21
249.944382
  0
ARC
  8
0
  6
CONTINUOUS
 10
391.584991
 20
250.944382
 40
1.000000
 50
180.000000
 51
270.000000
  0
ARC
  8
0
  6
CONTINUOUS
 10
392.084991
 20
249.444382
 40
0.500000
 50
0.000000
 51
90.000000
  0
LINE
  8
0
  6
CONTINUOUS
 10
392.084991
 20
261.944366
 11
391.584991
 21
261.944366
  0
ARC
  8
0
  6
CONTINUOUS
 10
391.584991
 20
260.944366
 40
1.000000
 50
90.000000
 51
180.000000
  0
ARC
  8
0
  6
CONTINUOUS
 10
392.084991
 20
262.444366
 40
0.500000
 50
-90.000000
 51
0.000000
  0
LINE
  8
0
  6
CONTINUOUS
 10
417.834991
 20
275.544373
 11
417.834991
 21
276.344391
  0
LINE
  8
0
  6
CONTINUOUS
 10
419.985016
 20
274.194366
 11
419.184998
 21
274.194366
  0
LINE
  8
0
  6
CONTINUOUS
 10
419.985016
 20
277.694366
 11
419.184998
 21
277.694366
  0
LINE
  8
0
  6
CONTINUOUS
 10
421.334991
 20
275.544373
 11
421.334991
 21
276.344391
  0
CIRCLE
  8
0
  6
CONTINUOUS
 10
419.584991
 20
275.944366
 40
2.750000
  0
ARC
  8
0
  6
CONTINUOUS
 10
421.334991
 20
274.194366
 40
1.350000
 50
90.000000
 51
180.000000
  0
ARC
  8
0
  6
CONTINUOUS
 10
421.334991
 20
277.694366
 40
1.350000
 50
180.000000
 51
270.000000
  0
ARC
  8
0
  6
CONTINUOUS
 10
417.834991
 20
274.194366
 40
1.350000
 50
0.000000
 51
90.000000
  0
ARC
  8
0
  6
CONTINUOUS
 10
417.834991
 20
277.694366
 40
1.350000
 50
-90.000000
 51
0.000000
  0
LINE
  8
0
  6
CONTINUOUS
 10
393.834991
 20
275.544373
 11
393.834991
 21
276.344391
  0
LINE
  8
0
  6
CONTINUOUS
 10
395.985016
 20
274.194366
 11
395.184998
 21
274.194366
  0
LINE
  8
0
  6
CONTINUOUS
 10
395.985016
 20
277.694366
 11
395.184998
 21
277.694366
  0
LINE
  8
0
  6
CONTINUOUS
 10
397.334991
 20
275.544373
 11
397.334991
 21
276.344391
  0
CIRCLE
  8
0
  6
CONTINUOUS
 10
395.584991
 20
275.944366
 40
2.750000
  0
ARC
  8
0
  6
CONTINUOUS
 10
397.334991
 20
274.194366
 40
1.350000
 50
90.000000
 51
180.000000
  0
ARC
  8
0
  6
CONTINUOUS
 10
397.334991
 20
277.694366
 40
1.350000
 50
180.000000
 51
270.000000
  0
ARC
  8
0
  6
CONTINUOUS
 10
393.834991
 20
274.194366
 40
1.350000
 50
0.000000
 51
90.000000
  0
ARC
  8
0
  6
CONTINUOUS
 10
393.834991
 20
277.694366
 40
1.350000
 50
-90.000000
 51
0.000000
  0
LINE
  8
0
  6
CONTINUOUS
 10
393.834991
 20
235.544388
 11
393.834991
 21
236.344406
  0
LINE
  8
0
  6
CONTINUOUS
 10
395.985016
 20
234.194382
 11
395.184998
 21
234.194382
  0
LINE
  8
0
  6
CONTINUOUS
 10
395.985016
 20
237.694382
 11
395.184998
 21
237.694382
  0
LINE
  8
0
  6
CONTINUOUS
 10
397.334991
 20
235.544388
 11
397.334991
 21
236.344406
  0
CIRCLE
  8
0
  6
CONTINUOUS
 10
395.584991
 20
235.944382
 40
2.750000
  0
ARC
  8
0
  6
CONTINUOUS
 10
397.334991
 20
234.194382
 40
1.350000
 50
90.000000
 51
180.000000
  0
ARC
  8
0
  6
CONTINUOUS
 10
397.334991
 20
237.694382
 40
1.350000
 50
180.000000
 51
270.000000
  0
ARC
  8
0
  6
CONTINUOUS
 10
393.834991
 20
234.194382
 40
1.350000
 50
0.000000
 51
90.000000
  0
ARC
  8
0
  6
CONTINUOUS
 10
393.834991
 20
237.694382
 40
1.350000
 50
-90.000000
 51
0.000000
  0
LINE
  8
0
  6
CONTINUOUS
 10
417.834991
 20
235.544388
 11
417.834991
 21
236.344406
  0
LINE
  8
0
  6
CONTINUOUS
 10
419.985016
 20
234.194382
 11
419.184998
 21
234.194382
  0
LINE
  8
0
  6
CONTINUOUS
 10
419.985016
 20
237.694382
 11
419.184998
 21
237.694382
  0
LINE
  8
0
  6
CONTINUOUS
 10
421.334991
 20
235.544388
 11
421.334991
 21
236.344406
  0
CIRCLE
  8
0
  6
CONTINUOUS
 10
419.584991
 20
235.944382
 40
2.750000
  0
ARC
  8
0
  6
CONTINUOUS
 10
421.334991
 20
234.194382
 40
1.350000
 50
90.000000
 51
180.000000
  0
ARC
  8
0
  6
CONTINUOUS
 10
421.334991
 20
237.694382
 40
1.350000
 50
180.000000
 51
270.000000
  0
ARC
  8
0
  6
CONTINUOUS
 10
417.834991
 20
234.194382
 40
1.350000
 50
0.000000
 51
90.000000
  0
ARC
  8
0
  6
CONTINUOUS
 10
417.834991
 20
237.694382
 40
1.350000
 50
-90.000000
 51
0.000000
  0
LINE
  8
0
  6
CONTINUOUS
 10
439.733673
 20
259.794373
 11
424.584869
 21
259.794373
  0
LINE
  8
0
  6
CONTINUOUS
 10
438.881866
 20
252.094376
 11
439.617676
 21
254.929474
  0
LINE
  8
0
  6
CONTINUOUS
 10
439.617676
 20
254.929474
 11
438.805573
 21
257.404480
  0
LINE
  8
0
  6
CONTINUOUS
 10
438.805573
 20
257.404480
 11
439.733673
 21
259.794373
  0
LINE
  8
0
  6
CONTINUOUS
 10
438.881866
 20
252.094376
 11
424.584869
 21
252.094376
  0
LINE
  8
0
  6
CONTINUOUS
 10
405.084991
 20
232.944382
 11
405.084991
 21
228.444382
  0
LINE
  8
0
  6
CONTINUOUS
 10
404.084991
 20
228.444382
 11
406.063995
 21
228.444382
  0
ARC
  8
0
  6
CONTINUOUS
 10
398.684967
 20
231.944382
 40
8.999999
 50
-16.601009
 51
6.379371
  0
ARC
  8
0
  6
CONTINUOUS
 10
406.063995
 20
229.744370
 40
1.300000
 50
270.000000
 51
343.399109
  0
LINE
  8
0
  6
CONTINUOUS
 10
405.084991
 20
278.944366
 11
405.084991
 21
283.444366
  0
LINE
  8
0
  6
CONTINUOUS
 10
404.084991
 20
283.444366
 11
406.063995
 21
283.444366
  0
ARC
  8
0
  6
CONTINUOUS
 10
398.684967
 20
279.944366
 40
8.999999
 50
-6.379371
 51
16.601009
  0
ARC
  8
0
  6
CONTINUOUS
 10
406.063995
 20
282.144379
 40
1.300000
 50
16.600901
 51
90.000000
  0
LINE
  8
0
  6
CONTINUOUS
 10
390.084991
 20
11.440000
 11
390.084991
 21
101.440002
  0
LINE
  8
0
  6
CONTINUOUS
 10
404.084991
 20
12.175720
 11
404.084991
 21
22.030710
  0
LINE
  8
0
  6
CONTINUOUS
 10
417.084991
 20
94.466141
 11
417.084991
 21
13.129773
  0
LINE
  8
0
  6
CENTER
 10
407.584991
 20
103.378281
 11
407.584991
 21
124.640778
  0
ARC
  8
0
  6
CONTINUOUS
 10
391.584991
 20
102.440002
 40
1.000000
 50
-90.000000
 51
0.000000
  0
LINE
  8
0
  6
CONTINUOUS
 10
390.084991
 20
22.030710
 11
404.084991
 21
22.030710
  0
LINE
  8
0
  6
CONTINUOUS
 10
404.084991
 20
100.940002
 11
404.084991
 21
90.940002
  0
LINE
  8
0
  6
CONTINUOUS
 10
390.084991
 20
90.849297
 11
404.084991
 21
90.849297
  0
LINE
  8
0
  6
CONTINUOUS
 10
390.084991
 20
101.440002
 11
422.584930
 21
101.440002
  0
ARC
  8
0
  6
CONTINUOUS
 10
403.584991
 20
100.940002
 40
0.500000
 50
0.000000
 51
90.000000
  0
LINE
  8
0
  6
CONTINUOUS
 10
422.584656
 20
113.440239
 11
422.584961
 21
101.442741
  0
LINE
  8
0
  6
CONTINUOUS
 10
392.584991
 20
113.440300
 11
392.584991
 21
102.440002
  0
LINE
  8
0
  6
CONTINUOUS
 10
392.584991
 20
114.440300
 11
392.584991
 21
121.018600
  0
LINE
  8
0
  6
CONTINUOUS
 10
436.472565
 20
110.390297
 11
424.584991
 21
110.390297
  0
LINE
  8
0
  6
CONTINUOUS
 10
422.585205
 20
114.440300
 11
422.585205
 21
121.018600
  0
LINE
  8
0
  6
CONTINUOUS
 10
390.584991
 20
118.940300
 11
390.584991
 21
114.440300
  0
LINE
  8
0
  6
CONTINUOUS
 10
424.584991
 20
114.440300
 11
390.584991
 21
114.440300
  0
LINE
  8
0
  6
CONTINUOUS
 10
424.584991
 20
113.440300
 11
390.584991
 21
113.440300
  0
LINE
  8
0
  6
CONTINUOUS
 10
424.584991
 20
118.940300
 11
424.584991
 21
118.190300
  0
LINE
  8
0
  6
CONTINUOUS
 10
424.584991
 20
118.190300
 11
424.584991
 21
114.440300
  0
LINE
  8
0
  6
CONTINUOUS
 10
435.620758
 20
118.090302
 11
424.584991
 21
118.090302
  0
ARC
  8
0
  6
CONTINUOUS
 10
407.584991
 20
-128.059692
 40
250.000000
 50
86.668304
 51
93.331696
  0
LINE
  8
0
  6
CONTINUOUS
 10
392.084991
 20
119.940300
 11
391.584991
 21
119.940300
  0
ARC
  8
0
  6
CONTINUOUS
 10
391.584991
 20
118.940300
 40
1.000000
 50
90.000000
 51
180.000000
  0
ARC
  8
0
  6
CONTINUOUS
 10
392.084991
 20
120.440300
 40
0.500000
 50
-90.000000
 51
0.000000
  0
LINE
  8
0
  6
CONTINUOUS
 10
392.084991
 20
107.940300
 11
391.584991
 21
107.940300
  0
ARC
  8
0
  6
CONTINUOUS
 10
391.584991
 20
108.940300
 40
1.000000
 50
180.000000
 51
270.000000
  0
ARC
  8
0
  6
CONTINUOUS
 10
392.084991
 20
107.440300
 40
0.500000
 50
0.000000
 51
90.000000
  0
LINE
  8
0
  6
CONTINUOUS
 10
423.084991
 20
119.940300
 11
423.584991
 21
119.940300
  0
ARC
  8
0
  6
CONTINUOUS
 10
423.584991
 20
118.940300
 40
1.000000
 50
0.000000
 51
90.000000
  0
ARC
  8
0
  6
CONTINUOUS
 10
423.084991
 20
120.440300
 40
0.500000
 50
180.000000
 51
270.000000
  0
LINE
  8
0
  6
CONTINUOUS
 10
423.084991
 20
107.940300
 11
423.584991
 21
107.940300
  0
ARC
  8
0
  6
CONTINUOUS
 10
423.584991
 20
108.940300
 40
1.000000
 50
-90.000000
 51
0.000000
  0
ARC
  8
0
  6
CONTINUOUS
 10
423.084991
 20
107.440300
 40
0.500000
 50
90.000000
 51
180.000000
  0
LINE
  8
0
  6
CONTINUOUS
 10
391.084991
 20
114.440300
 11
391.084991
 21
113.440300
  0
LINE
  8
0
  6
CONTINUOUS
 10
390.584991
 20
113.440300
 11
390.584991
 21
108.940300
  0
ARC
  8
0
  6
CONTINUOUS
 10
393.084991
 20
121.018600
 40
0.500000
 50
93.331696
 51
180.000000
  0
LINE
  8
0
  6
CONTINUOUS
 10
424.584991
 20
113.440300
 11
424.584991
 21
108.940300
  0
LINE
  8
0
  6
CONTINUOUS
 10
422.084656
 20
114.440300
 11
422.084656
 21
113.440239
  0
LINE
  8
0
  6
CONTINUOUS
 10
398.584991
 20
118.440300
 11
392.834991
 21
118.440300
  0
LINE
  8
0
  6
CONTINUOUS
 10
399.084991
 20
118.940300
 11
399.084991
 21
121.312012
  0
LINE
  8
0
  6
CONTINUOUS
 10
398.334991
 20
118.440300
 11
398.334991
 21
119.879501
  0
LINE
  8
0
  6
CONTINUOUS
 10
392.834991
 20
118.440102
 11
392.834991
 21
119.879501
  0
LINE
  8
0
  6
CONTINUOUS
 10
398.334991
 20
119.140198
 11
392.834991
 21
119.140198
  0
ARC
  8
0
  6
CONTINUOUS
 10
395.584991
 20
114.140198
 40
7.000000
 50
73.042000
 51
106.956497
  0
ARC
  8
0
  6
CONTINUOUS
 10
393.834991
 20
119.879501
 40
1.000000
 50
106.956902
 51
180.000000
  0
ARC
  8
0
  6
CONTINUOUS
 10
397.334991
 20
119.879501
 40
1.000000
 50
0.000000
 51
73.041801
  0
ARC
  8
0
  6
CONTINUOUS
 10
398.584991
 20
118.940300
 40
0.500000
 50
-90.000000
 51
0.000000
  0
ARC
  8
0
  6
CONTINUOUS
 10
393.084991
 20
117.940300
 40
0.500000
 50
90.000000
 51
180.000000
  0
ARC
  8
0
  6
CONTINUOUS
 10
399.584991
 20
121.312012
 40
0.500000
 50
91.837456
 51
180.000000
  0
ARC
  8
0
  6
CONTINUOUS
 10
422.084991
 20
121.018600
 40
0.500000
 50
0.000000
 51
86.668304
  0
LINE
  8
0
  6
CONTINUOUS
 10
416.584991
 20
118.440300
 11
422.334991
 21
118.440300
  0
LINE
  8
0
  6
CONTINUOUS
 10
416.084991
 20
118.940300
 11
416.084991
 21
121.312012
  0
LINE
  8
0
  6
CONTINUOUS
 10
416.834991
 20
118.440300
 11
416.834991
 21
119.879501
  0
LINE
  8
0
  6
CONTINUOUS
 10
422.334991
 20
118.440102
 11
422.334991
 21
119.879501
  0
LINE
  8
0
  6
CONTINUOUS
 10
416.834991
 20
119.140198
 11
422.334991
 21
119.140198
  0
ARC
  8
0
  6
CONTINUOUS
 10
419.584991
 20
114.140198
 40
7.000000
 50
73.043503
 51
106.958000
  0
ARC
  8
0
  6
CONTINUOUS
 10
421.334991
 20
119.879501
 40
1.000000
 50
0.000000
 51
73.043098
  0
ARC
  8
0
  6
CONTINUOUS
 10
417.834991
 20
119.879501
 40
1.000000
 50
106.958199
 51
180.000000
  0
ARC
  8
0
  6
CONTINUOUS
 10
416.584991
 20
118.940300
 40
0.500000
 50
180.000000
 51
270.000000
  0
ARC
  8
0
  6
CONTINUOUS
 10
422.084991
 20
117.940300
 40
0.500000
 50
0.000000
 51
90.000000
  0
ARC
  8
0
  6
CONTINUOUS
 10
415.584991
 20
121.312012
 40
0.500000
 50
0.000000
 51
88.162544
  0
LINE
  8
0
  6
CONTINUOUS
 10
422.584930
 20
97.532631
 11
422.584930
 21
101.440002
  0
LINE
  8
0
  6
CONTINUOUS
 10
415.117004
 20
11.837619
 11
390.084991
 21
11.440000
  0
ARC
  8
0
  6
CONTINUOUS
 10
403.584991
 20
12.175720
 40
0.500000
 50
-89.000000
 51
0.000000
  0
LINE
  8
0
  6
CONTINUOUS
 10
416.341980
 20
12.163358
 11
415.085266
 21
11.829173
  0
ARC
  8
0
  6
CONTINUOUS
 10
416.084991
 20
13.129773
 40
1.000000
 50
-75.108749
 51
0.000000
  0
LINE
  8
0
  6
CONTINUOUS
 10
415.085266
 20
20.939590
 11
404.084991
 21
20.939590
  0
LINE
  8
0
  6
CONTINUOUS
 10
416.341980
 20
21.273775
 11
415.085266
 21
20.939590
  0
ARC
  8
0
  6
CONTINUOUS
 10
416.084991
 20
22.240191
 40
1.000000
 50
-75.108749
 51
0.000000
  0
LINE
  8
0
  6
CONTINUOUS
 10
415.085266
 20
91.940407
 11
404.084991
 21
91.940407
  0
LINE
  8
0
  6
CONTINUOUS
 10
416.341980
 20
91.606224
 11
415.085266
 21
91.940407
  0
ARC
  8
0
  6
CONTINUOUS
 10
416.084991
 20
90.639809
 40
1.000000
 50
0.000000
 51
75.108749
  0
LINE
  8
0
  6
CONTINUOUS
 10
420.637299
 20
95.533318
 11
418.058838
 21
95.465797
  0
ARC
  8
0
  6
CONTINUOUS
 10
418.084991
 20
94.466141
 40
1.000000
 50
91.500000
 51
180.000000
  0
ARC
  8
0
  6
CONTINUOUS
 10
420.584930
 20
97.532631
 40
2.000000
 50
-88.500000
 51
0.000000
  0
LINE
  8
0
  6
CONTINUOUS
 10
435.620758
 20
118.090302
 11
436.356567
 21
115.255203
  0
LINE
  8
0
  6
CONTINUOUS
 10
436.356567
 20
115.255203
 11
435.544464
 21
112.780197
  0
LINE
  8
0
  6
CONTINUOUS
 10
435.544464
 20
112.780197
 11
436.472565
 21
110.390297
  0
LINE
  8
0
  6
CONTINUOUS
 10
405.084991
 20
92.940399
 11
405.084991
 21
99.940399
  0
LINE
  8
0
  6
CONTINUOUS
 10
404.084991
 20
92.940399
 11
406.063995
 21
92.940399
  0
LINE
  8
0
  6
CONTINUOUS
 10
404.084991
 20
99.940399
 11
406.063995
 21
99.940399
  0
ARC
  8
0
  6
CONTINUOUS
 10
398.684967
 20
96.440399
 40
8.999999
 50
-16.601521
 51
16.601009
  0
ARC
  8
0
  6
CONTINUOUS
 10
406.063995
 20
94.240417
 40
1.300000
 50
-90.000000
 51
-16.601580
  0
ARC
  8
0
  6
CONTINUOUS
 10
406.063995
 20
98.640411
 40
1.300000
 50
16.600901
 51
90.000000
  0
LINE
  8
0
  6
CONTINUOUS
 10
405.084991
 20
12.939590
 11
405.084991
 21
19.939590
  0
LINE
  8
0
  6
CONTINUOUS
 10
404.084991
 20
12.939590
 11
406.063995
 21
12.939590
  0
LINE
  8
0
  6
CONTINUOUS
 10
404.084991
 20
19.939590
 11
406.063995
 21
19.939590
  0
ARC
  8
0
  6
CONTINUOUS
 10
398.684967
 20
16.439590
 40
8.999999
 50
-16.601521
 51
16.601009
  0
ARC
  8
0
  6
CONTINUOUS
 10
406.063995
 20
14.239608
 40
1.300000
 50
-90.000000
 51
-16.601580
  0
ARC
  8
0
  6
CONTINUOUS
 10
406.063995
 20
18.639603
 40
1.300000
 50
16.600901
 51
90.000000
  0
LINE
  8
0
  6
CONTINUOUS
 10
417.885010
 20
94.689896
 11
417.885010
 21
13.290104
  0
LINE
  8
0
  6
CONTINUOUS
 10
417.556000
 20
12.820257
 11
417.069519
 21
12.643188
  0
ARC
  8
0
  6
CONTINUOUS
 10
417.240540
 20
12.173342
 40
0.500000
 50
110.000000
 51
140.385345
  0
ARC
  8
0
  6
CONTINUOUS
 10
417.385010
 20
13.290104
 40
0.500000
 50
-70.000000
 51
0.000000
  0
LINE
  8
0
  6
CONTINUOUS
 10
417.556000
 20
95.159744
 11
417.417023
 21
95.210327
  0
ARC
  8
0
  6
CONTINUOUS
 10
417.385010
 20
94.689896
 40
0.500000
 50
0.000000
 51
70.000000
  0
TEXT
  8
0
 10
6.000000
 20
0.000000
 40
4.000000
 41
1.000000
  1
HLW-18L-10~240-S40
 50
0.000000
  0
ENDSEC
  0
EOF
