  0
SECTION
  2
HEADER
  9
$CLAYER
  8
1
  9
$LTSCALE
 40
3.0
  0
ENDSEC
  0
SECTION
  2
TABLES
  0
TABLE
  2
LTYPE
 70
     4
  0
LTYPE
  2
CONTINUOUS
  3
solid line
 70
    64
 72
    65
 73
     0
 40
0.0
  0
LTYPE
  2
DASHED
  3
__ __ __ __ __ __ __ __ __ __ __ __ __ __ __
 70
    64
 72
    65
 73
     2
 40
0.75
 49
0.5
 49
-0.25
  0
LTYPE
  2
CENTER
  3
____ _ ____ _ ____ _ ____ _ ____ _ ____ _ ____
 70
    64
 72
    65
 73
     4
 40
2.0
 49
1.25
 49
-0.25
 49
0.25
 49
-0.25
  0
LTYPE
  2
PHANTOM
  3
_____ _ _ _____ _ _ _____ _ _ _____ _ _ ____
 70
    64
 72
    65
 73
     6
 40
2.5
 49
1.25
 49
-0.25
 49
0.25
 49
-0.25
 49
0.25
 49
-0.25
  0
ENDTAB
  0
TABLE
  2
LAYER
 70
     1
  0
LAYER
  2
0
 70
    64
 62
     7
  6
CONTINUOUS
  0
ENDTAB
  0
TABLE
  2
STYLE
 70
     1
  0
STYLE
  2
STANDARD
 70
     0
 40
0.000000
 41
1.000000
 50
0.000000
 71
     0
 42
3.000000
  3
txt
  4
BIGFONT
  0
ENDTAB
  0
ENDSEC
  0
SECTION
  2
BLOCKS
  0
ENDSEC
  0
SECTION
  2
ENTITIES
  0
LINE
  8
0
  6
CENTER
 10
-4.981250
 20
54.724998
 11
128.610748
 21
54.724998
  0
LINE
  8
0
  6
CONTINUOUS
 10
206.321243
 20
12.425000
 11
206.321243
 21
5.425000
  0
LINE
  8
0
  6
CONTINUOUS
 10
32.821239
 20
9.725000
 11
105.321251
 21
9.725000
  0
LINE
  8
0
  6
CONTINUOUS
 10
32.821239
 20
99.724998
 11
112.163750
 21
99.724998
  0
LINE
  8
0
  6
CENTER
 10
155.821243
 20
128.412506
 11
155.821243
 21
-1.794100
  0
LINE
  8
0
  6
CENTER
 10
120.308548
 20
80.425003
 11
184.397247
 21
80.425003
  0
LINE
  8
0
  6
CONTINUOUS
 10
105.321251
 20
5.425000
 11
206.321243
 21
5.425000
  0
LINE
  8
0
  6
CONTINUOUS
 10
140.400146
 20
118.425003
 11
171.242355
 21
118.425003
  0
LINE
  8
0
  6
CONTINUOUS
 10
107.321251
 20
14.425000
 11
204.321243
 21
14.425000
  0
LINE
  8
0
  6
CENTER
 10
193.821243
 20
19.912500
 11
193.821243
 21
-1.337500
  0
LINE
  8
0
  6
CENTER
 10
117.821251
 20
20.162500
 11
117.821251
 21
-1.837500
  0
LINE
  8
0
  6
CONTINUOUS
 10
204.192657
 20
96.418182
 11
174.113754
 21
117.518288
  0
LINE
  8
0
  6
CONTINUOUS
 10
107.449852
 20
96.418182
 11
137.528748
 21
117.518280
  0
ARC
  8
0
  6
CONTINUOUS
 10
171.242447
 20
113.424988
 40
5.000000
 50
54.950878
 51
90.000000
  0
ARC
  8
0
  6
CONTINUOUS
 10
140.400146
 20
113.425003
 40
5.000000
 50
90.000000
 51
125.049698
  0
ARC
  8
0
  6
CONTINUOUS
 10
110.321251
 20
92.324928
 40
5.000000
 50
125.049797
 51
180.000000
  0
ARC
  8
0
  6
CONTINUOUS
 10
201.321243
 20
92.324883
 40
5.000000
 50
0.000000
 51
54.950901
  0
LINE
  8
0
  6
CONTINUOUS
 10
206.321243
 20
12.425000
 11
206.321243
 21
92.324898
  0
ARC
  8
0
  6
CONTINUOUS
 10
204.321243
 20
12.424990
 40
2.000000
 50
0.000000
 51
90.000000
  0
LINE
  8
0
  6
CONTINUOUS
 10
105.321251
 20
92.324928
 11
105.321251
 21
92.324898
  0
ARC
  8
0
  6
CONTINUOUS
 10
107.321251
 20
12.425000
 40
2.000000
 50
90.000000
 51
180.000000
  0
LINE
  8
0
  6
DASHED
 10
198.071243
 20
14.425000
 11
198.071243
 21
5.425000
  0
LINE
  8
0
  6
DASHED
 10
189.571243
 20
14.425000
 11
189.571243
 21
5.425000
  0
LINE
  8
0
  6
DASHED
 10
122.071251
 20
14.425000
 11
122.071251
 21
5.425000
  0
LINE
  8
0
  6
DASHED
 10
113.571251
 20
14.425000
 11
113.571251
 21
5.425000
  0
CIRCLE
  8
0
  6
CONTINUOUS
 10
155.821243
 20
80.425003
 40
23.500000
  0
LINE
  8
0
  6
CONTINUOUS
 10
107.821251
 20
81.117188
 11
107.821251
 21
49.732483
  0
LINE
  8
0
  6
CONTINUOUS
 10
203.821243
 20
81.117363
 11
203.821243
 21
49.732651
  0
ARC
  8
0
  6
CONTINUOUS
 10
155.821243
 20
65.425003
 40
50.500000
 50
198.103806
 51
341.896210
  0
LINE
  8
0
  6
CONTINUOUS
 10
105.321251
 20
92.324913
 11
105.321152
 21
5.425000
  0
ARC
  8
0
  6
CONTINUOUS
 10
155.821243
 20
65.425003
 40
50.500000
 50
18.103790
 51
161.896194
  0
LINE
  8
0
  6
CONTINUOUS
 10
32.821239
 20
89.134300
 11
103.704147
 21
89.134300
  0
LINE
  8
0
  6
CONTINUOUS
 10
32.821239
 20
20.315701
 11
103.704147
 21
20.315701
  0
LINE
  8
0
  6
CONTINUOUS
 10
149.446243
 20
42.978222
 11
149.446243
 21
37.424999
  0
LINE
  8
0
  6
CONTINUOUS
 10
152.633743
 20
44.995312
 11
152.633743
 21
46.987499
  0
LINE
  8
0
  6
CONTINUOUS
 10
159.008743
 20
44.995312
 11
159.008743
 21
46.987499
  0
LINE
  8
0
  6
CONTINUOUS
 10
155.198654
 20
45.817093
 11
155.198654
 21
38.470901
  0
LINE
  8
0
  6
CONTINUOUS
 10
156.394043
 20
45.817093
 11
156.394043
 21
38.470901
  0
LINE
  8
0
  6
CONTINUOUS
 10
162.669357
 20
45.817093
 11
162.669357
 21
38.421089
  0
LINE
  8
0
  6
CONTINUOUS
 10
163.765045
 20
41.894970
 11
163.765045
 21
38.421089
  0
LINE
  8
0
  6
CONTINUOUS
 10
147.933746
 20
45.717480
 11
144.861847
 21
45.717480
  0
LINE
  8
0
  6
CONTINUOUS
 10
144.861847
 20
45.717480
 11
144.142044
 21
44.824986
  0
LINE
  8
0
  6
CONTINUOUS
 10
144.228653
 20
46.987499
 11
143.071243
 21
45.505505
  0
LINE
  8
0
  6
CONTINUOUS
 10
144.142044
 20
39.315922
 11
144.873352
 21
38.545609
  0
LINE
  8
0
  6
CONTINUOUS
 10
143.071243
 20
38.665859
 11
144.301056
 21
37.424999
  0
LINE
  8
0
  6
CONTINUOUS
 10
143.071243
 20
45.505505
 11
143.071243
 21
38.665859
  0
LINE
  8
0
  6
CONTINUOUS
 10
144.142044
 20
44.824986
 11
144.142044
 21
39.315922
  0
LINE
  8
0
  6
CONTINUOUS
 10
148.524857
 20
45.146042
 11
147.921646
 21
45.717480
  0
LINE
  8
0
  6
CONTINUOUS
 10
148.515244
 20
46.987499
 11
149.446243
 21
45.954357
  0
LINE
  8
0
  6
CONTINUOUS
 10
148.524857
 20
44.995312
 11
149.446243
 21
44.995312
  0
LINE
  8
0
  6
CONTINUOUS
 10
144.228653
 20
46.987499
 11
148.515244
 21
46.987499
  0
LINE
  8
0
  6
CONTINUOUS
 10
148.524857
 20
41.932320
 11
146.856445
 21
41.932320
  0
LINE
  8
0
  6
CONTINUOUS
 10
148.524857
 20
40.936230
 11
148.524857
 21
41.733109
  0
LINE
  8
0
  6
CONTINUOUS
 10
146.532654
 20
38.545609
 11
144.873352
 21
38.545609
  0
ARC
  8
0
  6
CONTINUOUS
 10
146.532654
 20
40.537788
 40
1.992187
 50
-89.999786
 51
0.000109
  0
LINE
  8
0
  6
CONTINUOUS
 10
148.524857
 20
38.187271
 11
148.524857
 21
37.424999
  0
LINE
  8
0
  6
CONTINUOUS
 10
149.446243
 20
45.954357
 11
149.446243
 21
44.995312
  0
LINE
  8
0
  6
CONTINUOUS
 10
148.524857
 20
41.932320
 11
148.524857
 21
40.537788
  0
LINE
  8
0
  6
CONTINUOUS
 10
146.856445
 20
42.978222
 11
146.856445
 21
41.932320
  0
LINE
  8
0
  6
CONTINUOUS
 10
148.524857
 20
37.424999
 11
149.446243
 21
37.424999
  0
LINE
  8
0
  6
CONTINUOUS
 10
148.524857
 20
38.187271
 11
147.616348
 21
37.424999
  0
LINE
  8
0
  6
CONTINUOUS
 10
156.394043
 20
38.470901
 11
156.792450
 21
38.470901
  0
LINE
  8
0
  6
CONTINUOUS
 10
154.725555
 20
38.470901
 11
154.725555
 21
37.424999
  0
LINE
  8
0
  6
CONTINUOUS
 10
156.792450
 20
38.470901
 11
156.792450
 21
37.424999
  0
LINE
  8
0
  6
CONTINUOUS
 10
158.343750
 20
44.995312
 11
159.008743
 21
44.995312
  0
LINE
  8
0
  6
CONTINUOUS
 10
152.633743
 20
44.995312
 11
153.341354
 21
44.995312
  0
LINE
  8
0
  6
CONTINUOUS
 10
152.633743
 20
46.987499
 11
159.008743
 21
46.987499
  0
LINE
  8
0
  6
CONTINUOUS
 10
154.725555
 20
37.424999
 11
156.792450
 21
37.424999
  0
LINE
  8
0
  6
CONTINUOUS
 10
154.725555
 20
38.470901
 11
155.198654
 21
38.470901
  0
ARC
  8
0
  6
CONTINUOUS
 10
166.018753
 20
44.435009
 40
2.552490
 50
-73.981873
 51
90.003510
  0
ARC
  8
0
  6
CONTINUOUS
 10
166.018753
 20
44.435009
 40
1.557193
 50
-82.585274
 51
62.411850
  0
LINE
  8
0
  6
CONTINUOUS
 10
162.196243
 20
46.987499
 11
166.018753
 21
46.987499
  0
LINE
  8
0
  6
CONTINUOUS
 10
162.196243
 20
46.987499
 11
162.196243
 21
45.817093
  0
LINE
  8
0
  6
CONTINUOUS
 10
163.765045
 20
45.817093
 11
163.765045
 21
42.890839
  0
LINE
  8
0
  6
CONTINUOUS
 10
166.723053
 20
41.981621
 11
168.302948
 21
38.421089
  0
LINE
  8
0
  6
CONTINUOUS
 10
165.805557
 20
41.894970
 11
167.300644
 21
38.421089
  0
LINE
  8
0
  6
CONTINUOUS
 10
162.196243
 20
38.421089
 11
162.669357
 21
38.421089
  0
LINE
  8
0
  6
CONTINUOUS
 10
163.765045
 20
38.421089
 11
164.200851
 21
38.421089
  0
LINE
  8
0
  6
CONTINUOUS
 10
164.200851
 20
37.424999
 11
162.196243
 21
37.424999
  0
LINE
  8
0
  6
CONTINUOUS
 10
167.102051
 20
38.421089
 11
167.300644
 21
38.421089
  0
LINE
  8
0
  6
CONTINUOUS
 10
168.302948
 20
38.421089
 11
168.571243
 21
38.421089
  0
LINE
  8
0
  6
CONTINUOUS
 10
167.102051
 20
37.424999
 11
168.571243
 21
37.424999
  0
LINE
  8
0
  6
CONTINUOUS
 10
168.571243
 20
38.421089
 11
168.571243
 21
37.424999
  0
LINE
  8
0
  6
CONTINUOUS
 10
167.102051
 20
38.421089
 11
167.102051
 21
37.424999
  0
LINE
  8
0
  6
CONTINUOUS
 10
164.200851
 20
38.421089
 11
164.200851
 21
37.424999
  0
LINE
  8
0
  6
CONTINUOUS
 10
162.196243
 20
38.421089
 11
162.196243
 21
37.424999
  0
LINE
  8
0
  6
CONTINUOUS
 10
153.683746
 20
45.817093
 11
153.341354
 21
44.995312
  0
LINE
  8
0
  6
CONTINUOUS
 10
158.055054
 20
45.817093
 11
158.343750
 21
44.995312
  0
LINE
  8
0
  6
CONTINUOUS
 10
156.394043
 20
45.817093
 11
158.055054
 21
45.817093
  0
LINE
  8
0
  6
CONTINUOUS
 10
155.198654
 20
45.817093
 11
153.683746
 21
45.817093
  0
LINE
  8
0
  6
CONTINUOUS
 10
162.196243
 20
45.817093
 11
162.669357
 21
45.817093
  0
LINE
  8
0
  6
CONTINUOUS
 10
163.765045
 20
45.817093
 11
166.739944
 21
45.815151
  0
LINE
  8
0
  6
CONTINUOUS
 10
148.524857
 20
45.146042
 11
148.524857
 21
44.995312
  0
LINE
  8
0
  6
CONTINUOUS
 10
144.301056
 20
37.424999
 11
147.616348
 21
37.424999
  0
LINE
  8
0
  6
CONTINUOUS
 10
163.765045
 20
42.890839
 11
166.219757
 21
42.890839
  0
LINE
  8
0
  6
CONTINUOUS
 10
163.765045
 20
41.894970
 11
165.805557
 21
41.894970
  0
LINE
  8
0
  6
CONTINUOUS
 10
146.856445
 20
42.978222
 11
149.446243
 21
42.978222
  0
LINE
  8
0
  6
CONTINUOUS
 10
161.321243
 20
77.425018
 11
161.321243
 21
83.425018
  0
LINE
  8
0
  6
CONTINUOUS
 10
167.321243
 20
77.425041
 11
167.321243
 21
83.425041
  0
LINE
  8
0
  6
CONTINUOUS
 10
167.321243
 20
77.425041
 11
161.321243
 21
77.425018
  0
LINE
  8
0
  6
CONTINUOUS
 10
167.321243
 20
83.425041
 11
161.321243
 21
83.425018
  0
ARC
  8
0
  6
CONTINUOUS
 10
155.821243
 20
80.425003
 40
9.000000
 50
19.471210
 51
340.528809
  0
LINE
  8
0
  6
CENTER
 10
155.821243
 20
321.403748
 11
155.821243
 21
173.936249
  0
LINE
  8
0
  6
CENTER
 10
193.821243
 20
310.738739
 11
193.821243
 21
291.976257
  0
LINE
  8
0
  6
CENTER
 10
-27.200001
 20
254.229370
 11
219.962494
 21
254.229370
  0
LINE
  8
0
  6
CONTINUOUS
 10
205.480362
 20
302.403900
 11
206.321243
 21
254.229370
  0
LINE
  8
0
  6
CONTINUOUS
 10
195.481888
 20
312.229370
 11
155.821243
 21
312.229370
  0
LINE
  8
0
  6
CONTINUOUS
 10
107.321251
 20
291.229370
 11
203.710022
 21
291.229370
  0
ARC
  8
0
  6
CONTINUOUS
 10
195.481888
 20
302.229370
 40
10.000000
 50
1.000000
 51
90.000000
  0
ARC
  8
0
  6
CONTINUOUS
 10
203.710022
 20
289.229370
 40
2.000000
 50
1.000000
 51
90.000000
  0
LINE
  8
0
  6
CENTER
 10
184.225937
 20
302.229370
 11
204.568436
 21
302.229370
  0
CIRCLE
  8
0
  6
CONTINUOUS
 10
193.821243
 20
302.229370
 40
4.250000
  0
LINE
  8
0
  6
CENTER
 10
117.821251
 20
310.936249
 11
117.821251
 21
291.976257
  0
LINE
  8
0
  6
CONTINUOUS
 10
106.162140
 20
302.403900
 11
105.976166
 21
291.749268
  0
ARC
  8
0
  6
CONTINUOUS
 10
116.160614
 20
302.229370
 40
10.000000
 50
90.000000
 51
179.000000
  0
ARC
  8
0
  6
CONTINUOUS
 10
107.932480
 20
289.229370
 40
2.000000
 50
90.000000
 51
179.000000
  0
LINE
  8
0
  6
CENTER
 10
127.148438
 20
302.229370
 11
107.595940
 21
302.229370
  0
CIRCLE
  8
0
  6
CONTINUOUS
 10
117.821251
 20
302.229370
 40
4.250000
  0
LINE
  8
0
  6
CONTINUOUS
 10
105.321251
 20
293.229370
 11
105.321251
 21
297.229370
  0
LINE
  8
0
  6
CONTINUOUS
 10
103.321251
 20
299.229370
 11
32.821251
 21
299.229370
  0
ARC
  8
0
  6
CONTINUOUS
 10
103.321251
 20
297.229370
 40
2.000000
 50
0.000000
 51
90.000000
  0
ARC
  8
0
  6
CONTINUOUS
 10
107.321251
 20
293.229370
 40
2.000000
 50
180.000000
 51
270.000000
  0
LINE
  8
0
  6
CONTINUOUS
 10
105.932785
 20
289.264282
 11
105.827446
 21
283.229370
  0
LINE
  8
0
  6
CONTINUOUS
 10
32.821251
 20
283.229370
 11
112.163803
 21
283.229370
  0
LINE
  8
0
  6
CONTINUOUS
 10
32.821251
 20
225.229370
 11
112.163803
 21
225.229370
  0
LINE
  8
0
  6
CONTINUOUS
 10
103.321251
 20
209.229370
 11
32.821251
 21
209.229370
  0
ARC
  8
0
  6
CONTINUOUS
 10
103.321251
 20
211.229370
 40
2.000000
 50
-90.000000
 51
0.000000
  0
LINE
  8
0
  6
CENTER
 10
193.821243
 20
197.373749
 11
193.821243
 21
216.432495
  0
LINE
  8
0
  6
CONTINUOUS
 10
205.480362
 20
206.054855
 11
206.321243
 21
254.229370
  0
LINE
  8
0
  6
CONTINUOUS
 10
195.481888
 20
196.229370
 11
167.321243
 21
196.229370
  0
LINE
  8
0
  6
CONTINUOUS
 10
107.321251
 20
217.229370
 11
203.710022
 21
217.229370
  0
ARC
  8
0
  6
CONTINUOUS
 10
195.481888
 20
206.229370
 40
10.000000
 50
-90.000000
 51
-1.000000
  0
ARC
  8
0
  6
CONTINUOUS
 10
203.710022
 20
219.229370
 40
2.000000
 50
-90.000000
 51
-1.000000
  0
LINE
  8
0
  6
CENTER
 10
184.719681
 20
206.229370
 11
204.765945
 21
206.229370
  0
CIRCLE
  8
0
  6
CONTINUOUS
 10
193.821243
 20
206.229370
 40
4.250000
  0
LINE
  8
0
  6
CENTER
 10
117.821251
 20
196.880005
 11
117.821251
 21
216.235001
  0
LINE
  8
0
  6
CONTINUOUS
 10
106.162140
 20
206.054855
 11
105.976166
 21
216.709488
  0
ARC
  8
0
  6
CONTINUOUS
 10
116.160614
 20
206.229370
 40
10.000000
 50
-179.000000
 51
-90.000000
  0
ARC
  8
0
  6
CONTINUOUS
 10
107.932480
 20
219.229370
 40
2.000000
 50
-179.000000
 51
-90.000000
  0
LINE
  8
0
  6
CENTER
 10
127.642189
 20
206.229370
 11
107.398438
 21
206.229370
  0
CIRCLE
  8
0
  6
CONTINUOUS
 10
117.821251
 20
206.229370
 40
4.250000
  0
LINE
  8
0
  6
CONTINUOUS
 10
105.321251
 20
215.229370
 11
105.321251
 21
211.229370
  0
ARC
  8
0
  6
CONTINUOUS
 10
107.321251
 20
215.229370
 40
2.000000
 50
-270.000000
 51
-180.000000
  0
LINE
  8
0
  6
CONTINUOUS
 10
105.932785
 20
219.194473
 11
105.827446
 21
225.229370
  0
LINE
  8
0
  6
CONTINUOUS
 10
138.821243
 20
286.229370
 11
138.821243
 21
222.229370
  0
LINE
  8
0
  6
CONTINUOUS
 10
172.821243
 20
286.229370
 11
172.821243
 21
222.229370
  0
LINE
  8
0
  6
CONTINUOUS
 10
112.163803
 20
281.229370
 11
112.163803
 21
227.229370
  0
LINE
  8
0
  6
CONTINUOUS
 10
178.321259
 20
296.229370
 11
133.321243
 21
296.229370
  0
LINE
  8
0
  6
CONTINUOUS
 10
132.321243
 20
295.229370
 11
132.321243
 21
293.229370
  0
LINE
  8
0
  6
CONTINUOUS
 10
179.321259
 20
295.229370
 11
179.321259
 21
293.229370
  0
ARC
  8
0
  6
CONTINUOUS
 10
130.321243
 20
293.229370
 40
2.000000
 50
-90.000000
 51
0.000000
  0
ARC
  8
0
  6
CONTINUOUS
 10
181.321243
 20
293.229370
 40
2.000000
 50
180.000000
 51
270.000000
  0
ARC
  8
0
  6
CONTINUOUS
 10
133.321259
 20
295.229370
 40
1.000000
 50
90.000000
 51
180.000000
  0
ARC
  8
0
  6
CONTINUOUS
 10
178.321259
 20
295.229370
 40
1.000000
 50
0.000000
 51
90.000000
  0
LINE
  8
0
  6
CONTINUOUS
 10
155.821243
 20
312.229370
 11
116.160614
 21
312.229370
  0
LINE
  8
0
  6
CONTINUOUS
 10
178.321259
 20
212.229370
 11
133.321243
 21
212.229370
  0
LINE
  8
0
  6
CONTINUOUS
 10
132.321243
 20
213.229370
 11
132.321243
 21
215.229370
  0
LINE
  8
0
  6
CONTINUOUS
 10
179.321259
 20
213.229370
 11
179.321259
 21
215.229370
  0
ARC
  8
0
  6
CONTINUOUS
 10
130.321243
 20
215.229370
 40
2.000000
 50
0.000000
 51
90.000000
  0
ARC
  8
0
  6
CONTINUOUS
 10
181.321243
 20
215.229370
 40
2.000000
 50
-270.000000
 51
-180.000000
  0
ARC
  8
0
  6
CONTINUOUS
 10
133.321259
 20
213.229370
 40
1.000000
 50
-180.000000
 51
-90.000000
  0
ARC
  8
0
  6
CONTINUOUS
 10
178.321259
 20
213.229370
 40
1.000000
 50
-90.000000
 51
0.000000
  0
LINE
  8
0
  6
CONTINUOUS
 10
167.321243
 20
180.229370
 11
146.821243
 21
180.229370
  0
LINE
  8
0
  6
CONTINUOUS
 10
146.821243
 20
210.229370
 11
146.821243
 21
180.229370
  0
LINE
  8
0
  6
CONTINUOUS
 10
164.821243
 20
210.229370
 11
164.821243
 21
204.229370
  0
LINE
  8
0
  6
CONTINUOUS
 10
145.821243
 20
210.229370
 11
165.821243
 21
210.229370
  0
LINE
  8
0
  6
CONTINUOUS
 10
145.821243
 20
212.229370
 11
145.821243
 21
210.229370
  0
LINE
  8
0
  6
CONTINUOUS
 10
165.821243
 20
212.229370
 11
165.821243
 21
210.229370
  0
LINE
  8
0
  6
CONTINUOUS
 10
167.321243
 20
180.229370
 11
167.321243
 21
204.229370
  0
LINE
  8
0
  6
CONTINUOUS
 10
167.321243
 20
204.229370
 11
164.306244
 21
204.229370
  0
LINE
  8
0
  6
CONTINUOUS
 10
164.306244
 20
180.229370
 11
164.306244
 21
204.229370
  0
LINE
  8
0
  6
CONTINUOUS
 10
146.821243
 20
196.229370
 11
116.160614
 21
196.229370
  0
LINE
  8
0
  6
CENTER
 10
355.821259
 20
-1.361690
 11
355.821259
 21
127.381248
  0
LINE
  8
0
  6
CENTER
 10
301.547485
 20
54.724998
 11
409.529999
 21
54.724998
  0
LINE
  8
0
  6
CONTINUOUS
 10
413.821259
 20
12.425000
 11
413.821259
 21
5.425000
  0
LINE
  8
0
  6
CONTINUOUS
 10
297.821259
 20
12.425000
 11
297.821259
 21
5.425000
  0
LINE
  8
0
  6
CENTER
 10
272.571259
 20
80.425003
 11
409.529999
 21
80.425003
  0
LINE
  8
0
  6
CONTINUOUS
 10
297.821259
 20
5.425000
 11
413.821259
 21
5.425000
  0
LINE
  8
0
  6
CONTINUOUS
 10
395.821259
 20
14.425000
 11
411.821259
 21
14.425000
  0
LINE
  8
0
  6
CONTINUOUS
 10
318.821259
 20
17.424999
 11
318.821259
 21
115.813629
  0
LINE
  8
0
  6
CONTINUOUS
 10
392.821259
 20
17.424999
 11
392.821259
 21
115.813759
  0
LINE
  8
0
  6
CONTINUOUS
 10
397.821259
 20
57.924995
 11
397.821259
 21
102.925003
  0
LINE
  8
0
  6
CONTINUOUS
 10
396.821259
 20
103.925003
 11
394.821259
 21
103.925003
  0
LINE
  8
0
  6
CONTINUOUS
 10
396.821259
 20
56.924995
 11
394.821259
 21
56.924995
  0
LINE
  8
0
  6
CONTINUOUS
 10
355.821259
 20
118.425003
 11
390.856140
 21
117.813469
  0
LINE
  8
0
  6
CONTINUOUS
 10
320.786346
 20
117.813332
 11
355.821259
 21
118.425003
  0
ARC
  8
0
  6
CONTINUOUS
 10
394.821259
 20
105.925003
 40
2.000000
 50
180.000000
 51
270.000000
  0
ARC
  8
0
  6
CONTINUOUS
 10
390.821259
 20
115.813759
 40
2.000000
 50
0.000000
 51
89.000137
  0
ARC
  8
0
  6
CONTINUOUS
 10
320.821259
 20
115.813637
 40
2.000000
 50
91.000641
 51
180.000000
  0
ARC
  8
0
  6
CONTINUOUS
 10
394.821259
 20
54.925007
 40
2.000000
 50
90.000000
 51
180.000000
  0
ARC
  8
0
  6
CONTINUOUS
 10
396.821259
 20
102.924988
 40
1.000000
 50
0.000000
 51
90.000000
  0
ARC
  8
0
  6
CONTINUOUS
 10
396.821259
 20
57.924995
 40
1.000000
 50
-90.000000
 51
0.000000
  0
LINE
  8
0
  6
CONTINUOUS
 10
320.071259
 20
94.925003
 11
391.821259
 21
94.925003
  0
ARC
  8
0
  6
CONTINUOUS
 10
411.821259
 20
12.424990
 40
2.000000
 50
0.000000
 51
90.000000
  0
ARC
  8
0
  6
CONTINUOUS
 10
299.821259
 20
12.425010
 40
2.000000
 50
90.000000
 51
180.000000
  0
LINE
  8
0
  6
CENTER
 10
403.821259
 20
18.381250
 11
403.821259
 21
1.131250
  0
LINE
  8
0
  6
CENTER
 10
307.821259
 20
18.381250
 11
307.821259
 21
0.381250
  0
LINE
  8
0
  6
DASHED
 10
312.071259
 20
14.425000
 11
312.071259
 21
5.425000
  0
LINE
  8
0
  6
DASHED
 10
303.571259
 20
14.425000
 11
303.571259
 21
5.425000
  0
LINE
  8
0
  6
DASHED
 10
408.071259
 20
14.425000
 11
408.071259
 21
5.425000
  0
LINE
  8
0
  6
DASHED
 10
399.571259
 20
14.425000
 11
399.571259
 21
5.425000
  0
ARC
  8
0
  6
CONTINUOUS
 10
355.821259
 20
54.724998
 40
45.000000
 50
159.580627
 51
214.692123
  0
ARC
  8
0
  6
CONTINUOUS
 10
355.821259
 20
54.724998
 40
45.000000
 50
-34.692108
 51
20.437799
  0
LINE
  8
0
  6
CONTINUOUS
 10
313.821259
 20
57.924995
 11
313.821259
 21
102.925003
  0
LINE
  8
0
  6
CONTINUOUS
 10
314.821259
 20
103.925003
 11
316.821259
 21
103.925003
  0
LINE
  8
0
  6
CONTINUOUS
 10
314.821259
 20
56.924995
 11
316.821259
 21
56.924995
  0
ARC
  8
0
  6
CONTINUOUS
 10
316.821259
 20
105.925003
 40
2.000000
 50
-90.000000
 51
0.000000
  0
ARC
  8
0
  6
CONTINUOUS
 10
316.821259
 20
54.925007
 40
2.000000
 50
0.000000
 51
90.000000
  0
ARC
  8
0
  6
CONTINUOUS
 10
314.821259
 20
102.924988
 40
1.000000
 50
90.000000
 51
180.000000
  0
ARC
  8
0
  6
CONTINUOUS
 10
314.821259
 20
57.924995
 40
1.000000
 50
180.000000
 51
270.000000
  0
LINE
  8
0
  6
CONTINUOUS
 10
315.821259
 20
14.425000
 11
299.821259
 21
14.425000
  0
ARC
  8
0
  6
CONTINUOUS
 10
315.821259
 20
17.424999
 40
3.000000
 50
-90.000000
 51
0.000000
  0
ARC
  8
0
  6
CONTINUOUS
 10
395.821259
 20
17.424999
 40
3.000000
 50
180.000000
 51
270.000000
  0
LINE
  8
0
  6
CONTINUOUS
 10
281.821259
 20
71.425003
 11
281.821259
 21
89.425003
  0
LINE
  8
0
  6
CONTINUOUS
 10
311.821259
 20
89.425003
 11
281.821259
 21
89.425003
  0
LINE
  8
0
  6
CONTINUOUS
 10
311.821259
 20
71.425003
 11
281.821259
 21
71.425003
  0
LINE
  8
0
  6
CONTINUOUS
 10
311.821259
 20
90.425003
 11
311.821259
 21
70.425003
  0
LINE
  8
0
  6
CONTINUOUS
 10
313.821259
 20
90.425003
 11
311.821259
 21
90.425003
  0
LINE
  8
0
  6
CONTINUOUS
 10
313.821259
 20
70.425003
 11
311.821259
 21
70.425003
  0
ARC
  8
0
  6
CONTINUOUS
 10
305.821259
 20
80.425003
 40
3.000000
 50
-90.000000
 51
90.000000
  0
LINE
  8
0
  6
CONTINUOUS
 10
305.821259
 20
83.425003
 11
281.821259
 21
83.425003
  0
LINE
  8
0
  6
CONTINUOUS
 10
305.821136
 20
77.425003
 11
281.821259
 21
77.425003
  0
LINE
  8
0
  6
DASHED
 10
329.821259
 20
9.725000
 11
381.821259
 21
9.725000
  0
ARC
  8
0
  6
DASHED
 10
381.821259
 20
12.725000
 40
3.000000
 50
-90.000000
 51
0.000000
  0
ARC
  8
0
  6
DASHED
 10
329.821259
 20
12.725000
 40
3.000000
 50
208.811234
 51
270.000000
  0
LINE
  8
0
  6
DASHED
 10
382.856140
 20
99.254799
 11
355.821259
 21
99.726692
  0
ARC
  8
0
  6
DASHED
 10
382.821259
 20
97.255096
 40
2.000000
 50
0.000000
 51
89.000191
  0
LINE
  8
0
  6
DASHED
 10
384.821259
 20
97.255112
 11
384.821259
 21
90.502090
  0
LINE
  8
0
  6
DASHED
 10
328.786346
 20
99.254799
 11
355.821259
 21
99.726692
  0
ARC
  8
0
  6
DASHED
 10
328.821259
 20
97.255096
 40
2.000000
 50
90.999809
 51
180.000000
  0
LINE
  8
0
  6
DASHED
 10
326.821259
 20
97.255112
 11
326.821259
 21
90.502090
  0
LINE
  8
0
  6
DASHED
 10
326.821259
 20
12.725000
 11
326.821259
 21
18.947912
  0
ARC
  8
0
  6
DASHED
 10
329.821259
 20
12.725000
 40
3.000000
 50
180.000000
 51
208.811234
  0
LINE
  8
0
  6
DASHED
 10
384.821259
 20
12.725000
 11
384.821259
 21
18.947912
  0
ARC
  8
0
  6
DASHED
 10
355.821259
 20
54.724998
 40
45.000000
 50
-48.189686
 51
-34.692131
  0
ARC
  8
0
  6
DASHED
 10
387.821259
 20
90.502090
 40
3.000000
 50
180.000000
 51
228.189682
  0
ARC
  8
0
  6
DASHED
 10
323.821259
 20
90.502090
 40
3.000000
 50
-48.189686
 51
0.000000
  0
ARC
  8
0
  6
DASHED
 10
323.821259
 20
18.947912
 40
3.000000
 50
0.000000
 51
48.189686
  0
ARC
  8
0
  6
DASHED
 10
387.821259
 20
18.947912
 40
3.000000
 50
131.810318
 51
180.000000
  0
ARC
  8
0
  6
DASHED
 10
355.821259
 20
54.724998
 40
45.000000
 50
20.419371
 51
48.189686
  0
ARC
  8
0
  6
DASHED
 10
355.821259
 20
54.724998
 40
45.000000
 50
214.692123
 51
228.189682
  0
ARC
  8
0
  6
DASHED
 10
355.821259
 20
54.724998
 40
45.000000
 50
131.810318
 51
159.580627
  0
LINE
  8
0
  6
DASHED
 10
378.821259
 20
111.725304
 11
378.821259
 21
99.323532
  0
LINE
  8
0
  6
DASHED
 10
332.821259
 20
111.725304
 11
332.821259
 21
99.323532
  0
LINE
  8
0
  6
DASHED
 10
378.321259
 20
111.725304
 11
378.321259
 21
112.725304
  0
LINE
  8
0
  6
DASHED
 10
333.321259
 20
111.725304
 11
333.321259
 21
112.725304
  0
LINE
  8
0
  6
CONTINUOUS
 10
332.821259
 20
118.708702
 11
332.821259
 21
118.023445
  0
LINE
  8
0
  6
CONTINUOUS
 10
378.821259
 20
118.708702
 11
378.821259
 21
118.023537
  0
ARC
  8
0
  6
CONTINUOUS
 10
375.821259
 20
112.425201
 40
7.000000
 50
73.041977
 51
106.956497
  0
ARC
  8
0
  6
CONTINUOUS
 10
374.071259
 20
118.164497
 40
1.000000
 50
106.956902
 51
180.000000
  0
ARC
  8
0
  6
CONTINUOUS
 10
377.571259
 20
118.164497
 40
1.000000
 50
0.000000
 51
73.041847
  0
LINE
  8
0
  6
CONTINUOUS
 10
372.321259
 20
119.211746
 11
372.321259
 21
118.136993
  0
ARC
  8
0
  6
CONTINUOUS
 10
355.821259
 20
-129.774704
 40
250.000000
 50
84.826019
 51
95.173981
  0
ARC
  8
0
  6
CONTINUOUS
 10
378.321259
 20
118.708702
 40
0.500000
 50
0.000000
 51
84.826019
  0
ARC
  8
0
  6
CONTINUOUS
 10
371.821259
 20
119.211746
 40
0.500000
 50
0.000000
 51
86.323196
  0
ARC
  8
0
  6
CONTINUOUS
 10
335.821259
 20
112.425201
 40
7.000000
 50
73.043503
 51
106.958023
  0
ARC
  8
0
  6
CONTINUOUS
 10
337.571259
 20
118.164497
 40
1.000000
 50
0.000000
 51
73.043098
  0
ARC
  8
0
  6
CONTINUOUS
 10
334.071259
 20
118.164497
 40
1.000000
 50
106.958153
 51
180.000000
  0
LINE
  8
0
  6
CONTINUOUS
 10
339.321259
 20
119.211746
 11
339.321259
 21
118.136932
  0
ARC
  8
0
  6
CONTINUOUS
 10
333.321259
 20
118.708702
 40
0.500000
 50
95.173981
 51
180.000000
  0
ARC
  8
0
  6
CONTINUOUS
 10
339.821259
 20
119.211746
 40
0.500000
 50
93.676804
 51
180.000000
  0
LINE
  8
0
  6
DASHED
 10
378.321259
 20
112.725304
 11
378.821259
 21
112.725304
  0
LINE
  8
0
  6
DASHED
 10
378.321259
 20
111.725304
 11
378.821259
 21
111.725304
  0
LINE
  8
0
  6
DASHED
 10
333.321259
 20
112.725304
 11
332.821259
 21
112.725304
  0
LINE
  8
0
  6
DASHED
 10
333.321259
 20
111.725304
 11
332.821259
 21
111.725304
  0
LINE
  8
0
  6
DASHED
 10
378.821259
 20
118.023537
 11
378.821259
 21
112.725304
  0
LINE
  8
0
  6
CONTINUOUS
 10
378.571259
 20
118.027901
 11
378.571259
 21
118.164497
  0
LINE
  8
0
  6
CONTINUOUS
 10
373.071259
 20
118.123901
 11
373.071259
 21
118.164497
  0
LINE
  8
0
  6
CONTINUOUS
 10
338.571259
 20
118.123833
 11
338.571259
 21
118.164497
  0
LINE
  8
0
  6
CONTINUOUS
 10
333.071259
 20
118.027809
 11
333.071259
 21
118.164497
  0
LINE
  8
0
  6
DASHED
 10
332.821259
 20
118.023445
 11
332.821259
 21
112.725304
  0
LINE
  8
0
  6
CONTINUOUS
 10
305.821259
 20
83.425003
 11
305.821259
 21
77.425003
  0
LINE
  8
0
  6
CONTINUOUS
 10
32.321251
 20
259.113068
 11
32.321251
 21
249.345673
  0
LINE
  8
0
  6
CONTINUOUS
 10
32.821251
 20
209.229370
 11
32.821251
 21
299.229370
  0
LINE
  8
0
  6
CONTINUOUS
 10
5.821250
 20
297.499084
 11
5.821250
 21
277.229370
  0
LINE
  8
0
  6
CONTINUOUS
 10
5.821250
 20
210.959671
 11
5.821250
 21
231.229370
  0
LINE
  8
0
  6
CONTINUOUS
 10
32.821251
 20
283.229370
 11
19.308149
 21
282.875488
  0
LINE
  8
0
  6
CONTINUOUS
 10
19.308149
 20
225.583282
 11
32.821251
 21
225.229370
  0
LINE
  8
0
  6
CONTINUOUS
 10
-1.678750
 20
259.113068
 11
-1.678750
 21
249.345673
  0
LINE
  8
0
  6
CONTINUOUS
 10
18.821251
 20
226.083176
 11
18.821251
 21
231.229370
  0
ARC
  8
0
  6
CONTINUOUS
 10
19.321251
 20
226.083176
 40
0.500000
 50
180.000000
 51
268.496399
  0
LINE
  8
0
  6
CONTINUOUS
 10
18.821251
 20
282.375580
 11
18.821251
 21
277.229370
  0
ARC
  8
0
  6
CONTINUOUS
 10
19.321251
 20
282.375580
 40
0.500000
 50
-268.496399
 51
-180.000000
  0
LINE
  8
0
  6
CONTINUOUS
 10
18.821251
 20
226.579376
 11
5.821250
 21
226.919876
  0
LINE
  8
0
  6
CONTINUOUS
 10
18.821251
 20
281.879364
 11
5.821250
 21
281.538879
  0
ARC
  8
0
  6
CONTINUOUS
 10
28.321251
 20
233.246872
 40
2.000000
 50
-90.500061
 51
0.000000
  0
LINE
  8
0
  6
CONTINUOUS
 10
7.786038
 20
209.666412
 11
32.821251
 21
209.229370
  0
LINE
  8
0
  6
CONTINUOUS
 10
6.562850
 20
209.993576
 11
7.786038
 21
209.666412
  0
ARC
  8
0
  6
CONTINUOUS
 10
6.821250
 20
210.959671
 40
1.000000
 50
180.000000
 51
255.023895
  0
LINE
  8
0
  6
CONTINUOUS
 10
7.786049
 20
298.792328
 11
32.821251
 21
299.229370
  0
LINE
  8
0
  6
CONTINUOUS
 10
6.562850
 20
298.465088
 11
7.786049
 21
298.792328
  0
ARC
  8
0
  6
CONTINUOUS
 10
6.821250
 20
297.499084
 40
1.000000
 50
-255.023895
 51
-180.000000
  0
LINE
  8
0
  6
CONTINUOUS
 10
5.021250
 20
231.229370
 11
5.021250
 21
216.340637
  0
LINE
  8
0
  6
CONTINUOUS
 10
5.350240
 20
215.870789
 11
5.492260
 21
215.819092
  0
ARC
  8
0
  6
CONTINUOUS
 10
5.321250
 20
215.349258
 40
0.500000
 50
0.000000
 51
70.000000
  0
ARC
  8
0
  6
CONTINUOUS
 10
5.521250
 20
216.340637
 40
0.500000
 50
180.000000
 51
250.000000
  0
LINE
  8
0
  6
CONTINUOUS
 10
5.350240
 20
292.587952
 11
5.492260
 21
292.639648
  0
ARC
  8
0
  6
CONTINUOUS
 10
5.321250
 20
293.109497
 40
0.500000
 50
-70.000000
 51
0.000000
  0
ARC
  8
0
  6
CONTINUOUS
 10
5.521250
 20
292.118103
 40
0.500000
 50
-250.000000
 51
-180.000000
  0
LINE
  8
0
  6
CONTINUOUS
 10
5.021250
 20
292.118103
 11
5.021250
 21
277.229370
  0
LINE
  8
0
  6
CONTINUOUS
 10
0.321150
 20
233.229370
 11
0.321150
 21
275.229370
  0
LINE
  8
0
  6
CENTER
 10
15.321250
 20
286.039368
 11
15.321250
 21
222.504379
  0
LINE
  8
0
  6
CONTINUOUS
 10
30.321251
 20
275.229370
 11
30.321251
 21
233.229370
  0
LINE
  8
0
  6
CONTINUOUS
 10
32.321251
 20
259.229370
 11
32.321251
 21
249.229370
  0
LINE
  8
0
  6
CONTINUOUS
 10
-1.678750
 20
259.229370
 11
-1.678750
 21
249.229370
  0
ARC
  8
0
  6
CONTINUOUS
 10
3.321250
 20
234.229370
 40
3.500000
 50
0.000000
 51
90.000000
  0
LINE
  8
0
  6
CONTINUOUS
 10
1.321150
 20
237.729370
 11
3.321250
 21
237.729370
  0
LINE
  8
0
  6
CONTINUOUS
 10
6.821250
 20
232.229370
 11
6.821250
 21
234.229370
  0
ARC
  8
0
  6
CONTINUOUS
 10
1.321150
 20
238.729370
 40
1.000000
 50
180.000000
 51
270.000000
  0
ARC
  8
0
  6
CONTINUOUS
 10
27.321251
 20
234.229370
 40
3.500000
 50
90.000000
 51
180.000000
  0
LINE
  8
0
  6
CONTINUOUS
 10
23.821251
 20
232.229370
 11
23.821251
 21
234.229370
  0
LINE
  8
0
  6
CONTINUOUS
 10
29.321350
 20
237.729370
 11
27.321251
 21
237.729370
  0
ARC
  8
0
  6
CONTINUOUS
 10
29.321350
 20
238.729370
 40
1.000000
 50
-90.000000
 51
0.000000
  0
LINE
  8
0
  6
CONTINUOUS
 10
28.321251
 20
231.229370
 11
2.321150
 21
231.229370
  0
ARC
  8
0
  6
CONTINUOUS
 10
22.821251
 20
232.229370
 40
1.000000
 50
-90.000000
 51
0.000000
  0
ARC
  8
0
  6
CONTINUOUS
 10
7.821250
 20
232.229370
 40
1.000000
 50
180.000000
 51
270.000000
  0
ARC
  8
0
  6
CONTINUOUS
 10
2.321150
 20
233.229370
 40
2.000000
 50
180.000000
 51
270.000000
  0
ARC
  8
0
  6
CONTINUOUS
 10
28.321251
 20
233.229370
 40
2.000000
 50
-90.000000
 51
0.000000
  0
ARC
  8
0
  6
CONTINUOUS
 10
3.321250
 20
274.229370
 40
3.500000
 50
-90.000000
 51
0.000000
  0
LINE
  8
0
  6
CONTINUOUS
 10
1.321150
 20
270.729370
 11
3.321250
 21
270.729370
  0
LINE
  8
0
  6
CONTINUOUS
 10
6.821250
 20
276.229370
 11
6.821250
 21
274.229370
  0
ARC
  8
0
  6
CONTINUOUS
 10
1.321150
 20
269.729370
 40
1.000000
 50
-270.000000
 51
-180.000000
  0
ARC
  8
0
  6
CONTINUOUS
 10
27.321251
 20
274.229370
 40
3.500000
 50
-180.000000
 51
-90.000000
  0
LINE
  8
0
  6
CONTINUOUS
 10
23.821251
 20
276.229370
 11
23.821251
 21
274.229370
  0
LINE
  8
0
  6
CONTINUOUS
 10
29.321350
 20
270.729370
 11
27.321251
 21
270.729370
  0
ARC
  8
0
  6
CONTINUOUS
 10
29.321350
 20
269.729370
 40
1.000000
 50
0.000000
 51
90.000000
  0
LINE
  8
0
  6
CONTINUOUS
 10
28.321251
 20
277.229370
 11
2.321150
 21
277.229370
  0
ARC
  8
0
  6
CONTINUOUS
 10
22.821251
 20
276.229370
 40
1.000000
 50
0.000000
 51
90.000000
  0
ARC
  8
0
  6
CONTINUOUS
 10
7.821250
 20
276.229370
 40
1.000000
 50
-270.000000
 51
-180.000000
  0
ARC
  8
0
  6
CONTINUOUS
 10
2.321150
 20
275.229370
 40
2.000000
 50
-270.000000
 51
-180.000000
  0
ARC
  8
0
  6
CONTINUOUS
 10
28.321251
 20
275.229370
 40
2.000000
 50
0.000000
 51
90.000000
  0
LINE
  8
0
  6
CONTINUOUS
 10
-0.178750
 20
260.229370
 11
-0.678750
 21
260.229370
  0
ARC
  8
0
  6
CONTINUOUS
 10
-0.678750
 20
259.229370
 40
1.000000
 50
90.000000
 51
180.000000
  0
ARC
  8
0
  6
CONTINUOUS
 10
-0.178750
 20
260.729370
 40
0.500000
 50
-90.000000
 51
0.000000
  0
LINE
  8
0
  6
CONTINUOUS
 10
-0.178750
 20
248.229370
 11
-0.678750
 21
248.229370
  0
ARC
  8
0
  6
CONTINUOUS
 10
-0.678750
 20
249.229370
 40
1.000000
 50
-180.000000
 51
-90.000000
  0
ARC
  8
0
  6
CONTINUOUS
 10
-0.178750
 20
247.729370
 40
0.500000
 50
0.000000
 51
90.000000
  0
LINE
  8
0
  6
CONTINUOUS
 10
30.821251
 20
260.229370
 11
31.321251
 21
260.229370
  0
ARC
  8
0
  6
CONTINUOUS
 10
31.321251
 20
259.229370
 40
1.000000
 50
0.000000
 51
90.000000
  0
ARC
  8
0
  6
CONTINUOUS
 10
30.821251
 20
260.729370
 40
0.500000
 50
180.000000
 51
270.000000
  0
LINE
  8
0
  6
CONTINUOUS
 10
30.821251
 20
248.229370
 11
31.321251
 21
248.229370
  0
ARC
  8
0
  6
CONTINUOUS
 10
31.321251
 20
249.229370
 40
1.000000
 50
-90.000000
 51
0.000000
  0
ARC
  8
0
  6
CONTINUOUS
 10
30.821251
 20
247.729370
 40
0.500000
 50
90.000000
 51
180.000000
  0
LINE
  8
0
  6
CONTINUOUS
 10
5.071250
 20
234.629364
 11
5.071250
 21
233.829346
  0
LINE
  8
0
  6
CONTINUOUS
 10
2.921226
 20
235.979370
 11
3.721244
 21
235.979370
  0
LINE
  8
0
  6
CONTINUOUS
 10
2.921226
 20
232.479370
 11
3.721244
 21
232.479370
  0
LINE
  8
0
  6
CONTINUOUS
 10
1.571250
 20
234.629364
 11
1.571250
 21
233.829346
  0
CIRCLE
  8
0
  6
CONTINUOUS
 10
3.321250
 20
234.229370
 40
2.750000
  0
ARC
  8
0
  6
CONTINUOUS
 10
1.571250
 20
235.979370
 40
1.350000
 50
-90.000000
 51
0.000000
  0
ARC
  8
0
  6
CONTINUOUS
 10
1.571250
 20
232.479370
 40
1.350000
 50
0.000000
 51
90.000000
  0
ARC
  8
0
  6
CONTINUOUS
 10
5.071250
 20
235.979370
 40
1.350000
 50
180.000000
 51
270.000000
  0
ARC
  8
0
  6
CONTINUOUS
 10
5.071250
 20
232.479370
 40
1.350000
 50
90.000000
 51
180.000000
  0
LINE
  8
0
  6
CONTINUOUS
 10
29.071251
 20
234.629364
 11
29.071251
 21
233.829346
  0
LINE
  8
0
  6
CONTINUOUS
 10
26.921227
 20
235.979370
 11
27.721245
 21
235.979370
  0
LINE
  8
0
  6
CONTINUOUS
 10
26.921227
 20
232.479370
 11
27.721245
 21
232.479370
  0
LINE
  8
0
  6
CONTINUOUS
 10
25.571251
 20
234.629364
 11
25.571251
 21
233.829346
  0
CIRCLE
  8
0
  6
CONTINUOUS
 10
27.321251
 20
234.229370
 40
2.750000
  0
ARC
  8
0
  6
CONTINUOUS
 10
25.571251
 20
235.979370
 40
1.350000
 50
-90.000000
 51
0.000000
  0
ARC
  8
0
  6
CONTINUOUS
 10
25.571251
 20
232.479370
 40
1.350000
 50
0.000000
 51
90.000000
  0
ARC
  8
0
  6
CONTINUOUS
 10
29.071251
 20
235.979370
 40
1.350000
 50
180.000000
 51
270.000000
  0
ARC
  8
0
  6
CONTINUOUS
 10
29.071251
 20
232.479370
 40
1.350000
 50
90.000000
 51
180.000000
  0
LINE
  8
0
  6
CONTINUOUS
 10
29.071251
 20
274.629364
 11
29.071251
 21
273.829346
  0
LINE
  8
0
  6
CONTINUOUS
 10
26.921227
 20
275.979370
 11
27.721245
 21
275.979370
  0
LINE
  8
0
  6
CONTINUOUS
 10
26.921227
 20
272.479370
 11
27.721245
 21
272.479370
  0
LINE
  8
0
  6
CONTINUOUS
 10
25.571251
 20
274.629364
 11
25.571251
 21
273.829346
  0
CIRCLE
  8
0
  6
CONTINUOUS
 10
27.321251
 20
274.229370
 40
2.750000
  0
ARC
  8
0
  6
CONTINUOUS
 10
25.571251
 20
275.979370
 40
1.350000
 50
-90.000000
 51
0.000000
  0
ARC
  8
0
  6
CONTINUOUS
 10
25.571251
 20
272.479370
 40
1.350000
 50
0.000000
 51
90.000000
  0
ARC
  8
0
  6
CONTINUOUS
 10
29.071251
 20
275.979370
 40
1.350000
 50
180.000000
 51
270.000000
  0
ARC
  8
0
  6
CONTINUOUS
 10
29.071251
 20
272.479370
 40
1.350000
 50
90.000000
 51
180.000000
  0
LINE
  8
0
  6
CONTINUOUS
 10
5.071250
 20
274.629364
 11
5.071250
 21
273.829346
  0
LINE
  8
0
  6
CONTINUOUS
 10
2.921226
 20
275.979370
 11
3.721244
 21
275.979370
  0
LINE
  8
0
  6
CONTINUOUS
 10
2.921226
 20
272.479370
 11
3.721244
 21
272.479370
  0
LINE
  8
0
  6
CONTINUOUS
 10
1.571250
 20
274.629364
 11
1.571250
 21
273.829346
  0
CIRCLE
  8
0
  6
CONTINUOUS
 10
3.321250
 20
274.229370
 40
2.750000
  0
ARC
  8
0
  6
CONTINUOUS
 10
1.571250
 20
275.979370
 40
1.350000
 50
-90.000000
 51
0.000000
  0
ARC
  8
0
  6
CONTINUOUS
 10
1.571250
 20
272.479370
 40
1.350000
 50
0.000000
 51
90.000000
  0
ARC
  8
0
  6
CONTINUOUS
 10
5.071250
 20
275.979370
 40
1.350000
 50
180.000000
 51
270.000000
  0
ARC
  8
0
  6
CONTINUOUS
 10
5.071250
 20
272.479370
 40
1.350000
 50
90.000000
 51
180.000000
  0
LINE
  8
0
  6
CONTINUOUS
 10
-16.827431
 20
250.379379
 11
-1.678630
 21
250.379379
  0
LINE
  8
0
  6
CONTINUOUS
 10
-15.975630
 20
258.079376
 11
-16.711430
 21
255.244278
  0
LINE
  8
0
  6
CONTINUOUS
 10
-16.711430
 20
255.244278
 11
-15.899330
 21
252.769272
  0
LINE
  8
0
  6
CONTINUOUS
 10
-15.899330
 20
252.769272
 11
-16.827431
 21
250.379379
  0
LINE
  8
0
  6
CONTINUOUS
 10
-15.975630
 20
258.079376
 11
-1.678630
 21
258.079376
  0
LINE
  8
0
  6
CONTINUOUS
 10
17.821251
 20
277.229370
 11
17.821251
 21
281.729370
  0
LINE
  8
0
  6
CONTINUOUS
 10
18.821251
 20
281.729370
 11
16.842239
 21
281.729370
  0
ARC
  8
0
  6
CONTINUOUS
 10
24.221279
 20
278.229370
 40
8.999999
 50
163.398987
 51
186.379364
  0
ARC
  8
0
  6
CONTINUOUS
 10
16.842239
 20
280.429382
 40
1.300000
 50
90.000000
 51
163.399094
  0
LINE
  8
0
  6
CONTINUOUS
 10
17.821251
 20
231.229370
 11
17.821251
 21
226.729370
  0
LINE
  8
0
  6
CONTINUOUS
 10
18.821251
 20
226.729370
 11
16.842239
 21
226.729370
  0
ARC
  8
0
  6
CONTINUOUS
 10
24.221279
 20
230.229370
 40
8.999999
 50
-186.379364
 51
-163.398987
  0
ARC
  8
0
  6
CONTINUOUS
 10
16.842239
 20
228.029358
 40
1.300000
 50
-163.399094
 51
-90.000000
  0
LINE
  8
0
  6
CONTINUOUS
 10
32.821239
 20
9.725000
 11
32.821239
 21
99.724998
  0
LINE
  8
0
  6
CONTINUOUS
 10
18.821239
 20
10.460720
 11
18.821239
 21
20.315710
  0
LINE
  8
0
  6
CONTINUOUS
 10
5.821240
 20
92.751144
 11
5.821240
 21
11.414773
  0
LINE
  8
0
  6
CENTER
 10
15.321240
 20
101.663284
 11
15.321240
 21
122.925781
  0
ARC
  8
0
  6
CONTINUOUS
 10
31.321239
 20
100.724998
 40
1.000000
 50
180.000000
 51
270.000000
  0
LINE
  8
0
  6
CONTINUOUS
 10
32.821239
 20
20.315710
 11
18.821239
 21
20.315710
  0
LINE
  8
0
  6
CONTINUOUS
 10
18.821239
 20
99.224998
 11
18.821239
 21
89.224998
  0
LINE
  8
0
  6
CONTINUOUS
 10
32.821239
 20
89.134300
 11
18.821239
 21
89.134300
  0
LINE
  8
0
  6
CONTINUOUS
 10
32.821239
 20
99.724998
 11
0.321310
 21
99.724998
  0
ARC
  8
0
  6
CONTINUOUS
 10
19.321239
 20
99.224998
 40
0.500000
 50
90.000000
 51
180.000000
  0
LINE
  8
0
  6
CONTINUOUS
 10
0.321586
 20
111.725235
 11
0.321289
 21
99.727745
  0
LINE
  8
0
  6
CONTINUOUS
 10
30.321239
 20
111.725304
 11
30.321239
 21
100.724998
  0
LINE
  8
0
  6
CONTINUOUS
 10
30.321239
 20
112.725304
 11
30.321239
 21
119.303604
  0
LINE
  8
0
  6
CONTINUOUS
 10
-13.566330
 20
108.675301
 11
-1.678760
 21
108.675301
  0
LINE
  8
0
  6
CONTINUOUS
 10
0.321040
 20
112.725304
 11
0.321040
 21
119.303604
  0
LINE
  8
0
  6
CONTINUOUS
 10
32.321239
 20
117.225304
 11
32.321239
 21
112.725304
  0
LINE
  8
0
  6
CONTINUOUS
 10
-1.678760
 20
112.725304
 11
32.321239
 21
112.725304
  0
LINE
  8
0
  6
CONTINUOUS
 10
-1.678760
 20
111.725304
 11
32.321239
 21
111.725304
  0
LINE
  8
0
  6
CONTINUOUS
 10
-1.678760
 20
117.225304
 11
-1.678760
 21
116.475304
  0
LINE
  8
0
  6
CONTINUOUS
 10
-1.678760
 20
116.475304
 11
-1.678760
 21
112.725304
  0
LINE
  8
0
  6
CONTINUOUS
 10
-12.714530
 20
116.375298
 11
-1.678760
 21
116.375298
  0
ARC
  8
0
  6
CONTINUOUS
 10
15.321240
 20
-129.774704
 40
250.000000
 50
86.668304
 51
93.331696
  0
LINE
  8
0
  6
CONTINUOUS
 10
30.821239
 20
118.225304
 11
31.321239
 21
118.225304
  0
ARC
  8
0
  6
CONTINUOUS
 10
31.321239
 20
117.225304
 40
1.000000
 50
0.000000
 51
90.000000
  0
ARC
  8
0
  6
CONTINUOUS
 10
30.821239
 20
118.725304
 40
0.500000
 50
180.000000
 51
270.000000
  0
LINE
  8
0
  6
CONTINUOUS
 10
30.821239
 20
106.225304
 11
31.321239
 21
106.225304
  0
ARC
  8
0
  6
CONTINUOUS
 10
31.321239
 20
107.225304
 40
1.000000
 50
-90.000000
 51
0.000000
  0
ARC
  8
0
  6
CONTINUOUS
 10
30.821239
 20
105.725304
 40
0.500000
 50
-270.000000
 51
-180.000000
  0
LINE
  8
0
  6
CONTINUOUS
 10
-0.178760
 20
118.225304
 11
-0.678760
 21
118.225304
  0
ARC
  8
0
  6
CONTINUOUS
 10
-0.678760
 20
117.225304
 40
1.000000
 50
90.000000
 51
180.000000
  0
ARC
  8
0
  6
CONTINUOUS
 10
-0.178760
 20
118.725304
 40
0.500000
 50
-90.000000
 51
0.000000
  0
LINE
  8
0
  6
CONTINUOUS
 10
-0.178760
 20
106.225304
 11
-0.678760
 21
106.225304
  0
ARC
  8
0
  6
CONTINUOUS
 10
-0.678760
 20
107.225304
 40
1.000000
 50
-180.000000
 51
-90.000000
  0
ARC
  8
0
  6
CONTINUOUS
 10
-0.178760
 20
105.725304
 40
0.500000
 50
0.000000
 51
90.000000
  0
LINE
  8
0
  6
CONTINUOUS
 10
31.821239
 20
112.725304
 11
31.821239
 21
111.725304
  0
LINE
  8
0
  6
CONTINUOUS
 10
32.321239
 20
111.725304
 11
32.321239
 21
107.225304
  0
ARC
  8
0
  6
CONTINUOUS
 10
29.821239
 20
119.303604
 40
0.500000
 50
0.000000
 51
86.668304
  0
LINE
  8
0
  6
CONTINUOUS
 10
-1.678760
 20
111.725304
 11
-1.678760
 21
107.225304
  0
LINE
  8
0
  6
CONTINUOUS
 10
0.821586
 20
112.725304
 11
0.821586
 21
111.725235
  0
LINE
  8
0
  6
CONTINUOUS
 10
24.321239
 20
116.725304
 11
30.071239
 21
116.725304
  0
LINE
  8
0
  6
CONTINUOUS
 10
23.821239
 20
117.225304
 11
23.821239
 21
119.597008
  0
LINE
  8
0
  6
CONTINUOUS
 10
24.571239
 20
116.725304
 11
24.571239
 21
118.164497
  0
LINE
  8
0
  6
CONTINUOUS
 10
30.071239
 20
116.725098
 11
30.071239
 21
118.164497
  0
LINE
  8
0
  6
CONTINUOUS
 10
24.571239
 20
117.425201
 11
30.071239
 21
117.425201
  0
ARC
  8
0
  6
CONTINUOUS
 10
27.321239
 20
112.425201
 40
7.000000
 50
73.043503
 51
106.958000
  0
ARC
  8
0
  6
CONTINUOUS
 10
29.071239
 20
118.164497
 40
1.000000
 50
0.000000
 51
73.043098
  0
ARC
  8
0
  6
CONTINUOUS
 10
25.571239
 20
118.164497
 40
1.000000
 50
106.958199
 51
180.000000
  0
ARC
  8
0
  6
CONTINUOUS
 10
24.321239
 20
117.225304
 40
0.500000
 50
180.000000
 51
270.000000
  0
ARC
  8
0
  6
CONTINUOUS
 10
29.821239
 20
116.225304
 40
0.500000
 50
0.000000
 51
90.000000
  0
ARC
  8
0
  6
CONTINUOUS
 10
23.321239
 20
119.597008
 40
0.500000
 50
0.000000
 51
88.162544
  0
ARC
  8
0
  6
CONTINUOUS
 10
0.821240
 20
119.303604
 40
0.500000
 50
93.331696
 51
180.000000
  0
LINE
  8
0
  6
CONTINUOUS
 10
6.321240
 20
116.725304
 11
0.571240
 21
116.725304
  0
LINE
  8
0
  6
CONTINUOUS
 10
6.821240
 20
117.225304
 11
6.821240
 21
119.597008
  0
LINE
  8
0
  6
CONTINUOUS
 10
6.071240
 20
116.725304
 11
6.071240
 21
118.164497
  0
LINE
  8
0
  6
CONTINUOUS
 10
0.571240
 20
116.725098
 11
0.571240
 21
118.164497
  0
LINE
  8
0
  6
CONTINUOUS
 10
6.071240
 20
117.425201
 11
0.571240
 21
117.425201
  0
ARC
  8
0
  6
CONTINUOUS
 10
3.321240
 20
112.425201
 40
7.000000
 50
73.042000
 51
106.956497
  0
ARC
  8
0
  6
CONTINUOUS
 10
1.571240
 20
118.164497
 40
1.000000
 50
106.956902
 51
180.000000
  0
ARC
  8
0
  6
CONTINUOUS
 10
5.071240
 20
118.164497
 40
1.000000
 50
0.000000
 51
73.041801
  0
ARC
  8
0
  6
CONTINUOUS
 10
6.321240
 20
117.225304
 40
0.500000
 50
-90.000000
 51
0.000000
  0
ARC
  8
0
  6
CONTINUOUS
 10
0.821240
 20
116.225304
 40
0.500000
 50
90.000000
 51
180.000000
  0
ARC
  8
0
  6
CONTINUOUS
 10
7.321240
 20
119.597008
 40
0.500000
 50
91.837456
 51
180.000000
  0
LINE
  8
0
  6
CONTINUOUS
 10
0.321310
 20
95.817635
 11
0.321310
 21
99.724998
  0
LINE
  8
0
  6
CONTINUOUS
 10
7.789223
 20
10.122619
 11
32.821239
 21
9.725000
  0
ARC
  8
0
  6
CONTINUOUS
 10
19.321239
 20
10.460720
 40
0.500000
 50
180.000000
 51
269.000000
  0
LINE
  8
0
  6
CONTINUOUS
 10
6.564255
 20
10.448358
 11
7.820988
 21
10.114173
  0
ARC
  8
0
  6
CONTINUOUS
 10
6.821240
 20
11.414773
 40
1.000000
 50
180.000000
 51
255.108749
  0
LINE
  8
0
  6
CONTINUOUS
 10
7.820988
 20
19.224590
 11
18.821239
 21
19.224590
  0
LINE
  8
0
  6
CONTINUOUS
 10
6.564255
 20
19.558775
 11
7.820988
 21
19.224590
  0
ARC
  8
0
  6
CONTINUOUS
 10
6.821240
 20
20.525190
 40
1.000000
 50
180.000000
 51
255.108749
  0
LINE
  8
0
  6
CONTINUOUS
 10
7.820988
 20
90.225410
 11
18.821239
 21
90.225410
  0
LINE
  8
0
  6
CONTINUOUS
 10
6.564255
 20
89.891228
 11
7.820988
 21
90.225410
  0
ARC
  8
0
  6
CONTINUOUS
 10
6.821240
 20
88.924812
 40
1.000000
 50
-255.108749
 51
-180.000000
  0
LINE
  8
0
  6
CONTINUOUS
 10
2.268956
 20
93.818321
 11
4.847417
 21
93.750801
  0
ARC
  8
0
  6
CONTINUOUS
 10
4.821240
 20
92.751144
 40
1.000000
 50
0.000000
 51
88.500000
  0
ARC
  8
0
  6
CONTINUOUS
 10
2.321310
 20
95.817635
 40
2.000000
 50
180.000000
 51
268.500000
  0
LINE
  8
0
  6
CONTINUOUS
 10
-12.714530
 20
116.375298
 11
-13.450330
 21
113.540199
  0
LINE
  8
0
  6
CONTINUOUS
 10
-13.450330
 20
113.540199
 11
-12.638230
 21
111.065201
  0
LINE
  8
0
  6
CONTINUOUS
 10
-12.638230
 20
111.065201
 11
-13.566330
 21
108.675301
  0
LINE
  8
0
  6
CONTINUOUS
 10
17.821239
 20
91.225403
 11
17.821239
 21
98.225403
  0
LINE
  8
0
  6
CONTINUOUS
 10
18.821239
 20
91.225403
 11
16.842230
 21
91.225403
  0
LINE
  8
0
  6
CONTINUOUS
 10
18.821239
 20
98.225403
 11
16.842230
 21
98.225403
  0
ARC
  8
0
  6
CONTINUOUS
 10
24.221270
 20
94.725403
 40
8.999999
 50
163.398987
 51
196.601517
  0
ARC
  8
0
  6
CONTINUOUS
 10
16.842230
 20
92.525421
 40
1.300000
 50
196.601578
 51
270.000000
  0
ARC
  8
0
  6
CONTINUOUS
 10
16.842230
 20
96.925415
 40
1.300000
 50
90.000000
 51
163.399094
  0
LINE
  8
0
  6
CONTINUOUS
 10
17.821239
 20
11.224590
 11
17.821239
 21
18.224590
  0
LINE
  8
0
  6
CONTINUOUS
 10
18.821239
 20
11.224590
 11
16.842230
 21
11.224590
  0
LINE
  8
0
  6
CONTINUOUS
 10
18.821239
 20
18.224590
 11
16.842230
 21
18.224590
  0
ARC
  8
0
  6
CONTINUOUS
 10
24.221270
 20
14.724590
 40
8.999999
 50
163.398987
 51
196.601517
  0
ARC
  8
0
  6
CONTINUOUS
 10
16.842230
 20
12.524608
 40
1.300000
 50
196.601578
 51
270.000000
  0
ARC
  8
0
  6
CONTINUOUS
 10
16.842230
 20
16.924603
 40
1.300000
 50
90.000000
 51
163.399094
  0
LINE
  8
0
  6
CONTINUOUS
 10
5.021240
 20
92.974899
 11
5.021240
 21
11.575104
  0
LINE
  8
0
  6
CONTINUOUS
 10
5.350230
 20
11.105257
 11
5.836725
 21
10.928188
  0
ARC
  8
0
  6
CONTINUOUS
 10
5.665715
 20
10.458342
 40
0.500000
 50
39.614651
 51
70.000000
  0
ARC
  8
0
  6
CONTINUOUS
 10
5.521240
 20
11.575104
 40
0.500000
 50
180.000000
 51
250.000000
  0
LINE
  8
0
  6
CONTINUOUS
 10
5.350230
 20
93.444740
 11
5.489213
 21
93.495331
  0
ARC
  8
0
  6
CONTINUOUS
 10
5.521240
 20
92.974899
 40
0.500000
 50
110.000000
 51
180.000000
  0
TEXT
  8
0
 10
-27.000000
 20
-1.000000
 40
4.000000
 41
1.000000
  1
HLW-18R-160~240-T40
 50
0.000000
  0
ENDSEC
  0
EOF
