  0
SECTION
  2
HEADER
  9
$CLAYER
  8
1
  9
$LTSCALE
 40
3.0
  0
ENDSEC
  0
SECTION
  2
TABLES
  0
TABLE
  2
LTYPE
 70
     4
  0
LTYPE
  2
CONTINUOUS
  3
solid line
 70
    64
 72
    65
 73
     0
 40
0.0
  0
LTYPE
  2
DASHED
  3
__ __ __ __ __ __ __ __ __ __ __ __ __ __ __
 70
    64
 72
    65
 73
     2
 40
0.75
 49
0.5
 49
-0.25
  0
LTYPE
  2
CENTER
  3
____ _ ____ _ ____ _ ____ _ ____ _ ____ _ ____
 70
    64
 72
    65
 73
     4
 40
2.0
 49
1.25
 49
-0.25
 49
0.25
 49
-0.25
  0
LTYPE
  2
PHANTOM
  3
_____ _ _ _____ _ _ _____ _ _ _____ _ _ ____
 70
    64
 72
    65
 73
     6
 40
2.5
 49
1.25
 49
-0.25
 49
0.25
 49
-0.25
 49
0.25
 49
-0.25
  0
ENDTAB
  0
TABLE
  2
LAYER
 70
     1
  0
LAYER
  2
0
 70
    64
 62
     7
  6
CONTINUOUS
  0
ENDTAB
  0
TABLE
  2
STYLE
 70
     1
  0
STYLE
  2
STANDARD
 70
     0
 40
0.000000
 41
1.000000
 50
0.000000
 71
     0
 42
3.000000
  3
txt
  4
BIGFONT
  0
ENDTAB
  0
ENDSEC
  0
SECTION
  2
BLOCKS
  0
ENDSEC
  0
SECTION
  2
ENTITIES
  0
LINE
  8
0
  6
CENTER
 10
-5.380313
 20
54.724998
 11
132.906998
 21
54.724998
  0
LINE
  8
0
  6
CONTINUOUS
 10
210.617493
 20
12.425000
 11
210.617493
 21
5.425000
  0
LINE
  8
0
  6
CONTINUOUS
 10
37.117489
 20
9.725000
 11
109.617500
 21
9.725000
  0
LINE
  8
0
  6
CONTINUOUS
 10
37.117489
 20
99.724998
 11
116.459999
 21
99.724998
  0
LINE
  8
0
  6
CENTER
 10
160.117493
 20
128.412506
 11
160.117493
 21
-1.794100
  0
LINE
  8
0
  6
CENTER
 10
124.604797
 20
80.425003
 11
195.039215
 21
80.425003
  0
LINE
  8
0
  6
CONTINUOUS
 10
109.617500
 20
5.425000
 11
210.617493
 21
5.425000
  0
LINE
  8
0
  6
CONTINUOUS
 10
144.696396
 20
118.425003
 11
175.538605
 21
118.425003
  0
LINE
  8
0
  6
CONTINUOUS
 10
111.617500
 20
14.425000
 11
208.617493
 21
14.425000
  0
LINE
  8
0
  6
CENTER
 10
198.117493
 20
19.912500
 11
198.117493
 21
-1.337500
  0
LINE
  8
0
  6
CENTER
 10
122.117500
 20
20.162500
 11
122.117500
 21
-1.837500
  0
LINE
  8
0
  6
CONTINUOUS
 10
208.488907
 20
96.418182
 11
178.410004
 21
117.518288
  0
LINE
  8
0
  6
CONTINUOUS
 10
111.746101
 20
96.418182
 11
141.824997
 21
117.518280
  0
ARC
  8
0
  6
CONTINUOUS
 10
175.538696
 20
113.424988
 40
5.000000
 50
54.950878
 51
90.000000
  0
ARC
  8
0
  6
CONTINUOUS
 10
144.696396
 20
113.425003
 40
5.000000
 50
90.000000
 51
125.049698
  0
ARC
  8
0
  6
CONTINUOUS
 10
114.617500
 20
92.324928
 40
5.000000
 50
125.049797
 51
180.000000
  0
ARC
  8
0
  6
CONTINUOUS
 10
205.617493
 20
92.324883
 40
5.000000
 50
0.000000
 51
54.950901
  0
LINE
  8
0
  6
CONTINUOUS
 10
210.617493
 20
12.425000
 11
210.617493
 21
92.324898
  0
ARC
  8
0
  6
CONTINUOUS
 10
208.617493
 20
12.424990
 40
2.000000
 50
0.000000
 51
90.000000
  0
LINE
  8
0
  6
CONTINUOUS
 10
109.617500
 20
92.324928
 11
109.617500
 21
92.324898
  0
ARC
  8
0
  6
CONTINUOUS
 10
111.617500
 20
12.425000
 40
2.000000
 50
90.000000
 51
180.000000
  0
LINE
  8
0
  6
DASHED
 10
202.367493
 20
14.425000
 11
202.367493
 21
5.425000
  0
LINE
  8
0
  6
DASHED
 10
193.867493
 20
14.425000
 11
193.867493
 21
5.425000
  0
LINE
  8
0
  6
DASHED
 10
126.367500
 20
14.425000
 11
126.367500
 21
5.425000
  0
LINE
  8
0
  6
DASHED
 10
117.867500
 20
14.425000
 11
117.867500
 21
5.425000
  0
CIRCLE
  8
0
  6
CONTINUOUS
 10
160.117493
 20
80.425003
 40
23.500000
  0
LINE
  8
0
  6
CONTINUOUS
 10
112.117500
 20
81.117188
 11
112.117500
 21
49.732483
  0
LINE
  8
0
  6
CONTINUOUS
 10
208.117493
 20
81.117363
 11
208.117493
 21
49.732651
  0
ARC
  8
0
  6
CONTINUOUS
 10
160.117493
 20
65.425003
 40
50.500000
 50
198.103806
 51
341.896210
  0
LINE
  8
0
  6
CONTINUOUS
 10
109.617500
 20
92.324913
 11
109.617401
 21
5.425000
  0
ARC
  8
0
  6
CONTINUOUS
 10
160.117493
 20
65.425003
 40
50.500000
 50
18.103790
 51
161.896194
  0
LINE
  8
0
  6
CONTINUOUS
 10
37.117489
 20
89.134300
 11
108.000397
 21
89.134300
  0
LINE
  8
0
  6
CONTINUOUS
 10
37.117489
 20
20.315701
 11
108.000397
 21
20.315701
  0
LINE
  8
0
  6
CONTINUOUS
 10
153.742493
 20
42.978222
 11
153.742493
 21
37.424999
  0
LINE
  8
0
  6
CONTINUOUS
 10
156.929993
 20
44.995312
 11
156.929993
 21
46.987499
  0
LINE
  8
0
  6
CONTINUOUS
 10
163.304993
 20
44.995312
 11
163.304993
 21
46.987499
  0
LINE
  8
0
  6
CONTINUOUS
 10
159.494904
 20
45.817093
 11
159.494904
 21
38.470901
  0
LINE
  8
0
  6
CONTINUOUS
 10
160.690308
 20
45.817093
 11
160.690308
 21
38.470901
  0
LINE
  8
0
  6
CONTINUOUS
 10
166.965607
 20
45.817093
 11
166.965607
 21
38.421089
  0
LINE
  8
0
  6
CONTINUOUS
 10
168.061295
 20
41.894970
 11
168.061295
 21
38.421089
  0
LINE
  8
0
  6
CONTINUOUS
 10
152.229996
 20
45.717480
 11
149.158096
 21
45.717480
  0
LINE
  8
0
  6
CONTINUOUS
 10
149.158096
 20
45.717480
 11
148.438293
 21
44.824986
  0
LINE
  8
0
  6
CONTINUOUS
 10
148.524902
 20
46.987499
 11
147.367493
 21
45.505505
  0
LINE
  8
0
  6
CONTINUOUS
 10
148.438293
 20
39.315922
 11
149.169601
 21
38.545609
  0
LINE
  8
0
  6
CONTINUOUS
 10
147.367493
 20
38.665859
 11
148.597305
 21
37.424999
  0
LINE
  8
0
  6
CONTINUOUS
 10
147.367493
 20
45.505505
 11
147.367493
 21
38.665859
  0
LINE
  8
0
  6
CONTINUOUS
 10
148.438293
 20
44.824986
 11
148.438293
 21
39.315922
  0
LINE
  8
0
  6
CONTINUOUS
 10
152.821106
 20
45.146042
 11
152.217896
 21
45.717480
  0
LINE
  8
0
  6
CONTINUOUS
 10
152.811493
 20
46.987499
 11
153.742493
 21
45.954357
  0
LINE
  8
0
  6
CONTINUOUS
 10
152.821106
 20
44.995312
 11
153.742493
 21
44.995312
  0
LINE
  8
0
  6
CONTINUOUS
 10
148.524902
 20
46.987499
 11
152.811493
 21
46.987499
  0
LINE
  8
0
  6
CONTINUOUS
 10
152.821106
 20
41.932320
 11
151.152695
 21
41.932320
  0
LINE
  8
0
  6
CONTINUOUS
 10
152.821106
 20
40.936230
 11
152.821106
 21
41.733109
  0
LINE
  8
0
  6
CONTINUOUS
 10
150.828903
 20
38.545609
 11
149.169601
 21
38.545609
  0
ARC
  8
0
  6
CONTINUOUS
 10
150.828903
 20
40.537788
 40
1.992187
 50
-89.999786
 51
0.000109
  0
LINE
  8
0
  6
CONTINUOUS
 10
152.821106
 20
38.187271
 11
152.821106
 21
37.424999
  0
LINE
  8
0
  6
CONTINUOUS
 10
153.742493
 20
45.954357
 11
153.742493
 21
44.995312
  0
LINE
  8
0
  6
CONTINUOUS
 10
152.821106
 20
41.932320
 11
152.821106
 21
40.537788
  0
LINE
  8
0
  6
CONTINUOUS
 10
151.152695
 20
42.978222
 11
151.152695
 21
41.932320
  0
LINE
  8
0
  6
CONTINUOUS
 10
152.821106
 20
37.424999
 11
153.742493
 21
37.424999
  0
LINE
  8
0
  6
CONTINUOUS
 10
152.821106
 20
38.187271
 11
151.912598
 21
37.424999
  0
LINE
  8
0
  6
CONTINUOUS
 10
160.690308
 20
38.470901
 11
161.088699
 21
38.470901
  0
LINE
  8
0
  6
CONTINUOUS
 10
159.021805
 20
38.470901
 11
159.021805
 21
37.424999
  0
LINE
  8
0
  6
CONTINUOUS
 10
161.088699
 20
38.470901
 11
161.088699
 21
37.424999
  0
LINE
  8
0
  6
CONTINUOUS
 10
162.639999
 20
44.995312
 11
163.304993
 21
44.995312
  0
LINE
  8
0
  6
CONTINUOUS
 10
156.929993
 20
44.995312
 11
157.637604
 21
44.995312
  0
LINE
  8
0
  6
CONTINUOUS
 10
156.929993
 20
46.987499
 11
163.304993
 21
46.987499
  0
LINE
  8
0
  6
CONTINUOUS
 10
159.021805
 20
37.424999
 11
161.088699
 21
37.424999
  0
LINE
  8
0
  6
CONTINUOUS
 10
159.021805
 20
38.470901
 11
159.494904
 21
38.470901
  0
ARC
  8
0
  6
CONTINUOUS
 10
170.315002
 20
44.435009
 40
2.552490
 50
-73.981873
 51
90.003510
  0
ARC
  8
0
  6
CONTINUOUS
 10
170.315002
 20
44.435009
 40
1.557193
 50
-82.585274
 51
62.411850
  0
LINE
  8
0
  6
CONTINUOUS
 10
166.492493
 20
46.987499
 11
170.315002
 21
46.987499
  0
LINE
  8
0
  6
CONTINUOUS
 10
166.492493
 20
46.987499
 11
166.492493
 21
45.817093
  0
LINE
  8
0
  6
CONTINUOUS
 10
168.061295
 20
45.817093
 11
168.061295
 21
42.890839
  0
LINE
  8
0
  6
CONTINUOUS
 10
171.019302
 20
41.981621
 11
172.599197
 21
38.421089
  0
LINE
  8
0
  6
CONTINUOUS
 10
170.101807
 20
41.894970
 11
171.596893
 21
38.421089
  0
LINE
  8
0
  6
CONTINUOUS
 10
166.492493
 20
38.421089
 11
166.965607
 21
38.421089
  0
LINE
  8
0
  6
CONTINUOUS
 10
168.061295
 20
38.421089
 11
168.497101
 21
38.421089
  0
LINE
  8
0
  6
CONTINUOUS
 10
168.497101
 20
37.424999
 11
166.492493
 21
37.424999
  0
LINE
  8
0
  6
CONTINUOUS
 10
171.398300
 20
38.421089
 11
171.596893
 21
38.421089
  0
LINE
  8
0
  6
CONTINUOUS
 10
172.599197
 20
38.421089
 11
172.867493
 21
38.421089
  0
LINE
  8
0
  6
CONTINUOUS
 10
171.398300
 20
37.424999
 11
172.867493
 21
37.424999
  0
LINE
  8
0
  6
CONTINUOUS
 10
172.867493
 20
38.421089
 11
172.867493
 21
37.424999
  0
LINE
  8
0
  6
CONTINUOUS
 10
171.398300
 20
38.421089
 11
171.398300
 21
37.424999
  0
LINE
  8
0
  6
CONTINUOUS
 10
168.497101
 20
38.421089
 11
168.497101
 21
37.424999
  0
LINE
  8
0
  6
CONTINUOUS
 10
166.492493
 20
38.421089
 11
166.492493
 21
37.424999
  0
LINE
  8
0
  6
CONTINUOUS
 10
157.979996
 20
45.817093
 11
157.637604
 21
44.995312
  0
LINE
  8
0
  6
CONTINUOUS
 10
162.351303
 20
45.817093
 11
162.639999
 21
44.995312
  0
LINE
  8
0
  6
CONTINUOUS
 10
160.690308
 20
45.817093
 11
162.351303
 21
45.817093
  0
LINE
  8
0
  6
CONTINUOUS
 10
159.494904
 20
45.817093
 11
157.979996
 21
45.817093
  0
LINE
  8
0
  6
CONTINUOUS
 10
166.492493
 20
45.817093
 11
166.965607
 21
45.817093
  0
LINE
  8
0
  6
CONTINUOUS
 10
168.061295
 20
45.817093
 11
171.036194
 21
45.815151
  0
LINE
  8
0
  6
CONTINUOUS
 10
152.821106
 20
45.146042
 11
152.821106
 21
44.995312
  0
LINE
  8
0
  6
CONTINUOUS
 10
148.597305
 20
37.424999
 11
151.912598
 21
37.424999
  0
LINE
  8
0
  6
CONTINUOUS
 10
168.061295
 20
42.890839
 11
170.516006
 21
42.890839
  0
LINE
  8
0
  6
CONTINUOUS
 10
168.061295
 20
41.894970
 11
170.101807
 21
41.894970
  0
LINE
  8
0
  6
CONTINUOUS
 10
151.152695
 20
42.978222
 11
153.742493
 21
42.978222
  0
LINE
  8
0
  6
CONTINUOUS
 10
165.617493
 20
77.425018
 11
165.617493
 21
83.425018
  0
LINE
  8
0
  6
CONTINUOUS
 10
171.617493
 20
77.425041
 11
171.617493
 21
83.425041
  0
LINE
  8
0
  6
CONTINUOUS
 10
171.617493
 20
77.425041
 11
165.617493
 21
77.425018
  0
LINE
  8
0
  6
CONTINUOUS
 10
171.617493
 20
83.425041
 11
165.617493
 21
83.425018
  0
ARC
  8
0
  6
CONTINUOUS
 10
160.117493
 20
80.425003
 40
9.000000
 50
19.471210
 51
340.528809
  0
LINE
  8
0
  6
CENTER
 10
160.117493
 20
335.106873
 11
160.117493
 21
173.936249
  0
LINE
  8
0
  6
CENTER
 10
198.117493
 20
310.738739
 11
198.117493
 21
291.976257
  0
LINE
  8
0
  6
CENTER
 10
-22.044374
 20
254.229370
 11
224.258743
 21
254.229370
  0
LINE
  8
0
  6
CONTINUOUS
 10
209.776611
 20
302.403900
 11
210.617493
 21
254.229370
  0
LINE
  8
0
  6
CONTINUOUS
 10
199.778137
 20
312.229370
 11
171.617493
 21
312.229370
  0
LINE
  8
0
  6
CONTINUOUS
 10
111.617500
 20
291.229370
 11
208.006271
 21
291.229370
  0
ARC
  8
0
  6
CONTINUOUS
 10
199.778137
 20
302.229370
 40
10.000000
 50
1.000000
 51
90.000000
  0
ARC
  8
0
  6
CONTINUOUS
 10
208.006271
 20
289.229370
 40
2.000000
 50
1.000000
 51
90.000000
  0
LINE
  8
0
  6
CENTER
 10
188.522186
 20
302.229370
 11
208.864685
 21
302.229370
  0
CIRCLE
  8
0
  6
CONTINUOUS
 10
198.117493
 20
302.229370
 40
4.250000
  0
LINE
  8
0
  6
CENTER
 10
122.117500
 20
310.936249
 11
122.117500
 21
291.976257
  0
LINE
  8
0
  6
CONTINUOUS
 10
110.458389
 20
302.403900
 11
110.272415
 21
291.749268
  0
ARC
  8
0
  6
CONTINUOUS
 10
120.456863
 20
302.229370
 40
10.000000
 50
90.000000
 51
179.000000
  0
ARC
  8
0
  6
CONTINUOUS
 10
112.228729
 20
289.229370
 40
2.000000
 50
90.000000
 51
179.000000
  0
LINE
  8
0
  6
CENTER
 10
131.444687
 20
302.229370
 11
111.892189
 21
302.229370
  0
CIRCLE
  8
0
  6
CONTINUOUS
 10
122.117500
 20
302.229370
 40
4.250000
  0
LINE
  8
0
  6
CONTINUOUS
 10
109.617500
 20
293.229370
 11
109.617500
 21
297.229370
  0
LINE
  8
0
  6
CONTINUOUS
 10
107.617500
 20
299.229370
 11
37.117500
 21
299.229370
  0
ARC
  8
0
  6
CONTINUOUS
 10
107.617500
 20
297.229370
 40
2.000000
 50
0.000000
 51
90.000000
  0
ARC
  8
0
  6
CONTINUOUS
 10
111.617500
 20
293.229370
 40
2.000000
 50
180.000000
 51
270.000000
  0
LINE
  8
0
  6
CONTINUOUS
 10
110.229034
 20
289.264282
 11
110.123695
 21
283.229370
  0
LINE
  8
0
  6
CONTINUOUS
 10
37.117500
 20
283.229370
 11
116.460052
 21
283.229370
  0
LINE
  8
0
  6
CONTINUOUS
 10
37.117500
 20
225.229370
 11
116.460052
 21
225.229370
  0
LINE
  8
0
  6
CONTINUOUS
 10
107.617500
 20
209.229370
 11
37.117500
 21
209.229370
  0
ARC
  8
0
  6
CONTINUOUS
 10
107.617500
 20
211.229370
 40
2.000000
 50
-90.000000
 51
0.000000
  0
LINE
  8
0
  6
CENTER
 10
198.117493
 20
197.373749
 11
198.117493
 21
216.432495
  0
LINE
  8
0
  6
CONTINUOUS
 10
209.776611
 20
206.054855
 11
210.617493
 21
254.229370
  0
LINE
  8
0
  6
CONTINUOUS
 10
199.778137
 20
196.229370
 11
171.617493
 21
196.229370
  0
LINE
  8
0
  6
CONTINUOUS
 10
111.617500
 20
217.229370
 11
208.006271
 21
217.229370
  0
ARC
  8
0
  6
CONTINUOUS
 10
199.778137
 20
206.229370
 40
10.000000
 50
-90.000000
 51
-1.000000
  0
ARC
  8
0
  6
CONTINUOUS
 10
208.006271
 20
219.229370
 40
2.000000
 50
-90.000000
 51
-1.000000
  0
LINE
  8
0
  6
CENTER
 10
189.015945
 20
206.229370
 11
209.062195
 21
206.229370
  0
CIRCLE
  8
0
  6
CONTINUOUS
 10
198.117493
 20
206.229370
 40
4.250000
  0
LINE
  8
0
  6
CENTER
 10
122.117500
 20
196.880005
 11
122.117500
 21
216.235001
  0
LINE
  8
0
  6
CONTINUOUS
 10
110.458389
 20
206.054855
 11
110.272415
 21
216.709488
  0
ARC
  8
0
  6
CONTINUOUS
 10
120.456863
 20
206.229370
 40
10.000000
 50
-179.000000
 51
-90.000000
  0
ARC
  8
0
  6
CONTINUOUS
 10
112.228729
 20
219.229370
 40
2.000000
 50
-179.000000
 51
-90.000000
  0
LINE
  8
0
  6
CENTER
 10
131.938431
 20
206.229370
 11
111.694687
 21
206.229370
  0
CIRCLE
  8
0
  6
CONTINUOUS
 10
122.117500
 20
206.229370
 40
4.250000
  0
LINE
  8
0
  6
CONTINUOUS
 10
109.617500
 20
215.229370
 11
109.617500
 21
211.229370
  0
ARC
  8
0
  6
CONTINUOUS
 10
111.617500
 20
215.229370
 40
2.000000
 50
-270.000000
 51
-180.000000
  0
LINE
  8
0
  6
CONTINUOUS
 10
110.229034
 20
219.194473
 11
110.123695
 21
225.229370
  0
LINE
  8
0
  6
CONTINUOUS
 10
143.117493
 20
286.229370
 11
143.117493
 21
222.229370
  0
LINE
  8
0
  6
CONTINUOUS
 10
177.117493
 20
286.229370
 11
177.117493
 21
222.229370
  0
LINE
  8
0
  6
CONTINUOUS
 10
116.460052
 20
281.229370
 11
116.460052
 21
227.229370
  0
LINE
  8
0
  6
CONTINUOUS
 10
182.617508
 20
296.229370
 11
137.617493
 21
296.229370
  0
LINE
  8
0
  6
CONTINUOUS
 10
136.617493
 20
295.229370
 11
136.617493
 21
293.229370
  0
LINE
  8
0
  6
CONTINUOUS
 10
183.617508
 20
295.229370
 11
183.617508
 21
293.229370
  0
ARC
  8
0
  6
CONTINUOUS
 10
134.617493
 20
293.229370
 40
2.000000
 50
-90.000000
 51
0.000000
  0
ARC
  8
0
  6
CONTINUOUS
 10
185.617493
 20
293.229370
 40
2.000000
 50
180.000000
 51
270.000000
  0
ARC
  8
0
  6
CONTINUOUS
 10
137.617508
 20
295.229370
 40
1.000000
 50
90.000000
 51
180.000000
  0
ARC
  8
0
  6
CONTINUOUS
 10
182.617508
 20
295.229370
 40
1.000000
 50
0.000000
 51
90.000000
  0
LINE
  8
0
  6
CONTINUOUS
 10
171.617493
 20
328.229370
 11
151.117493
 21
328.229370
  0
LINE
  8
0
  6
CONTINUOUS
 10
151.117493
 20
298.229370
 11
151.117493
 21
328.229370
  0
LINE
  8
0
  6
CONTINUOUS
 10
169.117493
 20
298.229370
 11
169.117493
 21
304.229370
  0
LINE
  8
0
  6
CONTINUOUS
 10
150.117493
 20
298.229370
 11
170.117493
 21
298.229370
  0
LINE
  8
0
  6
CONTINUOUS
 10
150.117493
 20
296.229370
 11
150.117493
 21
298.229370
  0
LINE
  8
0
  6
CONTINUOUS
 10
170.117493
 20
296.229370
 11
170.117493
 21
298.229370
  0
LINE
  8
0
  6
CONTINUOUS
 10
171.617493
 20
328.229370
 11
171.617493
 21
304.229370
  0
LINE
  8
0
  6
CONTINUOUS
 10
171.617493
 20
304.229370
 11
168.602493
 21
304.229370
  0
LINE
  8
0
  6
CONTINUOUS
 10
168.602493
 20
328.229370
 11
168.602493
 21
304.229370
  0
LINE
  8
0
  6
CONTINUOUS
 10
151.117493
 20
312.229370
 11
120.456863
 21
312.229370
  0
LINE
  8
0
  6
CONTINUOUS
 10
182.617508
 20
212.229370
 11
137.617493
 21
212.229370
  0
LINE
  8
0
  6
CONTINUOUS
 10
136.617493
 20
213.229370
 11
136.617493
 21
215.229370
  0
LINE
  8
0
  6
CONTINUOUS
 10
183.617508
 20
213.229370
 11
183.617508
 21
215.229370
  0
ARC
  8
0
  6
CONTINUOUS
 10
134.617493
 20
215.229370
 40
2.000000
 50
0.000000
 51
90.000000
  0
ARC
  8
0
  6
CONTINUOUS
 10
185.617493
 20
215.229370
 40
2.000000
 50
-270.000000
 51
-180.000000
  0
ARC
  8
0
  6
CONTINUOUS
 10
137.617508
 20
213.229370
 40
1.000000
 50
-180.000000
 51
-90.000000
  0
ARC
  8
0
  6
CONTINUOUS
 10
182.617508
 20
213.229370
 40
1.000000
 50
-90.000000
 51
0.000000
  0
LINE
  8
0
  6
CONTINUOUS
 10
171.617493
 20
180.229370
 11
151.117493
 21
180.229370
  0
LINE
  8
0
  6
CONTINUOUS
 10
151.117493
 20
210.229370
 11
151.117493
 21
180.229370
  0
LINE
  8
0
  6
CONTINUOUS
 10
169.117493
 20
210.229370
 11
169.117493
 21
204.229370
  0
LINE
  8
0
  6
CONTINUOUS
 10
150.117493
 20
210.229370
 11
170.117493
 21
210.229370
  0
LINE
  8
0
  6
CONTINUOUS
 10
150.117493
 20
212.229370
 11
150.117493
 21
210.229370
  0
LINE
  8
0
  6
CONTINUOUS
 10
170.117493
 20
212.229370
 11
170.117493
 21
210.229370
  0
LINE
  8
0
  6
CONTINUOUS
 10
171.617493
 20
180.229370
 11
171.617493
 21
204.229370
  0
LINE
  8
0
  6
CONTINUOUS
 10
171.617493
 20
204.229370
 11
168.602493
 21
204.229370
  0
LINE
  8
0
  6
CONTINUOUS
 10
168.602493
 20
180.229370
 11
168.602493
 21
204.229370
  0
LINE
  8
0
  6
CONTINUOUS
 10
151.117493
 20
196.229370
 11
120.456863
 21
196.229370
  0
LINE
  8
0
  6
CENTER
 10
350.117493
 20
-1.361690
 11
350.117493
 21
127.381248
  0
LINE
  8
0
  6
CENTER
 10
294.867493
 20
54.724998
 11
402.117493
 21
54.724998
  0
LINE
  8
0
  6
CONTINUOUS
 10
408.117493
 20
12.425000
 11
408.117493
 21
5.425000
  0
LINE
  8
0
  6
CONTINUOUS
 10
292.117493
 20
12.425000
 11
292.117493
 21
5.425000
  0
LINE
  8
0
  6
CENTER
 10
266.867493
 20
80.425003
 11
431.367493
 21
80.425003
  0
LINE
  8
0
  6
CONTINUOUS
 10
292.117493
 20
5.425000
 11
408.117493
 21
5.425000
  0
LINE
  8
0
  6
CONTINUOUS
 10
390.117493
 20
14.425000
 11
406.117493
 21
14.425000
  0
LINE
  8
0
  6
CONTINUOUS
 10
313.117493
 20
17.424999
 11
313.117493
 21
115.813629
  0
LINE
  8
0
  6
CONTINUOUS
 10
387.117493
 20
17.424999
 11
387.117493
 21
115.813759
  0
LINE
  8
0
  6
CONTINUOUS
 10
392.117493
 20
57.924995
 11
392.117493
 21
102.925003
  0
LINE
  8
0
  6
CONTINUOUS
 10
391.117493
 20
103.925003
 11
389.117493
 21
103.925003
  0
LINE
  8
0
  6
CONTINUOUS
 10
391.117493
 20
56.924995
 11
389.117493
 21
56.924995
  0
LINE
  8
0
  6
CONTINUOUS
 10
350.117493
 20
118.425003
 11
385.152405
 21
117.813469
  0
LINE
  8
0
  6
CONTINUOUS
 10
315.082611
 20
117.813332
 11
350.117493
 21
118.425003
  0
ARC
  8
0
  6
CONTINUOUS
 10
389.117493
 20
105.925003
 40
2.000000
 50
180.000000
 51
270.000000
  0
ARC
  8
0
  6
CONTINUOUS
 10
385.117493
 20
115.813759
 40
2.000000
 50
0.000000
 51
89.000137
  0
ARC
  8
0
  6
CONTINUOUS
 10
315.117493
 20
115.813637
 40
2.000000
 50
91.000641
 51
180.000000
  0
ARC
  8
0
  6
CONTINUOUS
 10
389.117493
 20
54.925007
 40
2.000000
 50
90.000000
 51
180.000000
  0
ARC
  8
0
  6
CONTINUOUS
 10
391.117493
 20
102.924988
 40
1.000000
 50
0.000000
 51
90.000000
  0
ARC
  8
0
  6
CONTINUOUS
 10
391.117493
 20
57.924995
 40
1.000000
 50
-90.000000
 51
0.000000
  0
LINE
  8
0
  6
CONTINUOUS
 10
314.367493
 20
94.925003
 11
386.117493
 21
94.925003
  0
ARC
  8
0
  6
CONTINUOUS
 10
406.117493
 20
12.424990
 40
2.000000
 50
0.000000
 51
90.000000
  0
ARC
  8
0
  6
CONTINUOUS
 10
294.117493
 20
12.425010
 40
2.000000
 50
90.000000
 51
180.000000
  0
LINE
  8
0
  6
CENTER
 10
398.117493
 20
18.381250
 11
398.117493
 21
1.131250
  0
LINE
  8
0
  6
CENTER
 10
302.117493
 20
18.381250
 11
302.117493
 21
0.381250
  0
LINE
  8
0
  6
DASHED
 10
306.367493
 20
14.425000
 11
306.367493
 21
5.425000
  0
LINE
  8
0
  6
DASHED
 10
297.867493
 20
14.425000
 11
297.867493
 21
5.425000
  0
LINE
  8
0
  6
DASHED
 10
402.367493
 20
14.425000
 11
402.367493
 21
5.425000
  0
LINE
  8
0
  6
DASHED
 10
393.867493
 20
14.425000
 11
393.867493
 21
5.425000
  0
ARC
  8
0
  6
CONTINUOUS
 10
350.117493
 20
54.724998
 40
45.000000
 50
159.580627
 51
214.692123
  0
ARC
  8
0
  6
CONTINUOUS
 10
350.117493
 20
54.724998
 40
45.000000
 50
-34.692108
 51
20.437799
  0
LINE
  8
0
  6
CONTINUOUS
 10
308.117493
 20
57.924995
 11
308.117493
 21
102.925003
  0
LINE
  8
0
  6
CONTINUOUS
 10
309.117493
 20
103.925003
 11
311.117493
 21
103.925003
  0
LINE
  8
0
  6
CONTINUOUS
 10
309.117493
 20
56.924995
 11
311.117493
 21
56.924995
  0
ARC
  8
0
  6
CONTINUOUS
 10
311.117493
 20
105.925003
 40
2.000000
 50
-90.000000
 51
0.000000
  0
ARC
  8
0
  6
CONTINUOUS
 10
311.117493
 20
54.925007
 40
2.000000
 50
0.000000
 51
90.000000
  0
ARC
  8
0
  6
CONTINUOUS
 10
309.117493
 20
102.924988
 40
1.000000
 50
90.000000
 51
180.000000
  0
ARC
  8
0
  6
CONTINUOUS
 10
309.117493
 20
57.924995
 40
1.000000
 50
180.000000
 51
270.000000
  0
LINE
  8
0
  6
CONTINUOUS
 10
310.117493
 20
14.425000
 11
294.117493
 21
14.425000
  0
ARC
  8
0
  6
CONTINUOUS
 10
310.117493
 20
17.424999
 40
3.000000
 50
-90.000000
 51
0.000000
  0
ARC
  8
0
  6
CONTINUOUS
 10
390.117493
 20
17.424999
 40
3.000000
 50
180.000000
 51
270.000000
  0
LINE
  8
0
  6
CONTINUOUS
 10
276.117493
 20
71.425003
 11
276.117493
 21
89.425003
  0
LINE
  8
0
  6
CONTINUOUS
 10
306.117493
 20
89.425003
 11
276.117493
 21
89.425003
  0
LINE
  8
0
  6
CONTINUOUS
 10
306.117493
 20
71.425003
 11
276.117493
 21
71.425003
  0
LINE
  8
0
  6
CONTINUOUS
 10
306.117493
 20
90.425003
 11
306.117493
 21
70.425003
  0
LINE
  8
0
  6
CONTINUOUS
 10
308.117493
 20
90.425003
 11
306.117493
 21
90.425003
  0
LINE
  8
0
  6
CONTINUOUS
 10
308.117493
 20
70.425003
 11
306.117493
 21
70.425003
  0
ARC
  8
0
  6
CONTINUOUS
 10
300.117493
 20
80.425003
 40
3.000000
 50
-90.000000
 51
90.000000
  0
LINE
  8
0
  6
CONTINUOUS
 10
300.117493
 20
83.425003
 11
276.117493
 21
83.425003
  0
LINE
  8
0
  6
CONTINUOUS
 10
300.117401
 20
77.425003
 11
276.117493
 21
77.425003
  0
LINE
  8
0
  6
CONTINUOUS
 10
424.117493
 20
71.425003
 11
424.117493
 21
89.425003
  0
LINE
  8
0
  6
CONTINUOUS
 10
394.117493
 20
89.425003
 11
424.117493
 21
89.425003
  0
LINE
  8
0
  6
CONTINUOUS
 10
394.117493
 20
71.425003
 11
424.117493
 21
71.425003
  0
LINE
  8
0
  6
CONTINUOUS
 10
394.117493
 20
90.425003
 11
394.117493
 21
70.425003
  0
LINE
  8
0
  6
CONTINUOUS
 10
392.117493
 20
90.425003
 11
394.117493
 21
90.425003
  0
LINE
  8
0
  6
CONTINUOUS
 10
392.117493
 20
70.425003
 11
394.117493
 21
70.425003
  0
ARC
  8
0
  6
CONTINUOUS
 10
400.117493
 20
80.425003
 40
3.000000
 50
90.000000
 51
270.000000
  0
LINE
  8
0
  6
CONTINUOUS
 10
400.117493
 20
83.425003
 11
424.117493
 21
83.425003
  0
LINE
  8
0
  6
CONTINUOUS
 10
400.117493
 20
77.425003
 11
424.117493
 21
77.425003
  0
LINE
  8
0
  6
DASHED
 10
324.117493
 20
9.725000
 11
376.117493
 21
9.725000
  0
ARC
  8
0
  6
DASHED
 10
376.117493
 20
12.725000
 40
3.000000
 50
-90.000000
 51
0.000000
  0
ARC
  8
0
  6
DASHED
 10
324.117493
 20
12.725000
 40
3.000000
 50
208.811234
 51
270.000000
  0
LINE
  8
0
  6
DASHED
 10
377.152405
 20
99.254799
 11
350.117493
 21
99.726692
  0
ARC
  8
0
  6
DASHED
 10
377.117493
 20
97.255096
 40
2.000000
 50
0.000000
 51
89.000191
  0
LINE
  8
0
  6
DASHED
 10
379.117493
 20
97.255112
 11
379.117493
 21
90.502090
  0
LINE
  8
0
  6
DASHED
 10
323.082611
 20
99.254799
 11
350.117493
 21
99.726692
  0
ARC
  8
0
  6
DASHED
 10
323.117493
 20
97.255096
 40
2.000000
 50
90.999809
 51
180.000000
  0
LINE
  8
0
  6
DASHED
 10
321.117493
 20
97.255112
 11
321.117493
 21
90.502090
  0
LINE
  8
0
  6
DASHED
 10
321.117493
 20
12.725000
 11
321.117493
 21
18.947912
  0
ARC
  8
0
  6
DASHED
 10
324.117493
 20
12.725000
 40
3.000000
 50
180.000000
 51
208.811234
  0
LINE
  8
0
  6
DASHED
 10
379.117493
 20
12.725000
 11
379.117493
 21
18.947912
  0
ARC
  8
0
  6
DASHED
 10
350.117493
 20
54.724998
 40
45.000000
 50
-48.189686
 51
-34.692131
  0
ARC
  8
0
  6
DASHED
 10
382.117493
 20
90.502090
 40
3.000000
 50
180.000000
 51
228.189682
  0
ARC
  8
0
  6
DASHED
 10
318.117493
 20
90.502090
 40
3.000000
 50
-48.189686
 51
0.000000
  0
ARC
  8
0
  6
DASHED
 10
318.117493
 20
18.947912
 40
3.000000
 50
0.000000
 51
48.189686
  0
ARC
  8
0
  6
DASHED
 10
382.117493
 20
18.947912
 40
3.000000
 50
131.810318
 51
180.000000
  0
ARC
  8
0
  6
DASHED
 10
350.117493
 20
54.724998
 40
45.000000
 50
20.419371
 51
48.189686
  0
ARC
  8
0
  6
DASHED
 10
350.117493
 20
54.724998
 40
45.000000
 50
214.692123
 51
228.189682
  0
ARC
  8
0
  6
DASHED
 10
350.117493
 20
54.724998
 40
45.000000
 50
131.810318
 51
159.580627
  0
LINE
  8
0
  6
DASHED
 10
373.117493
 20
111.725304
 11
373.117493
 21
99.323532
  0
LINE
  8
0
  6
DASHED
 10
327.117493
 20
111.725304
 11
327.117493
 21
99.323532
  0
LINE
  8
0
  6
DASHED
 10
372.617493
 20
111.725304
 11
372.617493
 21
112.725304
  0
LINE
  8
0
  6
DASHED
 10
327.617493
 20
111.725304
 11
327.617493
 21
112.725304
  0
LINE
  8
0
  6
CONTINUOUS
 10
327.117493
 20
118.708702
 11
327.117493
 21
118.023445
  0
LINE
  8
0
  6
CONTINUOUS
 10
373.117493
 20
118.708702
 11
373.117493
 21
118.023537
  0
ARC
  8
0
  6
CONTINUOUS
 10
370.117493
 20
112.425201
 40
7.000000
 50
73.041977
 51
106.956497
  0
ARC
  8
0
  6
CONTINUOUS
 10
368.367493
 20
118.164497
 40
1.000000
 50
106.956902
 51
180.000000
  0
ARC
  8
0
  6
CONTINUOUS
 10
371.867493
 20
118.164497
 40
1.000000
 50
0.000000
 51
73.041847
  0
LINE
  8
0
  6
CONTINUOUS
 10
366.617493
 20
119.211746
 11
366.617493
 21
118.136993
  0
ARC
  8
0
  6
CONTINUOUS
 10
350.117493
 20
-129.774704
 40
250.000000
 50
84.826019
 51
95.173981
  0
ARC
  8
0
  6
CONTINUOUS
 10
372.617493
 20
118.708702
 40
0.500000
 50
0.000000
 51
84.826019
  0
ARC
  8
0
  6
CONTINUOUS
 10
366.117493
 20
119.211746
 40
0.500000
 50
0.000000
 51
86.323196
  0
ARC
  8
0
  6
CONTINUOUS
 10
330.117493
 20
112.425201
 40
7.000000
 50
73.043503
 51
106.958023
  0
ARC
  8
0
  6
CONTINUOUS
 10
331.867493
 20
118.164497
 40
1.000000
 50
0.000000
 51
73.043098
  0
ARC
  8
0
  6
CONTINUOUS
 10
328.367493
 20
118.164497
 40
1.000000
 50
106.958153
 51
180.000000
  0
LINE
  8
0
  6
CONTINUOUS
 10
333.617493
 20
119.211746
 11
333.617493
 21
118.136932
  0
ARC
  8
0
  6
CONTINUOUS
 10
327.617493
 20
118.708702
 40
0.500000
 50
95.173981
 51
180.000000
  0
ARC
  8
0
  6
CONTINUOUS
 10
334.117493
 20
119.211746
 40
0.500000
 50
93.676804
 51
180.000000
  0
LINE
  8
0
  6
DASHED
 10
372.617493
 20
112.725304
 11
373.117493
 21
112.725304
  0
LINE
  8
0
  6
DASHED
 10
372.617493
 20
111.725304
 11
373.117493
 21
111.725304
  0
LINE
  8
0
  6
DASHED
 10
327.617493
 20
112.725304
 11
327.117493
 21
112.725304
  0
LINE
  8
0
  6
DASHED
 10
327.617493
 20
111.725304
 11
327.117493
 21
111.725304
  0
LINE
  8
0
  6
DASHED
 10
373.117493
 20
118.023537
 11
373.117493
 21
112.725304
  0
LINE
  8
0
  6
CONTINUOUS
 10
372.867493
 20
118.027901
 11
372.867493
 21
118.164497
  0
LINE
  8
0
  6
CONTINUOUS
 10
367.367493
 20
118.123901
 11
367.367493
 21
118.164497
  0
LINE
  8
0
  6
CONTINUOUS
 10
332.867493
 20
118.123833
 11
332.867493
 21
118.164497
  0
LINE
  8
0
  6
CONTINUOUS
 10
327.367493
 20
118.027809
 11
327.367493
 21
118.164497
  0
LINE
  8
0
  6
DASHED
 10
327.117493
 20
118.023445
 11
327.117493
 21
112.725304
  0
LINE
  8
0
  6
CONTINUOUS
 10
300.117493
 20
83.425003
 11
300.117493
 21
77.425003
  0
LINE
  8
0
  6
CONTINUOUS
 10
400.117493
 20
83.425003
 11
400.117493
 21
77.425003
  0
LINE
  8
0
  6
CONTINUOUS
 10
37.117489
 20
9.725000
 11
37.117489
 21
99.724998
  0
LINE
  8
0
  6
CONTINUOUS
 10
23.117491
 20
10.460720
 11
23.117491
 21
20.315710
  0
LINE
  8
0
  6
CONTINUOUS
 10
10.117490
 20
92.751144
 11
10.117490
 21
11.414773
  0
LINE
  8
0
  6
CENTER
 10
19.617491
 20
101.663284
 11
19.617491
 21
122.925781
  0
ARC
  8
0
  6
CONTINUOUS
 10
35.617489
 20
100.724998
 40
1.000000
 50
180.000000
 51
270.000000
  0
LINE
  8
0
  6
CONTINUOUS
 10
37.117489
 20
20.315710
 11
23.117491
 21
20.315710
  0
LINE
  8
0
  6
CONTINUOUS
 10
23.117491
 20
99.224998
 11
23.117491
 21
89.224998
  0
LINE
  8
0
  6
CONTINUOUS
 10
37.117489
 20
89.134300
 11
23.117491
 21
89.134300
  0
LINE
  8
0
  6
CONTINUOUS
 10
37.117489
 20
99.724998
 11
4.617560
 21
99.724998
  0
ARC
  8
0
  6
CONTINUOUS
 10
23.617491
 20
99.224998
 40
0.500000
 50
90.000000
 51
180.000000
  0
LINE
  8
0
  6
CONTINUOUS
 10
4.617836
 20
111.725235
 11
4.617539
 21
99.727745
  0
LINE
  8
0
  6
CONTINUOUS
 10
34.617489
 20
111.725304
 11
34.617489
 21
100.724998
  0
LINE
  8
0
  6
CONTINUOUS
 10
34.617489
 20
112.725304
 11
34.617489
 21
119.303604
  0
LINE
  8
0
  6
CONTINUOUS
 10
-9.270080
 20
108.675301
 11
2.617490
 21
108.675301
  0
LINE
  8
0
  6
CONTINUOUS
 10
4.617290
 20
112.725304
 11
4.617290
 21
119.303604
  0
LINE
  8
0
  6
CONTINUOUS
 10
36.617489
 20
117.225304
 11
36.617489
 21
112.725304
  0
LINE
  8
0
  6
CONTINUOUS
 10
2.617490
 20
112.725304
 11
36.617489
 21
112.725304
  0
LINE
  8
0
  6
CONTINUOUS
 10
2.617490
 20
111.725304
 11
36.617489
 21
111.725304
  0
LINE
  8
0
  6
CONTINUOUS
 10
2.617490
 20
117.225304
 11
2.617490
 21
116.475304
  0
LINE
  8
0
  6
CONTINUOUS
 10
2.617490
 20
116.475304
 11
2.617490
 21
112.725304
  0
LINE
  8
0
  6
CONTINUOUS
 10
-8.418280
 20
116.375298
 11
2.617490
 21
116.375298
  0
ARC
  8
0
  6
CONTINUOUS
 10
19.617491
 20
-129.774704
 40
250.000000
 50
86.668304
 51
93.331696
  0
LINE
  8
0
  6
CONTINUOUS
 10
35.117489
 20
118.225304
 11
35.617489
 21
118.225304
  0
ARC
  8
0
  6
CONTINUOUS
 10
35.617489
 20
117.225304
 40
1.000000
 50
0.000000
 51
90.000000
  0
ARC
  8
0
  6
CONTINUOUS
 10
35.117489
 20
118.725304
 40
0.500000
 50
180.000000
 51
270.000000
  0
LINE
  8
0
  6
CONTINUOUS
 10
35.117489
 20
106.225304
 11
35.617489
 21
106.225304
  0
ARC
  8
0
  6
CONTINUOUS
 10
35.617489
 20
107.225304
 40
1.000000
 50
-90.000000
 51
0.000000
  0
ARC
  8
0
  6
CONTINUOUS
 10
35.117489
 20
105.725304
 40
0.500000
 50
-270.000000
 51
-180.000000
  0
LINE
  8
0
  6
CONTINUOUS
 10
4.117490
 20
118.225304
 11
3.617490
 21
118.225304
  0
ARC
  8
0
  6
CONTINUOUS
 10
3.617490
 20
117.225304
 40
1.000000
 50
90.000000
 51
180.000000
  0
ARC
  8
0
  6
CONTINUOUS
 10
4.117490
 20
118.725304
 40
0.500000
 50
-90.000000
 51
0.000000
  0
LINE
  8
0
  6
CONTINUOUS
 10
4.117490
 20
106.225304
 11
3.617490
 21
106.225304
  0
ARC
  8
0
  6
CONTINUOUS
 10
3.617490
 20
107.225304
 40
1.000000
 50
-180.000000
 51
-90.000000
  0
ARC
  8
0
  6
CONTINUOUS
 10
4.117490
 20
105.725304
 40
0.500000
 50
0.000000
 51
90.000000
  0
LINE
  8
0
  6
CONTINUOUS
 10
36.117489
 20
112.725304
 11
36.117489
 21
111.725304
  0
LINE
  8
0
  6
CONTINUOUS
 10
36.617489
 20
111.725304
 11
36.617489
 21
107.225304
  0
ARC
  8
0
  6
CONTINUOUS
 10
34.117489
 20
119.303604
 40
0.500000
 50
0.000000
 51
86.668304
  0
LINE
  8
0
  6
CONTINUOUS
 10
2.617490
 20
111.725304
 11
2.617490
 21
107.225304
  0
LINE
  8
0
  6
CONTINUOUS
 10
5.117836
 20
112.725304
 11
5.117836
 21
111.725235
  0
LINE
  8
0
  6
CONTINUOUS
 10
28.617491
 20
116.725304
 11
34.367489
 21
116.725304
  0
LINE
  8
0
  6
CONTINUOUS
 10
28.117491
 20
117.225304
 11
28.117491
 21
119.597008
  0
LINE
  8
0
  6
CONTINUOUS
 10
28.867491
 20
116.725304
 11
28.867491
 21
118.164497
  0
LINE
  8
0
  6
CONTINUOUS
 10
34.367489
 20
116.725098
 11
34.367489
 21
118.164497
  0
LINE
  8
0
  6
CONTINUOUS
 10
28.867491
 20
117.425201
 11
34.367489
 21
117.425201
  0
ARC
  8
0
  6
CONTINUOUS
 10
31.617491
 20
112.425201
 40
7.000000
 50
73.043503
 51
106.958000
  0
ARC
  8
0
  6
CONTINUOUS
 10
33.367489
 20
118.164497
 40
1.000000
 50
0.000000
 51
73.043098
  0
ARC
  8
0
  6
CONTINUOUS
 10
29.867491
 20
118.164497
 40
1.000000
 50
106.958199
 51
180.000000
  0
ARC
  8
0
  6
CONTINUOUS
 10
28.617491
 20
117.225304
 40
0.500000
 50
180.000000
 51
270.000000
  0
ARC
  8
0
  6
CONTINUOUS
 10
34.117489
 20
116.225304
 40
0.500000
 50
0.000000
 51
90.000000
  0
ARC
  8
0
  6
CONTINUOUS
 10
27.617491
 20
119.597008
 40
0.500000
 50
0.000000
 51
88.162544
  0
ARC
  8
0
  6
CONTINUOUS
 10
5.117490
 20
119.303604
 40
0.500000
 50
93.331696
 51
180.000000
  0
LINE
  8
0
  6
CONTINUOUS
 10
10.617490
 20
116.725304
 11
4.867490
 21
116.725304
  0
LINE
  8
0
  6
CONTINUOUS
 10
11.117490
 20
117.225304
 11
11.117490
 21
119.597008
  0
LINE
  8
0
  6
CONTINUOUS
 10
10.367490
 20
116.725304
 11
10.367490
 21
118.164497
  0
LINE
  8
0
  6
CONTINUOUS
 10
4.867490
 20
116.725098
 11
4.867490
 21
118.164497
  0
LINE
  8
0
  6
CONTINUOUS
 10
10.367490
 20
117.425201
 11
4.867490
 21
117.425201
  0
ARC
  8
0
  6
CONTINUOUS
 10
7.617490
 20
112.425201
 40
7.000000
 50
73.042000
 51
106.956497
  0
ARC
  8
0
  6
CONTINUOUS
 10
5.867490
 20
118.164497
 40
1.000000
 50
106.956902
 51
180.000000
  0
ARC
  8
0
  6
CONTINUOUS
 10
9.367490
 20
118.164497
 40
1.000000
 50
0.000000
 51
73.041801
  0
ARC
  8
0
  6
CONTINUOUS
 10
10.617490
 20
117.225304
 40
0.500000
 50
-90.000000
 51
0.000000
  0
ARC
  8
0
  6
CONTINUOUS
 10
5.117490
 20
116.225304
 40
0.500000
 50
90.000000
 51
180.000000
  0
ARC
  8
0
  6
CONTINUOUS
 10
11.617490
 20
119.597008
 40
0.500000
 50
91.837456
 51
180.000000
  0
LINE
  8
0
  6
CONTINUOUS
 10
4.617560
 20
95.817635
 11
4.617560
 21
99.724998
  0
LINE
  8
0
  6
CONTINUOUS
 10
12.085473
 20
10.122619
 11
37.117489
 21
9.725000
  0
ARC
  8
0
  6
CONTINUOUS
 10
23.617491
 20
10.460720
 40
0.500000
 50
180.000000
 51
269.000000
  0
LINE
  8
0
  6
CONTINUOUS
 10
10.860505
 20
10.448358
 11
12.117238
 21
10.114173
  0
ARC
  8
0
  6
CONTINUOUS
 10
11.117490
 20
11.414773
 40
1.000000
 50
180.000000
 51
255.108749
  0
LINE
  8
0
  6
CONTINUOUS
 10
12.117238
 20
19.224590
 11
23.117491
 21
19.224590
  0
LINE
  8
0
  6
CONTINUOUS
 10
10.860505
 20
19.558775
 11
12.117238
 21
19.224590
  0
ARC
  8
0
  6
CONTINUOUS
 10
11.117490
 20
20.525190
 40
1.000000
 50
180.000000
 51
255.108749
  0
LINE
  8
0
  6
CONTINUOUS
 10
12.117238
 20
90.225410
 11
23.117491
 21
90.225410
  0
LINE
  8
0
  6
CONTINUOUS
 10
10.860505
 20
89.891228
 11
12.117238
 21
90.225410
  0
ARC
  8
0
  6
CONTINUOUS
 10
11.117490
 20
88.924812
 40
1.000000
 50
-255.108749
 51
-180.000000
  0
LINE
  8
0
  6
CONTINUOUS
 10
6.565206
 20
93.818321
 11
9.143667
 21
93.750801
  0
ARC
  8
0
  6
CONTINUOUS
 10
9.117490
 20
92.751144
 40
1.000000
 50
0.000000
 51
88.500000
  0
ARC
  8
0
  6
CONTINUOUS
 10
6.617560
 20
95.817635
 40
2.000000
 50
180.000000
 51
268.500000
  0
LINE
  8
0
  6
CONTINUOUS
 10
-8.418280
 20
116.375298
 11
-9.154080
 21
113.540199
  0
LINE
  8
0
  6
CONTINUOUS
 10
-9.154080
 20
113.540199
 11
-8.341980
 21
111.065201
  0
LINE
  8
0
  6
CONTINUOUS
 10
-8.341980
 20
111.065201
 11
-9.270080
 21
108.675301
  0
LINE
  8
0
  6
CONTINUOUS
 10
22.117491
 20
91.225403
 11
22.117491
 21
98.225403
  0
LINE
  8
0
  6
CONTINUOUS
 10
23.117491
 20
91.225403
 11
21.138479
 21
91.225403
  0
LINE
  8
0
  6
CONTINUOUS
 10
23.117491
 20
98.225403
 11
21.138479
 21
98.225403
  0
ARC
  8
0
  6
CONTINUOUS
 10
28.517521
 20
94.725403
 40
8.999999
 50
163.398987
 51
196.601517
  0
ARC
  8
0
  6
CONTINUOUS
 10
21.138479
 20
92.525421
 40
1.300000
 50
196.601578
 51
270.000000
  0
ARC
  8
0
  6
CONTINUOUS
 10
21.138479
 20
96.925415
 40
1.300000
 50
90.000000
 51
163.399094
  0
LINE
  8
0
  6
CONTINUOUS
 10
22.117491
 20
11.224590
 11
22.117491
 21
18.224590
  0
LINE
  8
0
  6
CONTINUOUS
 10
23.117491
 20
11.224590
 11
21.138479
 21
11.224590
  0
LINE
  8
0
  6
CONTINUOUS
 10
23.117491
 20
18.224590
 11
21.138479
 21
18.224590
  0
ARC
  8
0
  6
CONTINUOUS
 10
28.517521
 20
14.724590
 40
8.999999
 50
163.398987
 51
196.601517
  0
ARC
  8
0
  6
CONTINUOUS
 10
21.138479
 20
12.524608
 40
1.300000
 50
196.601578
 51
270.000000
  0
ARC
  8
0
  6
CONTINUOUS
 10
21.138479
 20
16.924603
 40
1.300000
 50
90.000000
 51
163.399094
  0
LINE
  8
0
  6
CONTINUOUS
 10
9.317490
 20
92.974899
 11
9.317490
 21
11.575104
  0
LINE
  8
0
  6
CONTINUOUS
 10
9.646480
 20
11.105257
 11
10.132975
 21
10.928188
  0
ARC
  8
0
  6
CONTINUOUS
 10
9.961965
 20
10.458342
 40
0.500000
 50
39.614651
 51
70.000000
  0
ARC
  8
0
  6
CONTINUOUS
 10
9.817490
 20
11.575104
 40
0.500000
 50
180.000000
 51
250.000000
  0
LINE
  8
0
  6
CONTINUOUS
 10
9.646480
 20
93.444740
 11
9.785463
 21
93.495331
  0
ARC
  8
0
  6
CONTINUOUS
 10
9.817490
 20
92.974899
 40
0.500000
 50
110.000000
 51
180.000000
  0
LINE
  8
0
  6
CONTINUOUS
 10
36.617500
 20
259.113068
 11
36.617500
 21
249.345673
  0
LINE
  8
0
  6
CONTINUOUS
 10
37.117500
 20
209.229370
 11
37.117500
 21
299.229370
  0
LINE
  8
0
  6
CONTINUOUS
 10
10.117500
 20
297.499084
 11
10.117500
 21
277.229370
  0
LINE
  8
0
  6
CONTINUOUS
 10
10.117500
 20
210.959671
 11
10.117500
 21
231.229370
  0
LINE
  8
0
  6
CONTINUOUS
 10
37.117500
 20
283.229370
 11
23.604401
 21
282.875488
  0
LINE
  8
0
  6
CONTINUOUS
 10
23.604401
 20
225.583282
 11
37.117500
 21
225.229370
  0
LINE
  8
0
  6
CONTINUOUS
 10
2.617500
 20
259.113068
 11
2.617500
 21
249.345673
  0
LINE
  8
0
  6
CONTINUOUS
 10
23.117500
 20
226.083176
 11
23.117500
 21
231.229370
  0
ARC
  8
0
  6
CONTINUOUS
 10
23.617500
 20
226.083176
 40
0.500000
 50
180.000000
 51
268.496399
  0
LINE
  8
0
  6
CONTINUOUS
 10
23.117500
 20
282.375580
 11
23.117500
 21
277.229370
  0
ARC
  8
0
  6
CONTINUOUS
 10
23.617500
 20
282.375580
 40
0.500000
 50
-268.496399
 51
-180.000000
  0
LINE
  8
0
  6
CONTINUOUS
 10
23.117500
 20
226.579376
 11
10.117500
 21
226.919876
  0
LINE
  8
0
  6
CONTINUOUS
 10
23.117500
 20
281.879364
 11
10.117500
 21
281.538879
  0
ARC
  8
0
  6
CONTINUOUS
 10
32.617500
 20
233.246872
 40
2.000000
 50
-90.500061
 51
0.000000
  0
LINE
  8
0
  6
CONTINUOUS
 10
12.082288
 20
209.666412
 11
37.117500
 21
209.229370
  0
LINE
  8
0
  6
CONTINUOUS
 10
10.859100
 20
209.993576
 11
12.082288
 21
209.666412
  0
ARC
  8
0
  6
CONTINUOUS
 10
11.117500
 20
210.959671
 40
1.000000
 50
180.000000
 51
255.023895
  0
LINE
  8
0
  6
CONTINUOUS
 10
12.082299
 20
298.792328
 11
37.117500
 21
299.229370
  0
LINE
  8
0
  6
CONTINUOUS
 10
10.859100
 20
298.465088
 11
12.082299
 21
298.792328
  0
ARC
  8
0
  6
CONTINUOUS
 10
11.117500
 20
297.499084
 40
1.000000
 50
-255.023895
 51
-180.000000
  0
LINE
  8
0
  6
CONTINUOUS
 10
9.317500
 20
231.229370
 11
9.317500
 21
216.340637
  0
LINE
  8
0
  6
CONTINUOUS
 10
9.646490
 20
215.870789
 11
9.788510
 21
215.819092
  0
ARC
  8
0
  6
CONTINUOUS
 10
9.617500
 20
215.349258
 40
0.500000
 50
0.000000
 51
70.000000
  0
ARC
  8
0
  6
CONTINUOUS
 10
9.817500
 20
216.340637
 40
0.500000
 50
180.000000
 51
250.000000
  0
LINE
  8
0
  6
CONTINUOUS
 10
9.646490
 20
292.587952
 11
9.788510
 21
292.639648
  0
ARC
  8
0
  6
CONTINUOUS
 10
9.617500
 20
293.109497
 40
0.500000
 50
-70.000000
 51
0.000000
  0
ARC
  8
0
  6
CONTINUOUS
 10
9.817500
 20
292.118103
 40
0.500000
 50
-250.000000
 51
-180.000000
  0
LINE
  8
0
  6
CONTINUOUS
 10
9.317500
 20
292.118103
 11
9.317500
 21
277.229370
  0
LINE
  8
0
  6
CONTINUOUS
 10
4.617400
 20
233.229370
 11
4.617400
 21
275.229370
  0
LINE
  8
0
  6
CENTER
 10
19.617500
 20
286.039368
 11
19.617500
 21
222.504379
  0
LINE
  8
0
  6
CONTINUOUS
 10
34.617500
 20
275.229370
 11
34.617500
 21
233.229370
  0
LINE
  8
0
  6
CONTINUOUS
 10
36.617500
 20
259.229370
 11
36.617500
 21
249.229370
  0
LINE
  8
0
  6
CONTINUOUS
 10
2.617500
 20
259.229370
 11
2.617500
 21
249.229370
  0
ARC
  8
0
  6
CONTINUOUS
 10
7.617500
 20
234.229370
 40
3.500000
 50
0.000000
 51
90.000000
  0
LINE
  8
0
  6
CONTINUOUS
 10
5.617400
 20
237.729370
 11
7.617500
 21
237.729370
  0
LINE
  8
0
  6
CONTINUOUS
 10
11.117500
 20
232.229370
 11
11.117500
 21
234.229370
  0
ARC
  8
0
  6
CONTINUOUS
 10
5.617400
 20
238.729370
 40
1.000000
 50
180.000000
 51
270.000000
  0
ARC
  8
0
  6
CONTINUOUS
 10
31.617500
 20
234.229370
 40
3.500000
 50
90.000000
 51
180.000000
  0
LINE
  8
0
  6
CONTINUOUS
 10
28.117500
 20
232.229370
 11
28.117500
 21
234.229370
  0
LINE
  8
0
  6
CONTINUOUS
 10
33.617599
 20
237.729370
 11
31.617500
 21
237.729370
  0
ARC
  8
0
  6
CONTINUOUS
 10
33.617599
 20
238.729370
 40
1.000000
 50
-90.000000
 51
0.000000
  0
LINE
  8
0
  6
CONTINUOUS
 10
32.617500
 20
231.229370
 11
6.617400
 21
231.229370
  0
ARC
  8
0
  6
CONTINUOUS
 10
27.117500
 20
232.229370
 40
1.000000
 50
-90.000000
 51
0.000000
  0
ARC
  8
0
  6
CONTINUOUS
 10
12.117500
 20
232.229370
 40
1.000000
 50
180.000000
 51
270.000000
  0
ARC
  8
0
  6
CONTINUOUS
 10
6.617400
 20
233.229370
 40
2.000000
 50
180.000000
 51
270.000000
  0
ARC
  8
0
  6
CONTINUOUS
 10
32.617500
 20
233.229370
 40
2.000000
 50
-90.000000
 51
0.000000
  0
ARC
  8
0
  6
CONTINUOUS
 10
7.617500
 20
274.229370
 40
3.500000
 50
-90.000000
 51
0.000000
  0
LINE
  8
0
  6
CONTINUOUS
 10
5.617400
 20
270.729370
 11
7.617500
 21
270.729370
  0
LINE
  8
0
  6
CONTINUOUS
 10
11.117500
 20
276.229370
 11
11.117500
 21
274.229370
  0
ARC
  8
0
  6
CONTINUOUS
 10
5.617400
 20
269.729370
 40
1.000000
 50
-270.000000
 51
-180.000000
  0
ARC
  8
0
  6
CONTINUOUS
 10
31.617500
 20
274.229370
 40
3.500000
 50
-180.000000
 51
-90.000000
  0
LINE
  8
0
  6
CONTINUOUS
 10
28.117500
 20
276.229370
 11
28.117500
 21
274.229370
  0
LINE
  8
0
  6
CONTINUOUS
 10
33.617599
 20
270.729370
 11
31.617500
 21
270.729370
  0
ARC
  8
0
  6
CONTINUOUS
 10
33.617599
 20
269.729370
 40
1.000000
 50
0.000000
 51
90.000000
  0
LINE
  8
0
  6
CONTINUOUS
 10
32.617500
 20
277.229370
 11
6.617400
 21
277.229370
  0
ARC
  8
0
  6
CONTINUOUS
 10
27.117500
 20
276.229370
 40
1.000000
 50
0.000000
 51
90.000000
  0
ARC
  8
0
  6
CONTINUOUS
 10
12.117500
 20
276.229370
 40
1.000000
 50
-270.000000
 51
-180.000000
  0
ARC
  8
0
  6
CONTINUOUS
 10
6.617400
 20
275.229370
 40
2.000000
 50
-270.000000
 51
-180.000000
  0
ARC
  8
0
  6
CONTINUOUS
 10
32.617500
 20
275.229370
 40
2.000000
 50
0.000000
 51
90.000000
  0
LINE
  8
0
  6
CONTINUOUS
 10
4.117500
 20
260.229370
 11
3.617500
 21
260.229370
  0
ARC
  8
0
  6
CONTINUOUS
 10
3.617500
 20
259.229370
 40
1.000000
 50
90.000000
 51
180.000000
  0
ARC
  8
0
  6
CONTINUOUS
 10
4.117500
 20
260.729370
 40
0.500000
 50
-90.000000
 51
0.000000
  0
LINE
  8
0
  6
CONTINUOUS
 10
4.117500
 20
248.229370
 11
3.617500
 21
248.229370
  0
ARC
  8
0
  6
CONTINUOUS
 10
3.617500
 20
249.229370
 40
1.000000
 50
-180.000000
 51
-90.000000
  0
ARC
  8
0
  6
CONTINUOUS
 10
4.117500
 20
247.729370
 40
0.500000
 50
0.000000
 51
90.000000
  0
LINE
  8
0
  6
CONTINUOUS
 10
35.117500
 20
260.229370
 11
35.617500
 21
260.229370
  0
ARC
  8
0
  6
CONTINUOUS
 10
35.617500
 20
259.229370
 40
1.000000
 50
0.000000
 51
90.000000
  0
ARC
  8
0
  6
CONTINUOUS
 10
35.117500
 20
260.729370
 40
0.500000
 50
180.000000
 51
270.000000
  0
LINE
  8
0
  6
CONTINUOUS
 10
35.117500
 20
248.229370
 11
35.617500
 21
248.229370
  0
ARC
  8
0
  6
CONTINUOUS
 10
35.617500
 20
249.229370
 40
1.000000
 50
-90.000000
 51
0.000000
  0
ARC
  8
0
  6
CONTINUOUS
 10
35.117500
 20
247.729370
 40
0.500000
 50
90.000000
 51
180.000000
  0
LINE
  8
0
  6
CONTINUOUS
 10
9.367500
 20
234.629364
 11
9.367500
 21
233.829346
  0
LINE
  8
0
  6
CONTINUOUS
 10
7.217476
 20
235.979370
 11
8.017494
 21
235.979370
  0
LINE
  8
0
  6
CONTINUOUS
 10
7.217476
 20
232.479370
 11
8.017494
 21
232.479370
  0
LINE
  8
0
  6
CONTINUOUS
 10
5.867500
 20
234.629364
 11
5.867500
 21
233.829346
  0
CIRCLE
  8
0
  6
CONTINUOUS
 10
7.617500
 20
234.229370
 40
2.750000
  0
ARC
  8
0
  6
CONTINUOUS
 10
5.867500
 20
235.979370
 40
1.350000
 50
-90.000000
 51
0.000000
  0
ARC
  8
0
  6
CONTINUOUS
 10
5.867500
 20
232.479370
 40
1.350000
 50
0.000000
 51
90.000000
  0
ARC
  8
0
  6
CONTINUOUS
 10
9.367500
 20
235.979370
 40
1.350000
 50
180.000000
 51
270.000000
  0
ARC
  8
0
  6
CONTINUOUS
 10
9.367500
 20
232.479370
 40
1.350000
 50
90.000000
 51
180.000000
  0
LINE
  8
0
  6
CONTINUOUS
 10
33.367500
 20
234.629364
 11
33.367500
 21
233.829346
  0
LINE
  8
0
  6
CONTINUOUS
 10
31.217476
 20
235.979370
 11
32.017494
 21
235.979370
  0
LINE
  8
0
  6
CONTINUOUS
 10
31.217476
 20
232.479370
 11
32.017494
 21
232.479370
  0
LINE
  8
0
  6
CONTINUOUS
 10
29.867500
 20
234.629364
 11
29.867500
 21
233.829346
  0
CIRCLE
  8
0
  6
CONTINUOUS
 10
31.617500
 20
234.229370
 40
2.750000
  0
ARC
  8
0
  6
CONTINUOUS
 10
29.867500
 20
235.979370
 40
1.350000
 50
-90.000000
 51
0.000000
  0
ARC
  8
0
  6
CONTINUOUS
 10
29.867500
 20
232.479370
 40
1.350000
 50
0.000000
 51
90.000000
  0
ARC
  8
0
  6
CONTINUOUS
 10
33.367500
 20
235.979370
 40
1.350000
 50
180.000000
 51
270.000000
  0
ARC
  8
0
  6
CONTINUOUS
 10
33.367500
 20
232.479370
 40
1.350000
 50
90.000000
 51
180.000000
  0
LINE
  8
0
  6
CONTINUOUS
 10
33.367500
 20
274.629364
 11
33.367500
 21
273.829346
  0
LINE
  8
0
  6
CONTINUOUS
 10
31.217476
 20
275.979370
 11
32.017494
 21
275.979370
  0
LINE
  8
0
  6
CONTINUOUS
 10
31.217476
 20
272.479370
 11
32.017494
 21
272.479370
  0
LINE
  8
0
  6
CONTINUOUS
 10
29.867500
 20
274.629364
 11
29.867500
 21
273.829346
  0
CIRCLE
  8
0
  6
CONTINUOUS
 10
31.617500
 20
274.229370
 40
2.750000
  0
ARC
  8
0
  6
CONTINUOUS
 10
29.867500
 20
275.979370
 40
1.350000
 50
-90.000000
 51
0.000000
  0
ARC
  8
0
  6
CONTINUOUS
 10
29.867500
 20
272.479370
 40
1.350000
 50
0.000000
 51
90.000000
  0
ARC
  8
0
  6
CONTINUOUS
 10
33.367500
 20
275.979370
 40
1.350000
 50
180.000000
 51
270.000000
  0
ARC
  8
0
  6
CONTINUOUS
 10
33.367500
 20
272.479370
 40
1.350000
 50
90.000000
 51
180.000000
  0
LINE
  8
0
  6
CONTINUOUS
 10
9.367500
 20
274.629364
 11
9.367500
 21
273.829346
  0
LINE
  8
0
  6
CONTINUOUS
 10
7.217476
 20
275.979370
 11
8.017494
 21
275.979370
  0
LINE
  8
0
  6
CONTINUOUS
 10
7.217476
 20
272.479370
 11
8.017494
 21
272.479370
  0
LINE
  8
0
  6
CONTINUOUS
 10
5.867500
 20
274.629364
 11
5.867500
 21
273.829346
  0
CIRCLE
  8
0
  6
CONTINUOUS
 10
7.617500
 20
274.229370
 40
2.750000
  0
ARC
  8
0
  6
CONTINUOUS
 10
5.867500
 20
275.979370
 40
1.350000
 50
-90.000000
 51
0.000000
  0
ARC
  8
0
  6
CONTINUOUS
 10
5.867500
 20
272.479370
 40
1.350000
 50
0.000000
 51
90.000000
  0
ARC
  8
0
  6
CONTINUOUS
 10
9.367500
 20
275.979370
 40
1.350000
 50
180.000000
 51
270.000000
  0
ARC
  8
0
  6
CONTINUOUS
 10
9.367500
 20
272.479370
 40
1.350000
 50
90.000000
 51
180.000000
  0
LINE
  8
0
  6
CONTINUOUS
 10
-12.531180
 20
250.379379
 11
2.617620
 21
250.379379
  0
LINE
  8
0
  6
CONTINUOUS
 10
-11.679380
 20
258.079376
 11
-12.415180
 21
255.244278
  0
LINE
  8
0
  6
CONTINUOUS
 10
-12.415180
 20
255.244278
 11
-11.603080
 21
252.769272
  0
LINE
  8
0
  6
CONTINUOUS
 10
-11.603080
 20
252.769272
 11
-12.531180
 21
250.379379
  0
LINE
  8
0
  6
CONTINUOUS
 10
-11.679380
 20
258.079376
 11
2.617620
 21
258.079376
  0
LINE
  8
0
  6
CONTINUOUS
 10
22.117500
 20
277.229370
 11
22.117500
 21
281.729370
  0
LINE
  8
0
  6
CONTINUOUS
 10
23.117500
 20
281.729370
 11
21.138491
 21
281.729370
  0
ARC
  8
0
  6
CONTINUOUS
 10
28.517530
 20
278.229370
 40
8.999999
 50
163.398987
 51
186.379364
  0
ARC
  8
0
  6
CONTINUOUS
 10
21.138491
 20
280.429382
 40
1.300000
 50
90.000000
 51
163.399094
  0
LINE
  8
0
  6
CONTINUOUS
 10
22.117500
 20
231.229370
 11
22.117500
 21
226.729370
  0
LINE
  8
0
  6
CONTINUOUS
 10
23.117500
 20
226.729370
 11
21.138491
 21
226.729370
  0
ARC
  8
0
  6
CONTINUOUS
 10
28.517530
 20
230.229370
 40
8.999999
 50
-186.379364
 51
-163.398987
  0
ARC
  8
0
  6
CONTINUOUS
 10
21.138491
 20
228.029358
 40
1.300000
 50
-163.399094
 51
-90.000000
  0
TEXT
  8
0
 10
-22.000000
 20
-1.000000
 40
4.000000
 41
1.000000
  1
HLW-18T-10~240-T60
 50
0.000000
  0
ENDSEC
  0
EOF
