  0
SECTION
  2
HEADER
  9
$CLAYER
  8
1
  9
$LTSCALE
 40
3.0
  0
ENDSEC
  0
SECTION
  2
TABLES
  0
TABLE
  2
LTYPE
 70
     4
  0
LTYPE
  2
CONTINUOUS
  3
solid line
 70
    64
 72
    65
 73
     0
 40
0.0
  0
LTYPE
  2
DASHED
  3
__ __ __ __ __ __ __ __ __ __ __ __ __ __ __
 70
    64
 72
    65
 73
     2
 40
0.75
 49
0.5
 49
-0.25
  0
LTYPE
  2
CENTER
  3
____ _ ____ _ ____ _ ____ _ ____ _ ____ _ ____
 70
    64
 72
    65
 73
     4
 40
2.0
 49
1.25
 49
-0.25
 49
0.25
 49
-0.25
  0
LTYPE
  2
PHANTOM
  3
_____ _ _ _____ _ _ _____ _ _ _____ _ _ ____
 70
    64
 72
    65
 73
     6
 40
2.5
 49
1.25
 49
-0.25
 49
0.25
 49
-0.25
 49
0.25
 49
-0.25
  0
ENDTAB
  0
TABLE
  2
LAYER
 70
     1
  0
LAYER
  2
0
 70
    64
 62
     7
  6
CONTINUOUS
  0
ENDTAB
  0
TABLE
  2
STYLE
 70
     1
  0
STYLE
  2
STANDARD
 70
     0
 40
0.000000
 41
1.000000
 50
0.000000
 71
     0
 42
3.000000
  3
txt
  4
BIGFONT
  0
ENDTAB
  0
ENDSEC
  0
SECTION
  2
BLOCKS
  0
ENDSEC
  0
SECTION
  2
ENTITIES
  0
LINE
  8
0
  6
CONTINUOUS
 10
128.889999
 20
5.672209
 11
129.889999
 21
6.663489
  0
ARC
  8
0
  6
CONTINUOUS
 10
123.389999
 20
6.720249
 40
1.000000
 50
180.000000
 51
269.500000
  0
LINE
  8
0
  6
CONTINUOUS
 10
128.889999
 20
82.650360
 11
129.889999
 21
81.659088
  0
ARC
  8
0
  6
CONTINUOUS
 10
123.389999
 20
81.602325
 40
1.000000
 50
90.500000
 51
180.000000
  0
LINE
  8
0
  6
CONTINUOUS
 10
123.381302
 20
5.720289
 11
128.889999
 21
5.672209
  0
LINE
  8
0
  6
CONTINUOUS
 10
123.381302
 20
82.602280
 11
128.889999
 21
82.650360
  0
LINE
  8
0
  6
CONTINUOUS
 10
128.889999
 20
82.650360
 11
128.889999
 21
5.672219
  0
LINE
  8
0
  6
CONTINUOUS
 10
121.889999
 20
16.661289
 11
121.889999
 21
7.661289
  0
LINE
  8
0
  6
CONTINUOUS
 10
121.889999
 20
7.661289
 11
122.389999
 21
7.161289
  0
LINE
  8
0
  6
CONTINUOUS
 10
121.889999
 20
16.661289
 11
122.389999
 21
17.161289
  0
LINE
  8
0
  6
CONTINUOUS
 10
121.889999
 20
71.661285
 11
122.389999
 21
71.161285
  0
LINE
  8
0
  6
CONTINUOUS
 10
121.889999
 20
80.661285
 11
122.389999
 21
81.161285
  0
LINE
  8
0
  6
CONTINUOUS
 10
88.892609
 20
6.321279
 11
89.889999
 21
6.312569
  0
LINE
  8
0
  6
CONTINUOUS
 10
88.892609
 20
82.001297
 11
89.889999
 21
82.010002
  0
ARC
  8
0
  6
CONTINUOUS
 10
8.890000
 20
80.603088
 40
1.000000
 50
90.500000
 51
180.000000
  0
ARC
  8
0
  6
CONTINUOUS
 10
7.890000
 20
77.594261
 40
4.000000
 50
90.500000
 51
180.000000
  0
ARC
  8
0
  6
CONTINUOUS
 10
7.890000
 20
10.728309
 40
4.000000
 50
180.000000
 51
269.500000
  0
LINE
  8
0
  6
CONTINUOUS
 10
129.889999
 20
18.661289
 11
129.889999
 21
6.663489
  0
LINE
  8
0
  6
CONTINUOUS
 10
129.690002
 20
69.461288
 11
129.889999
 21
69.661285
  0
LINE
  8
0
  6
CONTINUOUS
 10
129.690002
 20
18.861288
 11
129.889999
 21
18.661289
  0
LINE
  8
0
  6
CONTINUOUS
 10
89.889999
 20
82.310020
 11
89.889999
 21
6.012559
  0
LINE
  8
0
  6
CENTER
 10
117.867203
 20
12.161289
 11
133.639999
 21
12.161289
  0
LINE
  8
0
  6
CENTER
 10
117.867203
 20
76.161285
 11
132.639999
 21
76.161285
  0
LINE
  8
0
  6
CONTINUOUS
 10
7.855096
 20
6.728469
 11
88.889999
 21
6.021289
  0
LINE
  8
0
  6
CONTINUOUS
 10
88.889999
 20
15.925669
 11
121.889999
 21
15.637679
  0
LINE
  8
0
  6
CONTINUOUS
 10
89.889999
 20
6.012559
 11
123.381302
 21
5.720289
  0
LINE
  8
0
  6
CONTINUOUS
 10
89.889999
 20
82.310020
 11
123.381302
 21
82.602280
  0
LINE
  8
0
  6
CONTINUOUS
 10
7.855096
 20
81.594109
 11
88.889999
 21
82.301292
  0
LINE
  8
0
  6
CONTINUOUS
 10
121.889999
 20
80.661285
 11
121.889999
 21
71.661285
  0
LINE
  8
0
  6
CONTINUOUS
 10
122.389999
 20
81.602325
 11
122.389999
 21
6.720249
  0
LINE
  8
0
  6
CONTINUOUS
 10
129.690002
 20
69.461288
 11
129.690002
 21
18.861288
  0
LINE
  8
0
  6
CONTINUOUS
 10
131.190002
 20
37.661289
 11
131.889999
 21
37.661289
  0
LINE
  8
0
  6
CONTINUOUS
 10
131.190002
 20
72.661285
 11
131.889999
 21
72.661285
  0
ARC
  8
0
  6
CONTINUOUS
 10
220.910004
 20
12.181289
 40
6.500000
 50
180.000000
 51
270.000000
  0
ARC
  8
0
  6
CONTINUOUS
 10
284.869995
 20
12.181289
 40
6.500000
 50
270.000000
 51
360.000000
  0
ARC
  8
0
  6
CONTINUOUS
 10
284.869995
 20
76.141289
 40
6.500000
 50
0.000000
 51
90.000000
  0
ARC
  8
0
  6
CONTINUOUS
 10
220.910004
 20
76.141289
 40
6.500000
 50
90.000000
 51
180.000000
  0
LINE
  8
0
  6
CENTER
 10
220.889999
 20
84.711449
 11
220.889999
 21
68.220192
  0
LINE
  8
0
  6
CENTER
 10
284.890015
 20
84.810196
 11
284.890015
 21
67.923943
  0
LINE
  8
0
  6
CENTER
 10
212.706879
 20
12.161289
 11
228.852493
 21
12.161289
  0
LINE
  8
0
  6
CENTER
 10
212.163757
 20
76.161285
 11
228.951248
 21
76.161285
  0
ARC
  8
0
  6
CONTINUOUS
 10
5.510975
 20
73.961288
 40
1.300000
 50
196.601501
 51
270.000000
  0
ARC
  8
0
  6
CONTINUOUS
 10
5.510975
 20
78.361290
 40
1.300000
 50
90.000000
 51
163.398499
  0
ARC
  8
0
  6
CONTINUOUS
 10
12.890000
 20
76.161285
 40
9.000000
 50
163.398499
 51
196.601501
  0
LINE
  8
0
  6
CONTINUOUS
 10
5.510975
 20
72.661285
 11
7.890000
 21
72.661285
  0
LINE
  8
0
  6
CONTINUOUS
 10
5.510975
 20
79.661285
 11
7.890000
 21
79.661285
  0
LINE
  8
0
  6
CONTINUOUS
 10
6.490002
 20
79.661285
 11
6.490002
 21
72.661285
  0
LINE
  8
0
  6
CONTINUOUS
 10
4.071839
 20
74.361290
 11
4.495782
 21
74.721550
  0
LINE
  8
0
  6
CONTINUOUS
 10
5.741646
 20
76.542297
 11
5.204899
 21
76.998421
  0
ARC
  8
0
  6
CONTINUOUS
 10
5.417866
 20
76.161285
 40
0.500000
 50
-49.642349
 51
49.642349
  0
LINE
  8
0
  6
CONTINUOUS
 10
5.204899
 20
75.324150
 11
5.741646
 21
75.780281
  0
LINE
  8
0
  6
CONTINUOUS
 10
4.495782
 20
77.601021
 11
4.071839
 21
77.961288
  0
LINE
  8
0
  6
CONTINUOUS
 10
7.890000
 20
79.661285
 11
7.890000
 21
72.661285
  0
LINE
  8
0
  6
CONTINUOUS
 10
155.389999
 20
53.161289
 11
155.389999
 21
49.161289
  0
LINE
  8
0
  6
CONTINUOUS
 10
155.389999
 20
49.161289
 11
155.889999
 21
49.661289
  0
LINE
  8
0
  6
CONTINUOUS
 10
155.389999
 20
61.161289
 11
155.889999
 21
60.661289
  0
ARC
  8
0
  6
CONTINUOUS
 10
137.889999
 20
55.161289
 40
2.000000
 50
180.000000
 51
270.000000
  0
ARC
  8
0
  6
CONTINUOUS
 10
137.889999
 20
55.161289
 40
2.000000
 50
90.000000
 51
180.000000
  0
LINE
  8
0
  6
CONTINUOUS
 10
84.894989
 20
103.774239
 11
86.684998
 21
103.774239
  0
LINE
  8
0
  6
CONTINUOUS
 10
84.894989
 20
83.774239
 11
84.894989
 21
103.774239
  0
LINE
  8
0
  6
CONTINUOUS
 10
86.684998
 20
83.774239
 11
86.684998
 21
103.774239
  0
LINE
  8
0
  6
CONTINUOUS
 10
85.789993
 20
103.774239
 11
85.789993
 21
108.774239
  0
LINE
  8
0
  6
CONTINUOUS
 10
86.190002
 20
103.774239
 11
86.190002
 21
108.774239
  0
LINE
  8
0
  6
CONTINUOUS
 10
85.389999
 20
103.774239
 11
85.389999
 21
108.774239
  0
LINE
  8
0
  6
CONTINUOUS
 10
250.699997
 20
104.141289
 11
250.699997
 21
109.141289
  0
LINE
  8
0
  6
CONTINUOUS
 10
251.500000
 20
104.141289
 11
251.500000
 21
109.141289
  0
LINE
  8
0
  6
CONTINUOUS
 10
251.100006
 20
104.141289
 11
251.100006
 21
109.141289
  0
LINE
  8
0
  6
CONTINUOUS
 10
251.994995
 20
84.141289
 11
251.994995
 21
104.141289
  0
LINE
  8
0
  6
CONTINUOUS
 10
250.205002
 20
84.141289
 11
250.205002
 21
104.141289
  0
LINE
  8
0
  6
CONTINUOUS
 10
250.205002
 20
104.141289
 11
251.994995
 21
104.141289
  0
LINE
  8
0
  6
CONTINUOUS
 10
251.994995
 20
104.141289
 11
253.785004
 21
104.141289
  0
LINE
  8
0
  6
CONTINUOUS
 10
252.889999
 20
104.141289
 11
252.889999
 21
109.141289
  0
LINE
  8
0
  6
CONTINUOUS
 10
253.289993
 20
104.141289
 11
253.289993
 21
109.141289
  0
LINE
  8
0
  6
CONTINUOUS
 10
252.490005
 20
104.141289
 11
252.490005
 21
109.141289
  0
LINE
  8
0
  6
CONTINUOUS
 10
254.279999
 20
104.141289
 11
254.279999
 21
109.141289
  0
LINE
  8
0
  6
CONTINUOUS
 10
255.080002
 20
104.141289
 11
255.080002
 21
109.141289
  0
LINE
  8
0
  6
CONTINUOUS
 10
254.679993
 20
104.141289
 11
254.679993
 21
109.141289
  0
LINE
  8
0
  6
CONTINUOUS
 10
255.574997
 20
84.141289
 11
255.574997
 21
104.141289
  0
LINE
  8
0
  6
CONTINUOUS
 10
253.785004
 20
84.141289
 11
253.785004
 21
104.141289
  0
LINE
  8
0
  6
CONTINUOUS
 10
253.785004
 20
104.141289
 11
255.574997
 21
104.141289
  0
LINE
  8
0
  6
CONTINUOUS
 10
259.890015
 20
82.641289
 11
259.890015
 21
84.141289
  0
LINE
  8
0
  6
CONTINUOUS
 10
245.889999
 20
82.641289
 11
245.889999
 21
84.141289
  0
LINE
  8
0
  6
CONTINUOUS
 10
259.890015
 20
84.141289
 11
245.889999
 21
84.141289
  0
LINE
  8
0
  6
CONTINUOUS
 10
260.390015
 20
82.641289
 11
245.389999
 21
82.641289
  0
LINE
  8
0
  6
CONTINUOUS
 10
89.289993
 20
82.274239
 11
89.289993
 21
83.774239
  0
LINE
  8
0
  6
CONTINUOUS
 10
82.289993
 20
82.274239
 11
82.289993
 21
83.774239
  0
LINE
  8
0
  6
CONTINUOUS
 10
82.289993
 20
83.774239
 11
89.289993
 21
83.774239
  0
LINE
  8
0
  6
CONTINUOUS
 10
82.289993
 20
82.274239
 11
89.289993
 21
82.274239
  0
ARC
  8
0
  6
CONTINUOUS
 10
7.390000
 20
72.185692
 40
0.500000
 50
270.500000
 51
360.000000
  0
LINE
  8
0
  6
CONTINUOUS
 10
7.394364
 20
71.685699
 11
6.863820
 21
71.681068
  0
LINE
  8
0
  6
CONTINUOUS
 10
7.890000
 20
80.603088
 11
7.890000
 21
72.185692
  0
ARC
  8
0
  6
CONTINUOUS
 10
6.890000
 20
19.641378
 40
3.000000
 50
180.000000
 51
269.500000
  0
ARC
  8
0
  6
CONTINUOUS
 10
6.890000
 20
68.681190
 40
3.000000
 50
90.500000
 51
180.000000
  0
LINE
  8
0
  6
CONTINUOUS
 10
2.890000
 20
14.161289
 11
3.890000
 21
13.161289
  0
LINE
  8
0
  6
CONTINUOUS
 10
2.890000
 20
74.161285
 11
3.890000
 21
75.161285
  0
LINE
  8
0
  6
CONTINUOUS
 10
88.889999
 20
15.925669
 11
6.863820
 21
16.641499
  0
ARC
  8
0
  6
CONTINUOUS
 10
131.190002
 20
35.661289
 40
2.000000
 50
90.000000
 51
138.590393
  0
ARC
  8
0
  6
CONTINUOUS
 10
131.190002
 20
74.661285
 40
2.000000
 50
229.458405
 51
270.000000
  0
LINE
  8
0
  6
CONTINUOUS
 10
129.889999
 20
81.659088
 11
129.889999
 21
69.661285
  0
ARC
  8
0
  6
CONTINUOUS
 10
131.889999
 20
38.661289
 40
1.000000
 50
-90.000000
 51
0.000000
  0
ARC
  8
0
  6
CONTINUOUS
 10
131.889999
 20
71.661285
 40
1.000000
 50
0.000000
 51
90.000000
  0
LINE
  8
0
  6
CONTINUOUS
 10
88.889999
 20
72.396896
 11
7.394364
 21
71.685699
  0
LINE
  8
0
  6
CONTINUOUS
 10
88.889999
 20
72.396896
 11
121.889999
 21
72.684898
  0
LINE
  8
0
  6
CONTINUOUS
 10
3.890000
 20
77.594261
 11
3.890000
 21
10.728309
  0
LINE
  8
0
  6
CONTINUOUS
 10
2.890000
 20
74.161285
 11
2.890000
 21
14.161289
  0
LINE
  8
0
  6
CONTINUOUS
 10
155.889999
 20
53.161289
 11
137.889999
 21
53.161289
  0
LINE
  8
0
  6
CONTINUOUS
 10
155.889999
 20
57.161289
 11
137.889999
 21
57.161289
  0
LINE
  8
0
  6
CONTINUOUS
 10
88.889999
 20
82.301292
 11
88.889999
 21
6.021289
  0
LINE
  8
0
  6
CONTINUOUS
 10
132.889999
 20
71.661285
 11
132.889999
 21
38.661289
  0
LINE
  8
0
  6
CONTINUOUS
 10
133.889999
 20
62.661289
 11
133.889999
 21
47.661289
  0
LINE
  8
0
  6
CONTINUOUS
 10
155.389999
 20
61.161289
 11
155.389999
 21
57.161289
  0
LINE
  8
0
  6
CONTINUOUS
 10
155.889999
 20
60.661289
 11
155.889999
 21
49.661289
  0
LINE
  8
0
  6
CENTER
 10
159.639999
 20
55.161289
 11
67.389999
 21
55.161289
  0
LINE
  8
0
  6
CONTINUOUS
 10
133.889999
 20
47.661289
 11
132.889999
 21
47.661289
  0
LINE
  8
0
  6
CONTINUOUS
 10
133.889999
 20
62.661289
 11
132.889999
 21
62.661289
  0
LINE
  8
0
  6
CONTINUOUS
 10
155.389999
 20
49.161289
 11
133.889999
 21
49.161289
  0
LINE
  8
0
  6
CONTINUOUS
 10
155.389999
 20
61.161289
 11
133.889999
 21
61.161289
  0
LINE
  8
0
  6
CONTINUOUS
 10
245.389999
 20
53.161289
 11
249.389999
 21
53.161289
  0
LINE
  8
0
  6
CONTINUOUS
 10
245.389999
 20
57.161289
 11
249.389999
 21
57.161289
  0
LINE
  8
0
  6
CONTINUOUS
 10
245.389999
 20
53.161289
 11
245.389999
 21
57.161289
  0
LINE
  8
0
  6
CONTINUOUS
 10
249.389999
 20
53.161289
 11
249.389999
 21
57.161289
  0
ARC
  8
0
  6
CONTINUOUS
 10
252.889999
 20
55.161289
 40
6.000000
 50
-160.528793
 51
160.528793
  0
ARC
  8
0
  6
CONTINUOUS
 10
252.889999
 20
55.161289
 40
7.500000
 50
-164.533997
 51
164.533997
  0
CIRCLE
  8
0
  6
CONTINUOUS
 10
252.889999
 20
55.161289
 40
17.500000
  0
LINE
  8
0
  6
CENTER
 10
228.556244
 20
55.161289
 11
276.746246
 21
55.161289
  0
LINE
  8
0
  6
CENTER
 10
-2.110000
 20
44.161289
 11
137.958130
 21
44.161289
  0
LINE
  8
0
  6
CENTER
 10
252.889999
 20
87.411285
 11
252.889999
 21
0.411289
  0
LINE
  8
0
  6
CENTER
 10
209.304993
 20
44.161289
 11
297.554993
 21
44.161289
  0
LINE
  8
0
  6
CONTINUOUS
 10
220.910004
 20
82.641289
 11
284.869995
 21
82.641289
  0
LINE
  8
0
  6
CONTINUOUS
 10
220.910004
 20
5.681289
 11
284.870087
 21
5.681289
  0
LINE
  8
0
  6
CONTINUOUS
 10
214.410004
 20
76.141258
 11
214.410004
 21
12.181269
  0
LINE
  8
0
  6
CONTINUOUS
 10
291.369995
 20
76.141289
 11
291.369995
 21
12.181329
  0
LINE
  8
0
  6
CONTINUOUS
 10
246.889999
 20
22.387850
 11
246.889999
 21
17.161289
  0
LINE
  8
0
  6
CONTINUOUS
 10
249.889999
 20
24.286289
 11
249.889999
 21
26.161289
  0
LINE
  8
0
  6
CONTINUOUS
 10
255.889999
 20
24.286289
 11
255.889999
 21
26.161289
  0
LINE
  8
0
  6
CONTINUOUS
 10
252.304092
 20
25.059729
 11
252.304092
 21
18.145658
  0
LINE
  8
0
  6
CONTINUOUS
 10
253.429092
 20
25.059729
 11
253.429092
 21
18.145658
  0
LINE
  8
0
  6
CONTINUOUS
 10
259.335297
 20
25.059729
 11
259.335297
 21
18.098789
  0
LINE
  8
0
  6
CONTINUOUS
 10
260.366608
 20
21.368319
 11
260.366608
 21
18.098789
  0
LINE
  8
0
  6
CONTINUOUS
 10
245.466507
 20
24.965979
 11
242.575302
 21
24.965979
  0
LINE
  8
0
  6
CONTINUOUS
 10
242.575302
 20
24.965979
 11
241.897797
 21
24.125969
  0
LINE
  8
0
  6
CONTINUOUS
 10
241.979294
 20
26.161289
 11
240.889999
 21
24.766468
  0
LINE
  8
0
  6
CONTINUOUS
 10
241.897797
 20
18.940979
 11
242.586105
 21
18.215979
  0
LINE
  8
0
  6
CONTINUOUS
 10
240.889999
 20
18.329149
 11
242.047501
 21
17.161289
  0
LINE
  8
0
  6
CONTINUOUS
 10
240.889999
 20
24.766468
 11
240.889999
 21
18.329149
  0
LINE
  8
0
  6
CONTINUOUS
 10
241.897797
 20
24.125969
 11
241.897797
 21
18.940979
  0
LINE
  8
0
  6
CONTINUOUS
 10
246.022797
 20
24.428148
 11
245.455093
 21
24.965979
  0
LINE
  8
0
  6
CONTINUOUS
 10
246.013794
 20
26.161289
 11
246.889999
 21
25.188919
  0
LINE
  8
0
  6
CONTINUOUS
 10
246.022797
 20
24.286289
 11
246.889999
 21
24.286289
  0
LINE
  8
0
  6
CONTINUOUS
 10
241.979294
 20
26.161289
 11
246.013794
 21
26.161289
  0
LINE
  8
0
  6
CONTINUOUS
 10
246.022797
 20
21.403479
 11
244.452499
 21
21.403479
  0
LINE
  8
0
  6
CONTINUOUS
 10
246.022797
 20
20.465979
 11
246.022797
 21
21.215979
  0
LINE
  8
0
  6
CONTINUOUS
 10
244.147797
 20
18.215979
 11
242.586105
 21
18.215979
  0
ARC
  8
0
  6
CONTINUOUS
 10
244.147797
 20
20.090969
 40
1.875000
 50
-89.999786
 51
0.000109
  0
LINE
  8
0
  6
CONTINUOUS
 10
246.022797
 20
17.878710
 11
246.022797
 21
17.161289
  0
LINE
  8
0
  6
CONTINUOUS
 10
246.889999
 20
25.188919
 11
246.889999
 21
24.286289
  0
LINE
  8
0
  6
CONTINUOUS
 10
246.022797
 20
21.403479
 11
246.022797
 21
20.090969
  0
LINE
  8
0
  6
CONTINUOUS
 10
244.452499
 20
22.387850
 11
244.452499
 21
21.403479
  0
LINE
  8
0
  6
CONTINUOUS
 10
246.022797
 20
17.161289
 11
246.889999
 21
17.161289
  0
LINE
  8
0
  6
CONTINUOUS
 10
246.022797
 20
17.878710
 11
245.167694
 21
17.161289
  0
LINE
  8
0
  6
CONTINUOUS
 10
253.429092
 20
18.145658
 11
253.804092
 21
18.145658
  0
LINE
  8
0
  6
CONTINUOUS
 10
251.858795
 20
18.145658
 11
251.858795
 21
17.161289
  0
LINE
  8
0
  6
CONTINUOUS
 10
253.804092
 20
18.145658
 11
253.804092
 21
17.161289
  0
LINE
  8
0
  6
CONTINUOUS
 10
255.264206
 20
24.286289
 11
255.889999
 21
24.286289
  0
LINE
  8
0
  6
CONTINUOUS
 10
249.889999
 20
24.286289
 11
250.556000
 21
24.286289
  0
LINE
  8
0
  6
CONTINUOUS
 10
249.889999
 20
26.161289
 11
255.889999
 21
26.161289
  0
LINE
  8
0
  6
CONTINUOUS
 10
251.858795
 20
17.161289
 11
253.804092
 21
17.161289
  0
LINE
  8
0
  6
CONTINUOUS
 10
251.858795
 20
18.145658
 11
252.304092
 21
18.145658
  0
ARC
  8
0
  6
CONTINUOUS
 10
262.487701
 20
23.758949
 40
2.402344
 50
-73.981873
 51
90.003510
  0
ARC
  8
0
  6
CONTINUOUS
 10
262.487701
 20
23.758949
 40
1.465594
 50
-82.585274
 51
62.411850
  0
LINE
  8
0
  6
CONTINUOUS
 10
258.890015
 20
26.161289
 11
262.487701
 21
26.161289
  0
LINE
  8
0
  6
CONTINUOUS
 10
258.890015
 20
26.161289
 11
258.890015
 21
25.059729
  0
LINE
  8
0
  6
CONTINUOUS
 10
260.366608
 20
25.059729
 11
260.366608
 21
22.305609
  0
LINE
  8
0
  6
CONTINUOUS
 10
263.150604
 20
21.449869
 11
264.637512
 21
18.098789
  0
LINE
  8
0
  6
CONTINUOUS
 10
262.286987
 20
21.368319
 11
263.694092
 21
18.098789
  0
LINE
  8
0
  6
CONTINUOUS
 10
258.890015
 20
18.098789
 11
259.335297
 21
18.098789
  0
LINE
  8
0
  6
CONTINUOUS
 10
260.366608
 20
18.098789
 11
260.776703
 21
18.098789
  0
LINE
  8
0
  6
CONTINUOUS
 10
260.776703
 20
17.161289
 11
258.890015
 21
17.161289
  0
LINE
  8
0
  6
CONTINUOUS
 10
263.507202
 20
18.098789
 11
263.694092
 21
18.098789
  0
LINE
  8
0
  6
CONTINUOUS
 10
264.637512
 20
18.098789
 11
264.890015
 21
18.098789
  0
LINE
  8
0
  6
CONTINUOUS
 10
263.507202
 20
17.161289
 11
264.890015
 21
17.161289
  0
LINE
  8
0
  6
CONTINUOUS
 10
264.890015
 20
18.098789
 11
264.890015
 21
17.161289
  0
LINE
  8
0
  6
CONTINUOUS
 10
263.507202
 20
18.098789
 11
263.507202
 21
17.161289
  0
LINE
  8
0
  6
CONTINUOUS
 10
260.776703
 20
18.098789
 11
260.776703
 21
17.161289
  0
LINE
  8
0
  6
CONTINUOUS
 10
258.890015
 20
18.098789
 11
258.890015
 21
17.161289
  0
LINE
  8
0
  6
CONTINUOUS
 10
250.878296
 20
25.059729
 11
250.556000
 21
24.286289
  0
LINE
  8
0
  6
CONTINUOUS
 10
254.992401
 20
25.059729
 11
255.264206
 21
24.286289
  0
LINE
  8
0
  6
CONTINUOUS
 10
253.429092
 20
25.059729
 11
254.992401
 21
25.059729
  0
LINE
  8
0
  6
CONTINUOUS
 10
252.304092
 20
25.059729
 11
250.878296
 21
25.059729
  0
LINE
  8
0
  6
CONTINUOUS
 10
258.890015
 20
25.059729
 11
259.335297
 21
25.059729
  0
LINE
  8
0
  6
CONTINUOUS
 10
260.366608
 20
25.059729
 11
263.166412
 21
25.057909
  0
LINE
  8
0
  6
CONTINUOUS
 10
246.022797
 20
24.428148
 11
246.022797
 21
24.286289
  0
LINE
  8
0
  6
CONTINUOUS
 10
242.047501
 20
17.161289
 11
245.167694
 21
17.161289
  0
LINE
  8
0
  6
CONTINUOUS
 10
260.366608
 20
22.305609
 11
262.676788
 21
22.305609
  0
LINE
  8
0
  6
CONTINUOUS
 10
260.366608
 20
21.368319
 11
262.286987
 21
21.368319
  0
LINE
  8
0
  6
CONTINUOUS
 10
244.452499
 20
22.387850
 11
246.889999
 21
22.387850
  0
LINE
  8
0
  6
CONTINUOUS
 10
278.369995
 20
16.681290
 11
278.369995
 21
7.681289
  0
LINE
  8
0
  6
CONTINUOUS
 10
280.369995
 20
18.681290
 11
289.369995
 21
18.681290
  0
ARC
  8
0
  6
CONTINUOUS
 10
280.369995
 20
16.681299
 40
2.000000
 50
90.000000
 51
180.000000
  0
ARC
  8
0
  6
CONTINUOUS
 10
289.369995
 20
16.681278
 40
2.000000
 50
0.000000
 51
90.000000
  0
ARC
  8
0
  6
CONTINUOUS
 10
280.369995
 20
7.681289
 40
2.000000
 50
180.000000
 51
270.000000
  0
CIRCLE
  8
0
  6
CONTINUOUS
 10
284.890015
 20
12.161289
 40
3.250000
  0
LINE
  8
0
  6
CONTINUOUS
 10
227.410004
 20
16.681290
 11
227.410004
 21
7.681289
  0
LINE
  8
0
  6
CONTINUOUS
 10
225.410004
 20
18.681290
 11
216.410004
 21
18.681259
  0
ARC
  8
0
  6
CONTINUOUS
 10
225.410004
 20
16.681278
 40
2.000000
 50
0.000000
 51
90.000000
  0
ARC
  8
0
  6
CONTINUOUS
 10
225.410004
 20
7.681289
 40
2.000000
 50
-90.000000
 51
0.000000
  0
ARC
  8
0
  6
CONTINUOUS
 10
216.410004
 20
16.681299
 40
2.000000
 50
90.000000
 51
180.000000
  0
CIRCLE
  8
0
  6
CONTINUOUS
 10
220.889999
 20
12.161289
 40
3.250000
  0
CIRCLE
  8
0
  6
CONTINUOUS
 10
220.889999
 20
76.161285
 40
3.250000
  0
LINE
  8
0
  6
CONTINUOUS
 10
227.410004
 20
71.641289
 11
227.410004
 21
80.641289
  0
LINE
  8
0
  6
CONTINUOUS
 10
225.410004
 20
69.641289
 11
216.410004
 21
69.641258
  0
ARC
  8
0
  6
CONTINUOUS
 10
225.410004
 20
71.641289
 40
2.000000
 50
-90.000000
 51
0.000000
  0
ARC
  8
0
  6
CONTINUOUS
 10
225.410004
 20
80.641281
 40
2.000000
 50
0.000000
 51
90.000000
  0
ARC
  8
0
  6
CONTINUOUS
 10
216.410004
 20
71.641289
 40
2.000000
 50
180.000000
 51
270.000000
  0
LINE
  8
0
  6
CONTINUOUS
 10
278.369995
 20
71.641289
 11
278.369995
 21
80.641296
  0
LINE
  8
0
  6
CONTINUOUS
 10
280.369995
 20
69.641289
 11
289.369995
 21
69.641289
  0
ARC
  8
0
  6
CONTINUOUS
 10
280.369995
 20
71.641289
 40
2.000000
 50
180.000000
 51
270.000000
  0
ARC
  8
0
  6
CONTINUOUS
 10
289.369995
 20
71.641289
 40
2.000000
 50
-90.000000
 51
0.000000
  0
ARC
  8
0
  6
CONTINUOUS
 10
280.369995
 20
80.641296
 40
2.000000
 50
90.000000
 51
180.000000
  0
CIRCLE
  8
0
  6
CONTINUOUS
 10
284.890015
 20
76.161285
 40
3.250000
  0
CIRCLE
  8
0
  6
CONTINUOUS
 10
252.889999
 20
44.161289
 40
35.700001
  0
LINE
  8
0
  6
DASHED
 10
121.889999
 20
79.411285
 11
129.889999
 21
79.411285
  0
LINE
  8
0
  6
DASHED
 10
121.889999
 20
72.911285
 11
129.889999
 21
72.911285
  0
LINE
  8
0
  6
DASHED
 10
121.889999
 20
15.411289
 11
129.889999
 21
15.411289
  0
LINE
  8
0
  6
DASHED
 10
121.889999
 20
8.911289
 11
129.889999
 21
8.911289
  0
LINE
  8
0
  6
CENTER
 10
277.091888
 20
12.161289
 11
293.434998
 21
12.161289
  0
LINE
  8
0
  6
CENTER
 10
220.889999
 20
19.733946
 11
220.889999
 21
3.538945
  0
LINE
  8
0
  6
CENTER
 10
284.890015
 20
20.573320
 11
284.890015
 21
3.489570
  0
LINE
  8
0
  6
CENTER
 10
276.450012
 20
76.161285
 11
292.941254
 21
76.161285
  0
LINE
  8
0
  6
CENTER
 10
162.136414
 20
194.099075
 11
-2.406875
 21
194.099075
  0
LINE
  8
0
  6
CONTINUOUS
 10
2.890000
 20
224.099075
 11
2.890000
 21
164.099075
  0
LINE
  8
0
  6
CONTINUOUS
 10
7.855094
 20
156.670624
 11
88.889999
 21
155.963440
  0
LINE
  8
0
  6
CONTINUOUS
 10
7.855094
 20
231.527542
 11
88.889999
 21
232.234711
  0
LINE
  8
0
  6
CONTINUOUS
 10
2.890000
 20
224.099075
 11
3.890000
 21
225.099075
  0
LINE
  8
0
  6
CONTINUOUS
 10
2.890000
 20
164.099075
 11
3.890000
 21
163.099075
  0
LINE
  8
0
  6
CONTINUOUS
 10
3.890000
 20
227.527695
 11
3.890000
 21
160.670471
  0
ARC
  8
0
  6
CONTINUOUS
 10
7.890000
 20
227.527695
 40
4.000000
 50
90.500000
 51
180.000000
  0
ARC
  8
0
  6
CONTINUOUS
 10
7.890000
 20
160.670471
 40
4.000000
 50
180.000000
 51
269.500000
  0
LINE
  8
0
  6
CONTINUOUS
 10
88.889999
 20
232.234711
 11
88.889999
 21
200.965103
  0
LINE
  8
0
  6
CONTINUOUS
 10
7.855094
 20
219.027542
 11
88.889999
 21
219.734711
  0
LINE
  8
0
  6
CONTINUOUS
 10
7.890000
 20
178.616241
 11
7.890000
 21
168.234085
  0
LINE
  8
0
  6
CONTINUOUS
 10
7.407450
 20
179.115936
 11
6.785302
 21
179.137650
  0
ARC
  8
0
  6
CONTINUOUS
 10
7.390000
 20
178.616241
 40
0.500000
 50
0.000000
 51
88.000000
  0
LINE
  8
0
  6
CONTINUOUS
 10
4.890000
 20
168.234085
 11
7.890000
 21
168.234085
  0
ARC
  8
0
  6
CONTINUOUS
 10
5.510975
 20
171.899078
 40
1.300000
 50
196.601501
 51
270.000000
  0
ARC
  8
0
  6
CONTINUOUS
 10
5.510975
 20
176.299088
 40
1.300000
 50
90.000000
 51
163.398499
  0
ARC
  8
0
  6
CONTINUOUS
 10
12.890000
 20
174.099075
 40
9.000000
 50
163.398499
 51
196.601501
  0
LINE
  8
0
  6
CONTINUOUS
 10
5.510975
 20
170.599075
 11
7.890000
 21
170.599075
  0
LINE
  8
0
  6
CONTINUOUS
 10
5.510975
 20
177.599075
 11
7.890000
 21
177.599075
  0
LINE
  8
0
  6
CONTINUOUS
 10
6.490002
 20
177.599075
 11
6.490002
 21
170.599075
  0
LINE
  8
0
  6
CONTINUOUS
 10
4.071839
 20
172.299088
 11
4.495782
 21
172.659348
  0
LINE
  8
0
  6
CONTINUOUS
 10
5.741646
 20
174.480087
 11
5.204899
 21
174.936203
  0
ARC
  8
0
  6
CONTINUOUS
 10
5.417866
 20
174.099075
 40
0.500000
 50
-49.642349
 51
49.642349
  0
LINE
  8
0
  6
CONTINUOUS
 10
5.204899
 20
173.261932
 11
5.741646
 21
173.718063
  0
LINE
  8
0
  6
CONTINUOUS
 10
4.495782
 20
175.538803
 11
4.071839
 21
175.899078
  0
LINE
  8
0
  6
CONTINUOUS
 10
7.890000
 20
177.599075
 11
7.890000
 21
170.599075
  0
LINE
  8
0
  6
CONTINUOUS
 10
155.733002
 20
188.442078
 11
155.889999
 21
188.599075
  0
LINE
  8
0
  6
CONTINUOUS
 10
155.389999
 20
200.099075
 11
155.889999
 21
199.599075
  0
LINE
  8
0
  6
CONTINUOUS
 10
133.889999
 20
201.599075
 11
133.889999
 21
186.599075
  0
LINE
  8
0
  6
CONTINUOUS
 10
155.389999
 20
200.099075
 11
155.389999
 21
188.442078
  0
LINE
  8
0
  6
CONTINUOUS
 10
155.889999
 20
199.599075
 11
155.889999
 21
188.599075
  0
LINE
  8
0
  6
CONTINUOUS
 10
133.889999
 20
186.599075
 11
132.889999
 21
186.599075
  0
LINE
  8
0
  6
CONTINUOUS
 10
133.889999
 20
201.599075
 11
132.889999
 21
201.599075
  0
LINE
  8
0
  6
CONTINUOUS
 10
135.889999
 20
188.099075
 11
133.889999
 21
188.099075
  0
LINE
  8
0
  6
CONTINUOUS
 10
155.389999
 20
200.099075
 11
133.889999
 21
200.099075
  0
LINE
  8
0
  6
CONTINUOUS
 10
8.881273
 20
169.161667
 11
88.889999
 21
168.463440
  0
ARC
  8
0
  6
CONTINUOUS
 10
7.890000
 20
215.027695
 40
4.000000
 50
90.500000
 51
180.000000
  0
ARC
  8
0
  6
CONTINUOUS
 10
6.890000
 20
182.135834
 40
3.000000
 50
180.000000
 51
268.000000
  0
ARC
  8
0
  6
CONTINUOUS
 10
8.890000
 20
170.161636
 40
1.000000
 50
180.000000
 51
269.500000
  0
LINE
  8
0
  6
CONTINUOUS
 10
135.889999
 20
186.599075
 11
155.889999
 21
186.599075
  0
LINE
  8
0
  6
CONTINUOUS
 10
135.889999
 20
188.442078
 11
135.889999
 21
186.599075
  0
LINE
  8
0
  6
CONTINUOUS
 10
135.889999
 20
188.442078
 11
155.889999
 21
188.442078
  0
LINE
  8
0
  6
CONTINUOUS
 10
155.889999
 20
188.442078
 11
155.889999
 21
186.599075
  0
LINE
  8
0
  6
CONTINUOUS
 10
82.389999
 20
188.099075
 11
82.389999
 21
200.099075
  0
LINE
  8
0
  6
CONTINUOUS
 10
89.389999
 20
188.099075
 11
89.389999
 21
200.099075
  0
LINE
  8
0
  6
CONTINUOUS
 10
83.389999
 20
201.099075
 11
88.389999
 21
201.099075
  0
LINE
  8
0
  6
CONTINUOUS
 10
88.389999
 20
187.099075
 11
83.389999
 21
187.099075
  0
ARC
  8
0
  6
CONTINUOUS
 10
88.389999
 20
200.099075
 40
1.000000
 50
0.000000
 51
90.000000
  0
ARC
  8
0
  6
CONTINUOUS
 10
83.389999
 20
200.099075
 40
1.000000
 50
90.000000
 51
180.000000
  0
ARC
  8
0
  6
CONTINUOUS
 10
83.389999
 20
188.099075
 40
1.000000
 50
180.000000
 51
270.000000
  0
ARC
  8
0
  6
CONTINUOUS
 10
88.389999
 20
188.099075
 40
1.000000
 50
-90.000000
 51
0.000000
  0
LINE
  8
0
  6
CONTINUOUS
 10
86.889999
 20
190.599075
 11
86.889999
 21
197.599075
  0
LINE
  8
0
  6
CONTINUOUS
 10
84.889999
 20
190.599075
 11
84.889999
 21
197.599075
  0
ARC
  8
0
  6
CONTINUOUS
 10
85.889999
 20
197.599075
 40
1.000000
 50
90.000000
 51
180.000000
  0
ARC
  8
0
  6
CONTINUOUS
 10
85.889999
 20
197.599075
 40
1.000000
 50
0.000000
 51
90.000000
  0
ARC
  8
0
  6
CONTINUOUS
 10
85.889999
 20
190.599075
 40
1.000000
 50
180.000000
 51
270.000000
  0
ARC
  8
0
  6
CONTINUOUS
 10
85.889999
 20
190.599075
 40
1.000000
 50
-90.000000
 51
0.000000
  0
LINE
  8
0
  6
CONTINUOUS
 10
88.889999
 20
187.233047
 11
88.889999
 21
155.963440
  0
LINE
  8
0
  6
CONTINUOUS
 10
88.889961
 20
219.739075
 11
122.389999
 21
220.031433
  0
LINE
  8
0
  6
CONTINUOUS
 10
128.889999
 20
155.610001
 11
129.889999
 21
156.601273
  0
ARC
  8
0
  6
CONTINUOUS
 10
123.389999
 20
156.658035
 40
1.000000
 50
180.000000
 51
269.500000
  0
LINE
  8
0
  6
CONTINUOUS
 10
128.889999
 20
232.588150
 11
129.889999
 21
231.596878
  0
ARC
  8
0
  6
CONTINUOUS
 10
123.389999
 20
231.540115
 40
1.000000
 50
90.500000
 51
180.000000
  0
LINE
  8
0
  6
CONTINUOUS
 10
123.381302
 20
155.658081
 11
128.889999
 21
155.610001
  0
LINE
  8
0
  6
CONTINUOUS
 10
123.381302
 20
232.540070
 11
128.889999
 21
232.588150
  0
LINE
  8
0
  6
CONTINUOUS
 10
128.889999
 20
232.588150
 11
128.889999
 21
155.610016
  0
LINE
  8
0
  6
CONTINUOUS
 10
121.889999
 20
166.599075
 11
121.889999
 21
157.599075
  0
LINE
  8
0
  6
CONTINUOUS
 10
121.889999
 20
157.599075
 11
122.389999
 21
157.099075
  0
LINE
  8
0
  6
CONTINUOUS
 10
121.889999
 20
166.599075
 11
122.389999
 21
167.099075
  0
LINE
  8
0
  6
CONTINUOUS
 10
121.889999
 20
221.599075
 11
122.389999
 21
221.099075
  0
LINE
  8
0
  6
CONTINUOUS
 10
121.889999
 20
230.599075
 11
122.389999
 21
231.099075
  0
LINE
  8
0
  6
CONTINUOUS
 10
88.892609
 20
156.259064
 11
89.889999
 21
156.250366
  0
LINE
  8
0
  6
CONTINUOUS
 10
88.892609
 20
231.939087
 11
89.889999
 21
231.947784
  0
LINE
  8
0
  6
CONTINUOUS
 10
129.889999
 20
168.599075
 11
129.889999
 21
156.601273
  0
LINE
  8
0
  6
CONTINUOUS
 10
129.690002
 20
219.399078
 11
129.889999
 21
219.599075
  0
LINE
  8
0
  6
CONTINUOUS
 10
129.690002
 20
168.799088
 11
129.889999
 21
168.599075
  0
LINE
  8
0
  6
CONTINUOUS
 10
89.889999
 20
232.247803
 11
89.889999
 21
155.950348
  0
LINE
  8
0
  6
CONTINUOUS
 10
89.889999
 20
155.950348
 11
123.381302
 21
155.658081
  0
LINE
  8
0
  6
CONTINUOUS
 10
89.889999
 20
232.247803
 11
123.381302
 21
232.540070
  0
LINE
  8
0
  6
CONTINUOUS
 10
121.889999
 20
230.599075
 11
121.889999
 21
221.599075
  0
LINE
  8
0
  6
CONTINUOUS
 10
122.389999
 20
231.540115
 11
122.389999
 21
220.031433
  0
LINE
  8
0
  6
CONTINUOUS
 10
129.690002
 20
219.399078
 11
129.690002
 21
168.799088
  0
LINE
  8
0
  6
CONTINUOUS
 10
129.889999
 20
231.596878
 11
129.889999
 21
219.599075
  0
LINE
  8
0
  6
DASHED
 10
121.889999
 20
229.349075
 11
129.889999
 21
229.349075
  0
LINE
  8
0
  6
DASHED
 10
121.889999
 20
222.849075
 11
129.889999
 21
222.849075
  0
LINE
  8
0
  6
DASHED
 10
121.889999
 20
165.349075
 11
129.889999
 21
165.349075
  0
LINE
  8
0
  6
DASHED
 10
121.889999
 20
158.849075
 11
129.889999
 21
158.849075
  0
LINE
  8
0
  6
CENTER
 10
117.867203
 20
162.099075
 11
133.639999
 21
162.099075
  0
LINE
  8
0
  6
CENTER
 10
117.867203
 20
226.099075
 11
132.639999
 21
226.099075
  0
LINE
  8
0
  6
CONTINUOUS
 10
122.389999
 20
168.166733
 11
122.389999
 21
156.658035
  0
LINE
  8
0
  6
CONTINUOUS
 10
131.190002
 20
176.599075
 11
131.889999
 21
176.599075
  0
LINE
  8
0
  6
CONTINUOUS
 10
131.190002
 20
211.599075
 11
131.889999
 21
211.599075
  0
ARC
  8
0
  6
CONTINUOUS
 10
131.190002
 20
174.599075
 40
2.000000
 50
90.000000
 51
138.590393
  0
ARC
  8
0
  6
CONTINUOUS
 10
131.190002
 20
213.599075
 40
2.000000
 50
221.409622
 51
270.000000
  0
ARC
  8
0
  6
CONTINUOUS
 10
131.889999
 20
177.599075
 40
1.000000
 50
-90.000000
 51
0.000000
  0
ARC
  8
0
  6
CONTINUOUS
 10
131.889999
 20
210.599075
 40
1.000000
 50
0.000000
 51
90.000000
  0
LINE
  8
0
  6
CONTINUOUS
 10
132.889999
 20
210.599075
 11
132.889999
 21
177.599075
  0
LINE
  8
0
  6
CONTINUOUS
 10
88.889961
 20
168.459076
 11
122.389999
 21
168.166733
  0
TEXT
  8
0
 10
-2.000000
 20
0.000000
 40
4.000000
 41
1.000000
  1
FG-12M/B-3~120-S25
 50
0.000000
  0
ENDSEC
  0
EOF
