  0
SECTION
  2
HEADER
  9
$ACADVER
  1
AC1014
  9
$ACADMAINTVER
 70
     9
  9
$DWGCODEPAGE
  3
ANSI_932
  9
$INSBASE
 10
0.0
 20
0.0
 30
0.0
  9
$EXTMIN
 10
15.79406357417804
 20
52.68103400563997
 30
0.0
  9
$EXTMAX
 10
226.4598186172592
 20
216.2861480900543
 30
0.0
  9
$LIMMIN
 10
0.0
 20
0.0
  9
$LIMMAX
 10
297.0
 20
210.0
  9
$ORTHOMODE
 70
     1
  9
$REGENMODE
 70
     1
  9
$FILLMODE
 70
     1
  9
$QTEXTMODE
 70
     0
  9
$MIRRTEXT
 70
     0
  9
$DRAGMODE
 70
     2
  9
$LTSCALE
 40
1.0
  9
$OSMODE
 70
    37
  9
$ATTMODE
 70
     1
  9
$TEXTSIZE
 40
2.0
  9
$TRACEWID
 40
1.0
  9
$TEXTSTYLE
  7
STANDARD
  9
$CLAYER
  8
0
  9
$CELTYPE
  6
BYLAYER
  9
$CECOLOR
 62
   256
  9
$CELTSCALE
 40
1.0
  9
$DELOBJ
 70
     1
  9
$DISPSILH
 70
     0
  9
$DIMSCALE
 40
2.0
  9
$DIMASZ
 40
1.8
  9
$DIMEXO
 40
0.625
  9
$DIMDLI
 40
3.75
  9
$DIMRND
 40
0.0
  9
$DIMDLE
 40
0.0
  9
$DIMEXE
 40
0.8
  9
$DIMTP
 40
0.0
  9
$DIMTM
 40
0.0
  9
$DIMTXT
 40
1.8
  9
$DIMCEN
 40
2.5
  9
$DIMTSZ
 40
0.0
  9
$DIMTOL
 70
     0
  9
$DIMLIM
 70
     0
  9
$DIMTIH
 70
     0
  9
$DIMTOH
 70
     0
  9
$DIMSE1
 70
     0
  9
$DIMSE2
 70
     0
  9
$DIMTAD
 70
     1
  9
$DIMZIN
 70
     8
  9
$DIMBLK
  1

  9
$DIMASO
 70
     1
  9
$DIMSHO
 70
     1
  9
$DIMPOST
  1

  9
$DIMAPOST
  1

  9
$DIMALT
 70
     0
  9
$DIMALTD
 70
     4
  9
$DIMALTF
 40
0.0394
  9
$DIMLFAC
 40
1.0
  9
$DIMTOFL
 70
     1
  9
$DIMTVP
 40
0.0
  9
$DIMTIX
 70
     0
  9
$DIMSOXD
 70
     0
  9
$DIMSAH
 70
     0
  9
$DIMBLK1
  1

  9
$DIMBLK2
  1

  9
$DIMSTYLE
  2
STANDARD
  9
$DIMCLRD
 70
     0
  9
$DIMCLRE
 70
     0
  9
$DIMCLRT
 70
     0
  9
$DIMTFAC
 40
1.0
  9
$DIMGAP
 40
0.75
  9
$DIMJUST
 70
     0
  9
$DIMSD1
 70
     0
  9
$DIMSD2
 70
     0
  9
$DIMTOLJ
 70
     1
  9
$DIMTZIN
 70
     0
  9
$DIMALTZ
 70
     0
  9
$DIMALTTZ
 70
     0
  9
$DIMFIT
 70
     3
  9
$DIMUPT
 70
     0
  9
$DIMUNIT
 70
     8
  9
$DIMDEC
 70
     2
  9
$DIMTDEC
 70
     2
  9
$DIMALTU
 70
     8
  9
$DIMALTTD
 70
     4
  9
$DIMTXSTY
  7
STANDARD
  9
$DIMAUNIT
 70
     0
  9
$LUNITS
 70
     2
  9
$LUPREC
 70
     3
  9
$SKETCHINC
 40
1.0
  9
$FILLETRAD
 40
10.0
  9
$AUNITS
 70
     0
  9
$AUPREC
 70
     2
  9
$MENU
  1
.
  9
$ELEVATION
 40
0.0
  9
$PELEVATION
 40
0.0
  9
$THICKNESS
 40
0.0
  9
$LIMCHECK
 70
     0
  9
$BLIPMODE
 70
     0
  9
$CHAMFERA
 40
0.0
  9
$CHAMFERB
 40
0.0
  9
$CHAMFERC
 40
20.0
  9
$CHAMFERD
 40
0.0
  9
$SKPOLY
 70
     0
  9
$TDCREATE
 40
2454312.452693681
  9
$TDUPDATE
 40
2454313.369684421
  9
$TDINDWG
 40
0.1736405903
  9
$TDUSRTIMER
 40
0.1736405903
  9
$USRTIMER
 70
     1
  9
$ANGBASE
 50
0.0
  9
$ANGDIR
 70
     0
  9
$PDMODE
 70
     0
  9
$PDSIZE
 40
-10.0
  9
$PLINEWID
 40
0.0
  9
$COORDS
 70
     0
  9
$SPLFRAME
 70
     0
  9
$SPLINETYPE
 70
     6
  9
$SPLINESEGS
 70
     8
  9
$ATTDIA
 70
     0
  9
$ATTREQ
 70
     1
  9
$HANDLING
 70
-16383
  9
$HANDSEED
  5
D01
  9
$SURFTAB1
 70
     6
  9
$SURFTAB2
 70
     6
  9
$SURFTYPE
 70
     6
  9
$SURFU
 70
     6
  9
$SURFV
 70
     6
  9
$UCSNAME
  2

  9
$UCSORG
 10
0.0
 20
0.0
 30
0.0
  9
$UCSXDIR
 10
1.0
 20
0.0
 30
0.0
  9
$UCSYDIR
 10
0.0
 20
1.0
 30
0.0
  9
$PUCSNAME
  2

  9
$PUCSORG
 10
0.0
 20
0.0
 30
0.0
  9
$PUCSXDIR
 10
1.0
 20
0.0
 30
0.0
  9
$PUCSYDIR
 10
0.0
 20
1.0
 30
0.0
  9
$USERI1
 70
     0
  9
$USERI2
 70
     0
  9
$USERI3
 70
     0
  9
$USERI4
 70
     0
  9
$USERI5
 70
     0
  9
$USERR1
 40
0.0
  9
$USERR2
 40
0.0
  9
$USERR3
 40
0.0
  9
$USERR4
 40
0.0
  9
$USERR5
 40
0.0
  9
$WORLDVIEW
 70
     1
  9
$SHADEDGE
 70
     3
  9
$SHADEDIF
 70
    70
  9
$TILEMODE
 70
     1
  9
$MAXACTVP
 70
    48
  9
$PINSBASE
 10
0.0
 20
0.0
 30
0.0
  9
$PLIMCHECK
 70
     0
  9
$PEXTMIN
 10
0.0
 20
0.0
 30
0.0
  9
$PEXTMAX
 10
0.0
 20
0.0
 30
0.0
  9
$PLIMMIN
 10
0.0
 20
0.0
  9
$PLIMMAX
 10
12.0
 20
9.0
  9
$UNITMODE
 70
     0
  9
$VISRETAIN
 70
     1
  9
$PLINEGEN
 70
     0
  9
$PSLTSCALE
 70
     1
  9
$TREEDEPTH
 70
  3020
  9
$PICKSTYLE
 70
     1
  9
$CMLSTYLE
  2
STANDARD
  9
$CMLJUST
 70
     0
  9
$CMLSCALE
 40
1.0
  9
$PROXYGRAPHICS
 70
     1
  9
$MEASUREMENT
 70
     0
  0
ENDSEC
  0
SECTION
  2
CLASSES
  0
CLASS
  1
DICTIONARYVAR
  2
AcDbDictionaryVar
  3
AutoCAD 2000
 90
        0
280
     0
281
     0
  0
CLASS
  1
ACDBDICTIONARYWDFLT
  2
AcDbDictionaryWithDefault
  3
AutoCAD 2000
 90
        0
280
     0
281
     0
  0
CLASS
  1
ACDBPLACEHOLDER
  2
AcDbPlaceHolder
  3
AutoCAD 2000
 90
        0
280
     0
281
     0
  0
CLASS
  1
LAYOUT
  2
AcDbLayout
  3
AutoCAD 2000
 90
        0
280
     0
281
     0
  0
CLASS
  1
LONG_TRANSACTION
  2
AcDbLongTransaction
  3
AutoCAD 2000
 90
        0
280
     0
281
     0
  0
CLASS
  1
LWPOLYLINE
  2
AcDbPolyline
  3
AutoCAD 2000
 90
        0
280
     0
281
     1
  0
CLASS
  1
HATCH
  2
AcDbHatch
  3
AutoCAD 2000
 90
        0
280
     0
281
     1
  0
CLASS
  1
XRECORD
  2
AcDbXrecord
  3
AutoCAD 2000
 90
        0
280
     0
281
     0
  0
ENDSEC
  0
SECTION
  2
TABLES
  0
TABLE
  2
VPORT
  5
6E
330
0
100
AcDbSymbolTable
 70
     2
  0
VPORT
  5
CDB
330
6E
100
AcDbSymbolTableRecord
100
AcDbViewportTableRecord
  2
*ACTIVE
 70
     0
 10
0.0
 20
0.0
 11
1.0
 21
1.0
 12
121.1275641362038
 22
121.3936373780831
 13
0.0
 23
0.0
 14
10.0
 24
10.0
 15
10.0
 25
10.0
 16
0.0
 26
0.0
 36
1.0
 17
0.0
 27
0.0
 37
0.0
 40
191.0293471017889
 41
1.624458874458874
 42
50.0
 43
0.0
 44
0.0
 50
0.0
 51
0.0
 71
     0
 72
   100
 73
     1
 74
     3
 75
     0
 76
     0
 77
     0
 78
     0
  0
ENDTAB
  0
TABLE
  2
LTYPE
  5
69
330
0
100
AcDbSymbolTable
 70
    10
  0
LTYPE
  5
6A
330
69
100
AcDbSymbolTableRecord
100
AcDbLinetypeTableRecord
  2
BYBLOCK
 70
     0
  3

 72
    65
 73
     0
 40
0.0
  0
LTYPE
  5
6B
330
69
100
AcDbSymbolTableRecord
100
AcDbLinetypeTableRecord
  2
BYLAYER
 70
     0
  3

 72
    65
 73
     0
 40
0.0
  0
LTYPE
  5
8
330
69
100
AcDbSymbolTableRecord
100
AcDbLinetypeTableRecord
  2
CONTINUOUS
 70
     0
  3
Solid line
 72
    65
 73
     0
 40
0.0
  0
LTYPE
  5
27C
330
69
100
AcDbSymbolTableRecord
100
AcDbLinetypeTableRecord
  2
SEKKEI_A2_
 70
     0
  3
center(A2)  ____ _ ____ _ ____ _ ____ _ ____ _ 
 72
    65
 73
     4
 40
14.28749999999999
 49
9.525
 74
     0
 49
-1.587499999999999
 74
     0
 49
1.587499999999999
 74
     0
 49
-1.587499999999999
 74
     0
  0
LTYPE
  5
2B4
330
69
100
AcDbSymbolTableRecord
100
AcDbLinetypeTableRecord
  2
HIDDEN2
 70
     0
  3
Hidden (.5x) _ _ _ _ _ _ _ _ _ _ _ _ _ _ _ _ _
 72
    65
 73
     2
 40
4.762499999999999
 49
3.174999999999999
 74
     0
 49
-1.587499999999999
 74
     0
  0
LTYPE
  5
7FC
330
69
100
AcDbSymbolTableRecord
100
AcDbLinetypeTableRecord
  2
HIDDEN3
 70
     0
  3
Hidden (.3x) _ _ _ _ _ _ _ _ _ _ _ _ _ _ _ _ _
 72
    65
 73
     2
 40
2.857499999999999
 49
1.905
 74
     0
 49
-0.9525
 74
     0
  0
LTYPE
  5
86D
330
69
100
AcDbSymbolTableRecord
100
AcDbLinetypeTableRecord
  2
外形線
 70
     0
  3

 72
    65
 73
     0
 40
0.0
  0
ENDTAB
  0
TABLE
  2
LAYER
  5
66
330
0
100
AcDbSymbolTable
 70
    11
  0
LAYER
  5
5E
330
66
100
AcDbSymbolTableRecord
100
AcDbLayerTableRecord
  2
0
 70
     0
 62
     7
  6
CONTINUOUS
  0
LAYER
  5
3E
330
66
100
AcDbSymbolTableRecord
100
AcDbLayerTableRecord
  2
CENTER
 70
     0
 62
     3
  6
SEKKEI_A2_
  0
LAYER
  5
2B5
330
66
100
AcDbSymbolTableRecord
100
AcDbLayerTableRecord
  2
HIDS
 70
     0
 62
     1
  6
HIDDEN2
  0
LAYER
  5
3FA
330
66
100
AcDbSymbolTableRecord
100
AcDbLayerTableRecord
  2
TITLE
 70
     0
 62
     4
  6
CONTINUOUS
  0
LAYER
  5
86E
330
66
100
AcDbSymbolTableRecord
100
AcDbLayerTableRecord
  2
GR1-1
 70
     0
 62
     7
  6
CONTINUOUS
  0
ENDTAB
  0
TABLE
  2
STYLE
  5
67
330
0
100
AcDbSymbolTable
 70
     4
  0
STYLE
  5
16
330
67
100
AcDbSymbolTableRecord
100
AcDbTextStyleTableRecord
  2
STANDARD
 70
     0
 40
0.0
 41
1.0
 50
0.0
 71
     0
 42
2.0
  3
simplex.shx
  4
extfont.shx
  0
ENDTAB
  0
TABLE
  2
VIEW
  5
6C
330
0
100
AcDbSymbolTable
 70
     0
  0
ENDTAB
  0
TABLE
  2
UCS
  5
6D
330
0
100
AcDbSymbolTable
 70
     0
  0
ENDTAB
  0
TABLE
  2
APPID
  5
70
330
0
100
AcDbSymbolTable
 70
     1
  0
APPID
  5
71
330
70
100
AcDbSymbolTableRecord
100
AcDbRegAppTableRecord
  2
ACAD
 70
     0
  0
ENDTAB
  0
TABLE
  2
DIMSTYLE
  5
72
330
0
100
AcDbSymbolTable
 70
     2
  0
DIMSTYLE
105
73
102
{ACAD_REACTORS
330
98F
102
}
330
72
100
AcDbSymbolTableRecord
100
AcDbDimStyleTableRecord
  2
STANDARD
 70
     0
  3

  4

  5

  6

  7

 40
2.0
 41
1.8
 42
0.625
 43
3.75
 44
0.8
 45
0.0
 46
0.0
 47
0.0
 48
0.0
140
1.8
141
2.5
142
0.0
143
0.0394
144
1.0
145
0.0
146
1.0
147
0.75
 71
     0
 72
     0
 73
     0
 74
     0
 75
     0
 76
     0
 77
     1
 78
     8
170
     0
171
     4
172
     1
173
     0
174
     0
175
     0
176
     0
177
     0
178
     0
270
     8
271
     2
272
     2
273
     8
274
     4
340
16
275
     0
280
     0
281
     0
282
     0
283
     1
284
     0
285
     0
286
     0
287
     3
288
     0
  0
ENDTAB
  0
TABLE
  2
BLOCK_RECORD
  5
1
330
0
100
AcDbSymbolTable
 70
    29
  0
BLOCK_RECORD
  5
2
102
{ACAD_XDICTIONARY
360
CFD
102
}
330
1
100
AcDbSymbolTableRecord
100
AcDbBlockTableRecord
  2
*MODEL_SPACE
  0
BLOCK_RECORD
  5
CD6
102
{ACAD_XDICTIONARY
360
CFF
102
}
330
1
100
AcDbSymbolTableRecord
100
AcDbBlockTableRecord
  2
*PAPER_SPACE
  0
BLOCK_RECORD
  5
80B
330
1
100
AcDbSymbolTableRecord
100
AcDbBlockTableRecord
  2
BLKF026
  0
ENDTAB
  0
ENDSEC
  0
SECTION
  2
BLOCKS
  0
BLOCK
  5
5D
330
2
100
AcDbEntity
  8
0
100
AcDbBlockBegin
  2
*MODEL_SPACE
 70
     0
 10
0.0
 20
0.0
 30
0.0
  3
*MODEL_SPACE
  1

  0
ENDBLK
  5
5F
330
2
100
AcDbEntity
  8
0
100
AcDbBlockEnd
  0
BLOCK
  5
CD8
330
CD6
100
AcDbEntity
 67
     1
  8
0
100
AcDbBlockBegin
  2
*PAPER_SPACE
 70
     0
 10
0.0
 20
0.0
 30
0.0
  3
*PAPER_SPACE
  1

  0
ENDBLK
  5
CD9
330
CD6
100
AcDbEntity
 67
     1
  8
0
100
AcDbBlockEnd
  0
BLOCK
  5
813
330
80B
100
AcDbEntity
  8
0
100
AcDbBlockBegin
  2
BLKF026
 70
     0
 10
0.0
 20
0.0
 30
0.0
  3
BLKF026
  1

  0
LINE
  5
80C
330
80B
100
AcDbEntity
  8
GR1-1
  6
外形線
 62
     7
100
AcDbLine
 10
309.9846509999999
 20
223.409167
 30
0.0
 11
309.9450029999999
 21
222.1017649999999
 31
0.0
  0
LINE
  5
80D
330
80B
100
AcDbEntity
  8
GR1-1
  6
外形線
 62
     7
100
AcDbLine
 10
309.9450029999999
 20
222.1017649999999
 30
0.0
 11
309.827322
 21
220.8522279999999
 31
0.0
  0
LINE
  5
80E
330
80B
100
AcDbEntity
  8
GR1-1
  6
外形線
 62
     7
100
AcDbLine
 10
309.827322
 20
220.8522279999999
 30
0.0
 11
309.635618
 21
219.7186879999999
 31
0.0
  0
LINE
  5
80F
330
80B
100
AcDbEntity
  8
GR1-1
  6
外形線
 62
     7
100
AcDbLine
 10
309.635618
 20
219.7186879999999
 30
0.0
 11
309.377224
 21
218.7586839999999
 31
0.0
  0
LINE
  5
810
330
80B
100
AcDbEntity
  8
GR1-1
  6
外形線
 62
     7
100
AcDbLine
 10
309.377224
 20
218.7586839999999
 30
0.0
 11
309.0634029999999
 21
218.026095
 31
0.0
  0
LINE
  5
811
330
80B
100
AcDbEntity
  8
GR1-1
  6
外形線
 62
     7
100
AcDbLine
 10
309.0634029999999
 20
218.026095
 30
0.0
 11
308.7095549999999
 21
217.566099
 31
0.0
  0
LINE
  5
812
330
80B
100
AcDbEntity
  8
GR1-1
  6
外形線
 62
     7
100
AcDbLine
 10
308.7095549999999
 20
217.566099
 30
0.0
 11
308.3346509999999
 21
217.409167
 31
0.0
  0
ENDBLK
  5
814
330
80B
100
AcDbEntity
  8
0
100
AcDbBlockEnd
  0
ENDSEC
  0
SECTION
  2
ENTITIES
  0
LINE
  5
96C
330
2
100
AcDbEntity
  8
0
100
AcDbLine
 10
84.51741061725938
 20
53.09526756801301
 30
0.0
 11
84.51741061725938
 21
181.095247568013
 31
0.0
  0
LINE
  5
96D
330
2
100
AcDbEntity
  8
0
100
AcDbLine
 10
16.51741061725931
 20
53.09524756801306
 30
0.0
 11
16.51741061725931
 21
181.095247568013
 31
0.0
  0
LINE
  5
96E
330
2
100
AcDbEntity
  8
0
100
AcDbLine
 10
16.51741061725931
 20
55.09524756801306
 30
0.0
 11
16.51741061725931
 21
119.700730568013
 31
0.0
  0
LINE
  5
971
330
2
100
AcDbEntity
  8
0
100
AcDbLine
 10
29.51741061725937
 20
53.09526756801301
 30
0.0
 11
81.33666361725927
 21
53.09526756801301
 31
0.0
  0
LINE
  5
972
330
2
100
AcDbEntity
  8
0
100
AcDbLine
 10
84.51741061725938
 20
53.09524756801306
 30
0.0
 11
16.51741061725931
 21
53.09524756801306
 31
0.0
  0
LINE
  5
973
330
2
100
AcDbEntity
  8
HIDS
  6
HIDDEN3
100
AcDbLine
 10
18.44761161725932
 20
63.24041556801308
 30
0.0
 11
19.01741061725931
 21
63.22051756801307
 31
0.0
  0
ARC
  5
974
330
2
100
AcDbEntity
  8
0
100
AcDbCircle
 10
18.51741061725931
 20
55.09524756801306
 30
0.0
 40
2.0
100
AcDbArc
 50
180.0
 51
270.0
  0
ARC
  5
975
330
2
100
AcDbEntity
  8
HIDS
  6
HIDDEN3
100
AcDbCircle
 10
18.51741061725931
 20
65.23919756801308
 30
0.0
 40
2.0
100
AcDbArc
 50
180.0
 51
268.0000000000029
  0
ARC
  5
976
330
2
100
AcDbEntity
  8
HIDS
  6
HIDDEN3
100
AcDbCircle
 10
22.51741061725937
 20
58.09524756801306
 30
0.0
 40
5.0
100
AcDbArc
 50
0.0
 51
88.00000000000286
  0
LINE
  5
977
330
2
100
AcDbEntity
  8
CENTER
100
AcDbLine
 10
26.01741061725937
 20
58.09524756801306
 30
0.0
 11
19.01741061725931
 21
58.09524756801306
 31
0.0
  0
ARC
  5
978
330
2
100
AcDbEntity
  8
HIDS
  6
HIDDEN3
100
AcDbCircle
 10
22.51741061725937
 20
58.09524756801306
 30
0.0
 40
2.5
100
AcDbArc
 50
0.0
 51
180.0
  0
LINE
  5
979
330
2
100
AcDbEntity
  8
CENTER
100
AcDbLine
 10
22.51741061725937
 20
61.59524756801307
 30
0.0
 11
22.51741061725937
 21
54.59524756801306
 31
0.0
  0
LINE
  5
97A
330
2
100
AcDbEntity
  8
HIDS
  6
HIDDEN3
100
AcDbLine
 10
20.01741061725931
 20
53.09524756801306
 30
0.0
 11
20.01741061725931
 21
58.09524756801306
 31
0.0
  0
LINE
  5
97B
330
2
100
AcDbEntity
  8
HIDS
  6
HIDDEN3
100
AcDbLine
 10
19.19122861725935
 20
63.21444756801304
 30
0.0
 11
22.69190861725923
 21
63.09220156801302
 31
0.0
  0
LINE
  5
97C
330
2
100
AcDbEntity
  8
HIDS
  6
HIDDEN3
100
AcDbLine
 10
19.01741061725931
 20
63.22051756801307
 30
0.0
 11
19.1892666172593
 21
63.22051756801307
 31
0.0
  0
LINE
  5
97D
330
2
100
AcDbEntity
  8
HIDS
  6
HIDDEN3
100
AcDbLine
 10
19.01741061725931
 20
63.22053856801312
 30
0.0
 11
19.1892666172593
 21
63.22053856801312
 31
0.0
  0
ARC
  5
97E
330
2
100
AcDbEntity
  8
HIDS
  6
HIDDEN3
100
AcDbCircle
 10
29.51741061725937
 20
55.09524756801306
 30
0.0
 40
2.0
100
AcDbArc
 50
180.0
 51
270.0
  0
ARC
  5
97F
330
2
100
AcDbEntity
  8
HIDS
  6
HIDDEN3
100
AcDbCircle
 10
29.51741061725937
 20
55.09526756801301
 30
0.0
 40
2.0
100
AcDbArc
 50
180.0
 51
270.0
  0
LINE
  5
980
330
2
100
AcDbEntity
  8
HIDS
  6
HIDDEN3
100
AcDbLine
 10
27.51741061725937
 20
58.09524756801306
 30
0.0
 11
27.51741061725937
 21
55.09524756801306
 31
0.0
  0
LINE
  5
981
330
2
100
AcDbEntity
  8
HIDS
  6
HIDDEN3
100
AcDbLine
 10
25.01741061725937
 20
53.09524756801306
 30
0.0
 11
25.01741061725937
 21
58.09524756801306
 31
0.0
  0
ARC
  5
982
330
2
100
AcDbEntity
  8
0
100
AcDbCircle
 10
82.51741061725937
 20
55.09526756801301
 30
0.0
 40
2.0
100
AcDbArc
 50
270.0
 51
0.0
  0
LINE
  5
983
330
2
100
AcDbEntity
  8
0
100
AcDbLine
 10
16.51741061725931
 20
133.095247568013
 30
0.0
 11
84.51741061725938
 21
133.095247568013
 31
0.0
  0
LINE
  5
984
330
2
100
AcDbEntity
  8
0
100
AcDbLine
 10
20.01741061725931
 20
133.595247568013
 30
0.0
 11
81.01741061725936
 21
133.595247568013
 31
0.0
  0
LINE
  5
985
330
2
100
AcDbEntity
  8
0
100
AcDbLine
 10
81.01741061725936
 20
178.595247568013
 30
0.0
 11
20.01741061725931
 21
178.595247568013
 31
0.0
  0
LINE
  5
986
330
2
100
AcDbEntity
  8
0
100
AcDbLine
 10
16.51741061725931
 20
181.095247568013
 30
0.0
 11
84.51741061725938
 21
181.095247568013
 31
0.0
  0
LINE
  5
987
330
2
100
AcDbEntity
  8
0
100
AcDbLine
 10
22.01741061725937
 20
165.595247568013
 30
0.0
 11
51.51741061725937
 21
165.595247568013
 31
0.0
  0
LINE
  5
988
330
2
100
AcDbEntity
  8
0
100
AcDbLine
 10
51.51741061725937
 20
174.595247568013
 30
0.0
 11
22.01741061725937
 21
174.595247568013
 31
0.0
  0
ARC
  5
98A
330
2
100
AcDbEntity
  8
0
100
AcDbCircle
 10
20.01741061725931
 20
177.595247568013
 30
0.0
 40
1.0
100
AcDbArc
 50
90.0
 51
180.0
  0
ARC
  5
98B
330
2
100
AcDbEntity
  8
0
100
AcDbCircle
 10
20.01741061725931
 20
134.595247568013
 30
0.0
 40
1.0
100
AcDbArc
 50
180.0
 51
270.0
  0
ARC
  5
98C
330
2
100
AcDbEntity
  8
0
100
AcDbCircle
 10
18.51741061725931
 20
179.095247568013
 30
0.0
 40
2.0
100
AcDbArc
 50
90.0
 51
180.0
  0
LINE
  5
98D
330
2
100
AcDbEntity
  8
0
100
AcDbLine
 10
19.01741061725931
 20
177.595247568013
 30
0.0
 11
19.01741061725931
 21
134.595247568013
 31
0.0
  0
LINE
  5
98E
330
2
100
AcDbEntity
  8
0
100
AcDbLine
 10
22.01741061725937
 20
174.595247568013
 30
0.0
 11
22.01741061725937
 21
165.595247568013
 31
0.0
  0
LINE
  5
991
330
2
100
AcDbEntity
  8
0
100
AcDbLine
 10
53.98151261725928
 20
128.595247568013
 30
0.0
 11
51.01741061725937
 21
128.595247568013
 31
0.0
  0
LINE
  5
992
330
2
100
AcDbEntity
  8
0
100
AcDbLine
 10
51.01741061725937
 20
127.595247568013
 30
0.0
 11
53.98151261725928
 21
127.595247568013
 31
0.0
  0
CIRCLE
  5
993
330
2
100
AcDbEntity
  8
0
100
AcDbCircle
 10
50.51741061725937
 20
128.095247568013
 30
0.0
 40
3.5
  0
ARC
  5
994
330
2
100
AcDbEntity
  8
0
100
AcDbCircle
 10
50.51741061725937
 20
128.095247568013
 30
0.0
 40
4.0
100
AcDbArc
 50
180.0
 51
0.0
  0
LINE
  5
995
330
2
100
AcDbEntity
  8
0
100
AcDbLine
 10
50.01741061725937
 20
128.595247568013
 30
0.0
 11
47.05330961725934
 21
128.595247568013
 31
0.0
  0
LINE
  5
996
330
2
100
AcDbEntity
  8
0
100
AcDbLine
 10
47.05330961725934
 20
127.595247568013
 30
0.0
 11
50.01741061725937
 21
127.595247568013
 31
0.0
  0
LINE
  5
997
330
2
100
AcDbEntity
  8
0
100
AcDbLine
 10
46.51741061725937
 20
128.095247568013
 30
0.0
 11
46.51741061725937
 21
133.095247568013
 31
0.0
  0
LINE
  5
998
330
2
100
AcDbEntity
  8
0
100
AcDbLine
 10
50.01741061725937
 20
130.260247568013
 30
0.0
 11
51.01741061725937
 21
130.260247568013
 31
0.0
  0
LINE
  5
999
330
2
100
AcDbEntity
  8
0
100
AcDbLine
 10
50.01741061725937
 20
125.930247568013
 30
0.0
 11
51.01741061725937
 21
125.930247568013
 31
0.0
  0
LINE
  5
99A
330
2
100
AcDbEntity
  8
0
100
AcDbLine
 10
50.01741061725937
 20
130.260247568013
 30
0.0
 11
50.01741061725937
 21
128.595247568013
 31
0.0
  0
LINE
  5
99B
330
2
100
AcDbEntity
  8
0
100
AcDbLine
 10
50.01741061725937
 20
127.595247568013
 30
0.0
 11
50.01741061725937
 21
125.930247568013
 31
0.0
  0
LINE
  5
99C
330
2
100
AcDbEntity
  8
0
100
AcDbLine
 10
51.01741061725937
 20
128.595247568013
 30
0.0
 11
51.01741061725937
 21
130.260247568013
 31
0.0
  0
LINE
  5
99D
330
2
100
AcDbEntity
  8
0
100
AcDbLine
 10
51.01741061725937
 20
125.930247568013
 30
0.0
 11
51.01741061725937
 21
127.595247568013
 31
0.0
  0
LINE
  5
99E
330
2
100
AcDbEntity
  8
0
100
AcDbLine
 10
54.51741061725937
 20
128.095247568013
 30
0.0
 11
54.51741061725937
 21
133.095247568013
 31
0.0
  0
LINE
  5
99F
330
2
100
AcDbEntity
  8
0
100
AcDbLine
 10
51.51741061725937
 20
165.595247568013
 30
0.0
 11
51.51741061725937
 21
174.595247568013
 31
0.0
  0
CIRCLE
  5
9A0
330
2
100
AcDbEntity
  8
0
100
AcDbCircle
 10
73.51741061725937
 20
154.095247568013
 30
0.0
 40
4.0
  0
LINE
  5
9A1
330
2
100
AcDbEntity
  8
0
100
AcDbLine
 10
82.01741061725938
 20
134.595247568013
 30
0.0
 11
82.01741061725938
 21
177.595247568013
 31
0.0
  0
CIRCLE
  5
9A2
330
2
100
AcDbEntity
  8
0
100
AcDbCircle
 10
73.51741061725937
 20
154.095247568013
 30
0.0
 40
4.5
  0
LINE
  5
9A3
330
2
100
AcDbEntity
  8
0
100
AcDbLine
 10
73.2174106172593
 20
120.769570568013
 30
0.0
 11
78.2174106172593
 21
120.769570568013
 31
0.0
  0
LINE
  5
9A4
330
2
100
AcDbEntity
  8
0
100
AcDbLine
 10
78.2174106172593
 20
125.820923568013
 30
0.0
 11
73.2174106172593
 21
125.820923568013
 31
0.0
  0
LINE
  5
9A5
330
2
100
AcDbEntity
  8
0
100
AcDbLine
 10
73.2174106172593
 20
126.5695705680131
 30
0.0
 11
78.2174106172593
 21
126.5695705680131
 31
0.0
  0
LINE
  5
9A6
330
2
100
AcDbEntity
  8
0
100
AcDbLine
 10
78.2174106172593
 20
131.620923568013
 30
0.0
 11
73.2174106172593
 21
131.620923568013
 31
0.0
  0
LINE
  5
9A7
330
2
100
AcDbEntity
  8
0
100
AcDbLine
 10
72.19173461725933
 20
124.795247568013
 30
0.0
 11
72.19173461725933
 21
121.795247568013
 31
0.0
  0
ARC
  5
9A8
330
2
100
AcDbEntity
  8
0
100
AcDbCircle
 10
73.2174106172593
 20
121.795247568013
 30
0.0
 40
1.025676467399989
100
AcDbArc
 50
180.0
 51
270.0
  0
LINE
  5
9A9
330
2
100
AcDbEntity
  8
0
100
AcDbLine
 10
72.19173461725933
 20
130.595247568013
 30
0.0
 11
72.19173461725933
 21
127.595247568013
 31
0.0
  0
ARC
  5
9AA
330
2
100
AcDbEntity
  8
0
100
AcDbCircle
 10
73.2174106172593
 20
130.595247568013
 30
0.0
 40
1.025676467399989
100
AcDbArc
 50
90.0
 51
180.0
  0
ARC
  5
9AB
330
2
100
AcDbEntity
  8
0
100
AcDbCircle
 10
73.2174106172593
 20
127.595247568013
 30
0.0
 40
1.025676467399989
100
AcDbArc
 50
180.0
 51
270.0
  0
ARC
  5
9AC
330
2
100
AcDbEntity
  8
0
100
AcDbCircle
 10
73.2174106172593
 20
124.795247568013
 30
0.0
 40
1.025676467399989
100
AcDbArc
 50
90.0
 51
180.0
  0
LINE
  5
9AD
330
2
100
AcDbEntity
  8
0
100
AcDbLine
 10
79.24308761725928
 20
121.795247568013
 30
0.0
 11
79.24308761725928
 21
124.795247568013
 31
0.0
  0
ARC
  5
9AE
330
2
100
AcDbEntity
  8
0
100
AcDbCircle
 10
78.2174106172593
 20
121.795247568013
 30
0.0
 40
1.025676467399989
100
AcDbArc
 50
270.0
 51
0.0
  0
LINE
  5
9AF
330
2
100
AcDbEntity
  8
0
100
AcDbLine
 10
79.24308761725928
 20
127.595247568013
 30
0.0
 11
79.24308761725928
 21
130.595247568013
 31
0.0
  0
ARC
  5
9B0
330
2
100
AcDbEntity
  8
0
100
AcDbCircle
 10
78.2174106172593
 20
130.595247568013
 30
0.0
 40
1.025676467399989
100
AcDbArc
 50
0.0
 51
90.0
  0
ARC
  5
9B1
330
2
100
AcDbEntity
  8
0
100
AcDbCircle
 10
78.2174106172593
 20
127.595247568013
 30
0.0
 40
1.025676467399989
100
AcDbArc
 50
270.0
 51
0.0
  0
ARC
  5
9B2
330
2
100
AcDbEntity
  8
0
100
AcDbCircle
 10
78.2174106172593
 20
124.795247568013
 30
0.0
 40
1.025676467399989
100
AcDbArc
 50
0.0
 51
90.0
  0
ARC
  5
9B3
330
2
100
AcDbEntity
  8
0
100
AcDbCircle
 10
81.01741061725936
 20
134.595247568013
 30
0.0
 40
1.0
100
AcDbArc
 50
270.0
 51
0.0
  0
ARC
  5
9B4
330
2
100
AcDbEntity
  8
HIDS
  6
HIDDEN3
100
AcDbCircle
 10
78.51741061725937
 20
176.095247568013
 30
0.0
 40
2.5
100
AcDbArc
 50
180.0
 51
0.0
  0
ARC
  5
9B5
330
2
100
AcDbEntity
  8
HIDS
  6
HIDDEN3
100
AcDbCircle
 10
78.51741061725937
 20
176.095267568013
 30
0.0
 40
5.0
100
AcDbArc
 50
180.0
 51
268.0000000000029
  0
LINE
  5
9B6
330
2
100
AcDbEntity
  8
CENTER
100
AcDbLine
 10
82.01741061725938
 20
176.095247568013
 30
0.0
 11
75.01741061725937
 21
176.095247568013
 31
0.0
  0
LINE
  5
9B7
330
2
100
AcDbEntity
  8
HIDS
  6
HIDDEN3
100
AcDbLine
 10
73.51741061725937
 20
179.095267568013
 30
0.0
 11
73.51741061725937
 21
176.095267568013
 31
0.0
  0
LINE
  5
9B8
330
2
100
AcDbEntity
  8
HIDS
  6
HIDDEN3
100
AcDbLine
 10
76.01741061725937
 20
181.095247568013
 30
0.0
 11
76.01741061725937
 21
176.095247568013
 31
0.0
  0
LINE
  5
9B9
330
2
100
AcDbEntity
  8
0
100
AcDbLine
 10
73.51208861725928
 20
157.7994825680131
 30
0.0
 11
73.26208861725928
 21
157.018212568013
 31
0.0
  0
LINE
  5
9BA
330
2
100
AcDbEntity
  8
0
100
AcDbLine
 10
73.51208861725928
 20
157.7994825680131
 30
0.0
 11
73.76208861725928
 21
157.018212568013
 31
0.0
  0
ARC
  5
9BB
330
2
100
AcDbEntity
  8
HIDS
  6
HIDDEN3
100
AcDbCircle
 10
71.51741061725937
 20
179.095267568013
 30
0.0
 40
2.0
100
AcDbArc
 50
0.0
 51
90.0
  0
LINE
  5
9BC
330
2
100
AcDbEntity
  8
HIDS
  6
HIDDEN3
100
AcDbLine
 10
81.01741061725936
 20
181.095247568013
 30
0.0
 11
81.01741061725936
 21
176.095247568013
 31
0.0
  0
LINE
  5
9BD
330
2
100
AcDbEntity
  8
CENTER
100
AcDbLine
 10
78.51741061725937
 20
179.595247568013
 30
0.0
 11
78.51741061725937
 21
170.603401568013
 31
0.0
  0
ARC
  5
9BE
330
2
100
AcDbEntity
  8
HIDS
  6
HIDDEN3
100
AcDbCircle
 10
82.51741061725937
 20
168.9513175680131
 30
0.0
 40
2.0
100
AcDbArc
 50
0.0
 51
88.00000000000286
  0
LINE
  5
9BF
330
2
100
AcDbEntity
  8
HIDS
  6
HIDDEN3
100
AcDbLine
 10
78.34291361725928
 20
171.098313568013
 30
0.0
 11
82.58720961725925
 21
170.950099568013
 31
0.0
  0
ARC
  5
9C0
330
2
100
AcDbEntity
  8
0
100
AcDbCircle
 10
82.51741061725937
 20
179.095247568013
 30
0.0
 40
2.0
100
AcDbArc
 50
0.0
 51
90.0
  0
ARC
  5
9C1
330
2
100
AcDbEntity
  8
0
100
AcDbCircle
 10
81.01741061725936
 20
177.595247568013
 30
0.0
 40
1.0
100
AcDbArc
 50
0.0
 51
90.0
  0
ARC
  5
9C2
330
2
100
AcDbEntity
  8
0
100
AcDbCircle
 10
191.9598186172592
 20
117.095247568013
 30
0.0
 40
24.79999999999998
100
AcDbArc
 50
351.0790480000001
 51
8.920951999999799
  0
LINE
  5
9C3
330
2
100
AcDbEntity
  8
0
100
AcDbLine
 10
214.4598186172592
 20
110.095247568013
 30
0.0
 11
214.4598186172592
 21
124.095247568013
 31
0.0
  0
LINE
  5
9C4
330
2
100
AcDbEntity
  8
0
100
AcDbLine
 10
218.4598186172592
 20
86.34524756801306
 30
0.0
 11
218.4598186172592
 21
141.845247568013
 31
0.0
  0
LINE
  5
9C5
330
2
100
AcDbEntity
  8
0
100
AcDbLine
 10
220.6598186172592
 20
142.1480045680131
 30
0.0
 11
220.6598186172592
 21
86.04248956801308
 31
0.0
  0
LINE
  5
9C6
330
2
100
AcDbEntity
  8
0
100
AcDbLine
 10
182.6598186172592
 20
103.095247568013
 30
0.0
 11
182.6598186172592
 21
131.095247568013
 31
0.0
  0
LINE
  5
9C7
330
2
100
AcDbEntity
  8
0
100
AcDbLine
 10
212.4598186172592
 20
124.095247568013
 30
0.0
 11
212.4598186172592
 21
110.095247568013
 31
0.0
  0
LINE
  5
9C8
330
2
100
AcDbEntity
  8
0
100
AcDbLine
 10
172.6598186172592
 20
131.095247568013
 30
0.0
 11
172.6598186172592
 21
103.095247568013
 31
0.0
  0
LINE
  5
9C9
330
2
100
AcDbEntity
  8
0
100
AcDbLine
 10
176.6598186172593
 20
103.095247568013
 30
0.0
 11
176.6598186172593
 21
131.095247568013
 31
0.0
  0
LINE
  5
9CA
330
2
100
AcDbEntity
  8
0
100
AcDbLine
 10
178.6598186172593
 20
131.095247568013
 30
0.0
 11
178.6598186172593
 21
103.095247568013
 31
0.0
  0
LINE
  5
9CB
330
2
100
AcDbEntity
  8
0
100
AcDbLine
 10
223.4598186172592
 20
53.09524756801306
 30
0.0
 11
223.4598186172592
 21
181.095247568013
 31
0.0
  0
LINE
  5
9CC
330
2
100
AcDbEntity
  8
0
100
AcDbLine
 10
226.4598186172592
 20
53.09524756801306
 30
0.0
 11
226.4598186172592
 21
181.095247568013
 31
0.0
  0
LINE
  5
9CD
330
2
100
AcDbEntity
  8
0
100
AcDbLine
 10
150.4598186172592
 20
55.222973568013
 30
0.0
 11
150.4598186172592
 21
133.095247568013
 31
0.0
  0
LINE
  5
9CE
330
2
100
AcDbEntity
  8
0
100
AcDbLine
 10
183.6598186172593
 20
131.095247568013
 30
0.0
 11
183.6598186172593
 21
70.09524756801306
 31
0.0
  0
LINE
  5
9CF
330
2
100
AcDbEntity
  8
0
100
AcDbLine
 10
207.6598186172593
 20
70.09524756801306
 30
0.0
 11
207.6598186172593
 21
131.095247568013
 31
0.0
  0
LINE
  5
9D0
330
2
100
AcDbEntity
  8
0
100
AcDbLine
 10
158.4598186172592
 20
53.11793856801307
 30
0.0
 11
158.4598186172592
 21
181.095247568013
 31
0.0
  0
LINE
  5
9D2
330
2
100
AcDbEntity
  8
0
100
AcDbLine
 10
178.6598186172593
 20
103.095247568013
 30
0.0
 11
182.6598186172592
 21
103.095247568013
 31
0.0
  0
LINE
  5
9D3
330
2
100
AcDbEntity
  8
0
100
AcDbLine
 10
182.6598186172592
 20
98.09524756801307
 30
0.0
 11
178.6598186172593
 21
98.09524756801307
 31
0.0
  0
LINE
  5
9D4
330
2
100
AcDbEntity
  8
0
100
AcDbLine
 10
178.6598186172593
 20
85.59524756801307
 30
0.0
 11
182.6598186172592
 21
85.59524756801307
 31
0.0
  0
LINE
  5
9D5
330
2
100
AcDbEntity
  8
0
100
AcDbLine
 10
182.6598186172592
 20
82.59524756801306
 30
0.0
 11
178.6598186172593
 21
82.59524756801306
 31
0.0
  0
LINE
  5
9D6
330
2
100
AcDbEntity
  8
0
100
AcDbLine
 10
178.6598186172593
 20
70.09524756801306
 30
0.0
 11
182.6598186172592
 21
70.09524756801306
 31
0.0
  0
LINE
  5
9D7
330
2
100
AcDbEntity
  8
0
100
AcDbLine
 10
171.9598186172592
 20
57.59524756801306
 30
0.0
 11
196.4598186172592
 21
57.59524756801306
 31
0.0
  0
LINE
  5
9D8
330
2
100
AcDbEntity
  8
0
100
AcDbLine
 10
158.4598186172592
 20
53.09524756801306
 30
0.0
 11
198.4598186172592
 21
53.09524756801306
 31
0.0
  0
LINE
  5
9D9
330
2
100
AcDbEntity
  8
0
100
AcDbLine
 10
152.4249136172592
 20
53.22327856801303
 30
0.0
 11
158.4598186172592
 21
53.11793856801307
 31
0.0
  0
ARC
  5
9DA
330
2
100
AcDbEntity
  8
0
100
AcDbCircle
 10
152.4598186172592
 20
55.222973568013
 30
0.0
 40
2.0
100
AcDbArc
 50
180.0
 51
268.9999999999982
  0
LINE
  5
9DB
330
2
100
AcDbEntity
  8
0
100
AcDbLine
 10
172.6598186172592
 20
98.09524756801307
 30
0.0
 11
172.6598186172592
 21
70.09524756801306
 31
0.0
  0
LINE
  5
9DC
330
2
100
AcDbEntity
  8
0
100
AcDbLine
 10
176.6598186172593
 20
70.09524756801306
 30
0.0
 11
176.6598186172593
 21
98.09524756801307
 31
0.0
  0
LINE
  5
9DD
330
2
100
AcDbEntity
  8
0
100
AcDbLine
 10
178.6598186172593
 20
98.09524756801307
 30
0.0
 11
178.6598186172593
 21
70.09524756801306
 31
0.0
  0
ARC
  5
9DE
330
2
100
AcDbEntity
  8
0
100
AcDbCircle
 10
171.9598186172592
 20
55.59524756801306
 30
0.0
 40
2.0
100
AcDbArc
 50
90.0
 51
180.0
  0
LINE
  5
9DF
330
2
100
AcDbEntity
  8
0
100
AcDbLine
 10
163.2598186172593
 20
56.99524756801304
 30
0.0
 11
168.6598186172593
 21
56.99524756801304
 31
0.0
  0
LINE
  5
9E0
330
2
100
AcDbEntity
  8
0
100
AcDbLine
 10
168.6598186172593
 20
59.19524756801308
 30
0.0
 11
163.2598186172593
 21
59.19524756801308
 31
0.0
  0
LINE
  5
9E1
330
2
100
AcDbEntity
  8
0
100
AcDbLine
 10
163.2598186172593
 20
59.19524756801308
 30
0.0
 11
163.2598186172593
 21
56.99524756801304
 31
0.0
  0
LINE
  5
9E2
330
2
100
AcDbEntity
  8
0
100
AcDbLine
 10
168.6598186172593
 20
56.99524756801304
 30
0.0
 11
168.6598186172593
 21
59.19524756801308
 31
0.0
  0
LINE
  5
9E3
330
2
100
AcDbEntity
  8
0
100
AcDbLine
 10
172.6598186172592
 20
70.09524756801306
 30
0.0
 11
176.6598186172593
 21
70.09524756801306
 31
0.0
  0
LINE
  5
9E4
330
2
100
AcDbEntity
  8
0
100
AcDbLine
 10
169.9598186172592
 20
53.09524756801306
 30
0.0
 11
169.9598186172592
 21
55.59524756801306
 31
0.0
  0
LINE
  5
9E5
330
2
100
AcDbEntity
  8
0
100
AcDbLine
 10
176.6598186172593
 20
85.59524756801307
 30
0.0
 11
172.6598186172592
 21
85.59524756801307
 31
0.0
  0
LINE
  5
9E6
330
2
100
AcDbEntity
  8
0
100
AcDbLine
 10
176.6598186172593
 20
82.59524756801306
 30
0.0
 11
172.6598186172592
 21
82.59524756801306
 31
0.0
  0
LINE
  5
9E7
330
2
100
AcDbEntity
  8
0
100
AcDbLine
 10
172.6598186172592
 20
103.095247568013
 30
0.0
 11
176.6598186172593
 21
103.095247568013
 31
0.0
  0
LINE
  5
9E8
330
2
100
AcDbEntity
  8
0
100
AcDbLine
 10
176.6598186172593
 20
98.09524756801307
 30
0.0
 11
172.6598186172592
 21
98.09524756801307
 31
0.0
  0
LINE
  5
9E9
330
2
100
AcDbEntity
  8
0
100
AcDbLine
 10
198.4598186172592
 20
53.09524756801306
 30
0.0
 11
226.4598186172592
 21
53.09524756801306
 31
0.0
  0
LINE
  5
9EA
330
2
100
AcDbEntity
  8
0
100
AcDbLine
 10
183.6598186172593
 20
70.09524756801306
 30
0.0
 11
207.6396646172592
 21
70.09524756801306
 31
0.0
  0
LINE
  5
9EB
330
2
100
AcDbEntity
  8
0
100
AcDbLine
 10
182.6598186172592
 20
70.09524756801306
 30
0.0
 11
182.6598186172592
 21
98.09524756801307
 31
0.0
  0
ARC
  5
9EC
330
2
100
AcDbEntity
  8
0
100
AcDbCircle
 10
196.4598186172592
 20
55.59524756801306
 30
0.0
 40
2.0
100
AcDbArc
 50
0.0
 51
90.0
  0
LINE
  5
9ED
330
2
100
AcDbEntity
  8
0
100
AcDbLine
 10
198.4598186172592
 20
53.09524756801306
 30
0.0
 11
198.4598186172592
 21
55.59524756801306
 31
0.0
  0
LINE
  5
9EE
330
2
100
AcDbEntity
  8
0
100
AcDbLine
 10
198.3732376172593
 20
56.17733556801306
 30
0.0
 11
196.5937926172593
 21
53.09524756801306
 31
0.0
  0
ARC
  5
9EF
330
2
100
AcDbEntity
  8
0
100
AcDbCircle
 10
219.9598186172592
 20
72.84524756801307
 30
0.0
 40
1.0
100
AcDbArc
 50
270.0
 51
0.0
  0
ARC
  5
9F0
330
2
100
AcDbEntity
  8
0
100
AcDbCircle
 10
217.4598186172592
 20
70.84524756801306
 30
0.0
 40
1.0
100
AcDbArc
 50
90.0
 51
180.0
  0
LINE
  5
9F1
330
2
100
AcDbEntity
  8
0
100
AcDbLine
 10
218.4598186172592
 20
53.09524756801306
 30
0.0
 11
218.4598186172592
 21
71.84524756801306
 31
0.0
  0
LINE
  5
9F2
330
2
100
AcDbEntity
  8
0
100
AcDbLine
 10
220.6598186172592
 20
72.14800456801299
 30
0.0
 11
220.6598186172592
 21
53.09524756801306
 31
0.0
  0
LINE
  5
9F3
330
2
100
AcDbEntity
  8
0
100
AcDbLine
 10
208.6598186172593
 20
98.09524756801307
 30
0.0
 11
208.6598186172593
 21
70.09524756801306
 31
0.0
  0
LINE
  5
9F4
330
2
100
AcDbEntity
  8
0
100
AcDbLine
 10
212.6598186172592
 20
70.09524756801306
 30
0.0
 11
212.6598186172592
 21
98.09524756801307
 31
0.0
  0
LINE
  5
9F5
330
2
100
AcDbEntity
  8
0
100
AcDbLine
 10
210.4598186172592
 20
61.97024756801306
 30
0.0
 11
216.4598186172592
 21
61.97024756801306
 31
0.0
  0
LINE
  5
9F6
330
2
100
AcDbEntity
  8
0
100
AcDbLine
 10
208.4598186172592
 20
56.09524756801306
 30
0.0
 11
216.4598186172592
 21
56.09524756801306
 31
0.0
  0
LINE
  5
9F7
330
2
100
AcDbEntity
  8
0
100
AcDbLine
 10
212.6598186172592
 20
70.09524756801306
 30
0.0
 11
208.6598186172593
 21
70.09524756801306
 31
0.0
  0
ARC
  5
9F8
330
2
100
AcDbEntity
  8
0
100
AcDbCircle
 10
210.4598186172592
 20
59.97024756801306
 30
0.0
 40
2.0
100
AcDbArc
 50
90.0
 51
180.0
  0
LINE
  5
9F9
330
2
100
AcDbEntity
  8
0
100
AcDbLine
 10
209.4598186172592
 20
56.09524756801306
 30
0.0
 11
209.4598186172592
 21
53.09524756801306
 31
0.0
  0
LINE
  5
9FA
330
2
100
AcDbEntity
  8
0
100
AcDbLine
 10
208.4598186172592
 20
53.09524756801306
 30
0.0
 11
208.4598186172592
 21
59.97024756801306
 31
0.0
  0
LINE
  5
9FB
330
2
100
AcDbEntity
  8
0
100
AcDbLine
 10
216.4598186172592
 20
70.84524756801306
 30
0.0
 11
216.4598186172592
 21
53.09524756801306
 31
0.0
  0
LINE
  5
9FC
330
2
100
AcDbEntity
  8
0
100
AcDbLine
 10
216.4598186172592
 20
70.59524756801306
 30
0.0
 11
218.4598186172592
 21
70.59524756801306
 31
0.0
  0
LINE
  5
9FD
330
2
100
AcDbEntity
  8
0
100
AcDbLine
 10
218.6598186172592
 20
83.09524756801307
 30
0.0
 11
215.9598186172592
 21
83.09524756801307
 31
0.0
  0
LINE
  5
9FE
330
2
100
AcDbEntity
  8
0
100
AcDbLine
 10
215.9598186172592
 20
75.09524756801306
 30
0.0
 11
218.6598186172592
 21
75.09524756801306
 31
0.0
  0
LINE
  5
9FF
330
2
100
AcDbEntity
  8
0
100
AcDbLine
 10
208.6598186172593
 20
85.59524756801307
 30
0.0
 11
212.6598186172592
 21
85.59524756801307
 31
0.0
  0
LINE
  5
A00
330
2
100
AcDbEntity
  8
0
100
AcDbLine
 10
212.6598186172592
 20
82.59524756801306
 30
0.0
 11
208.6598186172593
 21
82.59524756801306
 31
0.0
  0
LINE
  5
A01
330
2
100
AcDbEntity
  8
0
100
AcDbLine
 10
215.9598186172592
 20
83.09524756801307
 30
0.0
 11
215.9598186172592
 21
75.09524756801306
 31
0.0
  0
LINE
  5
A02
330
2
100
AcDbEntity
  8
0
100
AcDbLine
 10
212.6598186172592
 20
98.09524756801307
 30
0.0
 11
208.6598186172593
 21
98.09524756801307
 31
0.0
  0
ARC
  5
A03
330
2
100
AcDbEntity
  8
0
100
AcDbCircle
 10
213.4598186172592
 20
110.095247568013
 30
0.0
 40
1.0
100
AcDbArc
 50
180.0
 51
0.0
  0
LINE
  5
A04
330
2
100
AcDbEntity
  8
0
100
AcDbLine
 10
216.4598186172592
 20
113.249470568013
 30
0.0
 11
216.4598186172592
 21
87.34524756801306
 31
0.0
  0
LINE
  5
A05
330
2
100
AcDbEntity
  8
0
100
AcDbLine
 10
218.6598186172592
 20
75.09524756801306
 30
0.0
 11
218.6598186172592
 21
83.09524756801307
 31
0.0
  0
LINE
  5
A06
330
2
100
AcDbEntity
  8
0
100
AcDbLine
 10
220.9598186172592
 20
85.34524756801307
 30
0.0
 11
220.9598186172592
 21
72.84524756801307
 31
0.0
  0
LINE
  5
A07
330
2
100
AcDbEntity
  8
0
100
AcDbLine
 10
219.9598186172592
 20
71.84524756801306
 30
0.0
 11
217.4598186172592
 21
71.84524756801306
 31
0.0
  0
LINE
  5
A08
330
2
100
AcDbEntity
  8
0
100
AcDbLine
 10
217.4598186172592
 20
86.34524756801306
 30
0.0
 11
219.9598186172592
 21
86.34524756801306
 31
0.0
  0
LINE
  5
A09
330
2
100
AcDbEntity
  8
0
100
AcDbLine
 10
216.4598186172592
 20
87.59524756801306
 30
0.0
 11
218.4598186172592
 21
87.59524756801306
 31
0.0
  0
ARC
  5
A0A
330
2
100
AcDbEntity
  8
0
100
AcDbCircle
 10
217.4598186172592
 20
87.34524756801306
 30
0.0
 40
1.0
100
AcDbArc
 50
180.0
 51
270.0
  0
ARC
  5
A0B
330
2
100
AcDbEntity
  8
0
100
AcDbCircle
 10
219.9598186172592
 20
85.34524756801307
 30
0.0
 40
1.0
100
AcDbArc
 50
0.0
 51
90.0
  0
LINE
  5
A0C
330
2
100
AcDbEntity
  8
0
100
AcDbLine
 10
182.6598186172592
 20
164.095247568013
 30
0.0
 11
178.6598186172593
 21
164.095247568013
 31
0.0
  0
LINE
  5
A0D
330
2
100
AcDbEntity
  8
0
100
AcDbLine
 10
178.6598186172593
 20
151.595247568013
 30
0.0
 11
182.6598186172592
 21
151.595247568013
 31
0.0
  0
LINE
  5
A0E
330
2
100
AcDbEntity
  8
0
100
AcDbLine
 10
182.6598186172592
 20
148.595247568013
 30
0.0
 11
178.6598186172593
 21
148.595247568013
 31
0.0
  0
LINE
  5
A0F
330
2
100
AcDbEntity
  8
0
100
AcDbLine
 10
178.6598186172593
 20
136.095247568013
 30
0.0
 11
182.6598186172592
 21
136.095247568013
 31
0.0
  0
LINE
  5
A10
330
2
100
AcDbEntity
  8
0
100
AcDbLine
 10
182.6598186172592
 20
131.095247568013
 30
0.0
 11
178.6598186172593
 21
131.095247568013
 31
0.0
  0
LINE
  5
A11
330
2
100
AcDbEntity
  8
0
100
AcDbLine
 10
178.6598186172593
 20
118.595247568013
 30
0.0
 11
182.6598186172592
 21
118.595247568013
 31
0.0
  0
LINE
  5
A12
330
2
100
AcDbEntity
  8
0
100
AcDbLine
 10
182.6598186172592
 20
115.595247568013
 30
0.0
 11
178.6598186172593
 21
115.595247568013
 31
0.0
  0
LINE
  5
A13
330
2
100
AcDbEntity
  8
0
100
AcDbLine
 10
216.4598186172592
 20
170.950078568013
 30
0.0
 11
158.4598186172592
 21
170.950078568013
 31
0.0
  0
LINE
  5
A14
330
2
100
AcDbEntity
  8
0
100
AcDbLine
 10
158.4598186172592
 20
181.095247568013
 30
0.0
 11
226.4598186172592
 21
181.095247568013
 31
0.0
  0
LINE
  5
A15
330
2
100
AcDbEntity
  8
0
100
AcDbLine
 10
152.4598186172592
 20
181.095247568013
 30
0.0
 11
158.4598186172592
 21
181.095247568013
 31
0.0
  0
LINE
  5
A16
330
2
100
AcDbEntity
  8
0
100
AcDbLine
 10
158.4598186172592
 20
133.095247568013
 30
0.0
 11
150.4598186172592
 21
133.095247568013
 31
0.0
  0
LINE
  5
A17
330
2
100
AcDbEntity
  8
0
100
AcDbLine
 10
150.4598186172592
 20
133.095247568013
 30
0.0
 11
150.4598186172592
 21
179.095247568013
 31
0.0
  0
LINE
  5
A18
330
2
100
AcDbEntity
  8
0
100
AcDbLine
 10
141.9598186172592
 20
158.095247568013
 30
0.0
 11
141.9598186172592
 21
150.095247568013
 31
0.0
  0
LINE
  5
A19
330
2
100
AcDbEntity
  8
0
100
AcDbLine
 10
150.4598186172592
 20
149.563997568013
 30
0.0
 11
141.9598186172592
 21
150.095247568013
 31
0.0
  0
LINE
  5
A1A
330
2
100
AcDbEntity
  8
0
100
AcDbLine
 10
150.4598186172592
 20
158.626497568013
 30
0.0
 11
141.9598186172592
 21
158.095247568013
 31
0.0
  0
ARC
  5
A1B
330
2
100
AcDbEntity
  8
0
100
AcDbCircle
 10
152.4598186172592
 20
179.095247568013
 30
0.0
 40
2.0
100
AcDbArc
 50
90.0
 51
180.0
  0
LINE
  5
A1C
330
2
100
AcDbEntity
  8
0
100
AcDbLine
 10
172.6598186172592
 20
164.095247568013
 30
0.0
 11
172.6598186172592
 21
136.095247568013
 31
0.0
  0
LINE
  5
A1D
330
2
100
AcDbEntity
  8
0
100
AcDbLine
 10
176.6598186172593
 20
136.095247568013
 30
0.0
 11
176.6598186172593
 21
164.095247568013
 31
0.0
  0
LINE
  5
A1E
330
2
100
AcDbEntity
  8
0
100
AcDbLine
 10
178.6598186172593
 20
164.095247568013
 30
0.0
 11
178.6598186172593
 21
136.095247568013
 31
0.0
  0
LINE
  5
A1F
330
2
100
AcDbEntity
  8
0
100
AcDbLine
 10
158.4598186172592
 20
133.095247568013
 30
0.0
 11
158.4598186172592
 21
181.095247568013
 31
0.0
  0
LINE
  5
A20
330
2
100
AcDbEntity
  8
0
100
AcDbLine
 10
176.6598186172593
 20
131.095247568013
 30
0.0
 11
172.6598186172592
 21
131.095247568013
 31
0.0
  0
LINE
  5
A21
330
2
100
AcDbEntity
  8
0
100
AcDbLine
 10
172.6598186172592
 20
136.095247568013
 30
0.0
 11
176.6598186172593
 21
136.095247568013
 31
0.0
  0
LINE
  5
A22
330
2
100
AcDbEntity
  8
0
100
AcDbLine
 10
167.6598186172593
 20
163.595247568013
 30
0.0
 11
164.6598186172593
 21
163.595247568013
 31
0.0
  0
LINE
  5
A23
330
2
100
AcDbEntity
  8
0
100
AcDbLine
 10
164.6598186172593
 20
156.595247568013
 30
0.0
 11
167.6598186172593
 21
156.595247568013
 31
0.0
  0
LINE
  5
A24
330
2
100
AcDbEntity
  8
0
100
AcDbLine
 10
164.6598186172593
 20
163.595247568013
 30
0.0
 11
164.6598186172593
 21
156.595247568013
 31
0.0
  0
LINE
  5
A25
330
2
100
AcDbEntity
  8
0
100
AcDbLine
 10
167.6598186172593
 20
156.595247568013
 30
0.0
 11
167.6598186172593
 21
163.595247568013
 31
0.0
  0
LINE
  5
A26
330
2
100
AcDbEntity
  8
0
100
AcDbLine
 10
176.6598186172593
 20
164.095247568013
 30
0.0
 11
172.6598186172592
 21
164.095247568013
 31
0.0
  0
LINE
  5
A27
330
2
100
AcDbEntity
  8
0
100
AcDbLine
 10
206.6598186172593
 20
164.095247568013
 30
0.0
 11
202.6598186172593
 21
164.095247568013
 31
0.0
  0
LINE
  5
A28
330
2
100
AcDbEntity
  8
0
100
AcDbLine
 10
202.6598186172593
 20
136.095247568013
 30
0.0
 11
206.6598186172593
 21
136.095247568013
 31
0.0
  0
LINE
  5
A29
330
2
100
AcDbEntity
  8
0
100
AcDbLine
 10
207.6598186172593
 20
131.095247568013
 30
0.0
 11
183.6598186172593
 21
131.095247568013
 31
0.0
  0
LINE
  5
A2A
330
2
100
AcDbEntity
  8
0
100
AcDbLine
 10
194.6598186172593
 20
136.095247568013
 30
0.0
 11
194.6598186172593
 21
164.095247568013
 31
0.0
  0
LINE
  5
A2B
330
2
100
AcDbEntity
  8
0
100
AcDbLine
 10
196.6598186172593
 20
164.095247568013
 30
0.0
 11
196.6598186172593
 21
136.095247568013
 31
0.0
  0
LINE
  5
A2C
330
2
100
AcDbEntity
  8
0
100
AcDbLine
 10
200.6598186172593
 20
136.095247568013
 30
0.0
 11
200.6598186172593
 21
164.095247568013
 31
0.0
  0
LINE
  5
A2D
330
2
100
AcDbEntity
  8
0
100
AcDbLine
 10
202.6598186172593
 20
164.095247568013
 30
0.0
 11
202.6598186172593
 21
136.095247568013
 31
0.0
  0
LINE
  5
A2E
330
2
100
AcDbEntity
  8
0
100
AcDbLine
 10
188.6598186172593
 20
136.095247568013
 30
0.0
 11
188.6598186172593
 21
164.095247568013
 31
0.0
  0
LINE
  5
A2F
330
2
100
AcDbEntity
  8
0
100
AcDbLine
 10
190.6598186172593
 20
164.095247568013
 30
0.0
 11
190.6598186172593
 21
136.095247568013
 31
0.0
  0
LINE
  5
A30
330
2
100
AcDbEntity
  8
0
100
AcDbLine
 10
182.6598186172592
 20
136.095247568013
 30
0.0
 11
182.6598186172592
 21
164.095247568013
 31
0.0
  0
LINE
  5
A31
330
2
100
AcDbEntity
  8
0
100
AcDbLine
 10
184.6598186172593
 20
164.095247568013
 30
0.0
 11
184.6598186172593
 21
136.095247568013
 31
0.0
  0
LINE
  5
A32
330
2
100
AcDbEntity
  8
0
100
AcDbLine
 10
190.6598186172593
 20
151.595247568013
 30
0.0
 11
194.6598186172593
 21
151.595247568013
 31
0.0
  0
LINE
  5
A33
330
2
100
AcDbEntity
  8
0
100
AcDbLine
 10
194.6598186172593
 20
148.595247568013
 30
0.0
 11
190.6598186172593
 21
148.595247568013
 31
0.0
  0
LINE
  5
A34
330
2
100
AcDbEntity
  8
0
100
AcDbLine
 10
190.6598186172593
 20
136.095247568013
 30
0.0
 11
194.6598186172593
 21
136.095247568013
 31
0.0
  0
LINE
  5
A35
330
2
100
AcDbEntity
  8
0
100
AcDbLine
 10
184.6598186172593
 20
151.595247568013
 30
0.0
 11
188.6598186172593
 21
151.595247568013
 31
0.0
  0
LINE
  5
A36
330
2
100
AcDbEntity
  8
0
100
AcDbLine
 10
188.6598186172593
 20
148.595247568013
 30
0.0
 11
184.6598186172593
 21
148.595247568013
 31
0.0
  0
LINE
  5
A37
330
2
100
AcDbEntity
  8
0
100
AcDbLine
 10
184.6598186172593
 20
136.095247568013
 30
0.0
 11
188.6598186172593
 21
136.095247568013
 31
0.0
  0
LINE
  5
A38
330
2
100
AcDbEntity
  8
0
100
AcDbLine
 10
196.6598186172593
 20
151.595247568013
 30
0.0
 11
200.6598186172593
 21
151.595247568013
 31
0.0
  0
LINE
  5
A39
330
2
100
AcDbEntity
  8
0
100
AcDbLine
 10
200.6598186172593
 20
148.595247568013
 30
0.0
 11
196.6598186172593
 21
148.595247568013
 31
0.0
  0
LINE
  5
A3A
330
2
100
AcDbEntity
  8
0
100
AcDbLine
 10
196.6598186172593
 20
136.095247568013
 30
0.0
 11
200.6598186172593
 21
136.095247568013
 31
0.0
  0
LINE
  5
A3B
330
2
100
AcDbEntity
  8
0
100
AcDbLine
 10
194.6598186172593
 20
164.095247568013
 30
0.0
 11
190.6598186172593
 21
164.095247568013
 31
0.0
  0
LINE
  5
A3C
330
2
100
AcDbEntity
  8
0
100
AcDbLine
 10
188.6598186172593
 20
164.095247568013
 30
0.0
 11
184.6598186172593
 21
164.095247568013
 31
0.0
  0
LINE
  5
A3D
330
2
100
AcDbEntity
  8
0
100
AcDbLine
 10
200.6598186172593
 20
164.095247568013
 30
0.0
 11
196.6598186172593
 21
164.095247568013
 31
0.0
  0
ARC
  5
A3E
330
2
100
AcDbEntity
  8
0
100
AcDbCircle
 10
219.9598186172592
 20
155.345247568013
 30
0.0
 40
1.0
100
AcDbArc
 50
0.0
 51
90.0
  0
ARC
  5
A3F
330
2
100
AcDbEntity
  8
0
100
AcDbCircle
 10
217.4598186172592
 20
157.345247568013
 30
0.0
 40
1.0
100
AcDbArc
 50
180.0
 51
270.0
  0
LINE
  5
A40
330
2
100
AcDbEntity
  8
0
100
AcDbLine
 10
218.4598186172592
 20
156.345247568013
 30
0.0
 11
218.4598186172592
 21
170.095247568013
 31
0.0
  0
LINE
  5
A41
330
2
100
AcDbEntity
  8
0
100
AcDbLine
 10
220.6598186172592
 20
181.095247568013
 30
0.0
 11
220.6598186172592
 21
156.042489568013
 31
0.0
  0
LINE
  5
A42
330
2
100
AcDbEntity
  8
0
100
AcDbLine
 10
206.6598186172593
 20
136.095247568013
 30
0.0
 11
206.6598186172593
 21
164.095247568013
 31
0.0
  0
LINE
  5
A43
330
2
100
AcDbEntity
  8
0
100
AcDbLine
 10
208.6598186172593
 20
164.095247568013
 30
0.0
 11
208.6598186172593
 21
136.095247568013
 31
0.0
  0
LINE
  5
A44
330
2
100
AcDbEntity
  8
0
100
AcDbLine
 10
212.6598186172592
 20
136.095247568013
 30
0.0
 11
212.6598186172592
 21
164.095247568013
 31
0.0
  0
LINE
  5
A45
330
2
100
AcDbEntity
  8
0
100
AcDbLine
 10
218.6598186172592
 20
153.095247568013
 30
0.0
 11
215.9598186172592
 21
153.095247568013
 31
0.0
  0
LINE
  5
A46
330
2
100
AcDbEntity
  8
0
100
AcDbLine
 10
215.9598186172592
 20
145.095247568013
 30
0.0
 11
218.6598186172592
 21
145.095247568013
 31
0.0
  0
ARC
  5
A47
330
2
100
AcDbEntity
  8
0
100
AcDbCircle
 10
213.4598186172592
 20
124.095247568013
 30
0.0
 40
1.0
100
AcDbArc
 50
0.0
 51
180.0
  0
LINE
  5
A48
330
2
100
AcDbEntity
  8
0
100
AcDbLine
 10
208.6598186172593
 20
151.595247568013
 30
0.0
 11
212.6598186172592
 21
151.595247568013
 31
0.0
  0
LINE
  5
A49
330
2
100
AcDbEntity
  8
0
100
AcDbLine
 10
212.6598186172592
 20
148.595247568013
 30
0.0
 11
208.6598186172593
 21
148.595247568013
 31
0.0
  0
LINE
  5
A4A
330
2
100
AcDbEntity
  8
0
100
AcDbLine
 10
208.6598186172593
 20
136.095247568013
 30
0.0
 11
212.6598186172592
 21
136.095247568013
 31
0.0
  0
LINE
  5
A4B
330
2
100
AcDbEntity
  8
0
100
AcDbLine
 10
215.9598186172592
 20
153.095247568013
 30
0.0
 11
215.9598186172592
 21
145.095247568013
 31
0.0
  0
LINE
  5
A4C
330
2
100
AcDbEntity
  8
0
100
AcDbLine
 10
216.4598186172592
 20
140.845247568013
 30
0.0
 11
216.4598186172592
 21
120.941024568013
 31
0.0
  0
LINE
  5
A4D
330
2
100
AcDbEntity
  8
0
100
AcDbLine
 10
218.6598186172592
 20
145.095247568013
 30
0.0
 11
218.6598186172592
 21
153.095247568013
 31
0.0
  0
LINE
  5
A4E
330
2
100
AcDbEntity
  8
0
100
AcDbLine
 10
220.9598186172592
 20
155.345247568013
 30
0.0
 11
220.9598186172592
 21
142.845247568013
 31
0.0
  0
LINE
  5
A4F
330
2
100
AcDbEntity
  8
0
100
AcDbLine
 10
219.9598186172592
 20
141.845247568013
 30
0.0
 11
217.4598186172592
 21
141.845247568013
 31
0.0
  0
ARC
  5
A50
330
2
100
AcDbEntity
  8
0
100
AcDbCircle
 10
217.4598186172592
 20
140.845247568013
 30
0.0
 40
1.0
100
AcDbArc
 50
90.0
 51
180.0
  0
LINE
  5
A51
330
2
100
AcDbEntity
  8
0
100
AcDbLine
 10
216.4598186172592
 20
140.595247568013
 30
0.0
 11
218.4598186172592
 21
140.595247568013
 31
0.0
  0
ARC
  5
A52
330
2
100
AcDbEntity
  8
0
100
AcDbCircle
 10
219.9598186172592
 20
142.845247568013
 30
0.0
 40
1.0
100
AcDbArc
 50
270.0
 51
0.0
  0
LINE
  5
A53
330
2
100
AcDbEntity
  8
0
100
AcDbLine
 10
217.4598186172592
 20
156.345247568013
 30
0.0
 11
219.9598186172592
 21
156.345247568013
 31
0.0
  0
LINE
  5
A54
330
2
100
AcDbEntity
  8
0
100
AcDbLine
 10
212.6598186172592
 20
164.095247568013
 30
0.0
 11
208.6598186172593
 21
164.095247568013
 31
0.0
  0
LINE
  5
A55
330
2
100
AcDbEntity
  8
0
100
AcDbLine
 10
220.6048186172592
 20
181.095247568013
 30
0.0
 11
220.6048186172592
 21
176.095247568013
 31
0.0
  0
LINE
  5
A56
330
2
100
AcDbEntity
  8
0
100
AcDbLine
 10
216.4598186172592
 20
181.095247568013
 30
0.0
 11
216.4598186172592
 21
157.345247568013
 31
0.0
  0
LINE
  5
A57
330
2
100
AcDbEntity
  8
0
100
AcDbLine
 10
216.4598186172592
 20
157.595247568013
 30
0.0
 11
218.4598186172592
 21
157.595247568013
 31
0.0
  0
INSERT
  5
A58
330
2
100
AcDbEntity
  8
0
100
AcDbBlockReference
  2
BLKF026
 10
-89.37983238274069
 20
-47.31391943198696
 30
0.0
  0
LINE
  5
A59
330
2
100
AcDbEntity
  8
0
100
AcDbLine
 10
216.4598186172592
 20
170.095247568013
 30
0.0
 11
218.9548186172592
 21
170.095247568013
 31
0.0
  0
TEXT
  5
B57
330
2
100
AcDbEntity
  8
TITLE
100
AcDbText
 10
15.79406357417804
 20
206.5109148318502
 30
0.0
 40
3.5
  1
A-BLPQ020T2
100
AcDbText
  0
TEXT
  5
B58
330
2
100
AcDbEntity
  8
TITLE
100
AcDbText
 10
15.79406357417804
 20
212.7861480900543
 30
0.0
 40
3.5
  1
A-BLPQ010T2
100
AcDbText
  0
ENDSEC
  0
SECTION
  2
OBJECTS
  0
DICTIONARY
  5
7
330
0
100
AcDbDictionary
  3
ACAD_GROUP
350
75
  3
ACAD_LAYOUT
350
61
  3
ACAD_MLINESTYLE
350
76
  3
ACAD_PLOTSETTINGS
350
77
  3
ACAD_PLOTSTYLENAME
350
6
  3
ACADDIM
350
480
  3
ACDBHEADERROUNDTRIPXREC
350
CDC
  3
ACDBVARIABLEDICTIONARY
350
102
  3
DWGPROPS
350
3D2
  0
DICTIONARY
  5
CFD
330
2
100
AcDbDictionary
280
     1
  3
ACAD_LAYOUTSELFREF
360
CFE
  0
DICTIONARY
  5
CFF
330
CD6
100
AcDbDictionary
280
     1
  3
ACAD_LAYOUTSELFREF
360
D00
  0
DICTIONARY
  5
75
102
{ACAD_REACTORS
330
7
102
}
330
7
100
AcDbDictionary
  0
DICTIONARY
  5
61
102
{ACAD_REACTORS
330
7
102
}
330
7
100
AcDbDictionary
  0
DICTIONARY
  5
76
102
{ACAD_REACTORS
330
7
102
}
330
7
100
AcDbDictionary
  3
STANDARD
350
78
  0
DICTIONARY
  5
77
102
{ACAD_REACTORS
330
7
102
}
330
7
100
AcDbDictionary
  0
ACDBDICTIONARYWDFLT
  5
6
102
{ACAD_REACTORS
330
7
102
}
330
7
100
AcDbDictionary
281
     1
  3
Normal
350
5
100
AcDbDictionaryWithDefault
340
5
  0
XRECORD
  5
480
102
{ACAD_REACTORS
330
7
102
}
330
7
100
AcDbXrecord
 90
   990106
  3

 60
     0
 61
     0
 62
     1
 63
     3
 64
     1
 65
     0
 66
     0
 67
     3
 68
     1
 69
     0
 70
     0
 71
     0
 72
     0
 40
0.0
170
     2
340
0
  0
DICTIONARY
  5
CDC
102
{ACAD_REACTORS
330
7
102
}
330
7
100
AcDbDictionary
  3
CEPSNTYPE
350
CE6
  3
DIMSTYLEDATA
350
CEA
  3
FINGERPRINTGUID
350
CE7
  3
HYPERLINKBASE
350
CDF
  3
INSUNITS
350
CE5
  3
LAYOUTDICT
350
CE1
  3
LWETCUNION
350
CE4
  3
PLOTSETDICT
350
CE2
  3
PLOTSTYLNAMDICT
350
CE3
  3
PSVPSCALE
350
CE9
  3
PUCSBASE
350
CED
  3
PUCSORGBACK
350
CF3
  3
PUCSORGBOTTOM
350
CEF
  3
PUCSORGFRONT
350
CF2
  3
PUCSORGLEFT
350
CF0
  3
PUCSORGRIGHT
350
CF1
  3
PUCSORGTOP
350
CEE
  3
PUCSORTHOREF
350
CEB
  3
PUCSORTHOVIEW
350
CEC
  3
STYLESHEET
350
CE0
  3
TSTACKALIGN
350
CDD
  3
TSTACKSIZE
350
CDE
  3
UCSBASE
350
CF6
  3
UCSORGBACK
350
CFC
  3
UCSORGBOTTOM
350
CF8
  3
UCSORGFRONT
350
CFB
  3
UCSORGLEFT
350
CF9
  3
UCSORGRIGHT
350
CFA
  3
UCSORGTOP
350
CF7
  3
UCSORTHOREF
350
CF4
  3
UCSORTHOVIEW
350
CF5
  3
VERSIONGUID
350
CE8
  0
DICTIONARY
  5
102
102
{ACAD_REACTORS
330
7
102
}
330
7
100
AcDbDictionary
  3
DIMASSOC
350
103
  3
SORTENTS
350
549
  0
XRECORD
  5
3D2
102
{ACAD_REACTORS
330
7
102
}
330
7
100
AcDbXrecord
  1
DWGPROPS COOKIE
  2

  3

  4

  6

  7

  8

  9

300
=
301
=
302
=
303
=
304
=
305
=
306
=
307
=
308
=
309
=
 40
0.5353330671296296
 41
2452052.431989363
 42
2453406.550756377
  1

 90
        0
  0
XRECORD
  5
CFE
102
{ACAD_REACTORS
330
CFD
102
}
330
CFD
100
AcDbXrecord
340
2
  0
XRECORD
  5
D00
102
{ACAD_REACTORS
330
CFF
102
}
330
CFF
100
AcDbXrecord
340
CD6
  0
MLINESTYLE
  5
78
102
{ACAD_REACTORS
330
76
102
}
330
76
100
AcDbMlineStyle
  2
STANDARD
 70
     0
  3

 62
     0
 51
90.0
 52
90.0
 71
     2
 49
0.5
 62
   256
  6
BYLAYER
 49
-0.5
 62
   256
  6
BYLAYER
  0
ACDBPLACEHOLDER
  5
5
102
{ACAD_REACTORS
330
6
102
}
330
6
100
AcDbPlaceHolder
280
     0
  0
XRECORD
  5
CE6
102
{ACAD_REACTORS
330
CDC
102
}
330
CDC
100
AcDbXrecord
 90
        0
  0
XRECORD
  5
CEA
102
{ACAD_REACTORS
330
CDC
102
}
330
CDC
100
AcDbXrecord
1000
DSTYLE
1002
{
1070
   179
 70
     2
1070
   277
 70
     6
1002
}
  0
XRECORD
  5
CE7
102
{ACAD_REACTORS
330
CDC
102
}
330
CDC
100
AcDbXrecord
  1
{6385560B-F4B1-4644-A7C2-A3E32AC3D232}
  0
XRECORD
  5
CDF
102
{ACAD_REACTORS
330
CDC
102
}
330
CDC
100
AcDbXrecord
  1

  0
XRECORD
  5
CE5
102
{ACAD_REACTORS
330
CDC
102
}
330
CDC
100
AcDbXrecord
 90
        0
  0
XRECORD
  5
CE1
102
{ACAD_REACTORS
330
CDC
102
}
330
CDC
100
AcDbXrecord
340
61
  0
XRECORD
  5
CE4
102
{ACAD_REACTORS
330
CDC
102
}
330
CDC
100
AcDbXrecord
 90
    10781
  0
XRECORD
  5
CE2
102
{ACAD_REACTORS
330
CDC
102
}
330
CDC
100
AcDbXrecord
340
77
  0
XRECORD
  5
CE3
102
{ACAD_REACTORS
330
CDC
102
}
330
CDC
100
AcDbXrecord
340
6
  0
XRECORD
  5
CE9
102
{ACAD_REACTORS
330
CDC
102
}
330
CDC
100
AcDbXrecord
 40
0.0
  0
XRECORD
  5
CED
102
{ACAD_REACTORS
330
CDC
102
}
330
CDC
100
AcDbXrecord
340
0
  0
XRECORD
  5
CF3
102
{ACAD_REACTORS
330
CDC
102
}
330
CDC
100
AcDbXrecord
 10
0.0
 20
0.0
 30
0.0
  0
XRECORD
  5
CEF
102
{ACAD_REACTORS
330
CDC
102
}
330
CDC
100
AcDbXrecord
 10
0.0
 20
0.0
 30
0.0
  0
XRECORD
  5
CF2
102
{ACAD_REACTORS
330
CDC
102
}
330
CDC
100
AcDbXrecord
 10
0.0
 20
0.0
 30
0.0
  0
XRECORD
  5
CF0
102
{ACAD_REACTORS
330
CDC
102
}
330
CDC
100
AcDbXrecord
 10
0.0
 20
0.0
 30
0.0
  0
XRECORD
  5
CF1
102
{ACAD_REACTORS
330
CDC
102
}
330
CDC
100
AcDbXrecord
 10
0.0
 20
0.0
 30
0.0
  0
XRECORD
  5
CEE
102
{ACAD_REACTORS
330
CDC
102
}
330
CDC
100
AcDbXrecord
 10
0.0
 20
0.0
 30
0.0
  0
XRECORD
  5
CEB
102
{ACAD_REACTORS
330
CDC
102
}
330
CDC
100
AcDbXrecord
340
0
  0
XRECORD
  5
CEC
102
{ACAD_REACTORS
330
CDC
102
}
330
CDC
100
AcDbXrecord
 70
     0
  0
XRECORD
  5
CE0
102
{ACAD_REACTORS
330
CDC
102
}
330
CDC
100
AcDbXrecord
  1
Sekkei.ctb
  0
XRECORD
  5
CDD
102
{ACAD_REACTORS
330
CDC
102
}
330
CDC
100
AcDbXrecord
 90
        1
  0
XRECORD
  5
CDE
102
{ACAD_REACTORS
330
CDC
102
}
330
CDC
100
AcDbXrecord
 90
       70
  0
XRECORD
  5
CF6
102
{ACAD_REACTORS
330
CDC
102
}
330
CDC
100
AcDbXrecord
340
0
  0
XRECORD
  5
CFC
102
{ACAD_REACTORS
330
CDC
102
}
330
CDC
100
AcDbXrecord
 10
0.0
 20
0.0
 30
0.0
  0
XRECORD
  5
CF8
102
{ACAD_REACTORS
330
CDC
102
}
330
CDC
100
AcDbXrecord
 10
0.0
 20
0.0
 30
0.0
  0
XRECORD
  5
CFB
102
{ACAD_REACTORS
330
CDC
102
}
330
CDC
100
AcDbXrecord
 10
0.0
 20
0.0
 30
0.0
  0
XRECORD
  5
CF9
102
{ACAD_REACTORS
330
CDC
102
}
330
CDC
100
AcDbXrecord
 10
0.0
 20
0.0
 30
0.0
  0
XRECORD
  5
CFA
102
{ACAD_REACTORS
330
CDC
102
}
330
CDC
100
AcDbXrecord
 10
0.0
 20
0.0
 30
0.0
  0
XRECORD
  5
CF7
102
{ACAD_REACTORS
330
CDC
102
}
330
CDC
100
AcDbXrecord
 10
0.0
 20
0.0
 30
0.0
  0
XRECORD
  5
CF4
102
{ACAD_REACTORS
330
CDC
102
}
330
CDC
100
AcDbXrecord
340
0
  0
XRECORD
  5
CF5
102
{ACAD_REACTORS
330
CDC
102
}
330
CDC
100
AcDbXrecord
 70
     0
  0
XRECORD
  5
CE8
102
{ACAD_REACTORS
330
CDC
102
}
330
CDC
100
AcDbXrecord
  1
{62300F47-B7B4-40D2-9ADA-2EF272C11736}
  0
DICTIONARYVAR
  5
103
102
{ACAD_REACTORS
330
102
102
}
330
102
100
DictionaryVariables
280
     0
  1
1
  0
DICTIONARYVAR
  5
549
102
{ACAD_REACTORS
330
102
102
}
330
102
100
DictionaryVariables
280
     0
  1
96
  0
ENDSEC
  0
EOF
