  0
SECTION
  2
HEADER
  9
$ACADVER
  1
AC1014
  9
$ACADMAINTVER
 70
     9
  9
$DWGCODEPAGE
  3
ANSI_932
  9
$INSBASE
 10
0.0
 20
0.0
 30
0.0
  9
$EXTMIN
 10
29.7240088641064
 20
53.91616262374966
 30
0.0
  9
$EXTMAX
 10
272.0806304264793
 20
213.182163382231
 30
0.0
  9
$LIMMIN
 10
0.0
 20
0.0
  9
$LIMMAX
 10
297.0
 20
210.0
  9
$ORTHOMODE
 70
     1
  9
$REGENMODE
 70
     1
  9
$FILLMODE
 70
     1
  9
$QTEXTMODE
 70
     0
  9
$MIRRTEXT
 70
     0
  9
$DRAGMODE
 70
     2
  9
$LTSCALE
 40
1.0
  9
$OSMODE
 70
    37
  9
$ATTMODE
 70
     1
  9
$TEXTSIZE
 40
2.0
  9
$TRACEWID
 40
1.0
  9
$TEXTSTYLE
  7
STANDARD
  9
$CLAYER
  8
0
  9
$CELTYPE
  6
BYLAYER
  9
$CECOLOR
 62
   256
  9
$CELTSCALE
 40
1.0
  9
$DELOBJ
 70
     1
  9
$DISPSILH
 70
     0
  9
$DIMSCALE
 40
2.0
  9
$DIMASZ
 40
1.8
  9
$DIMEXO
 40
0.625
  9
$DIMDLI
 40
3.75
  9
$DIMRND
 40
0.0
  9
$DIMDLE
 40
0.0
  9
$DIMEXE
 40
0.8
  9
$DIMTP
 40
0.0
  9
$DIMTM
 40
0.0
  9
$DIMTXT
 40
1.8
  9
$DIMCEN
 40
2.5
  9
$DIMTSZ
 40
0.0
  9
$DIMTOL
 70
     0
  9
$DIMLIM
 70
     0
  9
$DIMTIH
 70
     0
  9
$DIMTOH
 70
     0
  9
$DIMSE1
 70
     0
  9
$DIMSE2
 70
     0
  9
$DIMTAD
 70
     1
  9
$DIMZIN
 70
     8
  9
$DIMBLK
  1

  9
$DIMASO
 70
     1
  9
$DIMSHO
 70
     1
  9
$DIMPOST
  1

  9
$DIMAPOST
  1

  9
$DIMALT
 70
     0
  9
$DIMALTD
 70
     4
  9
$DIMALTF
 40
0.0394
  9
$DIMLFAC
 40
1.0
  9
$DIMTOFL
 70
     1
  9
$DIMTVP
 40
0.0
  9
$DIMTIX
 70
     0
  9
$DIMSOXD
 70
     0
  9
$DIMSAH
 70
     0
  9
$DIMBLK1
  1

  9
$DIMBLK2
  1

  9
$DIMSTYLE
  2
STANDARD
  9
$DIMCLRD
 70
     0
  9
$DIMCLRE
 70
     0
  9
$DIMCLRT
 70
     0
  9
$DIMTFAC
 40
1.0
  9
$DIMGAP
 40
0.75
  9
$DIMJUST
 70
     0
  9
$DIMSD1
 70
     0
  9
$DIMSD2
 70
     0
  9
$DIMTOLJ
 70
     1
  9
$DIMTZIN
 70
     0
  9
$DIMALTZ
 70
     0
  9
$DIMALTTZ
 70
     0
  9
$DIMFIT
 70
     3
  9
$DIMUPT
 70
     0
  9
$DIMUNIT
 70
     8
  9
$DIMDEC
 70
     2
  9
$DIMTDEC
 70
     2
  9
$DIMALTU
 70
     8
  9
$DIMALTTD
 70
     4
  9
$DIMTXSTY
  7
STANDARD
  9
$DIMAUNIT
 70
     0
  9
$LUNITS
 70
     2
  9
$LUPREC
 70
     3
  9
$SKETCHINC
 40
1.0
  9
$FILLETRAD
 40
10.0
  9
$AUNITS
 70
     0
  9
$AUPREC
 70
     2
  9
$MENU
  1
.
  9
$ELEVATION
 40
0.0
  9
$PELEVATION
 40
0.0
  9
$THICKNESS
 40
0.0
  9
$LIMCHECK
 70
     0
  9
$BLIPMODE
 70
     0
  9
$CHAMFERA
 40
0.0
  9
$CHAMFERB
 40
0.0
  9
$CHAMFERC
 40
20.0
  9
$CHAMFERD
 40
0.0
  9
$SKPOLY
 70
     0
  9
$TDCREATE
 40
2454312.434986249
  9
$TDUPDATE
 40
2454313.370099456
  9
$TDINDWG
 40
0.1874338079
  9
$TDUSRTIMER
 40
0.1874338079
  9
$USRTIMER
 70
     1
  9
$ANGBASE
 50
0.0
  9
$ANGDIR
 70
     0
  9
$PDMODE
 70
     0
  9
$PDSIZE
 40
-10.0
  9
$PLINEWID
 40
0.0
  9
$COORDS
 70
     0
  9
$SPLFRAME
 70
     0
  9
$SPLINETYPE
 70
     6
  9
$SPLINESEGS
 70
     8
  9
$ATTDIA
 70
     0
  9
$ATTREQ
 70
     1
  9
$HANDLING
 70
-16383
  9
$HANDSEED
  5
1453
  9
$SURFTAB1
 70
     6
  9
$SURFTAB2
 70
     6
  9
$SURFTYPE
 70
     6
  9
$SURFU
 70
     6
  9
$SURFV
 70
     6
  9
$UCSNAME
  2

  9
$UCSORG
 10
0.0
 20
0.0
 30
0.0
  9
$UCSXDIR
 10
1.0
 20
0.0
 30
0.0
  9
$UCSYDIR
 10
0.0
 20
1.0
 30
0.0
  9
$PUCSNAME
  2

  9
$PUCSORG
 10
0.0
 20
0.0
 30
0.0
  9
$PUCSXDIR
 10
1.0
 20
0.0
 30
0.0
  9
$PUCSYDIR
 10
0.0
 20
1.0
 30
0.0
  9
$USERI1
 70
     0
  9
$USERI2
 70
     0
  9
$USERI3
 70
     0
  9
$USERI4
 70
     0
  9
$USERI5
 70
     0
  9
$USERR1
 40
0.0
  9
$USERR2
 40
0.0
  9
$USERR3
 40
0.0
  9
$USERR4
 40
0.0
  9
$USERR5
 40
0.0
  9
$WORLDVIEW
 70
     1
  9
$SHADEDGE
 70
     3
  9
$SHADEDIF
 70
    70
  9
$TILEMODE
 70
     1
  9
$MAXACTVP
 70
    48
  9
$PINSBASE
 10
0.0
 20
0.0
 30
0.0
  9
$PLIMCHECK
 70
     0
  9
$PEXTMIN
 10
0.0
 20
0.0
 30
0.0
  9
$PEXTMAX
 10
0.0
 20
0.0
 30
0.0
  9
$PLIMMIN
 10
0.0
 20
0.0
  9
$PLIMMAX
 10
12.0
 20
9.0
  9
$UNITMODE
 70
     0
  9
$VISRETAIN
 70
     1
  9
$PLINEGEN
 70
     0
  9
$PSLTSCALE
 70
     1
  9
$TREEDEPTH
 70
  3020
  9
$PICKSTYLE
 70
     1
  9
$CMLSTYLE
  2
STANDARD
  9
$CMLJUST
 70
     0
  9
$CMLSCALE
 40
1.0
  9
$PROXYGRAPHICS
 70
     1
  9
$MEASUREMENT
 70
     0
  0
ENDSEC
  0
SECTION
  2
CLASSES
  0
CLASS
  1
DICTIONARYVAR
  2
AcDbDictionaryVar
  3
AutoCAD 2000
 90
        0
280
     0
281
     0
  0
CLASS
  1
ACDBDICTIONARYWDFLT
  2
AcDbDictionaryWithDefault
  3
AutoCAD 2000
 90
        0
280
     0
281
     0
  0
CLASS
  1
ACDBPLACEHOLDER
  2
AcDbPlaceHolder
  3
AutoCAD 2000
 90
        0
280
     0
281
     0
  0
CLASS
  1
LAYOUT
  2
AcDbLayout
  3
AutoCAD 2000
 90
        0
280
     0
281
     0
  0
CLASS
  1
LONG_TRANSACTION
  2
AcDbLongTransaction
  3
AutoCAD 2000
 90
        0
280
     0
281
     0
  0
CLASS
  1
LWPOLYLINE
  2
AcDbPolyline
  3
AutoCAD 2000
 90
        0
280
     0
281
     1
  0
CLASS
  1
HATCH
  2
AcDbHatch
  3
AutoCAD 2000
 90
        0
280
     0
281
     1
  0
CLASS
  1
XRECORD
  2
AcDbXrecord
  3
AutoCAD 2000
 90
        0
280
     0
281
     0
  0
ENDSEC
  0
SECTION
  2
TABLES
  0
TABLE
  2
VPORT
  5
6E
330
0
100
AcDbSymbolTable
 70
     2
  0
VPORT
  5
142D
330
6E
100
AcDbSymbolTableRecord
100
AcDbViewportTableRecord
  2
*ACTIVE
 70
     0
 10
0.0
 20
0.0
 11
1.0
 21
1.0
 12
150.9018866806312
 22
120.4565755418788
 13
0.0
 23
0.0
 14
10.0
 24
10.0
 15
10.0
 25
10.0
 16
0.0
 26
0.0
 36
1.0
 17
0.0
 27
0.0
 37
0.0
 40
186.6671992310838
 41
1.624458874458874
 42
50.0
 43
0.0
 44
0.0
 50
0.0
 51
0.0
 71
     0
 72
   100
 73
     1
 74
     3
 75
     0
 76
     0
 77
     0
 78
     0
  0
ENDTAB
  0
TABLE
  2
LTYPE
  5
69
330
0
100
AcDbSymbolTable
 70
    10
  0
LTYPE
  5
6A
330
69
100
AcDbSymbolTableRecord
100
AcDbLinetypeTableRecord
  2
BYBLOCK
 70
     0
  3

 72
    65
 73
     0
 40
0.0
  0
LTYPE
  5
6B
330
69
100
AcDbSymbolTableRecord
100
AcDbLinetypeTableRecord
  2
BYLAYER
 70
     0
  3

 72
    65
 73
     0
 40
0.0
  0
LTYPE
  5
8
330
69
100
AcDbSymbolTableRecord
100
AcDbLinetypeTableRecord
  2
CONTINUOUS
 70
     0
  3
Solid line
 72
    65
 73
     0
 40
0.0
  0
LTYPE
  5
27C
330
69
100
AcDbSymbolTableRecord
100
AcDbLinetypeTableRecord
  2
SEKKEI_A2_
 70
     0
  3
center(A2)  ____ _ ____ _ ____ _ ____ _ ____ _ 
 72
    65
 73
     4
 40
14.28749999999999
 49
9.525
 74
     0
 49
-1.587499999999999
 74
     0
 49
1.587499999999999
 74
     0
 49
-1.587499999999999
 74
     0
  0
LTYPE
  5
2B4
330
69
100
AcDbSymbolTableRecord
100
AcDbLinetypeTableRecord
  2
HIDDEN2
 70
     0
  3
Hidden (.5x) _ _ _ _ _ _ _ _ _ _ _ _ _ _ _ _ _
 72
    65
 73
     2
 40
4.762499999999999
 49
3.174999999999999
 74
     0
 49
-1.587499999999999
 74
     0
  0
LTYPE
  5
7FC
330
69
100
AcDbSymbolTableRecord
100
AcDbLinetypeTableRecord
  2
HIDDEN3
 70
     0
  3
Hidden (.3x) _ _ _ _ _ _ _ _ _ _ _ _ _ _ _ _ _
 72
    65
 73
     2
 40
2.857499999999999
 49
1.905
 74
     0
 49
-0.9525
 74
     0
  0
ENDTAB
  0
TABLE
  2
LAYER
  5
66
330
0
100
AcDbSymbolTable
 70
    11
  0
LAYER
  5
5E
330
66
100
AcDbSymbolTableRecord
100
AcDbLayerTableRecord
  2
0
 70
     0
 62
     7
  6
CONTINUOUS
  0
LAYER
  5
3E
330
66
100
AcDbSymbolTableRecord
100
AcDbLayerTableRecord
  2
CENTER
 70
     0
 62
     3
  6
SEKKEI_A2_
  0
LAYER
  5
2B5
330
66
100
AcDbSymbolTableRecord
100
AcDbLayerTableRecord
  2
HIDS
 70
     0
 62
     1
  6
HIDDEN2
  0
LAYER
  5
3FA
330
66
100
AcDbSymbolTableRecord
100
AcDbLayerTableRecord
  2
TITLE
 70
     0
 62
     4
  6
CONTINUOUS
  0
ENDTAB
  0
TABLE
  2
STYLE
  5
67
330
0
100
AcDbSymbolTable
 70
     4
  0
STYLE
  5
16
330
67
100
AcDbSymbolTableRecord
100
AcDbTextStyleTableRecord
  2
STANDARD
 70
     0
 40
0.0
 41
1.0
 50
0.0
 71
     0
 42
2.0
  3
simplex.shx
  4
extfont.shx
  0
ENDTAB
  0
TABLE
  2
VIEW
  5
6C
330
0
100
AcDbSymbolTable
 70
     0
  0
ENDTAB
  0
TABLE
  2
UCS
  5
6D
330
0
100
AcDbSymbolTable
 70
     0
  0
ENDTAB
  0
TABLE
  2
APPID
  5
70
330
0
100
AcDbSymbolTable
 70
     1
  0
APPID
  5
71
330
70
100
AcDbSymbolTableRecord
100
AcDbRegAppTableRecord
  2
ACAD
 70
     0
  0
ENDTAB
  0
TABLE
  2
DIMSTYLE
  5
72
330
0
100
AcDbSymbolTable
 70
     1
  0
DIMSTYLE
105
73
102
{ACAD_REACTORS
330
EDB
102
}
330
72
100
AcDbSymbolTableRecord
100
AcDbDimStyleTableRecord
  2
STANDARD
 70
     0
  3

  4

  5

  6

  7

 40
2.0
 41
1.8
 42
0.625
 43
3.75
 44
0.8
 45
0.0
 46
0.0
 47
0.0
 48
0.0
140
1.8
141
2.5
142
0.0
143
0.0394
144
1.0
145
0.0
146
1.0
147
0.75
 71
     0
 72
     0
 73
     0
 74
     0
 75
     0
 76
     0
 77
     1
 78
     8
170
     0
171
     4
172
     1
173
     0
174
     0
175
     0
176
     0
177
     0
178
     0
270
     8
271
     2
272
     2
273
     8
274
     4
340
16
275
     0
280
     0
281
     0
282
     0
283
     1
284
     0
285
     0
286
     0
287
     3
288
     0
  0
ENDTAB
  0
TABLE
  2
BLOCK_RECORD
  5
1
330
0
100
AcDbSymbolTable
 70
    44
  0
BLOCK_RECORD
  5
2
102
{ACAD_XDICTIONARY
360
144F
102
}
330
1
100
AcDbSymbolTableRecord
100
AcDbBlockTableRecord
  2
*MODEL_SPACE
  0
BLOCK_RECORD
  5
1428
102
{ACAD_XDICTIONARY
360
1451
102
}
330
1
100
AcDbSymbolTableRecord
100
AcDbBlockTableRecord
  2
*PAPER_SPACE
  0
ENDTAB
  0
ENDSEC
  0
SECTION
  2
BLOCKS
  0
BLOCK
  5
5D
330
2
100
AcDbEntity
  8
0
100
AcDbBlockBegin
  2
*MODEL_SPACE
 70
     0
 10
0.0
 20
0.0
 30
0.0
  3
*MODEL_SPACE
  1

  0
ENDBLK
  5
5F
330
2
100
AcDbEntity
  8
0
100
AcDbBlockEnd
  0
BLOCK
  5
142A
330
1428
100
AcDbEntity
 67
     1
  8
0
100
AcDbBlockBegin
  2
*PAPER_SPACE
 70
     0
 10
0.0
 20
0.0
 30
0.0
  3
*PAPER_SPACE
  1

  0
ENDBLK
  5
142B
330
1428
100
AcDbEntity
 67
     1
  8
0
100
AcDbBlockEnd
  0
ENDSEC
  0
SECTION
  2
ENTITIES
  0
LINE
  5
C40
330
2
100
AcDbEntity
  8
0
100
AcDbLine
 10
32.1382224264795
 20
182.3303761861227
 30
0.0
 11
96.13822242647962
 21
182.3303761861227
 31
0.0
  0
LINE
  5
C41
330
2
100
AcDbEntity
  8
0
100
AcDbLine
 10
94.63822242647962
 20
179.8303761861227
 30
0.0
 11
33.6382224264795
 21
179.8303761861227
 31
0.0
  0
LINE
  5
C42
330
2
100
AcDbEntity
  8
0
100
AcDbLine
 10
33.6382224264795
 20
134.8303761861227
 30
0.0
 11
94.63822242647962
 21
134.8303761861227
 31
0.0
  0
LINE
  5
C43
330
2
100
AcDbEntity
  8
0
100
AcDbLine
 10
30.13822242647961
 20
134.3303761861227
 30
0.0
 11
98.13822242647962
 21
134.3303761861227
 31
0.0
  0
LINE
  5
C44
330
2
100
AcDbEntity
  8
0
100
AcDbLine
 10
32.1382224264795
 20
54.33039718612275
 30
0.0
 11
94.95747542647961
 21
54.33039718612275
 31
0.0
  0
LINE
  5
C50
330
2
100
AcDbEntity
  8
CENTER
100
AcDbLine
 10
39.6382224264795
 20
59.33037618612274
 30
0.0
 11
32.6382224264795
 21
59.33037618612274
 31
0.0
  0
LINE
  5
C51
330
2
100
AcDbEntity
  8
HIDS
  6
HIDDEN3
100
AcDbLine
 10
32.8120404264796
 20
64.44957718612272
 30
0.0
 11
36.31272042647958
 21
64.32733018612276
 31
0.0
  0
ARC
  5
C52
330
2
100
AcDbEntity
  8
HIDS
  6
HIDDEN3
100
AcDbCircle
 10
36.1382224264795
 20
59.33037618612274
 30
0.0
 40
2.5
100
AcDbArc
 50
0.0
 51
180.0
  0
LINE
  5
C6C
330
2
100
AcDbEntity
  8
0
100
AcDbLine
 10
30.13822242647961
 20
56.33039718612275
 30
0.0
 11
30.13822242647961
 21
180.3303761861227
 31
0.0
  0
LINE
  5
C6D
330
2
100
AcDbEntity
  8
0
100
AcDbLine
 10
32.6382224264795
 20
178.8303761861227
 30
0.0
 11
32.6382224264795
 21
135.8303761861227
 31
0.0
  0
LINE
  5
C6E
330
2
100
AcDbEntity
  8
0
100
AcDbLine
 10
30.13822242647961
 20
56.33039718612275
 30
0.0
 11
30.13822242647961
 21
120.9358601861227
 31
0.0
  0
LINE
  5
C6F
330
2
100
AcDbEntity
  8
HIDS
  6
HIDDEN3
100
AcDbLine
 10
33.6382224264795
 20
55.33037618612275
 30
0.0
 11
33.6382224264795
 21
59.33037618612274
 31
0.0
  0
ARC
  5
C70
330
2
100
AcDbEntity
  8
0
100
AcDbCircle
 10
32.1382224264795
 20
56.33039718612275
 30
0.0
 40
2.0
100
AcDbArc
 50
180.0
 51
270.0
  0
ARC
  5
C71
330
2
100
AcDbEntity
  8
HIDS
  6
HIDDEN3
100
AcDbCircle
 10
32.6382224264795
 20
55.33037618612275
 30
0.0
 40
1.0
100
AcDbArc
 50
270.0
 51
0.0
  0
ARC
  5
C72
330
2
100
AcDbEntity
  8
HIDS
  6
HIDDEN3
100
AcDbCircle
 10
32.1382224264795
 20
66.47432618612277
 30
0.0
 40
2.0
100
AcDbArc
 50
180.0
 51
268.0000000000029
  0
LINE
  5
C73
330
2
100
AcDbEntity
  8
HIDS
  6
HIDDEN3
100
AcDbLine
 10
32.6382224264795
 20
64.45566718612275
 30
0.0
 11
32.81007842647955
 21
64.45566718612275
 31
0.0
  0
LINE
  5
C74
330
2
100
AcDbEntity
  8
HIDS
  6
HIDDEN3
100
AcDbLine
 10
32.6382224264795
 20
64.45564718612274
 30
0.0
 11
32.81007842647955
 21
64.45564718612274
 31
0.0
  0
LINE
  5
C75
330
2
100
AcDbEntity
  8
HIDS
  6
HIDDEN3
100
AcDbLine
 10
32.06842342647962
 20
64.47554418612276
 30
0.0
 11
32.6382224264795
 21
64.45564718612274
 31
0.0
  0
ARC
  5
C76
330
2
100
AcDbEntity
  8
0
100
AcDbCircle
 10
33.6382224264795
 20
135.8303761861227
 30
0.0
 40
1.0
100
AcDbArc
 50
180.0
 51
270.0
  0
ARC
  5
C77
330
2
100
AcDbEntity
  8
0
100
AcDbCircle
 10
32.1382224264795
 20
180.3303761861227
 30
0.0
 40
2.0
100
AcDbArc
 50
90.0
 51
180.0
  0
ARC
  5
C78
330
2
100
AcDbEntity
  8
0
100
AcDbCircle
 10
33.6382224264795
 20
178.8303761861227
 30
0.0
 40
1.0
100
AcDbArc
 50
90.0
 51
180.0
  0
LINE
  5
D9C
330
2
100
AcDbEntity
  8
0
100
AcDbLine
 10
222.0806304264793
 20
57.33037618612275
 30
0.0
 11
230.0806304264793
 21
57.33037618612275
 31
0.0
  0
LINE
  5
D9D
330
2
100
AcDbEntity
  8
0
100
AcDbLine
 10
212.0806304264793
 20
54.33037618612274
 30
0.0
 11
230.0806304264793
 21
54.33037618612274
 31
0.0
  0
LINE
  5
D9E
330
2
100
AcDbEntity
  8
0
100
AcDbLine
 10
233.5806304264793
 20
172.1852081861227
 30
0.0
 11
172.0806304264794
 21
172.1852081861227
 31
0.0
  0
LINE
  5
D9F
330
2
100
AcDbEntity
  8
0
100
AcDbLine
 10
230.0806304264793
 20
182.3303761861227
 30
0.0
 11
172.0806304264794
 21
182.3303761861227
 31
0.0
  0
LINE
  5
DA0
330
2
100
AcDbEntity
  8
0
100
AcDbLine
 10
172.0806304264794
 20
177.3303761861227
 30
0.0
 11
233.5806304264793
 21
177.3303761861227
 31
0.0
  0
ARC
  5
DA1
330
2
100
AcDbEntity
  8
0
100
AcDbCircle
 10
227.0806304264793
 20
125.3303761861227
 30
0.0
 40
1.0
100
AcDbArc
 50
0.0
 51
180.0
  0
ARC
  5
DA2
330
2
100
AcDbEntity
  8
0
100
AcDbCircle
 10
227.0806304264793
 20
111.3303761861227
 30
0.0
 40
1.0
100
AcDbArc
 50
180.0
 51
0.0
  0
LINE
  5
DA3
330
2
100
AcDbEntity
  8
0
100
AcDbLine
 10
230.0806304264793
 20
63.20537618612275
 30
0.0
 11
224.0806304264793
 21
63.20537618612275
 31
0.0
  0
LINE
  5
DA4
330
2
100
AcDbEntity
  8
0
100
AcDbLine
 10
172.0806304264794
 20
54.33037618612274
 30
0.0
 11
172.0806304264794
 21
182.3303761861227
 31
0.0
  0
LINE
  5
DA5
330
2
100
AcDbEntity
  8
0
100
AcDbLine
 10
204.2806304264793
 20
165.3303761861227
 30
0.0
 11
204.2806304264793
 21
137.3303761861227
 31
0.0
  0
LINE
  5
DA6
330
2
100
AcDbEntity
  8
0
100
AcDbLine
 10
202.2806304264793
 20
137.3303761861227
 30
0.0
 11
202.2806304264793
 21
165.3303761861227
 31
0.0
  0
LINE
  5
DA7
330
2
100
AcDbEntity
  8
0
100
AcDbLine
 10
198.2806304264793
 20
165.3303761861227
 30
0.0
 11
198.2806304264793
 21
137.3303761861227
 31
0.0
  0
LINE
  5
DA8
330
2
100
AcDbEntity
  8
0
100
AcDbLine
 10
196.2806304264793
 20
137.3303761861227
 30
0.0
 11
196.2806304264793
 21
165.3303761861227
 31
0.0
  0
LINE
  5
DA9
330
2
100
AcDbEntity
  8
0
100
AcDbLine
 10
192.2806304264793
 20
165.3303761861227
 30
0.0
 11
192.2806304264793
 21
137.3303761861227
 31
0.0
  0
LINE
  5
DAA
330
2
100
AcDbEntity
  8
0
100
AcDbLine
 10
190.2806304264793
 20
137.3303761861227
 30
0.0
 11
190.2806304264793
 21
165.3303761861227
 31
0.0
  0
LINE
  5
DAB
330
2
100
AcDbEntity
  8
0
100
AcDbLine
 10
186.2806304264793
 20
165.3303761861227
 30
0.0
 11
186.2806304264793
 21
137.3303761861227
 31
0.0
  0
LINE
  5
DAC
330
2
100
AcDbEntity
  8
0
100
AcDbLine
 10
172.0806304264794
 20
134.3303761861227
 30
0.0
 11
172.0806304264794
 21
182.3303761861227
 31
0.0
  0
LINE
  5
DAD
330
2
100
AcDbEntity
  8
0
100
AcDbLine
 10
164.0806304264794
 20
134.3303761861227
 30
0.0
 11
164.0806304264794
 21
180.3303761861227
 31
0.0
  0
LINE
  5
DAE
330
2
100
AcDbEntity
  8
0
100
AcDbLine
 10
181.2806304264793
 20
157.8303761861227
 30
0.0
 11
181.2806304264793
 21
164.8303761861227
 31
0.0
  0
LINE
  5
DAF
330
2
100
AcDbEntity
  8
0
100
AcDbLine
 10
178.2806304264793
 20
164.8303761861227
 30
0.0
 11
178.2806304264793
 21
157.8303761861227
 31
0.0
  0
LINE
  5
DB0
330
2
100
AcDbEntity
  8
0
100
AcDbLine
 10
226.2806304264793
 20
137.3303761861227
 30
0.0
 11
226.2806304264793
 21
165.3303761861227
 31
0.0
  0
LINE
  5
DB1
330
2
100
AcDbEntity
  8
0
100
AcDbLine
 10
222.2806304264793
 20
165.3303761861227
 30
0.0
 11
222.2806304264793
 21
137.3303761861227
 31
0.0
  0
LINE
  5
DB2
330
2
100
AcDbEntity
  8
0
100
AcDbLine
 10
220.2806304264793
 20
137.3303761861227
 30
0.0
 11
220.2806304264793
 21
165.3303761861227
 31
0.0
  0
LINE
  5
DB3
330
2
100
AcDbEntity
  8
0
100
AcDbLine
 10
216.2806304264794
 20
165.3303761861227
 30
0.0
 11
216.2806304264794
 21
137.3303761861227
 31
0.0
  0
LINE
  5
DB4
330
2
100
AcDbEntity
  8
0
100
AcDbLine
 10
214.2806304264794
 20
137.3303761861227
 30
0.0
 11
214.2806304264794
 21
165.3303761861227
 31
0.0
  0
LINE
  5
DB5
330
2
100
AcDbEntity
  8
0
100
AcDbLine
 10
210.2806304264793
 20
165.3303761861227
 30
0.0
 11
210.2806304264793
 21
137.3303761861227
 31
0.0
  0
LINE
  5
DB6
330
2
100
AcDbEntity
  8
0
100
AcDbLine
 10
208.2806304264793
 20
137.3303761861227
 30
0.0
 11
208.2806304264793
 21
165.3303761861227
 31
0.0
  0
LINE
  5
DB7
330
2
100
AcDbEntity
  8
0
100
AcDbLine
 10
98.13822242647962
 20
56.33039718612275
 30
0.0
 11
98.13822242647962
 21
180.3303761861227
 31
0.0
  0
LINE
  5
DB8
330
2
100
AcDbEntity
  8
0
100
AcDbLine
 10
95.63822242647962
 20
135.8303761861227
 30
0.0
 11
95.63822242647962
 21
178.8303761861227
 31
0.0
  0
LINE
  5
DB9
330
2
100
AcDbEntity
  8
0
100
AcDbLine
 10
96.13822242647962
 20
54.33037618612274
 30
0.0
 11
43.1382224264795
 21
54.33037618612274
 31
0.0
  0
LINE
  5
DBA
330
2
100
AcDbEntity
  8
CENTER
100
AcDbLine
 10
36.1382224264795
 20
62.83037618612275
 30
0.0
 11
36.1382224264795
 21
55.83037618612275
 31
0.0
  0
ARC
  5
DBB
330
2
100
AcDbEntity
  8
HIDS
  6
HIDDEN3
100
AcDbCircle
 10
36.1382224264795
 20
59.33037618612274
 30
0.0
 40
5.0
100
AcDbArc
 50
0.0
 51
88.0000000000029
  0
LINE
  5
DBC
330
2
100
AcDbEntity
  8
HIDS
  6
HIDDEN3
100
AcDbLine
 10
38.6382224264795
 20
55.33037618612275
 30
0.0
 11
38.6382224264795
 21
59.33037618612274
 31
0.0
  0
ARC
  5
DBD
330
2
100
AcDbEntity
  8
HIDS
  6
HIDDEN3
100
AcDbCircle
 10
39.6382224264795
 20
55.33037618612275
 30
0.0
 40
1.0
100
AcDbArc
 50
180.0
 51
270.0
  0
LINE
  5
DBE
330
2
100
AcDbEntity
  8
HIDS
  6
HIDDEN3
100
AcDbLine
 10
41.1382224264795
 20
59.33037618612274
 30
0.0
 11
41.1382224264795
 21
56.33037618612275
 31
0.0
  0
ARC
  5
DBF
330
2
100
AcDbEntity
  8
HIDS
  6
HIDDEN3
100
AcDbCircle
 10
43.1382224264795
 20
56.33039718612275
 30
0.0
 40
2.0
100
AcDbArc
 50
180.0
 51
270.0
  0
ARC
  5
DC0
330
2
100
AcDbEntity
  8
HIDS
  6
HIDDEN3
100
AcDbCircle
 10
43.1382224264795
 20
56.33037618612275
 30
0.0
 40
2.0
100
AcDbArc
 50
180.0
 51
270.0
  0
ARC
  5
DC1
330
2
100
AcDbEntity
  8
0
100
AcDbCircle
 10
96.13822242647962
 20
56.33039718612275
 30
0.0
 40
2.0
100
AcDbArc
 50
270.0
 51
0.0
  0
ARC
  5
DC2
330
2
100
AcDbEntity
  8
0
100
AcDbCircle
 10
96.13822242647962
 20
56.33037618612275
 30
0.0
 40
2.0
100
AcDbArc
 50
270.0
 51
0.0
  0
ARC
  5
DC3
330
2
100
AcDbEntity
  8
0
100
AcDbCircle
 10
64.13822242647961
 20
129.3303761861227
 30
0.0
 40
4.0
100
AcDbArc
 50
180.0
 51
0.0
  0
CIRCLE
  5
DC4
330
2
100
AcDbEntity
  8
0
100
AcDbCircle
 10
64.13822242647961
 20
129.3303761861227
 30
0.0
 40
3.5
  0
LINE
  5
DC5
330
2
100
AcDbEntity
  8
0
100
AcDbLine
 10
64.63822242647961
 20
127.1653761861227
 30
0.0
 11
64.63822242647961
 21
128.8303761861227
 31
0.0
  0
LINE
  5
DC6
330
2
100
AcDbEntity
  8
0
100
AcDbLine
 10
63.63822242647962
 20
128.8303761861227
 30
0.0
 11
63.63822242647962
 21
127.1653761861227
 31
0.0
  0
LINE
  5
DC7
330
2
100
AcDbEntity
  8
0
100
AcDbLine
 10
63.63822242647962
 20
127.1653761861227
 30
0.0
 11
64.63822242647961
 21
127.1653761861227
 31
0.0
  0
LINE
  5
DC8
330
2
100
AcDbEntity
  8
0
100
AcDbLine
 10
63.63822242647962
 20
131.4953761861227
 30
0.0
 11
64.63822242647961
 21
131.4953761861227
 31
0.0
  0
LINE
  5
DC9
330
2
100
AcDbEntity
  8
0
100
AcDbLine
 10
63.63822242647962
 20
131.4953761861227
 30
0.0
 11
63.63822242647962
 21
129.8303761861227
 31
0.0
  0
LINE
  5
DCA
330
2
100
AcDbEntity
  8
0
100
AcDbLine
 10
60.13822242647961
 20
129.3303761861227
 30
0.0
 11
60.13822242647961
 21
134.3303761861227
 31
0.0
  0
LINE
  5
DCB
330
2
100
AcDbEntity
  8
0
100
AcDbLine
 10
63.63822242647962
 20
129.8303761861227
 30
0.0
 11
60.67412142647959
 21
129.8303761861227
 31
0.0
  0
LINE
  5
DCC
330
2
100
AcDbEntity
  8
0
100
AcDbLine
 10
60.67412142647959
 20
128.8303761861227
 30
0.0
 11
63.63822242647962
 21
128.8303761861227
 31
0.0
  0
LINE
  5
DCD
330
2
100
AcDbEntity
  8
0
100
AcDbLine
 10
68.13822242647962
 20
129.3303761861227
 30
0.0
 11
68.13822242647962
 21
134.3303761861227
 31
0.0
  0
LINE
  5
DCE
330
2
100
AcDbEntity
  8
0
100
AcDbLine
 10
64.63822242647961
 20
129.8303761861227
 30
0.0
 11
64.63822242647961
 21
131.4953761861227
 31
0.0
  0
LINE
  5
DCF
330
2
100
AcDbEntity
  8
0
100
AcDbLine
 10
67.60232442647964
 20
129.8303761861227
 30
0.0
 11
64.63822242647961
 21
129.8303761861227
 31
0.0
  0
LINE
  5
DD0
330
2
100
AcDbEntity
  8
0
100
AcDbLine
 10
64.63822242647961
 20
128.8303761861227
 30
0.0
 11
67.60232442647964
 21
128.8303761861227
 31
0.0
  0
ARC
  5
DD1
330
2
100
AcDbEntity
  8
0
100
AcDbCircle
 10
86.83822242647954
 20
126.0303761861227
 30
0.0
 40
1.025676467399989
100
AcDbArc
 50
90.0
 51
180.0
  0
ARC
  5
DD2
330
2
100
AcDbEntity
  8
0
100
AcDbCircle
 10
91.83822242647954
 20
126.0303761861227
 30
0.0
 40
1.025676467399989
100
AcDbArc
 50
0.0
 51
90.0
  0
ARC
  5
DD3
330
2
100
AcDbEntity
  8
0
100
AcDbCircle
 10
91.83822242647954
 20
123.0303761861227
 30
0.0
 40
1.025676467399989
100
AcDbArc
 50
270.0
 51
0.0
  0
LINE
  5
DD4
330
2
100
AcDbEntity
  8
0
100
AcDbLine
 10
86.83822242647954
 20
122.0047001861227
 30
0.0
 11
91.83822242647954
 21
122.0047001861227
 31
0.0
  0
LINE
  5
DD5
330
2
100
AcDbEntity
  8
0
100
AcDbLine
 10
91.83822242647954
 20
127.0560531861227
 30
0.0
 11
86.83822242647954
 21
127.0560531861227
 31
0.0
  0
LINE
  5
DD6
330
2
100
AcDbEntity
  8
0
100
AcDbLine
 10
85.81254642647957
 20
126.0303761861227
 30
0.0
 11
85.81254642647957
 21
123.0303761861227
 31
0.0
  0
ARC
  5
DD7
330
2
100
AcDbEntity
  8
0
100
AcDbCircle
 10
86.83822242647954
 20
123.0303761861227
 30
0.0
 40
1.025676467399989
100
AcDbArc
 50
180.0
 51
270.0
  0
LINE
  5
DD8
330
2
100
AcDbEntity
  8
0
100
AcDbLine
 10
92.86389942647963
 20
123.0303761861227
 30
0.0
 11
92.86389942647963
 21
126.0303761861227
 31
0.0
  0
ARC
  5
DD9
330
2
100
AcDbEntity
  8
0
100
AcDbCircle
 10
91.83822242647954
 20
131.8303761861227
 30
0.0
 40
1.025676467399989
100
AcDbArc
 50
0.0
 51
90.0
  0
ARC
  5
DDA
330
2
100
AcDbEntity
  8
0
100
AcDbCircle
 10
91.83822242647954
 20
128.8303761861227
 30
0.0
 40
1.025676467399989
100
AcDbArc
 50
270.0
 51
0.0
  0
LINE
  5
DDB
330
2
100
AcDbEntity
  8
0
100
AcDbLine
 10
86.83822242647954
 20
127.8047001861227
 30
0.0
 11
91.83822242647954
 21
127.8047001861227
 31
0.0
  0
LINE
  5
DDC
330
2
100
AcDbEntity
  8
0
100
AcDbLine
 10
91.83822242647954
 20
132.8560531861227
 30
0.0
 11
86.83822242647954
 21
132.8560531861227
 31
0.0
  0
LINE
  5
DDD
330
2
100
AcDbEntity
  8
0
100
AcDbLine
 10
85.81254642647957
 20
131.8303761861227
 30
0.0
 11
85.81254642647957
 21
128.8303761861227
 31
0.0
  0
ARC
  5
DDE
330
2
100
AcDbEntity
  8
0
100
AcDbCircle
 10
86.83822242647954
 20
128.8303761861227
 30
0.0
 40
1.025676467399989
100
AcDbArc
 50
180.0
 51
270.0
  0
ARC
  5
DDF
330
2
100
AcDbEntity
  8
0
100
AcDbCircle
 10
86.83822242647954
 20
131.8303761861227
 30
0.0
 40
1.025676467399989
100
AcDbArc
 50
90.0
 51
180.0
  0
LINE
  5
DE0
330
2
100
AcDbEntity
  8
0
100
AcDbLine
 10
92.86389942647963
 20
128.8303761861227
 30
0.0
 11
92.86389942647963
 21
131.8303761861227
 31
0.0
  0
ARC
  5
DE1
330
2
100
AcDbEntity
  8
0
100
AcDbCircle
 10
94.63822242647962
 20
135.8303761861227
 30
0.0
 40
1.0
100
AcDbArc
 50
270.0
 51
0.0
  0
CIRCLE
  5
DE2
330
2
100
AcDbEntity
  8
0
100
AcDbCircle
 10
87.13822242647962
 20
155.3303761861227
 30
0.0
 40
4.0
  0
CIRCLE
  5
DE3
330
2
100
AcDbEntity
  8
0
100
AcDbCircle
 10
87.13822242647962
 20
155.3303761861227
 30
0.0
 40
4.5
  0
LINE
  5
DE4
330
2
100
AcDbEntity
  8
0
100
AcDbLine
 10
87.13290042647953
 20
159.0346121861227
 30
0.0
 11
86.88290042647953
 21
158.2533421861227
 31
0.0
  0
LINE
  5
DE5
330
2
100
AcDbEntity
  8
0
100
AcDbLine
 10
87.13290042647953
 20
159.0346121861227
 30
0.0
 11
87.38290042647951
 21
158.2533421861227
 31
0.0
  0
LINE
  5
DE6
330
2
100
AcDbEntity
  8
0
100
AcDbLine
 10
221.2806304264793
 20
71.33037618612275
 30
0.0
 11
221.2806304264793
 21
132.3303761861227
 31
0.0
  0
LINE
  5
DE7
330
2
100
AcDbEntity
  8
0
100
AcDbLine
 10
226.2806304264793
 20
71.33037618612275
 30
0.0
 11
226.2806304264793
 21
99.33037618612274
 31
0.0
  0
LINE
  5
DE8
330
2
100
AcDbEntity
  8
0
100
AcDbLine
 10
222.2806304264793
 20
99.33037618612274
 30
0.0
 11
222.2806304264793
 21
71.33037618612275
 31
0.0
  0
LINE
  5
DE9
330
2
100
AcDbEntity
  8
0
100
AcDbLine
 10
197.2806304264793
 20
132.3303761861227
 30
0.0
 11
197.2806304264793
 21
71.33037618612275
 31
0.0
  0
LINE
  5
DEA
330
2
100
AcDbEntity
  8
0
100
AcDbLine
 10
164.0806304264794
 20
56.45810318612274
 30
0.0
 11
164.0806304264794
 21
134.3303761861227
 31
0.0
  0
LINE
  5
DEB
330
2
100
AcDbEntity
  8
0
100
AcDbLine
 10
196.2806304264793
 20
71.33037618612275
 30
0.0
 11
196.2806304264793
 21
99.33037618612274
 31
0.0
  0
LINE
  5
DEC
330
2
100
AcDbEntity
  8
0
100
AcDbLine
 10
192.2806304264793
 20
99.33037618612274
 30
0.0
 11
192.2806304264793
 21
71.33037618612275
 31
0.0
  0
LINE
  5
DED
330
2
100
AcDbEntity
  8
0
100
AcDbLine
 10
190.2806304264793
 20
71.33037618612275
 30
0.0
 11
190.2806304264793
 21
99.33037618612274
 31
0.0
  0
LINE
  5
DEE
330
2
100
AcDbEntity
  8
0
100
AcDbLine
 10
186.2806304264793
 20
99.33037618612274
 30
0.0
 11
186.2806304264793
 21
71.33037618612275
 31
0.0
  0
LINE
  5
DEF
330
2
100
AcDbEntity
  8
0
100
AcDbLine
 10
176.8806304264794
 20
58.23037618612272
 30
0.0
 11
182.2806304264793
 21
58.23037618612272
 31
0.0
  0
LINE
  5
DF0
330
2
100
AcDbEntity
  8
0
100
AcDbLine
 10
182.2806304264793
 20
60.43037618612277
 30
0.0
 11
176.8806304264794
 21
60.43037618612277
 31
0.0
  0
LINE
  5
DF1
330
2
100
AcDbEntity
  8
0
100
AcDbLine
 10
172.0806304264794
 20
54.33037618612274
 30
0.0
 11
212.0806304264793
 21
54.33037618612274
 31
0.0
  0
LINE
  5
DF2
330
2
100
AcDbEntity
  8
0
100
AcDbLine
 10
166.0457264264794
 20
54.45840718612277
 30
0.0
 11
172.0806304264794
 21
54.35306818612275
 31
0.0
  0
ARC
  5
DF3
330
2
100
AcDbEntity
  8
0
100
AcDbCircle
 10
166.0806304264794
 20
56.45810318612274
 30
0.0
 40
2.0
100
AcDbArc
 50
180.0
 51
268.9999999999982
  0
LINE
  5
DF4
330
2
100
AcDbEntity
  8
0
100
AcDbLine
 10
176.8806304264794
 20
60.43037618612277
 30
0.0
 11
176.8806304264794
 21
58.23037618612272
 31
0.0
  0
ARC
  5
DF5
330
2
100
AcDbEntity
  8
0
100
AcDbCircle
 10
224.0806304264793
 20
61.20537618612274
 30
0.0
 40
2.0
100
AcDbArc
 50
90.0
 51
180.0
  0
LINE
  5
DF6
330
2
100
AcDbEntity
  8
0
100
AcDbLine
 10
185.5806304264794
 20
58.83037618612275
 30
0.0
 11
210.0806304264793
 21
58.83037618612275
 31
0.0
  0
ARC
  5
DF7
330
2
100
AcDbEntity
  8
0
100
AcDbCircle
 10
185.5806304264794
 20
56.83037618612274
 30
0.0
 40
2.0
100
AcDbArc
 50
90.0
 51
180.0
  0
LINE
  5
DF8
330
2
100
AcDbEntity
  8
0
100
AcDbLine
 10
183.5806304264794
 20
54.33037618612274
 30
0.0
 11
183.5806304264794
 21
56.83037618612274
 31
0.0
  0
LINE
  5
DF9
330
2
100
AcDbEntity
  8
0
100
AcDbLine
 10
182.2806304264793
 20
58.23037618612272
 30
0.0
 11
182.2806304264793
 21
60.43037618612277
 31
0.0
  0
ARC
  5
DFA
330
2
100
AcDbEntity
  8
0
100
AcDbCircle
 10
210.0806304264793
 20
56.83037618612274
 30
0.0
 40
2.0
100
AcDbArc
 50
0.0
 51
90.0
  0
LINE
  5
DFB
330
2
100
AcDbEntity
  8
0
100
AcDbLine
 10
211.9940504264794
 20
57.41246518612275
 30
0.0
 11
210.2146054264794
 21
54.33037618612274
 31
0.0
  0
LINE
  5
DFC
330
2
100
AcDbEntity
  8
0
100
AcDbLine
 10
212.0806304264793
 20
54.33037618612274
 30
0.0
 11
212.0806304264793
 21
56.83037618612274
 31
0.0
  0
LINE
  5
DFD
330
2
100
AcDbEntity
  8
0
100
AcDbLine
 10
222.0806304264793
 20
54.33037618612274
 30
0.0
 11
222.0806304264793
 21
61.20537618612274
 31
0.0
  0
LINE
  5
DFE
330
2
100
AcDbEntity
  8
0
100
AcDbLine
 10
223.0806304264793
 20
57.33037618612275
 30
0.0
 11
223.0806304264793
 21
54.33037618612274
 31
0.0
  0
LINE
  5
DFF
330
2
100
AcDbEntity
  8
0
100
AcDbLine
 10
197.2806304264793
 20
71.33037618612275
 30
0.0
 11
221.2806304264793
 21
71.33037618612275
 31
0.0
  0
LINE
  5
E00
330
2
100
AcDbEntity
  8
0
100
AcDbLine
 10
190.2806304264793
 20
71.33037618612275
 30
0.0
 11
186.2806304264793
 21
71.33037618612275
 31
0.0
  0
LINE
  5
E01
330
2
100
AcDbEntity
  8
0
100
AcDbLine
 10
192.2806304264793
 20
71.33037618612275
 30
0.0
 11
196.2806304264793
 21
71.33037618612275
 31
0.0
  0
LINE
  5
E02
330
2
100
AcDbEntity
  8
0
100
AcDbLine
 10
190.2806304264793
 20
83.83037618612275
 30
0.0
 11
186.2806304264793
 21
83.83037618612275
 31
0.0
  0
LINE
  5
E03
330
2
100
AcDbEntity
  8
0
100
AcDbLine
 10
190.2806304264793
 20
86.83037618612274
 30
0.0
 11
186.2806304264793
 21
86.83037618612274
 31
0.0
  0
LINE
  5
E04
330
2
100
AcDbEntity
  8
0
100
AcDbLine
 10
196.2806304264793
 20
83.83037618612275
 30
0.0
 11
192.2806304264793
 21
83.83037618612275
 31
0.0
  0
LINE
  5
E05
330
2
100
AcDbEntity
  8
0
100
AcDbLine
 10
192.2806304264793
 20
86.83037618612274
 30
0.0
 11
196.2806304264793
 21
86.83037618612274
 31
0.0
  0
LINE
  5
E06
330
2
100
AcDbEntity
  8
0
100
AcDbLine
 10
222.2806304264793
 20
71.33037618612275
 30
0.0
 11
226.2806304264793
 21
71.33037618612275
 31
0.0
  0
LINE
  5
E07
330
2
100
AcDbEntity
  8
0
100
AcDbLine
 10
226.2806304264793
 20
83.83037618612275
 30
0.0
 11
222.2806304264793
 21
83.83037618612275
 31
0.0
  0
LINE
  5
E08
330
2
100
AcDbEntity
  8
0
100
AcDbLine
 10
222.2806304264793
 20
86.83037618612274
 30
0.0
 11
226.2806304264793
 21
86.83037618612274
 31
0.0
  0
LINE
  5
E09
330
2
100
AcDbEntity
  8
0
100
AcDbLine
 10
178.2806304264793
 20
157.8303761861227
 30
0.0
 11
181.2806304264793
 21
157.8303761861227
 31
0.0
  0
LINE
  5
E0A
330
2
100
AcDbEntity
  8
0
100
AcDbLine
 10
164.0806304264794
 20
159.8616261861227
 30
0.0
 11
155.5806304264794
 21
159.3303761861227
 31
0.0
  0
LINE
  5
E0B
330
2
100
AcDbEntity
  8
0
100
AcDbLine
 10
164.0806304264794
 20
150.7991261861227
 30
0.0
 11
155.5806304264794
 21
151.3303761861227
 31
0.0
  0
LINE
  5
E0C
330
2
100
AcDbEntity
  8
0
100
AcDbLine
 10
155.5806304264794
 20
159.3303761861227
 30
0.0
 11
155.5806304264794
 21
151.3303761861227
 31
0.0
  0
LINE
  5
E0D
330
2
100
AcDbEntity
  8
0
100
AcDbLine
 10
172.0806304264794
 20
134.3303761861227
 30
0.0
 11
164.0806304264794
 21
134.3303761861227
 31
0.0
  0
LINE
  5
E0E
330
2
100
AcDbEntity
  8
0
100
AcDbLine
 10
196.2806304264793
 20
104.3303761861227
 30
0.0
 11
196.2806304264793
 21
132.3303761861227
 31
0.0
  0
LINE
  5
E0F
330
2
100
AcDbEntity
  8
0
100
AcDbLine
 10
192.2806304264793
 20
132.3303761861227
 30
0.0
 11
192.2806304264793
 21
104.3303761861227
 31
0.0
  0
LINE
  5
E10
330
2
100
AcDbEntity
  8
0
100
AcDbLine
 10
190.2806304264793
 20
104.3303761861227
 30
0.0
 11
190.2806304264793
 21
132.3303761861227
 31
0.0
  0
LINE
  5
E11
330
2
100
AcDbEntity
  8
0
100
AcDbLine
 10
186.2806304264793
 20
132.3303761861227
 30
0.0
 11
186.2806304264793
 21
104.3303761861227
 31
0.0
  0
LINE
  5
E12
330
2
100
AcDbEntity
  8
0
100
AcDbLine
 10
190.2806304264793
 20
99.33037618612274
 30
0.0
 11
186.2806304264793
 21
99.33037618612274
 31
0.0
  0
LINE
  5
E13
330
2
100
AcDbEntity
  8
0
100
AcDbLine
 10
190.2806304264793
 20
104.3303761861227
 30
0.0
 11
186.2806304264793
 21
104.3303761861227
 31
0.0
  0
LINE
  5
E14
330
2
100
AcDbEntity
  8
0
100
AcDbLine
 10
196.2806304264793
 20
99.33037618612274
 30
0.0
 11
192.2806304264793
 21
99.33037618612274
 31
0.0
  0
LINE
  5
E15
330
2
100
AcDbEntity
  8
0
100
AcDbLine
 10
192.2806304264793
 20
104.3303761861227
 30
0.0
 11
196.2806304264793
 21
104.3303761861227
 31
0.0
  0
LINE
  5
E16
330
2
100
AcDbEntity
  8
0
100
AcDbLine
 10
196.2806304264793
 20
116.8303761861227
 30
0.0
 11
192.2806304264793
 21
116.8303761861227
 31
0.0
  0
LINE
  5
E17
330
2
100
AcDbEntity
  8
0
100
AcDbLine
 10
192.2806304264793
 20
119.8303761861227
 30
0.0
 11
196.2806304264793
 21
119.8303761861227
 31
0.0
  0
LINE
  5
E18
330
2
100
AcDbEntity
  8
0
100
AcDbLine
 10
226.2806304264793
 20
99.33037618612274
 30
0.0
 11
222.2806304264793
 21
99.33037618612274
 31
0.0
  0
LINE
  5
E19
330
2
100
AcDbEntity
  8
0
100
AcDbLine
 10
226.0806304264793
 20
125.3303761861227
 30
0.0
 11
226.0806304264793
 21
111.3303761861227
 31
0.0
  0
LINE
  5
E1A
330
2
100
AcDbEntity
  8
0
100
AcDbLine
 10
221.2806304264793
 20
132.3303761861227
 30
0.0
 11
197.2806304264793
 21
132.3303761861227
 31
0.0
  0
LINE
  5
E1B
330
2
100
AcDbEntity
  8
0
100
AcDbLine
 10
190.2806304264793
 20
132.3303761861227
 30
0.0
 11
186.2806304264793
 21
132.3303761861227
 31
0.0
  0
LINE
  5
E1C
330
2
100
AcDbEntity
  8
0
100
AcDbLine
 10
186.2806304264793
 20
137.3303761861227
 30
0.0
 11
190.2806304264793
 21
137.3303761861227
 31
0.0
  0
LINE
  5
E1D
330
2
100
AcDbEntity
  8
0
100
AcDbLine
 10
196.2806304264793
 20
132.3303761861227
 30
0.0
 11
192.2806304264793
 21
132.3303761861227
 31
0.0
  0
LINE
  5
E1E
330
2
100
AcDbEntity
  8
0
100
AcDbLine
 10
192.2806304264793
 20
137.3303761861227
 30
0.0
 11
196.2806304264793
 21
137.3303761861227
 31
0.0
  0
LINE
  5
E1F
330
2
100
AcDbEntity
  8
0
100
AcDbLine
 10
198.2806304264793
 20
137.3303761861227
 30
0.0
 11
202.2806304264793
 21
137.3303761861227
 31
0.0
  0
LINE
  5
E20
330
2
100
AcDbEntity
  8
0
100
AcDbLine
 10
196.2806304264793
 20
149.8303761861227
 30
0.0
 11
192.2806304264793
 21
149.8303761861227
 31
0.0
  0
LINE
  5
E21
330
2
100
AcDbEntity
  8
0
100
AcDbLine
 10
202.2806304264793
 20
149.8303761861227
 30
0.0
 11
198.2806304264793
 21
149.8303761861227
 31
0.0
  0
LINE
  5
E22
330
2
100
AcDbEntity
  8
0
100
AcDbLine
 10
192.2806304264793
 20
152.8303761861227
 30
0.0
 11
196.2806304264793
 21
152.8303761861227
 31
0.0
  0
LINE
  5
E23
330
2
100
AcDbEntity
  8
0
100
AcDbLine
 10
198.2806304264793
 20
152.8303761861227
 30
0.0
 11
202.2806304264793
 21
152.8303761861227
 31
0.0
  0
LINE
  5
E24
330
2
100
AcDbEntity
  8
0
100
AcDbLine
 10
204.2806304264793
 20
137.3303761861227
 30
0.0
 11
208.2806304264793
 21
137.3303761861227
 31
0.0
  0
LINE
  5
E25
330
2
100
AcDbEntity
  8
0
100
AcDbLine
 10
210.2806304264793
 20
137.3303761861227
 30
0.0
 11
214.2806304264794
 21
137.3303761861227
 31
0.0
  0
LINE
  5
E26
330
2
100
AcDbEntity
  8
0
100
AcDbLine
 10
216.2806304264794
 20
137.3303761861227
 30
0.0
 11
220.2806304264793
 21
137.3303761861227
 31
0.0
  0
LINE
  5
E27
330
2
100
AcDbEntity
  8
0
100
AcDbLine
 10
222.2806304264793
 20
137.3303761861227
 30
0.0
 11
226.2806304264793
 21
137.3303761861227
 31
0.0
  0
LINE
  5
E28
330
2
100
AcDbEntity
  8
0
100
AcDbLine
 10
208.2806304264793
 20
149.8303761861227
 30
0.0
 11
204.2806304264793
 21
149.8303761861227
 31
0.0
  0
LINE
  5
E29
330
2
100
AcDbEntity
  8
0
100
AcDbLine
 10
214.2806304264794
 20
149.8303761861227
 30
0.0
 11
210.2806304264793
 21
149.8303761861227
 31
0.0
  0
LINE
  5
E2A
330
2
100
AcDbEntity
  8
0
100
AcDbLine
 10
204.2806304264793
 20
152.8303761861227
 30
0.0
 11
208.2806304264793
 21
152.8303761861227
 31
0.0
  0
LINE
  5
E2B
330
2
100
AcDbEntity
  8
0
100
AcDbLine
 10
210.2806304264793
 20
152.8303761861227
 30
0.0
 11
214.2806304264794
 21
152.8303761861227
 31
0.0
  0
LINE
  5
E2C
330
2
100
AcDbEntity
  8
0
100
AcDbLine
 10
226.2806304264793
 20
149.8303761861227
 30
0.0
 11
222.2806304264793
 21
149.8303761861227
 31
0.0
  0
LINE
  5
E2D
330
2
100
AcDbEntity
  8
0
100
AcDbLine
 10
222.2806304264793
 20
152.8303761861227
 30
0.0
 11
226.2806304264793
 21
152.8303761861227
 31
0.0
  0
LINE
  5
E2E
330
2
100
AcDbEntity
  8
0
100
AcDbLine
 10
65.13822242647961
 20
175.8303761861227
 30
0.0
 11
35.6382224264795
 21
175.8303761861227
 31
0.0
  0
LINE
  5
E2F
330
2
100
AcDbEntity
  8
0
100
AcDbLine
 10
35.6382224264795
 20
166.8303761861227
 30
0.0
 11
65.13822242647961
 21
166.8303761861227
 31
0.0
  0
LINE
  5
E30
330
2
100
AcDbEntity
  8
0
100
AcDbLine
 10
35.6382224264795
 20
175.8303761861227
 30
0.0
 11
35.6382224264795
 21
166.8303761861227
 31
0.0
  0
LINE
  5
E31
330
2
100
AcDbEntity
  8
0
100
AcDbLine
 10
65.13822242647961
 20
166.8303761861227
 30
0.0
 11
65.13822242647961
 21
175.8303761861227
 31
0.0
  0
LINE
  5
E32
330
2
100
AcDbEntity
  8
CENTER
100
AcDbLine
 10
92.13822242647962
 20
180.8303761861227
 30
0.0
 11
92.13822242647962
 21
171.8385311861227
 31
0.0
  0
ARC
  5
E33
330
2
100
AcDbEntity
  8
HIDS
  6
HIDDEN3
100
AcDbCircle
 10
92.13822242647962
 20
177.3303971861228
 30
0.0
 40
5.0
100
AcDbArc
 50
180.0
 51
268.0000000000029
  0
CIRCLE
  5
E34
330
2
100
AcDbEntity
  8
HIDS
  6
HIDDEN3
100
AcDbCircle
 10
92.13822242647962
 20
177.3303761861227
 30
0.0
 40
2.5
  0
LINE
  5
E35
330
2
100
AcDbEntity
  8
HIDS
  6
HIDDEN3
100
AcDbLine
 10
91.96372542647953
 20
172.3334431861227
 30
0.0
 11
96.2080214264796
 21
172.1852291861227
 31
0.0
  0
ARC
  5
E36
330
2
100
AcDbEntity
  8
HIDS
  6
HIDDEN3
100
AcDbCircle
 10
96.13822242647962
 20
170.1864471861227
 30
0.0
 40
2.0
100
AcDbArc
 50
0.0
 51
88.0000000000029
  0
LINE
  5
E37
330
2
100
AcDbEntity
  8
CENTER
100
AcDbLine
 10
95.63822242647962
 20
177.3303761861227
 30
0.0
 11
88.63822242647961
 21
177.3303761861227
 31
0.0
  0
ARC
  5
E38
330
2
100
AcDbEntity
  8
HIDS
  6
HIDDEN3
100
AcDbCircle
 10
85.13822242647961
 20
180.3303971861227
 30
0.0
 40
2.0
100
AcDbArc
 50
0.0
 51
90.0
  0
LINE
  5
E39
330
2
100
AcDbEntity
  8
HIDS
  6
HIDDEN3
100
AcDbLine
 10
87.13822242647962
 20
180.3303971861227
 30
0.0
 11
87.13822242647962
 21
177.3303971861228
 31
0.0
  0
ARC
  5
E3A
330
2
100
AcDbEntity
  8
0
100
AcDbCircle
 10
96.13822242647962
 20
180.3303761861227
 30
0.0
 40
2.0
100
AcDbArc
 50
0.0
 51
90.0
  0
ARC
  5
E3B
330
2
100
AcDbEntity
  8
0
100
AcDbCircle
 10
94.63822242647962
 20
178.8303761861227
 30
0.0
 40
1.0
100
AcDbArc
 50
0.0
 51
90.0
  0
LINE
  5
E3C
330
2
100
AcDbEntity
  8
0
100
AcDbLine
 10
181.2806304264793
 20
164.8303761861227
 30
0.0
 11
178.2806304264793
 21
164.8303761861227
 31
0.0
  0
LINE
  5
E3D
330
2
100
AcDbEntity
  8
0
100
AcDbLine
 10
166.0806304264794
 20
182.3303761861227
 30
0.0
 11
172.0806304264794
 21
182.3303761861227
 31
0.0
  0
ARC
  5
E3E
330
2
100
AcDbEntity
  8
0
100
AcDbCircle
 10
166.0806304264794
 20
180.3303761861227
 30
0.0
 40
2.0
100
AcDbArc
 50
90.0
 51
180.0
  0
LINE
  5
E3F
330
2
100
AcDbEntity
  8
0
100
AcDbLine
 10
190.2806304264793
 20
165.3303761861227
 30
0.0
 11
186.2806304264793
 21
165.3303761861227
 31
0.0
  0
LINE
  5
E40
330
2
100
AcDbEntity
  8
0
100
AcDbLine
 10
196.2806304264793
 20
165.3303761861227
 30
0.0
 11
192.2806304264793
 21
165.3303761861227
 31
0.0
  0
LINE
  5
E41
330
2
100
AcDbEntity
  8
0
100
AcDbLine
 10
202.2806304264793
 20
165.3303761861227
 30
0.0
 11
198.2806304264793
 21
165.3303761861227
 31
0.0
  0
LINE
  5
E42
330
2
100
AcDbEntity
  8
0
100
AcDbLine
 10
208.2806304264793
 20
165.3303761861227
 30
0.0
 11
204.2806304264793
 21
165.3303761861227
 31
0.0
  0
LINE
  5
E43
330
2
100
AcDbEntity
  8
0
100
AcDbLine
 10
214.2806304264794
 20
165.3303761861227
 30
0.0
 11
210.2806304264793
 21
165.3303761861227
 31
0.0
  0
LINE
  5
E44
330
2
100
AcDbEntity
  8
0
100
AcDbLine
 10
220.2806304264793
 20
165.3303761861227
 30
0.0
 11
216.2806304264794
 21
165.3303761861227
 31
0.0
  0
LINE
  5
E45
330
2
100
AcDbEntity
  8
0
100
AcDbLine
 10
226.2806304264793
 20
165.3303761861227
 30
0.0
 11
222.2806304264793
 21
165.3303761861227
 31
0.0
  0
LINE
  5
E46
330
2
100
AcDbEntity
  8
0
100
AcDbLine
 10
271.0806304264793
 20
76.36529718612274
 30
0.0
 11
271.0806304264793
 21
166.2954551861227
 31
0.0
  0
LINE
  5
E47
330
2
100
AcDbEntity
  8
0
100
AcDbLine
 10
230.0806304264793
 20
182.3303761861227
 30
0.0
 11
230.0806304264793
 21
158.5803761861227
 31
0.0
  0
LINE
  5
E48
330
2
100
AcDbEntity
  8
0
100
AcDbLine
 10
230.0806304264793
 20
114.4845991861227
 30
0.0
 11
230.0806304264793
 21
88.58037618612275
 31
0.0
  0
LINE
  5
E49
330
2
100
AcDbEntity
  8
0
100
AcDbLine
 10
230.0806304264793
 20
72.08037618612275
 30
0.0
 11
230.0806304264793
 21
54.33037618612274
 31
0.0
  0
LINE
  5
E4A
330
2
100
AcDbEntity
  8
0
100
AcDbLine
 10
272.0806304264793
 20
76.33037618612275
 30
0.0
 11
272.0806304264793
 21
55.06348918612275
 31
0.0
  0
LINE
  5
E4B
330
2
100
AcDbEntity
  8
0
100
AcDbLine
 10
272.0806304264793
 20
55.06348918612275
 30
0.0
 11
230.0806304264793
 21
54.33037618612274
 31
0.0
  0
LINE
  5
E4C
330
2
100
AcDbEntity
  8
0
100
AcDbLine
 10
229.5806304264793
 20
84.33037618612274
 30
0.0
 11
229.5806304264793
 21
76.33037618612275
 31
0.0
  0
LINE
  5
E4D
330
2
100
AcDbEntity
  8
0
100
AcDbLine
 10
235.0806304264793
 20
71.83037618612274
 30
0.0
 11
235.0806304264793
 21
88.83037618612275
 31
0.0
  0
LINE
  5
E4E
330
2
100
AcDbEntity
  8
0
100
AcDbLine
 10
234.5806304264793
 20
86.58037618612274
 30
0.0
 11
234.5806304264793
 21
74.08037618612275
 31
0.0
  0
LINE
  5
E4F
330
2
100
AcDbEntity
  8
0
100
AcDbLine
 10
232.2806304264793
 20
76.33037618612275
 30
0.0
 11
232.2806304264793
 21
84.33037618612274
 31
0.0
  0
LINE
  5
E50
330
2
100
AcDbEntity
  8
0
100
AcDbLine
 10
233.5806304264793
 20
73.08037618612274
 30
0.0
 11
231.0806304264793
 21
73.08037618612274
 31
0.0
  0
LINE
  5
E51
330
2
100
AcDbEntity
  8
0
100
AcDbLine
 10
230.0806304264793
 20
71.83037618612274
 30
0.0
 11
235.0806304264793
 21
71.83037618612274
 31
0.0
  0
ARC
  5
E52
330
2
100
AcDbEntity
  8
0
100
AcDbCircle
 10
231.0806304264793
 20
72.08037618612275
 30
0.0
 40
1.0
100
AcDbArc
 50
90.0
 51
180.0
  0
LINE
  5
E53
330
2
100
AcDbEntity
  8
0
100
AcDbLine
 10
229.5806304264793
 20
76.33037618612275
 30
0.0
 11
232.2806304264793
 21
76.33037618612275
 31
0.0
  0
ARC
  5
E54
330
2
100
AcDbEntity
  8
0
100
AcDbCircle
 10
233.5806304264793
 20
74.08037618612275
 30
0.0
 40
1.0
100
AcDbArc
 50
270.0
 51
0.0
  0
LINE
  5
E55
330
2
100
AcDbEntity
  8
0
100
AcDbLine
 10
232.2806304264793
 20
84.33037618612274
 30
0.0
 11
229.5806304264793
 21
84.33037618612274
 31
0.0
  0
LINE
  5
E56
330
2
100
AcDbEntity
  8
0
100
AcDbLine
 10
231.0806304264793
 20
87.58037618612275
 30
0.0
 11
233.5806304264793
 21
87.58037618612275
 31
0.0
  0
LINE
  5
E57
330
2
100
AcDbEntity
  8
0
100
AcDbLine
 10
230.0806304264793
 20
88.83037618612275
 30
0.0
 11
235.0806304264793
 21
88.83037618612275
 31
0.0
  0
ARC
  5
E58
330
2
100
AcDbEntity
  8
0
100
AcDbCircle
 10
231.0806304264793
 20
88.58037618612275
 30
0.0
 40
1.0
100
AcDbArc
 50
180.0
 51
270.0
  0
ARC
  5
E59
330
2
100
AcDbEntity
  8
0
100
AcDbCircle
 10
233.5806304264793
 20
86.58037618612274
 30
0.0
 40
1.0
100
AcDbArc
 50
0.0
 51
90.0
  0
LINE
  5
E5A
330
2
100
AcDbEntity
  8
0
100
AcDbLine
 10
271.0806304264793
 20
76.36529718612274
 30
0.0
 11
272.0806304264793
 21
76.33037618612275
 31
0.0
  0
LINE
  5
E5B
330
2
100
AcDbEntity
  8
0
100
AcDbLine
 10
230.0806304264793
 20
142.0803761861227
 30
0.0
 11
230.0806304264793
 21
122.1761531861227
 31
0.0
  0
ARC
  5
E5C
330
2
100
AcDbEntity
  8
0
100
AcDbCircle
 10
205.5806304264793
 20
118.3303761861227
 30
0.0
 40
24.79999999999998
100
AcDbArc
 50
351.0790480000003
 51
8.920951999999642
  0
LINE
  5
E5D
330
2
100
AcDbEntity
  8
0
100
AcDbLine
 10
228.0806304264793
 20
111.3303761861227
 30
0.0
 11
228.0806304264793
 21
125.3303761861227
 31
0.0
  0
LINE
  5
E5E
330
2
100
AcDbEntity
  8
0
100
AcDbLine
 10
235.0806304264793
 20
141.8303761861227
 30
0.0
 11
235.0806304264793
 21
158.8303761861227
 31
0.0
  0
ARC
  5
E5F
330
2
100
AcDbEntity
  8
0
100
AcDbCircle
 10
233.5806304264793
 20
144.0803761861227
 30
0.0
 40
1.0
100
AcDbArc
 50
270.0
 51
0.0
  0
LINE
  5
E60
330
2
100
AcDbEntity
  8
0
100
AcDbLine
 10
233.5806304264793
 20
143.0803761861227
 30
0.0
 11
231.0806304264793
 21
143.0803761861227
 31
0.0
  0
LINE
  5
E61
330
2
100
AcDbEntity
  8
0
100
AcDbLine
 10
230.0806304264793
 20
141.8303761861227
 30
0.0
 11
235.0806304264793
 21
141.8303761861227
 31
0.0
  0
ARC
  5
E62
330
2
100
AcDbEntity
  8
0
100
AcDbCircle
 10
231.0806304264793
 20
142.0803761861227
 30
0.0
 40
1.0
100
AcDbArc
 50
90.0
 51
180.0
  0
LINE
  5
E63
330
2
100
AcDbEntity
  8
0
100
AcDbLine
 10
234.5806304264793
 20
156.5803761861227
 30
0.0
 11
234.5806304264793
 21
144.0803761861227
 31
0.0
  0
LINE
  5
E64
330
2
100
AcDbEntity
  8
0
100
AcDbLine
 10
232.2806304264793
 20
146.3303761861227
 30
0.0
 11
232.2806304264793
 21
154.3303761861227
 31
0.0
  0
LINE
  5
E65
330
2
100
AcDbEntity
  8
0
100
AcDbLine
 10
229.5806304264793
 20
154.3303761861227
 30
0.0
 11
229.5806304264793
 21
146.3303761861227
 31
0.0
  0
LINE
  5
E66
330
2
100
AcDbEntity
  8
0
100
AcDbLine
 10
229.5806304264793
 20
146.3303761861227
 30
0.0
 11
232.2806304264793
 21
146.3303761861227
 31
0.0
  0
LINE
  5
E67
330
2
100
AcDbEntity
  8
0
100
AcDbLine
 10
231.0806304264793
 20
157.5803761861227
 30
0.0
 11
233.5806304264793
 21
157.5803761861227
 31
0.0
  0
LINE
  5
E68
330
2
100
AcDbEntity
  8
0
100
AcDbLine
 10
230.0806304264793
 20
158.8303761861227
 30
0.0
 11
235.0806304264793
 21
158.8303761861227
 31
0.0
  0
LINE
  5
E69
330
2
100
AcDbEntity
  8
0
100
AcDbLine
 10
232.2806304264793
 20
154.3303761861227
 30
0.0
 11
229.5806304264793
 21
154.3303761861227
 31
0.0
  0
ARC
  5
E6A
330
2
100
AcDbEntity
  8
0
100
AcDbCircle
 10
231.0806304264793
 20
158.5803761861227
 30
0.0
 40
1.0
100
AcDbArc
 50
180.0
 51
270.0
  0
ARC
  5
E6B
330
2
100
AcDbEntity
  8
0
100
AcDbCircle
 10
233.5806304264793
 20
156.5803761861227
 30
0.0
 40
1.0
100
AcDbArc
 50
0.0
 51
90.0
  0
LINE
  5
E6C
330
2
100
AcDbEntity
  8
0
100
AcDbLine
 10
233.5806304264793
 20
168.2703761861227
 30
0.0
 11
267.0806304264793
 21
168.2703761861227
 31
0.0
  0
LINE
  5
E6D
330
2
100
AcDbEntity
  8
0
100
AcDbLine
 10
230.0806304264793
 20
182.3303761861227
 30
0.0
 11
272.0806304264793
 21
181.5972631861227
 31
0.0
  0
LINE
  5
E6E
330
2
100
AcDbEntity
  8
0
100
AcDbLine
 10
233.5806304264793
 20
168.2703761861227
 30
0.0
 11
233.5806304264793
 21
177.3303761861227
 31
0.0
  0
LINE
  5
E6F
330
2
100
AcDbEntity
  8
0
100
AcDbLine
 10
272.0806304264793
 20
181.5972631861227
 30
0.0
 11
272.0806304264793
 21
166.1303761861227
 31
0.0
  0
LINE
  5
E70
330
2
100
AcDbEntity
  8
0
100
AcDbLine
 10
267.0806304264793
 20
168.2703761861227
 30
0.0
 11
267.0806304264793
 21
181.6845391861227
 31
0.0
  0
LINE
  5
E71
330
2
100
AcDbEntity
  8
0
100
AcDbLine
 10
271.0806304264793
 20
166.2954551861227
 30
0.0
 11
272.0806304264793
 21
166.3303761861227
 31
0.0
  0
LINE
  5
E72
330
2
100
AcDbEntity
  8
0
100
AcDbLine
 10
272.0806304264793
 20
166.1303761861227
 30
0.0
 11
271.0806304264793
 21
166.0954551861227
 31
0.0
  0
TEXT
  5
134B
330
2
100
AcDbEntity
  8
TITLE
100
AcDbText
 10
30.12481191627319
 20
209.6821633822309
 30
0.0
 40
3.5
  1
A-BLPQ040T2
100
AcDbText
  0
ENDSEC
  0
SECTION
  2
OBJECTS
  0
DICTIONARY
  5
7
330
0
100
AcDbDictionary
  3
ACAD_GROUP
350
75
  3
ACAD_LAYOUT
350
61
  3
ACAD_MLINESTYLE
350
76
  3
ACAD_PLOTSETTINGS
350
77
  3
ACAD_PLOTSTYLENAME
350
6
  3
ACADDIM
350
480
  3
ACDBHEADERROUNDTRIPXREC
350
142E
  3
ACDBVARIABLEDICTIONARY
350
102
  3
DWGPROPS
350
3D2
  0
DICTIONARY
  5
144F
330
2
100
AcDbDictionary
280
     1
  3
ACAD_LAYOUTSELFREF
360
1450
  0
DICTIONARY
  5
1451
330
1428
100
AcDbDictionary
280
     1
  3
ACAD_LAYOUTSELFREF
360
1452
  0
DICTIONARY
  5
75
102
{ACAD_REACTORS
330
7
102
}
330
7
100
AcDbDictionary
  0
DICTIONARY
  5
61
102
{ACAD_REACTORS
330
7
102
}
330
7
100
AcDbDictionary
  0
DICTIONARY
  5
76
102
{ACAD_REACTORS
330
7
102
}
330
7
100
AcDbDictionary
  3
STANDARD
350
78
  0
DICTIONARY
  5
77
102
{ACAD_REACTORS
330
7
102
}
330
7
100
AcDbDictionary
  0
ACDBDICTIONARYWDFLT
  5
6
102
{ACAD_REACTORS
330
7
102
}
330
7
100
AcDbDictionary
281
     1
  3
Normal
350
5
100
AcDbDictionaryWithDefault
340
5
  0
XRECORD
  5
480
102
{ACAD_REACTORS
330
7
102
}
330
7
100
AcDbXrecord
 90
   990106
  3

 60
     0
 61
     0
 62
     1
 63
     3
 64
     1
 65
     0
 66
     0
 67
     3
 68
     1
 69
     0
 70
     0
 71
     0
 72
     0
 40
0.0
170
     2
340
EDC
  0
DICTIONARY
  5
142E
102
{ACAD_REACTORS
330
7
102
}
330
7
100
AcDbDictionary
  3
CEPSNTYPE
350
1438
  3
DIMSTYLEDATA
350
143C
  3
FINGERPRINTGUID
350
1439
  3
HYPERLINKBASE
350
1431
  3
INSUNITS
350
1437
  3
LAYOUTDICT
350
1433
  3
LWETCUNION
350
1436
  3
PLOTSETDICT
350
1434
  3
PLOTSTYLNAMDICT
350
1435
  3
PSVPSCALE
350
143B
  3
PUCSBASE
350
143F
  3
PUCSORGBACK
350
1445
  3
PUCSORGBOTTOM
350
1441
  3
PUCSORGFRONT
350
1444
  3
PUCSORGLEFT
350
1442
  3
PUCSORGRIGHT
350
1443
  3
PUCSORGTOP
350
1440
  3
PUCSORTHOREF
350
143D
  3
PUCSORTHOVIEW
350
143E
  3
STYLESHEET
350
1432
  3
TSTACKALIGN
350
142F
  3
TSTACKSIZE
350
1430
  3
UCSBASE
350
1448
  3
UCSORGBACK
350
144E
  3
UCSORGBOTTOM
350
144A
  3
UCSORGFRONT
350
144D
  3
UCSORGLEFT
350
144B
  3
UCSORGRIGHT
350
144C
  3
UCSORGTOP
350
1449
  3
UCSORTHOREF
350
1446
  3
UCSORTHOVIEW
350
1447
  3
VERSIONGUID
350
143A
  0
DICTIONARY
  5
102
102
{ACAD_REACTORS
330
7
102
}
330
7
100
AcDbDictionary
  3
DIMASSOC
350
103
  3
SORTENTS
350
549
  0
XRECORD
  5
3D2
102
{ACAD_REACTORS
330
7
102
}
330
7
100
AcDbXrecord
  1
DWGPROPS COOKIE
  2

  3

  4

  6

  7

  8

  9

300
=
301
=
302
=
303
=
304
=
305
=
306
=
307
=
308
=
309
=
 40
0.5353330671296296
 41
2452052.431989363
 42
2453406.550756377
  1

 90
        0
  0
XRECORD
  5
1450
102
{ACAD_REACTORS
330
144F
102
}
330
144F
100
AcDbXrecord
340
2
  0
XRECORD
  5
1452
102
{ACAD_REACTORS
330
1451
102
}
330
1451
100
AcDbXrecord
340
1428
  0
MLINESTYLE
  5
78
102
{ACAD_REACTORS
330
76
102
}
330
76
100
AcDbMlineStyle
  2
STANDARD
 70
     0
  3

 62
     0
 51
90.0
 52
90.0
 71
     2
 49
0.5
 62
   256
  6
BYLAYER
 49
-0.5
 62
   256
  6
BYLAYER
  0
ACDBPLACEHOLDER
  5
5
102
{ACAD_REACTORS
330
6
102
}
330
6
100
AcDbPlaceHolder
280
     0
  0
XRECORD
  5
1438
102
{ACAD_REACTORS
330
142E
102
}
330
142E
100
AcDbXrecord
 90
        0
  0
XRECORD
  5
143C
102
{ACAD_REACTORS
330
142E
102
}
330
142E
100
AcDbXrecord
1000
DSTYLE
1002
{
1070
   179
 70
     2
1070
   277
 70
     6
1002
}
  0
XRECORD
  5
1439
102
{ACAD_REACTORS
330
142E
102
}
330
142E
100
AcDbXrecord
  1
{6385560B-F4B1-4644-A7C2-A3E32AC3D232}
  0
XRECORD
  5
1431
102
{ACAD_REACTORS
330
142E
102
}
330
142E
100
AcDbXrecord
  1

  0
XRECORD
  5
1437
102
{ACAD_REACTORS
330
142E
102
}
330
142E
100
AcDbXrecord
 90
        0
  0
XRECORD
  5
1433
102
{ACAD_REACTORS
330
142E
102
}
330
142E
100
AcDbXrecord
340
61
  0
XRECORD
  5
1436
102
{ACAD_REACTORS
330
142E
102
}
330
142E
100
AcDbXrecord
 90
    10781
  0
XRECORD
  5
1434
102
{ACAD_REACTORS
330
142E
102
}
330
142E
100
AcDbXrecord
340
77
  0
XRECORD
  5
1435
102
{ACAD_REACTORS
330
142E
102
}
330
142E
100
AcDbXrecord
340
6
  0
XRECORD
  5
143B
102
{ACAD_REACTORS
330
142E
102
}
330
142E
100
AcDbXrecord
 40
0.0
  0
XRECORD
  5
143F
102
{ACAD_REACTORS
330
142E
102
}
330
142E
100
AcDbXrecord
340
0
  0
XRECORD
  5
1445
102
{ACAD_REACTORS
330
142E
102
}
330
142E
100
AcDbXrecord
 10
0.0
 20
0.0
 30
0.0
  0
XRECORD
  5
1441
102
{ACAD_REACTORS
330
142E
102
}
330
142E
100
AcDbXrecord
 10
0.0
 20
0.0
 30
0.0
  0
XRECORD
  5
1444
102
{ACAD_REACTORS
330
142E
102
}
330
142E
100
AcDbXrecord
 10
0.0
 20
0.0
 30
0.0
  0
XRECORD
  5
1442
102
{ACAD_REACTORS
330
142E
102
}
330
142E
100
AcDbXrecord
 10
0.0
 20
0.0
 30
0.0
  0
XRECORD
  5
1443
102
{ACAD_REACTORS
330
142E
102
}
330
142E
100
AcDbXrecord
 10
0.0
 20
0.0
 30
0.0
  0
XRECORD
  5
1440
102
{ACAD_REACTORS
330
142E
102
}
330
142E
100
AcDbXrecord
 10
0.0
 20
0.0
 30
0.0
  0
XRECORD
  5
143D
102
{ACAD_REACTORS
330
142E
102
}
330
142E
100
AcDbXrecord
340
0
  0
XRECORD
  5
143E
102
{ACAD_REACTORS
330
142E
102
}
330
142E
100
AcDbXrecord
 70
     0
  0
XRECORD
  5
1432
102
{ACAD_REACTORS
330
142E
102
}
330
142E
100
AcDbXrecord
  1
Sekkei.ctb
  0
XRECORD
  5
142F
102
{ACAD_REACTORS
330
142E
102
}
330
142E
100
AcDbXrecord
 90
        1
  0
XRECORD
  5
1430
102
{ACAD_REACTORS
330
142E
102
}
330
142E
100
AcDbXrecord
 90
       70
  0
XRECORD
  5
1448
102
{ACAD_REACTORS
330
142E
102
}
330
142E
100
AcDbXrecord
340
0
  0
XRECORD
  5
144E
102
{ACAD_REACTORS
330
142E
102
}
330
142E
100
AcDbXrecord
 10
0.0
 20
0.0
 30
0.0
  0
XRECORD
  5
144A
102
{ACAD_REACTORS
330
142E
102
}
330
142E
100
AcDbXrecord
 10
0.0
 20
0.0
 30
0.0
  0
XRECORD
  5
144D
102
{ACAD_REACTORS
330
142E
102
}
330
142E
100
AcDbXrecord
 10
0.0
 20
0.0
 30
0.0
  0
XRECORD
  5
144B
102
{ACAD_REACTORS
330
142E
102
}
330
142E
100
AcDbXrecord
 10
0.0
 20
0.0
 30
0.0
  0
XRECORD
  5
144C
102
{ACAD_REACTORS
330
142E
102
}
330
142E
100
AcDbXrecord
 10
0.0
 20
0.0
 30
0.0
  0
XRECORD
  5
1449
102
{ACAD_REACTORS
330
142E
102
}
330
142E
100
AcDbXrecord
 10
0.0
 20
0.0
 30
0.0
  0
XRECORD
  5
1446
102
{ACAD_REACTORS
330
142E
102
}
330
142E
100
AcDbXrecord
340
0
  0
XRECORD
  5
1447
102
{ACAD_REACTORS
330
142E
102
}
330
142E
100
AcDbXrecord
 70
     0
  0
XRECORD
  5
143A
102
{ACAD_REACTORS
330
142E
102
}
330
142E
100
AcDbXrecord
  1
{1661B726-95E7-4704-8B93-1DAFBF4092FA}
  0
DICTIONARYVAR
  5
103
102
{ACAD_REACTORS
330
102
102
}
330
102
100
DictionaryVariables
280
     0
  1
1
  0
DICTIONARYVAR
  5
549
102
{ACAD_REACTORS
330
102
102
}
330
102
100
DictionaryVariables
280
     0
  1
96
  0
ENDSEC
  0
EOF
