  0
SECTION
  2
HEADER
  9
$CLAYER
  8
1
  9
$LTSCALE
 40
3.0
  0
ENDSEC
  0
SECTION
  2
TABLES
  0
TABLE
  2
LTYPE
 70
     4
  0
LTYPE
  2
CONTINUOUS
  3
solid line
 70
    64
 72
    65
 73
     0
 40
0.0
  0
LTYPE
  2
DASHED
  3
__ __ __ __ __ __ __ __ __ __ __ __ __ __ __
 70
    64
 72
    65
 73
     2
 40
0.75
 49
0.5
 49
-0.25
  0
LTYPE
  2
CENTER
  3
____ _ ____ _ ____ _ ____ _ ____ _ ____ _ ____
 70
    64
 72
    65
 73
     4
 40
2.0
 49
1.25
 49
-0.25
 49
0.25
 49
-0.25
  0
LTYPE
  2
PHANTOM
  3
_____ _ _ _____ _ _ _____ _ _ _____ _ _ ____
 70
    64
 72
    65
 73
     6
 40
2.5
 49
1.25
 49
-0.25
 49
0.25
 49
-0.25
 49
0.25
 49
-0.25
  0
ENDTAB
  0
TABLE
  2
LAYER
 70
     1
  0
LAYER
  2
0
 70
    64
 62
     7
  6
CONTINUOUS
  0
ENDTAB
  0
TABLE
  2
STYLE
 70
     1
  0
STYLE
  2
STANDARD
 70
     0
 40
0.000000
 41
1.000000
 50
0.000000
 71
     0
 42
3.000000
  3
txt
  4
BIGFONT
  0
ENDTAB
  0
ENDSEC
  0
SECTION
  2
BLOCKS
  0
ENDSEC
  0
SECTION
  2
ENTITIES
  0
LINE
  8
0
  6
CENTER
 10
112.526199
 20
166.853195
 11
112.525803
 21
-3.646840
  0
LINE
  8
0
  6
CENTER
 10
183.895203
 20
95.417557
 11
8.025960
 21
95.417839
  0
LINE
  8
0
  6
CENTER
 10
145.526199
 20
144.917603
 11
145.526001
 21
111.417603
  0
LINE
  8
0
  6
CENTER
 10
145.526001
 20
54.917622
 11
145.526001
 21
25.917601
  0
LINE
  8
0
  6
CENTER
 10
39.526161
 20
141.417801
 11
39.525959
 21
113.417801
  0
LINE
  8
0
  6
CENTER
 10
39.525959
 20
57.417782
 11
39.525959
 21
25.417780
  0
LINE
  8
0
  6
CENTER
 10
161.026199
 20
128.417603
 11
130.526199
 21
128.417603
  0
LINE
  8
0
  6
CENTER
 10
54.526161
 20
128.417801
 11
25.525961
 21
128.417801
  0
LINE
  8
0
  6
CENTER
 10
162.026001
 20
40.417561
 11
132.026001
 21
40.417622
  0
LINE
  8
0
  6
CENTER
 10
54.525959
 20
40.417740
 11
22.025961
 21
40.417801
  0
CIRCLE
  8
0
  6
CONTINUOUS
 10
145.526001
 20
40.417599
 40
4.500000
  0
CIRCLE
  8
0
  6
CONTINUOUS
 10
145.526199
 20
128.417603
 40
4.500000
  0
CIRCLE
  8
0
  6
CONTINUOUS
 10
39.525959
 20
128.417801
 40
4.500000
  0
CIRCLE
  8
0
  6
CONTINUOUS
 10
39.525761
 20
40.417782
 40
4.500000
  0
CIRCLE
  8
0
  6
CONTINUOUS
 10
145.526001
 20
40.417599
 40
8.500000
  0
CIRCLE
  8
0
  6
CONTINUOUS
 10
145.526199
 20
128.417603
 40
8.500000
  0
CIRCLE
  8
0
  6
CONTINUOUS
 10
39.525959
 20
128.417801
 40
8.500000
  0
CIRCLE
  8
0
  6
CONTINUOUS
 10
39.525761
 20
40.417782
 40
8.500000
  0
LINE
  8
0
  6
CENTER
 10
162.526001
 20
36.417561
 11
162.525803
 21
9.917560
  0
LINE
  8
0
  6
CENTER
 10
162.526199
 20
159.417603
 11
162.526199
 21
133.917603
  0
LINE
  8
0
  6
CENTER
 10
174.526199
 20
145.417603
 11
149.526199
 21
145.417603
  0
LINE
  8
0
  6
CENTER
 10
175.526001
 20
23.417561
 11
149.026001
 21
23.417601
  0
CIRCLE
  8
0
  6
CONTINUOUS
 10
162.526001
 20
23.417561
 40
5.500000
  0
CIRCLE
  8
0
  6
CONTINUOUS
 10
162.526199
 20
145.417603
 40
5.500000
  0
LINE
  8
0
  6
CONTINUOUS
 10
174.526001
 20
23.417339
 11
174.526199
 21
145.417603
  0
LINE
  8
0
  6
CONTINUOUS
 10
162.526199
 20
157.417603
 11
22.526159
 21
157.417801
  0
LINE
  8
0
  6
CONTINUOUS
 10
162.525803
 20
11.417560
 11
22.525961
 21
11.417800
  0
ARC
  8
0
  6
CONTINUOUS
 10
162.526199
 20
145.417603
 40
12.000000
 50
0.000000
 51
90.000000
  0
ARC
  8
0
  6
CONTINUOUS
 10
162.525803
 20
23.417561
 40
12.000000
 50
-90.000000
 51
-0.000847
  0
CIRCLE
  8
0
  6
CONTINUOUS
 10
112.526001
 20
95.417664
 40
32.500000
  0
CIRCLE
  8
0
  6
CONTINUOUS
 10
112.526001
 20
95.417664
 40
38.000000
  0
ARC
  8
0
  6
CONTINUOUS
 10
112.526001
 20
73.417664
 40
56.000000
 50
-90.000000
 51
0.000000
  0
ARC
  8
0
  6
CONTINUOUS
 10
112.526001
 20
95.417664
 40
56.000000
 50
0.000000
 51
90.000000
  0
ARC
  8
0
  6
CONTINUOUS
 10
72.525963
 20
95.417717
 40
56.000000
 50
90.000000
 51
147.975998
  0
ARC
  8
0
  6
CONTINUOUS
 10
72.525963
 20
73.417717
 40
56.000000
 50
-147.975800
 51
-90.000000
  0
LINE
  8
0
  6
CONTINUOUS
 10
168.526001
 20
95.417557
 11
168.526001
 21
73.417557
  0
LINE
  8
0
  6
CONTINUOUS
 10
112.526001
 20
17.417660
 11
72.525963
 21
17.417721
  0
LINE
  8
0
  6
CONTINUOUS
 10
112.526001
 20
151.417603
 11
72.525963
 21
151.417801
  0
LINE
  8
0
  6
CENTER
 10
292.980988
 20
95.417664
 11
327.480988
 21
95.417664
  0
LINE
  8
0
  6
CONTINUOUS
 10
321.307190
 20
152.417603
 11
321.307190
 21
16.417660
  0
LINE
  8
0
  6
CONTINUOUS
 10
298.307190
 20
157.417603
 11
298.307190
 21
11.417660
  0
LINE
  8
0
  6
CONTINUOUS
 10
303.307404
 20
131.045197
 11
303.307190
 21
59.790161
  0
LINE
  8
0
  6
CONTINUOUS
 10
303.307190
 20
127.917603
 11
309.597412
 21
127.917603
  0
LINE
  8
0
  6
CONTINUOUS
 10
303.307190
 20
62.917660
 11
309.773010
 21
62.917660
  0
LINE
  8
0
  6
CONTINUOUS
 10
305.676605
 20
133.541595
 11
306.308014
 21
133.574799
  0
LINE
  8
0
  6
CONTINUOUS
 10
306.307190
 20
51.658718
 11
306.307190
 21
55.207981
  0
ARC
  8
0
  6
CONTINUOUS
 10
305.807190
 20
59.790161
 40
2.500000
 50
180.000000
 51
246.409607
  0
ARC
  8
0
  6
CONTINUOUS
 10
303.806213
 20
55.207981
 40
2.500000
 50
0.000000
 51
66.409599
  0
LINE
  8
0
  6
CONTINUOUS
 10
306.307190
 20
137.188004
 11
306.307190
 21
133.574799
  0
LINE
  8
0
  6
CONTINUOUS
 10
306.307190
 20
133.586594
 11
308.192413
 21
133.586594
  0
ARC
  8
0
  6
CONTINUOUS
 10
305.807190
 20
131.045197
 40
2.500000
 50
92.996658
 51
180.000000
  0
LINE
  8
0
  6
CENTER
 10
22.525961
 20
59.290821
 11
22.525761
 21
-0.709200
  0
LINE
  8
0
  6
CENTER
 10
22.526159
 20
165.790802
 11
22.525961
 21
117.290802
  0
LINE
  8
0
  6
CENTER
 10
36.182362
 20
145.417801
 11
3.525960
 21
145.417801
  0
LINE
  8
0
  6
CENTER
 10
35.932159
 20
23.417780
 11
5.182160
 21
23.417839
  0
LINE
  8
0
  6
CONTINUOUS
 10
17.526159
 20
133.008194
 11
17.525961
 21
35.827541
  0
ARC
  8
0
  6
CONTINUOUS
 10
22.525961
 20
23.417801
 40
12.000000
 50
-238.852600
 51
-90.000000
  0
ARC
  8
0
  6
CONTINUOUS
 10
22.526159
 20
145.417801
 40
12.000000
 50
90.000000
 51
238.852707
  0
ARC
  8
0
  6
CONTINUOUS
 10
15.026160
 20
133.008194
 40
2.500000
 50
0.000000
 51
58.852798
  0
ARC
  8
0
  6
CONTINUOUS
 10
15.025960
 20
35.827541
 40
2.500000
 50
-58.852638
 51
0.000000
  0
CIRCLE
  8
0
  6
CONTINUOUS
 10
22.526159
 20
145.417801
 40
5.500000
  0
CIRCLE
  8
0
  6
CONTINUOUS
 10
22.525961
 20
23.417801
 40
5.500000
  0
ARC
  8
0
  6
CONTINUOUS
 10
33.525959
 20
119.810402
 40
10.000000
 50
147.975906
 51
180.000000
  0
LINE
  8
0
  6
CONTINUOUS
 10
23.525961
 20
119.810402
 11
23.525961
 21
49.025101
  0
ARC
  8
0
  6
CONTINUOUS
 10
33.525959
 20
49.025200
 40
10.000000
 50
180.000000
 51
212.024307
  0
LINE
  8
0
  6
CONTINUOUS
 10
298.357391
 20
139.822403
 11
302.572388
 21
138.593002
  0
LINE
  8
0
  6
CONTINUOUS
 10
302.572388
 20
138.593002
 11
307.314209
 21
136.485596
  0
LINE
  8
0
  6
CONTINUOUS
 10
307.314209
 20
136.485596
 11
308.719208
 21
131.743607
  0
LINE
  8
0
  6
CONTINUOUS
 10
308.719208
 20
131.743607
 11
310.299805
 21
125.245598
  0
LINE
  8
0
  6
CONTINUOUS
 10
310.299805
 20
125.245598
 11
312.056213
 21
118.747398
  0
LINE
  8
0
  6
CONTINUOUS
 10
312.056213
 20
118.747398
 11
314.866211
 21
112.249199
  0
LINE
  8
0
  6
CONTINUOUS
 10
314.866211
 20
112.249199
 11
315.217407
 21
106.278000
  0
LINE
  8
0
  6
CONTINUOUS
 10
315.217407
 20
106.278000
 11
315.919800
 21
98.726196
  0
LINE
  8
0
  6
CONTINUOUS
 10
315.919800
 20
98.726196
 11
315.041809
 21
89.066856
  0
LINE
  8
0
  6
CONTINUOUS
 10
315.041809
 20
89.066856
 11
315.217407
 21
82.919983
  0
LINE
  8
0
  6
CONTINUOUS
 10
315.217407
 20
82.919983
 11
316.095398
 21
76.948761
  0
LINE
  8
0
  6
CONTINUOUS
 10
316.095398
 20
76.948761
 11
314.514801
 21
70.977478
  0
LINE
  8
0
  6
CONTINUOUS
 10
314.514801
 20
70.977478
 11
310.826813
 21
66.059959
  0
LINE
  8
0
  6
CONTINUOUS
 10
310.826813
 20
66.059959
 11
308.543610
 21
59.913078
  0
LINE
  8
0
  6
CONTINUOUS
 10
308.543610
 20
59.913078
 11
307.665405
 21
53.414982
  0
LINE
  8
0
  6
CONTINUOUS
 10
307.665405
 20
53.414982
 11
305.031189
 21
50.078098
  0
LINE
  8
0
  6
CONTINUOUS
 10
305.031189
 20
50.078098
 11
300.991791
 21
48.146240
  0
LINE
  8
0
  6
CONTINUOUS
 10
300.991791
 20
48.146240
 11
298.532990
 21
46.916840
  0
LINE
  8
0
  6
CONTINUOUS
 10
313.307404
 20
115.761803
 11
313.307404
 21
69.396881
  0
LINE
  8
0
  6
CONTINUOUS
 10
312.307190
 20
13.417660
 11
312.307190
 21
68.343079
  0
LINE
  8
0
  6
CONTINUOUS
 10
312.307190
 20
155.417603
 11
312.307190
 21
118.571800
  0
LINE
  8
0
  6
CONTINUOUS
 10
311.178009
 20
122.008003
 11
312.307190
 21
122.008003
  0
LINE
  8
0
  6
CONTINUOUS
 10
310.307190
 20
157.417603
 11
298.307190
 21
157.417603
  0
LINE
  8
0
  6
CONTINUOUS
 10
310.307190
 20
11.417660
 11
298.307190
 21
11.417660
  0
LINE
  8
0
  6
CONTINUOUS
 10
314.307007
 20
16.417660
 11
321.307190
 21
16.417660
  0
LINE
  8
0
  6
CONTINUOUS
 10
314.307190
 20
152.417603
 11
321.307190
 21
152.417603
  0
ARC
  8
0
  6
CONTINUOUS
 10
310.307190
 20
155.417603
 40
2.000000
 50
0.000000
 51
90.000000
  0
ARC
  8
0
  6
CONTINUOUS
 10
314.307190
 20
154.417603
 40
2.000000
 50
180.000000
 51
270.000000
  0
ARC
  8
0
  6
CONTINUOUS
 10
310.307190
 20
13.417660
 40
2.000000
 50
-90.000000
 51
0.000000
  0
ARC
  8
0
  6
CONTINUOUS
 10
314.307007
 20
14.417660
 40
2.000000
 50
90.000000
 51
180.000000
  0
LINE
  8
0
  6
CENTER
 10
112.526199
 20
250.954193
 11
112.526199
 21
285.454193
  0
LINE
  8
0
  6
CONTINUOUS
 10
169.526199
 20
279.280396
 11
17.526159
 21
279.280609
  0
LINE
  8
0
  6
CONTINUOUS
 10
174.526199
 20
256.280396
 11
10.526160
 21
256.280609
  0
LINE
  8
0
  6
CONTINUOUS
 10
12.526200
 20
270.280609
 11
85.451599
 21
270.280609
  0
LINE
  8
0
  6
CONTINUOUS
 10
172.526199
 20
270.280396
 11
85.451599
 21
270.280396
  0
LINE
  8
0
  6
CONTINUOUS
 10
174.526199
 20
268.280396
 11
174.526199
 21
256.280396
  0
LINE
  8
0
  6
CONTINUOUS
 10
10.526200
 20
268.280609
 11
10.526160
 21
256.280609
  0
LINE
  8
0
  6
CONTINUOUS
 10
169.526199
 20
272.280396
 11
169.526199
 21
279.280396
  0
ARC
  8
0
  6
CONTINUOUS
 10
172.526199
 20
268.280396
 40
2.000000
 50
0.000000
 51
90.000000
  0
ARC
  8
0
  6
CONTINUOUS
 10
171.526199
 20
272.280396
 40
2.000000
 50
180.000000
 51
270.000000
  0
ARC
  8
0
  6
CONTINUOUS
 10
12.526200
 20
268.280609
 40
2.000000
 50
90.000000
 51
180.000000
  0
LINE
  8
0
  6
CONTINUOUS
 10
17.526159
 20
279.280609
 11
17.526159
 21
272.280609
  0
ARC
  8
0
  6
CONTINUOUS
 10
15.526160
 20
272.280609
 40
2.000000
 50
-90.000000
 51
0.000000
  0
TEXT
  8
0
 10
-88.000000
 20
-58.000000
 40
4.000000
 41
1.000000
  1
RF-30
 50
0.000000
  0
ENDSEC
  0
EOF
