  0
SECTION
  2
HEADER
  9
$CLAYER
  8
1
  9
$LTSCALE
 40
3.0
  0
ENDSEC
  0
SECTION
  2
TABLES
  0
TABLE
  2
LTYPE
 70
     4
  0
LTYPE
  2
CONTINUOUS
  3
solid line
 70
    64
 72
    65
 73
     0
 40
0.0
  0
LTYPE
  2
DASHED
  3
__ __ __ __ __ __ __ __ __ __ __ __ __ __ __
 70
    64
 72
    65
 73
     2
 40
0.75
 49
0.5
 49
-0.25
  0
LTYPE
  2
CENTER
  3
____ _ ____ _ ____ _ ____ _ ____ _ ____ _ ____
 70
    64
 72
    65
 73
     4
 40
2.0
 49
1.25
 49
-0.25
 49
0.25
 49
-0.25
  0
LTYPE
  2
PHANTOM
  3
_____ _ _ _____ _ _ _____ _ _ _____ _ _ ____
 70
    64
 72
    65
 73
     6
 40
2.5
 49
1.25
 49
-0.25
 49
0.25
 49
-0.25
 49
0.25
 49
-0.25
  0
ENDTAB
  0
TABLE
  2
LAYER
 70
     1
  0
LAYER
  2
0
 70
    64
 62
     7
  6
CONTINUOUS
  0
ENDTAB
  0
TABLE
  2
STYLE
 70
     1
  0
STYLE
  2
STANDARD
 70
     0
 40
0.000000
 41
1.000000
 50
0.000000
 71
     0
 42
3.000000
  3
txt
  4
BIGFONT
  0
ENDTAB
  0
ENDSEC
  0
SECTION
  2
BLOCKS
  0
ENDSEC
  0
SECTION
  2
ENTITIES
  0
LINE
  8
0
  6
CENTER
 10
133.065796
 20
192.926605
 11
133.066803
 21
-4.573380
  0
LINE
  8
0
  6
CENTER
 10
219.566193
 20
111.927002
 11
5.441240
 21
111.926003
  0
LINE
  8
0
  6
CONTINUOUS
 10
201.065994
 20
167.927002
 11
201.066803
 21
23.927000
  0
LINE
  8
0
  6
CONTINUOUS
 10
13.066840
 20
23.926020
 11
13.066040
 21
167.925995
  0
LINE
  8
0
  6
CONTINUOUS
 10
25.065840
 20
179.925995
 11
189.065994
 21
179.926804
  0
LINE
  8
0
  6
CONTINUOUS
 10
25.066839
 20
11.926080
 11
189.066803
 21
11.926940
  0
ARC
  8
0
  6
CONTINUOUS
 10
189.066803
 20
23.926800
 40
12.000000
 50
-90.000000
 51
0.000000
  0
ARC
  8
0
  6
CONTINUOUS
 10
189.065994
 20
167.926804
 40
12.000000
 50
0.000000
 51
90.000000
  0
ARC
  8
0
  6
CONTINUOUS
 10
25.066040
 20
167.925995
 40
12.000000
 50
90.000000
 51
180.000000
  0
ARC
  8
0
  6
CONTINUOUS
 10
25.066839
 20
23.926081
 40
12.000000
 50
180.000000
 51
270.000000
  0
LINE
  8
0
  6
CENTER
 10
189.065994
 20
179.551804
 11
189.065994
 21
156.052002
  0
LINE
  8
0
  6
CENTER
 10
189.066605
 20
35.051941
 11
189.066803
 21
14.551940
  0
LINE
  8
0
  6
CENTER
 10
25.066040
 20
177.550995
 11
25.066040
 21
157.050995
  0
LINE
  8
0
  6
CENTER
 10
25.066660
 20
34.551079
 11
25.066839
 21
13.551080
  0
LINE
  8
0
  6
CENTER
 10
198.940994
 20
167.927002
 11
176.440994
 21
167.926804
  0
LINE
  8
0
  6
CENTER
 10
35.441040
 20
167.926193
 11
14.941040
 21
167.925995
  0
LINE
  8
0
  6
CENTER
 10
198.941803
 20
23.927000
 11
177.441803
 21
23.926880
  0
LINE
  8
0
  6
CENTER
 10
35.941841
 20
23.926140
 11
13.941840
 21
23.926041
  0
LINE
  8
0
  6
CENTER
 10
171.065994
 20
162.051804
 11
171.066193
 21
136.551804
  0
LINE
  8
0
  6
CENTER
 10
171.066605
 20
56.551781
 11
171.066605
 21
28.551781
  0
LINE
  8
0
  6
CENTER
 10
43.066040
 20
161.551193
 11
43.066261
 21
137.551193
  0
LINE
  8
0
  6
CENTER
 10
43.066639
 20
53.926140
 11
43.066639
 21
30.301140
  0
LINE
  8
0
  6
CENTER
 10
183.565994
 20
149.927002
 11
158.440994
 21
149.926804
  0
LINE
  8
0
  6
CENTER
 10
54.691040
 20
149.926193
 11
30.941040
 21
149.925995
  0
LINE
  8
0
  6
CENTER
 10
182.441605
 20
41.926880
 11
156.941605
 21
41.926781
  0
LINE
  8
0
  6
CENTER
 10
62.566639
 20
41.926262
 11
31.566660
 21
41.926079
  0
CIRCLE
  8
0
  6
CONTINUOUS
 10
171.066605
 20
41.926781
 40
4.500000
  0
CIRCLE
  8
0
  6
CONTINUOUS
 10
171.065994
 20
149.926804
 40
4.500000
  0
CIRCLE
  8
0
  6
CONTINUOUS
 10
43.066040
 20
149.926193
 40
4.500000
  0
CIRCLE
  8
0
  6
CONTINUOUS
 10
43.066639
 20
41.926140
 40
4.500000
  0
CIRCLE
  8
0
  6
CONTINUOUS
 10
171.066605
 20
41.926781
 40
8.500000
  0
CIRCLE
  8
0
  6
CONTINUOUS
 10
171.065994
 20
149.926804
 40
8.500000
  0
CIRCLE
  8
0
  6
CONTINUOUS
 10
43.066040
 20
149.926193
 40
8.500000
  0
CIRCLE
  8
0
  6
CONTINUOUS
 10
43.066639
 20
41.926140
 40
8.500000
  0
CIRCLE
  8
0
  6
CONTINUOUS
 10
189.065994
 20
167.927002
 40
6.500000
  0
CIRCLE
  8
0
  6
CONTINUOUS
 10
189.066803
 20
23.926941
 40
6.500000
  0
CIRCLE
  8
0
  6
CONTINUOUS
 10
25.066839
 20
23.926081
 40
6.500000
  0
CIRCLE
  8
0
  6
CONTINUOUS
 10
25.066040
 20
167.925995
 40
6.500000
  0
CIRCLE
  8
0
  6
CONTINUOUS
 10
133.066193
 20
111.926598
 40
36.000000
  0
CIRCLE
  8
0
  6
CONTINUOUS
 10
133.066193
 20
111.926598
 40
43.000000
  0
LINE
  8
0
  6
CONTINUOUS
 10
195.066193
 20
111.927002
 11
195.066406
 21
79.927002
  0
LINE
  8
0
  6
CONTINUOUS
 10
19.066240
 20
111.925797
 11
19.066441
 21
79.926201
  0
LINE
  8
0
  6
CONTINUOUS
 10
133.066803
 20
17.926620
 11
81.066803
 21
17.926359
  0
LINE
  8
0
  6
CONTINUOUS
 10
133.065796
 20
173.926605
 11
81.065804
 21
173.926407
  0
ARC
  8
0
  6
CONTINUOUS
 10
133.066193
 20
111.926598
 40
62.000000
 50
0.000000
 51
43.008789
  0
ARC
  8
0
  6
CONTINUOUS
 10
133.066193
 20
111.926598
 40
62.000000
 50
46.991390
 51
90.000000
  0
ARC
  8
0
  6
CONTINUOUS
 10
133.066406
 20
79.926598
 40
62.000000
 50
270.000000
 51
313.008698
  0
ARC
  8
0
  6
CONTINUOUS
 10
133.066406
 20
79.926598
 40
62.000000
 50
-43.008701
 51
0.000000
  0
ARC
  8
0
  6
CONTINUOUS
 10
81.066399
 20
79.926399
 40
62.000000
 50
180.000000
 51
223.008698
  0
ARC
  8
0
  6
CONTINUOUS
 10
81.066399
 20
79.926399
 40
62.000000
 50
226.991394
 51
270.000000
  0
ARC
  8
0
  6
CONTINUOUS
 10
81.066200
 20
111.926399
 40
62.000000
 50
90.000000
 51
133.008606
  0
ARC
  8
0
  6
CONTINUOUS
 10
81.066200
 20
111.926399
 40
62.000000
 50
136.991302
 51
180.000000
  0
LINE
  8
0
  6
CENTER
 10
369.161194
 20
111.926399
 11
407.661194
 21
111.926399
  0
LINE
  8
0
  6
CONTINUOUS
 10
401.770599
 20
174.926407
 11
401.770599
 21
16.926081
  0
LINE
  8
0
  6
CONTINUOUS
 10
375.770599
 20
179.925995
 11
375.770599
 21
11.926080
  0
LINE
  8
0
  6
CONTINUOUS
 10
391.770599
 20
176.873596
 11
391.770599
 21
177.189606
  0
LINE
  8
0
  6
CONTINUOUS
 10
393.770599
 20
150.076401
 11
393.770599
 21
83.865601
  0
LINE
  8
0
  6
CONTINUOUS
 10
393.770599
 20
147.926407
 11
378.770599
 21
147.926407
  0
LINE
  8
0
  6
CONTINUOUS
 10
390.771606
 20
75.926399
 11
378.770599
 21
75.926399
  0
LINE
  8
0
  6
CONTINUOUS
 10
378.770599
 20
152.554001
 11
378.770599
 21
71.298798
  0
LINE
  8
0
  6
CONTINUOUS
 10
385.770599
 20
57.697540
 11
385.770599
 21
66.186996
  0
LINE
  8
0
  6
CONTINUOUS
 10
383.401398
 20
68.683601
 11
381.139801
 21
68.802200
  0
LINE
  8
0
  6
CONTINUOUS
 10
383.401398
 20
155.169006
 11
381.139801
 21
155.050598
  0
ARC
  8
0
  6
CONTINUOUS
 10
381.270599
 20
71.298798
 40
2.500000
 50
180.000000
 51
267.000214
  0
ARC
  8
0
  6
CONTINUOUS
 10
383.270599
 20
66.186996
 40
2.500000
 50
0.000000
 51
87.000183
  0
ARC
  8
0
  6
CONTINUOUS
 10
381.270599
 20
152.554001
 40
2.500000
 50
93.000923
 51
180.000000
  0
LINE
  8
0
  6
CONTINUOUS
 10
389.875214
 20
179.186996
 11
375.770599
 21
179.925995
  0
ARC
  8
0
  6
CONTINUOUS
 10
389.770599
 20
177.189606
 40
2.000000
 50
0.000000
 51
86.999786
  0
LINE
  8
0
  6
CONTINUOUS
 10
393.191986
 20
175.375595
 11
401.770599
 21
174.925995
  0
ARC
  8
0
  6
CONTINUOUS
 10
393.270599
 20
176.873596
 40
1.500000
 50
180.000000
 51
266.999786
  0
LINE
  8
0
  6
CONTINUOUS
 10
385.770599
 20
160.789398
 11
385.770599
 21
157.665604
  0
LINE
  8
0
  6
CONTINUOUS
 10
383.401398
 20
155.169006
 11
381.139801
 21
155.050598
  0
ARC
  8
0
  6
CONTINUOUS
 10
381.270599
 20
152.554001
 40
2.500000
 50
92.999786
 51
180.000000
  0
ARC
  8
0
  6
CONTINUOUS
 10
383.270599
 20
157.665604
 40
2.500000
 50
-87.000183
 51
0.000000
  0
LINE
  8
0
  6
CONTINUOUS
 10
391.770599
 20
14.978560
 11
391.770599
 21
14.662580
  0
LINE
  8
0
  6
CONTINUOUS
 10
389.875214
 20
12.665280
 11
375.770599
 21
11.926080
  0
ARC
  8
0
  6
CONTINUOUS
 10
389.770599
 20
14.662580
 40
2.000000
 50
-86.999786
 51
0.000000
  0
LINE
  8
0
  6
CONTINUOUS
 10
393.191986
 20
16.476500
 11
401.770599
 21
16.926081
  0
ARC
  8
0
  6
CONTINUOUS
 10
393.270599
 20
14.978560
 40
1.500000
 50
93.000198
 51
180.000000
  0
LINE
  8
0
  6
CONTINUOUS
 10
375.843414
 20
166.058197
 11
381.112213
 21
162.897003
  0
LINE
  8
0
  6
CONTINUOUS
 10
381.112213
 20
162.897003
 11
388.137207
 21
159.384399
  0
LINE
  8
0
  6
CONTINUOUS
 10
388.137207
 20
159.384399
 11
389.893585
 21
153.061996
  0
LINE
  8
0
  6
CONTINUOUS
 10
389.893585
 20
153.061996
 11
396.216003
 21
148.495605
  0
LINE
  8
0
  6
CONTINUOUS
 10
396.216003
 20
148.495605
 11
396.567200
 21
138.836395
  0
LINE
  8
0
  6
CONTINUOUS
 10
396.567200
 20
138.836395
 11
396.391602
 21
128.649994
  0
LINE
  8
0
  6
CONTINUOUS
 10
396.391602
 20
128.649994
 11
395.337799
 21
120.922600
  0
LINE
  8
0
  6
CONTINUOUS
 10
395.337799
 20
120.922600
 11
395.513611
 21
113.195000
  0
LINE
  8
0
  6
CONTINUOUS
 10
395.513611
 20
113.195000
 11
396.040405
 21
101.779404
  0
LINE
  8
0
  6
CONTINUOUS
 10
396.040405
 20
101.779404
 11
396.391602
 21
94.403198
  0
LINE
  8
0
  6
CONTINUOUS
 10
396.391602
 20
94.403198
 11
394.811005
 21
86.148804
  0
LINE
  8
0
  6
CONTINUOUS
 10
394.811005
 20
86.148804
 11
391.298401
 21
78.597000
  0
LINE
  8
0
  6
CONTINUOUS
 10
391.298401
 20
78.597000
 11
389.717804
 21
68.762001
  0
LINE
  8
0
  6
CONTINUOUS
 10
389.717804
 20
68.762001
 11
388.312805
 21
61.912540
  0
LINE
  8
0
  6
CONTINUOUS
 10
388.312805
 20
61.912540
 11
384.273590
 21
55.063179
  0
LINE
  8
0
  6
CONTINUOUS
 10
384.273590
 20
55.063179
 11
375.843414
 21
52.428799
  0
LINE
  8
0
  6
CONTINUOUS
 10
391.770599
 20
14.978560
 11
391.770599
 21
79.826202
  0
LINE
  8
0
  6
CONTINUOUS
 10
391.770599
 20
176.873596
 11
391.770599
 21
151.832596
  0
LINE
  8
0
  6
CENTER
 10
133.065796
 20
273.234009
 11
133.065796
 21
311.734009
  0
LINE
  8
0
  6
CONTINUOUS
 10
196.065796
 20
305.843414
 11
18.066080
 21
305.843811
  0
LINE
  8
0
  6
CONTINUOUS
 10
201.065399
 20
279.843414
 11
13.066040
 21
279.843597
  0
LINE
  8
0
  6
CONTINUOUS
 10
198.013000
 20
295.843414
 11
198.329193
 21
295.843414
  0
LINE
  8
0
  6
CONTINUOUS
 10
200.326401
 20
293.947998
 11
201.065399
 21
279.843414
  0
ARC
  8
0
  6
CONTINUOUS
 10
198.329193
 20
293.843414
 40
2.000000
 50
3.000214
 51
90.000000
  0
LINE
  8
0
  6
CONTINUOUS
 10
196.514999
 20
297.264801
 11
196.065399
 21
305.843414
  0
ARC
  8
0
  6
CONTINUOUS
 10
198.013000
 20
297.343414
 40
1.500000
 50
-176.999802
 51
-90.000000
  0
LINE
  8
0
  6
CONTINUOUS
 10
16.118561
 20
295.843597
 11
15.802580
 21
295.843597
  0
LINE
  8
0
  6
CONTINUOUS
 10
13.805260
 20
293.948212
 11
13.066040
 21
279.843597
  0
ARC
  8
0
  6
CONTINUOUS
 10
15.802580
 20
293.843597
 40
2.000000
 50
90.000000
 51
176.999802
  0
LINE
  8
0
  6
CONTINUOUS
 10
17.616480
 20
297.265015
 11
18.066080
 21
305.843597
  0
ARC
  8
0
  6
CONTINUOUS
 10
16.118561
 20
297.343597
 40
1.500000
 50
-90.000000
 51
-3.000198
  0
LINE
  8
0
  6
CONTINUOUS
 10
16.118561
 20
295.843597
 11
100.965599
 21
295.843597
  0
LINE
  8
0
  6
CONTINUOUS
 10
198.013000
 20
295.843414
 11
100.965599
 21
295.843597
  0
TEXT
  8
0
 10
-88.000000
 20
-84.000000
 40
4.000000
 41
1.000000
  1
RF-35
 50
0.000000
  0
ENDSEC
  0
EOF
