  0
SECTION
  2
HEADER
  9
$CLAYER
  8
1
  9
$LTSCALE
 40
3.0
  0
ENDSEC
  0
SECTION
  2
TABLES
  0
TABLE
  2
LTYPE
 70
     4
  0
LTYPE
  2
CONTINUOUS
  3
solid line
 70
    64
 72
    65
 73
     0
 40
0.0
  0
LTYPE
  2
DASHED
  3
__ __ __ __ __ __ __ __ __ __ __ __ __ __ __
 70
    64
 72
    65
 73
     2
 40
0.75
 49
0.5
 49
-0.25
  0
LTYPE
  2
CENTER
  3
____ _ ____ _ ____ _ ____ _ ____ _ ____ _ ____
 70
    64
 72
    65
 73
     4
 40
2.0
 49
1.25
 49
-0.25
 49
0.25
 49
-0.25
  0
LTYPE
  2
PHANTOM
  3
_____ _ _ _____ _ _ _____ _ _ _____ _ _ ____
 70
    64
 72
    65
 73
     6
 40
2.5
 49
1.25
 49
-0.25
 49
0.25
 49
-0.25
 49
0.25
 49
-0.25
  0
ENDTAB
  0
TABLE
  2
LAYER
 70
     1
  0
LAYER
  2
0
 70
    64
 62
     7
  6
CONTINUOUS
  0
ENDTAB
  0
TABLE
  2
STYLE
 70
     1
  0
STYLE
  2
STANDARD
 70
     0
 40
0.000000
 41
1.000000
 50
0.000000
 71
     0
 42
3.000000
  3
txt
  4
BIGFONT
  0
ENDTAB
  0
ENDSEC
  0
SECTION
  2
BLOCKS
  0
ENDSEC
  0
SECTION
  2
ENTITIES
  0
LINE
  8
0
  6
CENTER
 10
260.312195
 20
130.783005
 11
0.312040
 21
130.783401
  0
LINE
  8
0
  6
CENTER
 10
161.312393
 20
226.283203
 11
161.311798
 21
-1.217040
  0
LINE
  8
0
  6
CONTINUOUS
 10
27.312241
 20
215.783401
 11
231.312393
 21
215.782806
  0
LINE
  8
0
  6
CONTINUOUS
 10
27.311840
 20
11.783220
 11
231.311798
 21
11.782840
  0
LINE
  8
0
  6
CONTINUOUS
 10
246.312195
 20
26.782820
 11
246.312393
 21
200.782806
  0
LINE
  8
0
  6
CONTINUOUS
 10
12.312240
 20
200.783401
 11
12.311820
 21
26.783220
  0
ARC
  8
0
  6
CONTINUOUS
 10
231.312393
 20
200.782806
 40
15.000000
 50
0.000000
 51
90.000000
  0
ARC
  8
0
  6
CONTINUOUS
 10
231.311600
 20
26.782841
 40
15.000000
 50
-90.000000
 51
0.000000
  0
ARC
  8
0
  6
CONTINUOUS
 10
27.311621
 20
26.783220
 40
15.000000
 50
-180.000000
 51
-90.000000
  0
ARC
  8
0
  6
CONTINUOUS
 10
27.312241
 20
200.783401
 40
15.000000
 50
90.000000
 51
180.000000
  0
CIRCLE
  8
0
  6
CONTINUOUS
 10
161.312195
 20
130.783203
 40
55.000000
  0
CIRCLE
  8
0
  6
CONTINUOUS
 10
161.312195
 20
130.783203
 40
42.500000
  0
LINE
  8
0
  6
CENTER
 10
229.812393
 20
178.782806
 11
190.312393
 21
178.782806
  0
LINE
  8
0
  6
CENTER
 10
209.312393
 20
198.282806
 11
209.312393
 21
159.782806
  0
LINE
  8
0
  6
CENTER
 10
228.312195
 20
48.782860
 11
192.312195
 21
48.782921
  0
LINE
  8
0
  6
CENTER
 10
209.312195
 20
67.282799
 11
209.312195
 21
31.282900
  0
LINE
  8
0
  6
CENTER
 10
49.312000
 20
66.283203
 11
49.312000
 21
30.783159
  0
LINE
  8
0
  6
CENTER
 10
49.312199
 20
197.283203
 11
49.312199
 21
160.283203
  0
LINE
  8
0
  6
CENTER
 10
68.312202
 20
178.783203
 11
28.812241
 21
178.783401
  0
LINE
  8
0
  6
CENTER
 10
66.811996
 20
48.783161
 11
31.312040
 21
48.783218
  0
CIRCLE
  8
0
  6
CONTINUOUS
 10
209.312195
 20
48.782902
 40
5.500000
  0
CIRCLE
  8
0
  6
CONTINUOUS
 10
209.312393
 20
178.782806
 40
5.500000
  0
CIRCLE
  8
0
  6
CONTINUOUS
 10
49.312199
 20
178.783203
 40
5.500000
  0
CIRCLE
  8
0
  6
CONTINUOUS
 10
49.312000
 20
48.783161
 40
5.500000
  0
CIRCLE
  8
0
  6
CONTINUOUS
 10
209.312393
 20
178.782806
 40
10.000000
  0
CIRCLE
  8
0
  6
CONTINUOUS
 10
209.312195
 20
48.782902
 40
10.000000
  0
CIRCLE
  8
0
  6
CONTINUOUS
 10
49.312000
 20
48.783161
 40
10.000000
  0
CIRCLE
  8
0
  6
CONTINUOUS
 10
49.312199
 20
178.783203
 40
10.000000
  0
ARC
  8
0
  6
CONTINUOUS
 10
161.312195
 20
96.782997
 40
78.000000
 50
-90.000000
 51
0.000000
  0
ARC
  8
0
  6
CONTINUOUS
 10
161.312195
 20
130.783203
 40
78.000000
 50
0.000000
 51
90.000000
  0
ARC
  8
0
  6
CONTINUOUS
 10
97.311996
 20
130.783203
 40
78.000000
 50
90.000000
 51
180.000000
  0
ARC
  8
0
  6
CONTINUOUS
 10
97.311996
 20
96.783203
 40
78.000000
 50
-180.000000
 51
-90.000000
  0
LINE
  8
0
  6
CONTINUOUS
 10
239.312195
 20
130.783203
 11
239.312195
 21
96.782997
  0
LINE
  8
0
  6
CONTINUOUS
 10
19.312040
 20
130.783005
 11
19.312040
 21
96.783401
  0
LINE
  8
0
  6
CONTINUOUS
 10
161.311798
 20
208.783203
 11
97.311798
 21
208.783203
  0
LINE
  8
0
  6
CONTINUOUS
 10
161.311798
 20
18.782961
 11
97.311798
 21
18.783060
  0
LINE
  8
0
  6
CENTER
 10
27.312241
 20
212.283401
 11
27.312241
 21
186.783401
  0
LINE
  8
0
  6
CENTER
 10
27.312040
 20
41.283218
 11
27.311840
 21
14.283220
  0
LINE
  8
0
  6
CENTER
 10
231.312393
 20
213.282806
 11
231.312393
 21
185.282806
  0
LINE
  8
0
  6
CENTER
 10
231.312195
 20
41.782841
 11
231.311798
 21
6.282840
  0
LINE
  8
0
  6
CENTER
 10
243.812195
 20
26.782820
 11
215.312195
 21
26.782881
  0
LINE
  8
0
  6
CENTER
 10
40.811798
 20
26.783159
 11
15.311820
 21
26.783220
  0
LINE
  8
0
  6
CENTER
 10
243.812393
 20
200.782806
 11
216.812393
 21
200.782806
  0
LINE
  8
0
  6
CENTER
 10
41.812199
 20
200.783401
 11
14.312240
 21
200.783401
  0
CIRCLE
  8
0
  6
CONTINUOUS
 10
231.312195
 20
26.782841
 40
7.500000
  0
CIRCLE
  8
0
  6
CONTINUOUS
 10
231.312393
 20
200.782806
 40
7.500000
  0
CIRCLE
  8
0
  6
CONTINUOUS
 10
27.312241
 20
200.783401
 40
7.500000
  0
CIRCLE
  8
0
  6
CONTINUOUS
 10
27.311840
 20
26.783220
 40
7.500000
  0
LINE
  8
0
  6
CENTER
 10
399.481201
 20
130.783203
 11
462.481415
 21
130.783203
  0
LINE
  8
0
  6
CONTINUOUS
 10
443.278198
 20
210.783203
 11
443.278198
 21
17.359659
  0
LINE
  8
0
  6
CONTINUOUS
 10
414.278198
 20
215.783401
 11
414.278198
 21
11.783220
  0
LINE
  8
0
  6
CONTINUOUS
 10
417.278198
 20
78.155602
 11
417.278198
 21
183.410599
  0
LINE
  8
0
  6
CONTINUOUS
 10
419.647186
 20
185.907394
 11
422.908997
 21
186.078201
  0
LINE
  8
0
  6
CONTINUOUS
 10
419.647400
 20
75.658997
 11
422.908997
 21
75.487999
  0
ARC
  8
0
  6
CONTINUOUS
 10
419.778198
 20
183.410599
 40
2.500000
 50
93.000900
 51
180.000000
  0
ARC
  8
0
  6
CONTINUOUS
 10
419.778198
 20
78.155602
 40
2.500000
 50
180.000000
 51
267.000214
  0
LINE
  8
0
  6
CONTINUOUS
 10
425.278198
 20
62.387199
 11
425.278198
 21
72.991402
  0
ARC
  8
0
  6
CONTINUOUS
 10
422.778198
 20
72.991402
 40
2.500000
 50
0.000000
 51
87.000519
  0
ARC
  8
0
  6
CONTINUOUS
 10
422.778198
 20
188.574600
 40
2.500000
 50
-86.999512
 51
0.000000
  0
LINE
  8
0
  6
CONTINUOUS
 10
417.278198
 20
173.283203
 11
432.529388
 21
173.283203
  0
LINE
  8
0
  6
CONTINUOUS
 10
417.278198
 20
88.283203
 11
433.042206
 21
88.283203
  0
LINE
  8
0
  6
CONTINUOUS
 10
436.278198
 20
154.695801
 11
436.278198
 21
96.746399
  0
LINE
  8
0
  6
CONTINUOUS
 10
440.278198
 20
120.336601
 11
440.278198
 21
142.388000
  0
LINE
  8
0
  6
CONTINUOUS
 10
430.382812
 20
214.939407
 11
414.278198
 21
215.783401
  0
LINE
  8
0
  6
CONTINUOUS
 10
434.173401
 20
210.683807
 11
443.278198
 21
210.206802
  0
ARC
  8
0
  6
CONTINUOUS
 10
430.278198
 20
212.942200
 40
2.000000
 50
0.000000
 51
86.999786
  0
ARC
  8
0
  6
CONTINUOUS
 10
434.278198
 20
212.681396
 40
2.000000
 50
180.000000
 51
266.999786
  0
LINE
  8
0
  6
CONTINUOUS
 10
432.278198
 20
14.885240
 11
432.278198
 21
14.624440
  0
LINE
  8
0
  6
CONTINUOUS
 10
430.382812
 20
12.627240
 11
414.278198
 21
11.783220
  0
LINE
  8
0
  6
CONTINUOUS
 10
434.173401
 20
16.882460
 11
443.278198
 21
17.359640
  0
ARC
  8
0
  6
CONTINUOUS
 10
430.278198
 20
14.624440
 40
2.000000
 50
-86.999786
 51
0.000000
  0
ARC
  8
0
  6
CONTINUOUS
 10
434.278198
 20
14.885240
 40
2.000000
 50
93.000198
 51
180.000000
  0
LINE
  8
0
  6
CONTINUOUS
 10
415.093201
 20
192.388199
 11
422.272614
 21
191.619202
  0
LINE
  8
0
  6
CONTINUOUS
 10
422.272614
 20
191.619202
 11
430.477814
 21
183.157593
  0
LINE
  8
0
  6
CONTINUOUS
 10
430.477814
 20
183.157593
 11
432.272614
 21
175.208801
  0
LINE
  8
0
  6
CONTINUOUS
 10
432.272614
 20
175.208801
 11
433.042206
 21
166.490799
  0
LINE
  8
0
  6
CONTINUOUS
 10
433.042206
 20
166.490799
 11
434.837006
 21
158.029007
  0
LINE
  8
0
  6
CONTINUOUS
 10
434.837006
 20
158.029007
 11
438.170410
 21
150.336807
  0
LINE
  8
0
  6
CONTINUOUS
 10
438.170410
 20
150.336807
 11
441.247406
 21
139.567398
  0
LINE
  8
0
  6
CONTINUOUS
 10
441.247406
 20
139.567398
 11
441.247406
 21
124.182800
  0
LINE
  8
0
  6
CONTINUOUS
 10
441.247406
 20
124.182800
 11
438.939606
 21
115.464600
  0
LINE
  8
0
  6
CONTINUOUS
 10
438.939606
 20
115.464600
 11
438.170410
 21
103.926201
  0
LINE
  8
0
  6
CONTINUOUS
 10
438.170410
 20
103.926201
 11
434.837006
 21
91.618202
  0
LINE
  8
0
  6
CONTINUOUS
 10
434.837006
 20
91.618202
 11
431.247192
 21
82.643799
  0
LINE
  8
0
  6
CONTINUOUS
 10
431.247192
 20
82.643799
 11
428.939606
 21
70.848801
  0
LINE
  8
0
  6
CONTINUOUS
 10
428.939606
 20
70.848801
 11
424.837006
 21
61.361599
  0
LINE
  8
0
  6
CONTINUOUS
 10
424.837006
 20
61.361599
 11
418.939392
 21
56.489719
  0
LINE
  8
0
  6
CONTINUOUS
 10
418.939392
 20
56.489719
 11
414.324005
 21
55.464062
  0
LINE
  8
0
  6
CONTINUOUS
 10
432.278198
 20
14.885240
 11
432.278198
 21
85.208000
  0
LINE
  8
0
  6
CONTINUOUS
 10
432.278198
 20
212.942200
 11
432.278198
 21
175.465195
  0
LINE
  8
0
  6
CENTER
 10
161.312393
 20
322.481201
 11
161.312393
 21
385.481415
  0
LINE
  8
0
  6
CONTINUOUS
 10
241.312393
 20
366.278015
 11
17.888781
 21
366.278412
  0
LINE
  8
0
  6
CONTINUOUS
 10
246.312607
 20
337.278015
 11
12.312240
 21
337.278412
  0
LINE
  8
0
  6
CONTINUOUS
 10
245.468597
 20
353.382599
 11
246.312607
 21
337.278015
  0
LINE
  8
0
  6
CONTINUOUS
 10
241.212997
 20
357.173187
 11
240.735992
 21
366.278015
  0
ARC
  8
0
  6
CONTINUOUS
 10
243.471405
 20
353.278015
 40
2.000000
 50
3.000214
 51
90.000000
  0
ARC
  8
0
  6
CONTINUOUS
 10
243.210602
 20
357.278015
 40
2.000000
 50
-176.999802
 51
-90.000000
  0
LINE
  8
0
  6
CONTINUOUS
 10
15.414300
 20
355.278412
 11
15.153560
 21
355.278412
  0
LINE
  8
0
  6
CONTINUOUS
 10
13.156300
 20
353.382996
 11
12.312240
 21
337.278412
  0
LINE
  8
0
  6
CONTINUOUS
 10
17.411539
 20
357.173615
 11
17.888781
 21
366.278412
  0
ARC
  8
0
  6
CONTINUOUS
 10
15.153500
 20
353.278412
 40
2.000000
 50
90.000000
 51
176.999802
  0
ARC
  8
0
  6
CONTINUOUS
 10
15.414360
 20
357.278412
 40
2.000000
 50
-90.000000
 51
-3.000198
  0
LINE
  8
0
  6
CONTINUOUS
 10
15.414300
 20
355.278412
 11
205.994400
 21
355.278198
  0
LINE
  8
0
  6
CONTINUOUS
 10
243.471405
 20
355.278015
 11
205.994400
 21
355.278198
  0
TEXT
  8
0
 10
-102.000000
 20
-112.000000
 40
4.000000
 41
1.000000
  1
RF-45
 50
0.000000
  0
ENDSEC
  0
EOF
