  0
SECTION
  2
HEADER
  9
$CLAYER
  8
1
  9
$LTSCALE
 40
3.0
  0
ENDSEC
  0
SECTION
  2
TABLES
  0
TABLE
  2
LTYPE
 70
     4
  0
LTYPE
  2
CONTINUOUS
  3
solid line
 70
    64
 72
    65
 73
     0
 40
0.0
  0
LTYPE
  2
DASHED
  3
__ __ __ __ __ __ __ __ __ __ __ __ __ __ __
 70
    64
 72
    65
 73
     2
 40
0.75
 49
0.5
 49
-0.25
  0
LTYPE
  2
CENTER
  3
____ _ ____ _ ____ _ ____ _ ____ _ ____ _ ____
 70
    64
 72
    65
 73
     4
 40
2.0
 49
1.25
 49
-0.25
 49
0.25
 49
-0.25
  0
LTYPE
  2
PHANTOM
  3
_____ _ _ _____ _ _ _____ _ _ _____ _ _ ____
 70
    64
 72
    65
 73
     6
 40
2.5
 49
1.25
 49
-0.25
 49
0.25
 49
-0.25
 49
0.25
 49
-0.25
  0
ENDTAB
  0
TABLE
  2
LAYER
 70
     1
  0
LAYER
  2
0
 70
    64
 62
     7
  6
CONTINUOUS
  0
ENDTAB
  0
TABLE
  2
STYLE
 70
     1
  0
STYLE
  2
STANDARD
 70
     0
 40
0.000000
 41
1.000000
 50
0.000000
 71
     0
 42
3.000000
  3
txt
  4
BIGFONT
  0
ENDTAB
  0
ENDSEC
  0
SECTION
  2
BLOCKS
  0
ENDSEC
  0
SECTION
  2
ENTITIES
  0
LINE
  8
0
  6
CENTER
 10
81.684998
 20
99.690002
 11
190.731247
 21
99.690002
  0
LINE
  8
0
  6
CENTER
 10
93.875000
 20
107.287498
 11
93.875000
 21
90.733124
  0
LINE
  8
0
  6
CENTER
 10
160.875000
 20
107.287498
 11
160.875000
 21
90.733124
  0
LINE
  8
0
  6
CENTER
 10
179.875000
 20
107.287498
 11
179.875000
 21
90.733124
  0
LINE
  8
0
  6
CENTER
 10
136.875000
 20
151.331253
 11
136.875000
 21
83.748436
  0
LINE
  8
0
  6
CENTER
 10
129.070007
 20
137.190002
 11
145.016876
 21
137.190002
  0
CIRCLE
  8
0
  6
CONTINUOUS
 10
136.875000
 20
137.190002
 40
3.500000
  0
CIRCLE
  8
0
  6
CONTINUOUS
 10
93.875000
 20
99.690002
 40
3.500000
  0
CIRCLE
  8
0
  6
CONTINUOUS
 10
160.875000
 20
99.690002
 40
3.500000
  0
CIRCLE
  8
0
  6
CONTINUOUS
 10
179.875000
 20
99.690002
 40
3.500000
  0
ARC
  8
0
  6
CONTINUOUS
 10
136.875000
 20
137.190002
 40
9.000000
 50
46.899685
 51
133.100311
  0
ARC
  8
0
  6
CONTINUOUS
 10
93.875000
 20
99.690002
 40
7.000000
 50
133.100311
 51
270.000000
  0
ARC
  8
0
  6
CONTINUOUS
 10
179.875000
 20
99.690002
 40
7.000000
 50
-90.000000
 51
46.899685
  0
LINE
  8
0
  6
CONTINUOUS
 10
227.625000
 20
146.190002
 11
230.824997
 21
146.190002
  0
LINE
  8
0
  6
CONTINUOUS
 10
227.625000
 20
146.190002
 11
227.625000
 21
92.690002
  0
LINE
  8
0
  6
CONTINUOUS
 10
227.625000
 20
92.690002
 11
230.824997
 21
92.690002
  0
LINE
  8
0
  6
CONTINUOUS
 10
230.824997
 20
146.190002
 11
230.824997
 21
92.690002
  0
LINE
  8
0
  6
CENTER
 10
224.716721
 20
137.190002
 11
233.317337
 21
137.190002
  0
LINE
  8
0
  6
CENTER
 10
224.716721
 20
99.690002
 11
233.317337
 21
99.690002
  0
LINE
  8
0
  6
CONTINUOUS
 10
227.625000
 20
140.690002
 11
230.824997
 21
140.690002
  0
LINE
  8
0
  6
CONTINUOUS
 10
227.625000
 20
133.690002
 11
230.824997
 21
133.690002
  0
LINE
  8
0
  6
DASHED
 10
227.625000
 20
103.190002
 11
230.824997
 21
103.190002
  0
LINE
  8
0
  6
DASHED
 10
227.625000
 20
96.190002
 11
230.824997
 21
96.190002
  0
LINE
  8
0
  6
CONTINUOUS
 10
93.875000
 20
92.690002
 11
179.875000
 21
92.690002
  0
LINE
  8
0
  6
CONTINUOUS
 10
143.024506
 20
143.761429
 11
184.657944
 21
104.801109
  0
LINE
  8
0
  6
CONTINUOUS
 10
89.092056
 20
104.801109
 11
130.725494
 21
143.761429
  0
TEXT
  8
0
 10
50.000000
 20
66.000000
 40
4.000000
 41
1.000000
  1
TAF2S-12
 50
0.000000
  0
ENDSEC
  0
EOF
