  0
SECTION
  2
HEADER
  9
$CLAYER
  8
1
  9
$LTSCALE
 40
3.0
  0
ENDSEC
  0
SECTION
  2
TABLES
  0
TABLE
  2
LTYPE
 70
     4
  0
LTYPE
  2
CONTINUOUS
  3
solid line
 70
    64
 72
    65
 73
     0
 40
0.0
  0
LTYPE
  2
DASHED
  3
__ __ __ __ __ __ __ __ __ __ __ __ __ __ __
 70
    64
 72
    65
 73
     2
 40
0.75
 49
0.5
 49
-0.25
  0
LTYPE
  2
CENTER
  3
____ _ ____ _ ____ _ ____ _ ____ _ ____ _ ____
 70
    64
 72
    65
 73
     4
 40
2.0
 49
1.25
 49
-0.25
 49
0.25
 49
-0.25
  0
LTYPE
  2
PHANTOM
  3
_____ _ _ _____ _ _ _____ _ _ _____ _ _ ____
 70
    64
 72
    65
 73
     6
 40
2.5
 49
1.25
 49
-0.25
 49
0.25
 49
-0.25
 49
0.25
 49
-0.25
  0
ENDTAB
  0
TABLE
  2
LAYER
 70
     1
  0
LAYER
  2
0
 70
    64
 62
     7
  6
CONTINUOUS
  0
ENDTAB
  0
TABLE
  2
STYLE
 70
     1
  0
STYLE
  2
STANDARD
 70
     0
 40
0.000000
 41
1.000000
 50
0.000000
 71
     0
 42
3.000000
  3
txt
  4
BIGFONT
  0
ENDTAB
  0
ENDSEC
  0
SECTION
  2
BLOCKS
  0
ENDSEC
  0
SECTION
  2
ENTITIES
  0
LINE
  8
0
  6
CENTER
 10
74.279999
 20
89.362503
 11
200.277969
 21
89.362503
  0
LINE
  8
0
  6
CENTER
 10
88.875000
 20
99.483437
 11
88.875000
 21
77.590935
  0
LINE
  8
0
  6
CENTER
 10
166.875000
 20
99.483437
 11
166.875000
 21
77.590935
  0
LINE
  8
0
  6
CENTER
 10
184.875000
 20
99.483437
 11
184.875000
 21
77.590935
  0
LINE
  8
0
  6
CENTER
 10
136.875000
 20
163.075943
 11
136.875000
 21
73.420937
  0
LINE
  8
0
  6
CENTER
 10
127.650467
 20
145.862503
 11
147.457962
 21
145.862503
  0
CIRCLE
  8
0
  6
CONTINUOUS
 10
136.875000
 20
145.862503
 40
4.500000
  0
CIRCLE
  8
0
  6
CONTINUOUS
 10
88.875000
 20
89.362503
 40
4.500000
  0
CIRCLE
  8
0
  6
CONTINUOUS
 10
166.875000
 20
89.362503
 40
4.500000
  0
CIRCLE
  8
0
  6
CONTINUOUS
 10
184.875000
 20
89.362503
 40
4.500000
  0
LINE
  8
0
  6
CONTINUOUS
 10
88.875000
 20
80.362503
 11
184.875000
 21
80.362503
  0
ARC
  8
0
  6
CONTINUOUS
 10
136.875000
 20
145.862503
 40
11.000000
 50
38.803947
 51
141.196045
  0
ARC
  8
0
  6
CONTINUOUS
 10
88.875000
 20
89.362503
 40
9.000000
 50
141.196045
 51
270.000000
  0
ARC
  8
0
  6
CONTINUOUS
 10
184.875000
 20
89.362503
 40
9.000000
 50
-90.000000
 51
38.803947
  0
LINE
  8
0
  6
CONTINUOUS
 10
145.447250
 20
152.755737
 11
191.888657
 21
95.002419
  0
LINE
  8
0
  6
CONTINUOUS
 10
81.861343
 20
95.002419
 11
128.302750
 21
152.755737
  0
LINE
  8
0
  6
CONTINUOUS
 10
234.149994
 20
156.862503
 11
237.350006
 21
156.862503
  0
LINE
  8
0
  6
CONTINUOUS
 10
234.149994
 20
156.862503
 11
234.149994
 21
80.362503
  0
LINE
  8
0
  6
CONTINUOUS
 10
234.149994
 20
80.362503
 11
237.350006
 21
80.362503
  0
LINE
  8
0
  6
CONTINUOUS
 10
237.350006
 20
156.862503
 11
237.350006
 21
80.362503
  0
LINE
  8
0
  6
CENTER
 10
231.241714
 20
145.862503
 11
239.842346
 21
145.862503
  0
LINE
  8
0
  6
CENTER
 10
231.241714
 20
89.362503
 11
239.842346
 21
89.362503
  0
LINE
  8
0
  6
CONTINUOUS
 10
234.149994
 20
150.362503
 11
237.350006
 21
150.362503
  0
LINE
  8
0
  6
CONTINUOUS
 10
234.149994
 20
141.362503
 11
237.350006
 21
141.362503
  0
LINE
  8
0
  6
DASHED
 10
234.149994
 20
93.862503
 11
237.350006
 21
93.862503
  0
LINE
  8
0
  6
DASHED
 10
234.149994
 20
84.862503
 11
237.350006
 21
84.862503
  0
TEXT
  8
0
 10
52.000000
 20
55.000000
 40
4.000000
 41
1.000000
  1
TAF2S-15
 50
0.000000
  0
ENDSEC
  0
EOF
