  0
SECTION
  2
HEADER
  9
$CLAYER
  8
1
  9
$LTSCALE
 40
3.0
  0
ENDSEC
  0
SECTION
  2
TABLES
  0
TABLE
  2
LTYPE
 70
     4
  0
LTYPE
  2
CONTINUOUS
  3
solid line
 70
    64
 72
    65
 73
     0
 40
0.0
  0
LTYPE
  2
DASHED
  3
__ __ __ __ __ __ __ __ __ __ __ __ __ __ __
 70
    64
 72
    65
 73
     2
 40
0.75
 49
0.5
 49
-0.25
  0
LTYPE
  2
CENTER
  3
____ _ ____ _ ____ _ ____ _ ____ _ ____ _ ____
 70
    64
 72
    65
 73
     4
 40
2.0
 49
1.25
 49
-0.25
 49
0.25
 49
-0.25
  0
LTYPE
  2
PHANTOM
  3
_____ _ _ _____ _ _ _____ _ _ _____ _ _ ____
 70
    64
 72
    65
 73
     6
 40
2.5
 49
1.25
 49
-0.25
 49
0.25
 49
-0.25
 49
0.25
 49
-0.25
  0
ENDTAB
  0
TABLE
  2
LAYER
 70
     1
  0
LAYER
  2
0
 70
    64
 62
     7
  6
CONTINUOUS
  0
ENDTAB
  0
TABLE
  2
STYLE
 70
     1
  0
STYLE
  2
STANDARD
 70
     0
 40
0.000000
 41
1.000000
 50
0.000000
 71
     0
 42
3.000000
  3
txt
  4
BIGFONT
  0
ENDTAB
  0
ENDSEC
  0
SECTION
  2
BLOCKS
  0
ENDSEC
  0
SECTION
  2
ENTITIES
  0
LINE
  8
0
  6
CENTER
 10
32.468681
 20
21.437500
 11
160.734406
 21
21.437500
  0
LINE
  8
0
  6
CENTER
 10
96.343681
 20
126.812599
 11
96.343681
 21
10.218800
  0
LINE
  8
0
  6
CENTER
 10
9.468680
 20
38.437599
 11
183.468597
 21
38.437599
  0
LINE
  8
0
  6
CENTER
 10
26.343679
 20
49.812599
 11
26.343679
 21
28.937500
  0
LINE
  8
0
  6
CENTER
 10
148.343597
 20
50.812599
 11
148.343597
 21
29.437599
  0
LINE
  8
0
  6
CENTER
 10
166.343597
 20
50.437599
 11
166.343597
 21
29.437599
  0
LINE
  8
0
  6
CENTER
 10
43.343681
 20
29.437599
 11
43.343681
 21
9.562600
  0
LINE
  8
0
  6
CENTER
 10
131.343597
 20
29.937500
 11
131.343597
 21
14.062600
  0
LINE
  8
0
  6
CENTER
 10
76.343681
 20
3.937500
 11
76.343681
 21
-26.562460
  0
LINE
  8
0
  6
CENTER
 10
149.343597
 20
28.937500
 11
149.343597
 21
8.312600
  0
LINE
  8
0
  6
CENTER
 10
67.343681
 20
-11.562460
 11
87.343681
 21
-11.562460
  0
LINE
  8
0
  6
CENTER
 10
83.218681
 20
108.437599
 11
109.218597
 21
108.437599
  0
CIRCLE
  8
0
  6
CONTINUOUS
 10
96.343681
 20
108.437599
 40
5.500000
  0
CIRCLE
  8
0
  6
CONTINUOUS
 10
26.343679
 20
38.437599
 40
5.500000
  0
CIRCLE
  8
0
  6
CONTINUOUS
 10
166.343597
 20
38.437599
 40
5.500000
  0
CIRCLE
  8
0
  6
CONTINUOUS
 10
148.343597
 20
38.437599
 40
5.500000
  0
CIRCLE
  8
0
  6
CONTINUOUS
 10
43.343681
 20
21.437500
 40
4.500000
  0
CIRCLE
  8
0
  6
CONTINUOUS
 10
131.343597
 20
21.437500
 40
4.500000
  0
CIRCLE
  8
0
  6
CONTINUOUS
 10
149.343597
 20
21.437500
 40
4.500000
  0
LINE
  8
0
  6
CONTINUOUS
 10
17.605200
 20
46.661800
 11
85.420601
 21
118.717796
  0
LINE
  8
0
  6
CONTINUOUS
 10
107.266998
 20
118.717796
 11
175.082397
 21
46.661800
  0
LINE
  8
0
  6
CONTINUOUS
 10
18.983700
 20
28.959700
 11
37.823700
 21
14.329200
  0
LINE
  8
0
  6
CONTINUOUS
 10
154.863800
 20
14.329200
 11
173.703796
 21
28.959801
  0
ARC
  8
0
  6
CONTINUOUS
 10
96.343681
 20
108.437599
 40
15.000000
 50
43.263371
 51
136.843201
  0
ARC
  8
0
  6
CONTINUOUS
 10
26.343679
 20
38.437599
 40
12.000000
 50
136.736603
 51
232.168198
  0
ARC
  8
0
  6
CONTINUOUS
 10
43.343681
 20
21.437500
 40
9.000000
 50
232.168198
 51
270.000000
  0
ARC
  8
0
  6
CONTINUOUS
 10
166.343597
 20
38.437599
 40
12.000000
 50
-52.168179
 51
43.396580
  0
ARC
  8
0
  6
CONTINUOUS
 10
149.343597
 20
21.437500
 40
9.000000
 50
270.000000
 51
307.831787
  0
LINE
  8
0
  6
CONTINUOUS
 10
43.343681
 20
12.437600
 11
44.406502
 21
12.437600
  0
LINE
  8
0
  6
CONTINUOUS
 10
149.343597
 20
12.437600
 11
108.280998
 21
12.437600
  0
ARC
  8
0
  6
CONTINUOUS
 10
76.343681
 20
-11.562460
 40
39.000000
 50
39.684090
 51
140.315506
  0
ARC
  8
0
  6
CONTINUOUS
 10
44.406502
 20
14.937800
 40
2.500000
 50
270.000000
 51
320.315796
  0
ARC
  8
0
  6
CONTINUOUS
 10
108.280998
 20
14.937600
 40
2.500000
 50
219.684402
 51
270.000000
  0
LINE
  8
0
  6
CONTINUOUS
 10
284.281189
 20
12.437600
 11
290.281189
 21
12.437600
  0
LINE
  8
0
  6
CONTINUOUS
 10
284.281189
 20
123.437599
 11
290.281189
 21
123.437599
  0
LINE
  8
0
  6
CONTINUOUS
 10
284.281189
 20
123.437599
 11
284.281189
 21
12.437600
  0
LINE
  8
0
  6
CONTINUOUS
 10
290.281189
 20
123.437599
 11
290.281189
 21
12.437600
  0
LINE
  8
0
  6
CENTER
 10
277.406189
 20
108.437599
 11
297.406189
 21
108.437599
  0
LINE
  8
0
  6
CENTER
 10
277.406189
 20
38.437599
 11
297.406189
 21
38.437599
  0
LINE
  8
0
  6
CENTER
 10
277.406189
 20
21.437500
 11
297.406189
 21
21.437500
  0
TEXT
  8
0
 10
-20.000000
 20
-124.000000
 40
4.000000
 41
1.000000
  1
TA-30
 50
0.000000
  0
ENDSEC
  0
EOF
