  0
SECTION
  2
HEADER
  9
$CLAYER
  8
1
  9
$LTSCALE
 40
3.0
  0
ENDSEC
  0
SECTION
  2
TABLES
  0
TABLE
  2
LTYPE
 70
     4
  0
LTYPE
  2
CONTINUOUS
  3
solid line
 70
    64
 72
    65
 73
     0
 40
0.0
  0
LTYPE
  2
DASHED
  3
__ __ __ __ __ __ __ __ __ __ __ __ __ __ __
 70
    64
 72
    65
 73
     2
 40
0.75
 49
0.5
 49
-0.25
  0
LTYPE
  2
CENTER
  3
____ _ ____ _ ____ _ ____ _ ____ _ ____ _ ____
 70
    64
 72
    65
 73
     4
 40
2.0
 49
1.25
 49
-0.25
 49
0.25
 49
-0.25
  0
LTYPE
  2
PHANTOM
  3
_____ _ _ _____ _ _ _____ _ _ _____ _ _ ____
 70
    64
 72
    65
 73
     6
 40
2.5
 49
1.25
 49
-0.25
 49
0.25
 49
-0.25
 49
0.25
 49
-0.25
  0
ENDTAB
  0
TABLE
  2
LAYER
 70
     1
  0
LAYER
  2
0
 70
    64
 62
     7
  6
CONTINUOUS
  0
ENDTAB
  0
TABLE
  2
STYLE
 70
     1
  0
STYLE
  2
STANDARD
 70
     0
 40
0.000000
 41
1.000000
 50
0.000000
 71
     0
 42
3.000000
  3
txt
  4
BIGFONT
  0
ENDTAB
  0
ENDSEC
  0
SECTION
  2
BLOCKS
  0
ENDSEC
  0
SECTION
  2
ENTITIES
  0
LINE
  8
0
  6
CENTER
 10
29.979500
 20
116.782600
 11
125.979401
 21
116.782600
  0
LINE
  8
0
  6
CENTER
 10
77.479401
 20
161.282593
 11
77.479401
 21
8.285160
  0
LINE
  8
0
  6
CENTER
 10
103.479401
 20
290.782593
 11
103.479401
 21
12.407620
  0
LINE
  8
0
  6
CENTER
 10
85.979401
 20
266.782593
 11
118.979401
 21
266.782593
  0
LINE
  8
0
  6
CENTER
 10
1.354500
 20
172.782593
 11
205.479401
 21
172.782593
  0
LINE
  8
0
  6
CENTER
 10
21.479500
 20
185.095200
 11
21.479500
 21
159.595200
  0
CIRCLE
  8
0
  6
CONTINUOUS
 10
21.479500
 20
172.782593
 40
6.500000
  0
CIRCLE
  8
0
  6
CONTINUOUS
 10
103.479401
 20
266.782593
 40
6.500000
  0
LINE
  8
0
  6
CENTER
 10
28.979500
 20
154.782593
 11
179.479401
 21
154.782593
  0
LINE
  8
0
  6
CENTER
 10
39.479500
 20
162.782593
 11
39.479500
 21
14.782620
  0
LINE
  8
0
  6
CENTER
 10
147.479401
 20
163.782593
 11
147.479401
 21
19.782619
  0
LINE
  8
0
  6
CENTER
 10
167.479401
 20
163.782593
 11
167.479401
 21
14.782620
  0
CIRCLE
  8
0
  6
CONTINUOUS
 10
39.479500
 20
154.782593
 40
4.500000
  0
CIRCLE
  8
0
  6
CONTINUOUS
 10
147.479401
 20
154.782593
 40
4.500000
  0
CIRCLE
  8
0
  6
CONTINUOUS
 10
167.479401
 20
154.782593
 40
4.500000
  0
LINE
  8
0
  6
CENTER
 10
30.979500
 20
46.782639
 11
177.979401
 21
46.782639
  0
LINE
  8
0
  6
CENTER
 10
32.104500
 20
26.782640
 11
183.854401
 21
26.782640
  0
CIRCLE
  8
0
  6
CONTINUOUS
 10
39.479500
 20
46.782639
 40
4.500000
  0
CIRCLE
  8
0
  6
CONTINUOUS
 10
147.479401
 20
26.782640
 40
4.500000
  0
CIRCLE
  8
0
  6
CONTINUOUS
 10
39.479500
 20
26.782640
 40
4.500000
  0
ARC
  8
0
  6
CONTINUOUS
 10
103.479401
 20
266.782593
 40
18.000000
 50
38.342449
 51
141.657593
  0
CIRCLE
  8
0
  6
CONTINUOUS
 10
167.479401
 20
46.782639
 40
4.500000
  0
LINE
  8
0
  6
CONTINUOUS
 10
12.067680
 20
180.226807
 11
89.361801
 21
277.949188
  0
LINE
  8
0
  6
CENTER
 10
185.479401
 20
184.595200
 11
185.479401
 21
161.845200
  0
LINE
  8
0
  6
CENTER
 10
165.479401
 20
188.782593
 11
165.479401
 21
162.782593
  0
CIRCLE
  8
0
  6
CONTINUOUS
 10
165.479401
 20
172.782593
 40
6.500000
  0
CIRCLE
  8
0
  6
CONTINUOUS
 10
185.479401
 20
172.782593
 40
6.500000
  0
ARC
  8
0
  6
CONTINUOUS
 10
185.479401
 20
172.782593
 40
12.000000
 50
-7.807129
 51
38.342449
  0
LINE
  8
0
  6
CONTINUOUS
 10
117.597198
 20
277.949188
 11
194.891403
 21
180.226807
  0
LINE
  8
0
  6
CONTINUOUS
 10
177.571396
 20
26.770000
 11
197.368195
 21
171.152405
  0
LINE
  8
0
  6
CONTINUOUS
 10
9.590780
 20
171.152405
 11
29.387699
 21
26.770000
  0
LINE
  8
0
  6
CONTINUOUS
 10
39.479500
 20
16.782619
 11
167.479401
 21
16.782619
  0
ARC
  8
0
  6
CONTINUOUS
 10
21.479500
 20
172.782593
 40
12.000000
 50
141.657501
 51
187.807404
  0
ARC
  8
0
  6
CONTINUOUS
 10
39.479500
 20
26.782640
 40
10.000000
 50
180.000000
 51
270.000000
  0
ARC
  8
0
  6
CONTINUOUS
 10
167.479401
 20
26.782640
 40
10.000000
 50
-90.000000
 51
0.000000
  0
LINE
  8
0
  6
CONTINUOUS
 10
367.229401
 20
284.782593
 11
373.229401
 21
284.782593
  0
LINE
  8
0
  6
CONTINUOUS
 10
367.229401
 20
16.782619
 11
373.229401
 21
16.782619
  0
LINE
  8
0
  6
CONTINUOUS
 10
367.229401
 20
284.782593
 11
367.229401
 21
16.782619
  0
LINE
  8
0
  6
CONTINUOUS
 10
373.229401
 20
284.782593
 11
373.229401
 21
16.782619
  0
LINE
  8
0
  6
CENTER
 10
29.245260
 20
84.782639
 11
127.324600
 21
84.782639
  0
LINE
  8
0
  6
CONTINUOUS
 10
120.979401
 20
116.782600
 11
120.979401
 21
84.782516
  0
LINE
  8
0
  6
CONTINUOUS
 10
33.979500
 20
116.782799
 11
33.979500
 21
84.782738
  0
ARC
  8
0
  6
CONTINUOUS
 10
77.479401
 20
116.782600
 40
43.500000
 50
0.000000
 51
180.000000
  0
ARC
  8
0
  6
CONTINUOUS
 10
77.479401
 20
84.782639
 40
43.500000
 50
-180.000000
 51
0.000000
  0
LINE
  8
0
  6
CENTER
 10
356.898987
 20
266.782593
 11
382.908997
 21
266.782593
  0
LINE
  8
0
  6
CENTER
 10
356.898987
 20
172.782593
 11
382.908997
 21
172.782593
  0
LINE
  8
0
  6
CENTER
 10
356.898987
 20
154.782593
 11
382.908997
 21
154.782593
  0
LINE
  8
0
  6
CENTER
 10
356.898987
 20
116.782600
 11
382.908997
 21
116.782600
  0
LINE
  8
0
  6
CENTER
 10
356.898987
 20
84.782639
 11
382.908997
 21
84.782639
  0
LINE
  8
0
  6
CENTER
 10
356.898987
 20
46.782639
 11
382.908997
 21
46.782639
  0
LINE
  8
0
  6
CENTER
 10
356.898987
 20
26.782640
 11
382.908997
 21
26.782640
  0
TEXT
  8
0
 10
-68.000000
 20
-82.000000
 40
4.000000
 41
1.000000
  1
TA-35
 50
0.000000
  0
ENDSEC
  0
EOF
