  0
SECTION
  2
HEADER
  9
$CLAYER
  8
1
  9
$LTSCALE
 40
3.0
  0
ENDSEC
  0
SECTION
  2
TABLES
  0
TABLE
  2
LTYPE
 70
     4
  0
LTYPE
  2
CONTINUOUS
  3
solid line
 70
    64
 72
    65
 73
     0
 40
0.0
  0
LTYPE
  2
DASHED
  3
__ __ __ __ __ __ __ __ __ __ __ __ __ __ __
 70
    64
 72
    65
 73
     2
 40
0.75
 49
0.5
 49
-0.25
  0
LTYPE
  2
CENTER
  3
____ _ ____ _ ____ _ ____ _ ____ _ ____ _ ____
 70
    64
 72
    65
 73
     4
 40
2.0
 49
1.25
 49
-0.25
 49
0.25
 49
-0.25
  0
LTYPE
  2
PHANTOM
  3
_____ _ _ _____ _ _ _____ _ _ _____ _ _ ____
 70
    64
 72
    65
 73
     6
 40
2.5
 49
1.25
 49
-0.25
 49
0.25
 49
-0.25
 49
0.25
 49
-0.25
  0
ENDTAB
  0
TABLE
  2
LAYER
 70
     1
  0
LAYER
  2
0
 70
    64
 62
     7
  6
CONTINUOUS
  0
ENDTAB
  0
TABLE
  2
STYLE
 70
     1
  0
STYLE
  2
STANDARD
 70
     0
 40
0.000000
 41
1.000000
 50
0.000000
 71
     0
 42
3.000000
  3
txt
  4
BIGFONT
  0
ENDTAB
  0
ENDSEC
  0
SECTION
  2
BLOCKS
  0
ENDSEC
  0
SECTION
  2
ENTITIES
  0
LINE
  8
0
  6
CENTER
 10
4.326400
 20
215.913803
 11
266.358795
 21
215.913803
  0
LINE
  8
0
  6
CENTER
 10
134.727600
 20
352.413788
 11
134.727600
 21
14.413860
  0
LINE
  8
0
  6
CENTER
 10
102.727600
 20
200.913803
 11
102.727600
 21
45.244801
  0
LINE
  8
0
  6
CENTER
 10
50.283600
 20
145.913803
 11
156.227600
 21
145.913803
  0
LINE
  8
0
  6
CENTER
 10
32.727600
 20
228.663803
 11
32.727600
 21
201.913803
  0
LINE
  8
0
  6
CENTER
 10
206.727600
 20
228.538803
 11
206.727600
 21
202.538803
  0
LINE
  8
0
  6
CENTER
 10
236.727600
 20
228.038803
 11
236.727600
 21
202.788803
  0
LINE
  8
0
  6
CENTER
 10
114.227600
 20
325.913788
 11
155.727600
 21
325.913788
  0
CIRCLE
  8
0
  6
CONTINUOUS
 10
134.727600
 20
325.913788
 40
7.500000
  0
CIRCLE
  8
0
  6
CONTINUOUS
 10
32.727600
 20
215.913803
 40
7.500000
  0
CIRCLE
  8
0
  6
CONTINUOUS
 10
206.727600
 20
215.913803
 40
7.500000
  0
CIRCLE
  8
0
  6
CONTINUOUS
 10
236.727600
 20
215.913803
 40
7.500000
  0
ARC
  8
0
  6
CONTINUOUS
 10
134.727600
 20
325.913788
 40
20.000000
 50
40.928829
 51
139.071304
  0
ARC
  8
0
  6
CONTINUOUS
 10
236.727600
 20
215.913803
 40
15.000000
 50
-8.142395
 51
40.928829
  0
LINE
  8
0
  6
CENTER
 10
42.227600
 20
193.913803
 11
226.977600
 21
193.913803
  0
LINE
  8
0
  6
CENTER
 10
54.727600
 20
204.913803
 11
54.727600
 21
23.413860
  0
LINE
  8
0
  6
CENTER
 10
184.727600
 20
203.913803
 11
184.727600
 21
19.663860
  0
LINE
  8
0
  6
CENTER
 10
214.727600
 20
202.413803
 11
214.727600
 21
20.913860
  0
CIRCLE
  8
0
  6
CONTINUOUS
 10
54.727600
 20
193.913803
 40
5.500000
  0
CIRCLE
  8
0
  6
CONTINUOUS
 10
184.727600
 20
193.913803
 40
5.500000
  0
CIRCLE
  8
0
  6
CONTINUOUS
 10
214.727600
 20
193.913803
 40
5.500000
  0
LINE
  8
0
  6
CENTER
 10
42.227600
 20
63.913860
 11
227.227600
 21
63.913860
  0
LINE
  8
0
  6
CENTER
 10
37.227600
 20
33.913860
 11
233.227600
 21
33.913860
  0
CIRCLE
  8
0
  6
CONTINUOUS
 10
54.727600
 20
63.913860
 40
5.500000
  0
CIRCLE
  8
0
  6
CONTINUOUS
 10
184.727600
 20
33.913860
 40
5.500000
  0
CIRCLE
  8
0
  6
CONTINUOUS
 10
214.727600
 20
63.913860
 40
5.500000
  0
CIRCLE
  8
0
  6
CONTINUOUS
 10
54.727600
 20
33.913860
 40
5.500000
  0
LINE
  8
0
  6
CONTINUOUS
 10
17.878780
 20
213.789200
 11
43.617802
 21
33.898121
  0
LINE
  8
0
  6
CONTINUOUS
 10
225.837402
 20
33.898159
 11
251.576401
 21
213.789398
  0
LINE
  8
0
  6
CONTINUOUS
 10
54.727600
 20
22.913860
 11
214.727600
 21
22.913860
  0
LINE
  8
0
  6
CONTINUOUS
 10
21.394779
 20
225.740601
 11
119.616997
 21
339.016205
  0
LINE
  8
0
  6
CONTINUOUS
 10
149.837997
 20
339.016205
 11
248.060394
 21
225.740601
  0
ARC
  8
0
  6
CONTINUOUS
 10
32.727600
 20
215.913803
 40
15.000000
 50
139.071198
 51
188.142700
  0
ARC
  8
0
  6
CONTINUOUS
 10
54.727600
 20
33.913860
 40
11.000000
 50
180.000000
 51
270.000000
  0
ARC
  8
0
  6
CONTINUOUS
 10
214.727600
 20
33.913860
 40
11.000000
 50
-90.000000
 51
0.000000
  0
LINE
  8
0
  6
CONTINUOUS
 10
533.076416
 20
22.913799
 11
542.076416
 21
22.913799
  0
LINE
  8
0
  6
CONTINUOUS
 10
542.076416
 20
345.913788
 11
542.076416
 21
22.913799
  0
LINE
  8
0
  6
CONTINUOUS
 10
533.076416
 20
345.913788
 11
542.076416
 21
345.913788
  0
LINE
  8
0
  6
CONTINUOUS
 10
533.076416
 20
345.913788
 11
533.076416
 21
22.913799
  0
LINE
  8
0
  6
CENTER
 10
35.802582
 20
111.913803
 11
163.449402
 21
111.913803
  0
LINE
  8
0
  6
CONTINUOUS
 10
153.727600
 20
145.913803
 11
153.727600
 21
111.913803
  0
LINE
  8
0
  6
CONTINUOUS
 10
51.727600
 20
145.914001
 11
51.727600
 21
111.914001
  0
ARC
  8
0
  6
CONTINUOUS
 10
102.727600
 20
145.913803
 40
51.000000
 50
0.000000
 51
180.000000
  0
ARC
  8
0
  6
CONTINUOUS
 10
102.727600
 20
111.913803
 40
51.000000
 50
-180.000000
 51
0.000000
  0
LINE
  8
0
  6
CENTER
 10
521.986572
 20
325.913788
 11
556.311829
 21
325.913788
  0
LINE
  8
0
  6
CENTER
 10
521.986572
 20
215.913803
 11
556.311829
 21
215.913803
  0
LINE
  8
0
  6
CENTER
 10
521.986572
 20
193.913803
 11
556.311829
 21
193.913803
  0
LINE
  8
0
  6
CENTER
 10
521.986572
 20
145.913803
 11
556.311829
 21
145.913803
  0
LINE
  8
0
  6
CENTER
 10
521.986572
 20
111.913803
 11
556.311829
 21
111.913803
  0
LINE
  8
0
  6
CENTER
 10
521.986572
 20
63.913860
 11
556.311829
 21
63.913860
  0
LINE
  8
0
  6
CENTER
 10
521.986572
 20
33.913860
 11
556.311829
 21
33.913860
  0
TEXT
  8
0
 10
-74.000000
 20
-96.000000
 40
4.000000
 41
1.000000
  1
TA-45
 50
0.000000
  0
ENDSEC
  0
EOF
