  0
SECTION
  2
HEADER
  9
$CLAYER
  8
1
  9
$LTSCALE
 40
3.0
  0
ENDSEC
  0
SECTION
  2
TABLES
  0
TABLE
  2
LTYPE
 70
     4
  0
LTYPE
  2
CONTINUOUS
  3
solid line
 70
    64
 72
    65
 73
     0
 40
0.0
  0
LTYPE
  2
DASHED
  3
__ __ __ __ __ __ __ __ __ __ __ __ __ __ __
 70
    64
 72
    65
 73
     2
 40
0.75
 49
0.5
 49
-0.25
  0
LTYPE
  2
CENTER
  3
____ _ ____ _ ____ _ ____ _ ____ _ ____ _ ____
 70
    64
 72
    65
 73
     4
 40
2.0
 49
1.25
 49
-0.25
 49
0.25
 49
-0.25
  0
LTYPE
  2
PHANTOM
  3
_____ _ _ _____ _ _ _____ _ _ _____ _ _ ____
 70
    64
 72
    65
 73
     6
 40
2.5
 49
1.25
 49
-0.25
 49
0.25
 49
-0.25
 49
0.25
 49
-0.25
  0
ENDTAB
  0
TABLE
  2
LAYER
 70
     1
  0
LAYER
  2
0
 70
    64
 62
     7
  6
CONTINUOUS
  0
ENDTAB
  0
TABLE
  2
STYLE
 70
     1
  0
STYLE
  2
STANDARD
 70
     0
 40
0.000000
 41
1.000000
 50
0.000000
 71
     0
 42
3.000000
  3
txt
  4
BIGFONT
  0
ENDTAB
  0
ENDSEC
  0
SECTION
  2
BLOCKS
  0
ENDSEC
  0
SECTION
  2
ENTITIES
  0
LINE
  8
0
  6
CENTER
 10
34.077579
 20
268.014587
 11
361.258789
 21
268.014587
  0
LINE
  8
0
  6
CENTER
 10
198.532806
 20
471.433197
 11
198.532806
 21
4.886380
  0
LINE
  8
0
  6
CENTER
 10
79.872017
 20
178.014603
 11
244.283600
 21
178.014603
  0
LINE
  8
0
  6
CENTER
 10
159.532776
 20
258.210602
 11
159.532776
 21
48.214001
  0
LINE
  8
0
  6
CENTER
 10
69.532784
 20
288.761414
 11
69.532784
 21
240.183807
  0
LINE
  8
0
  6
CENTER
 10
291.532806
 20
297.363586
 11
291.532806
 21
237.147797
  0
LINE
  8
0
  6
CENTER
 10
327.532806
 20
296.857605
 11
327.532806
 21
241.701797
  0
CIRCLE
  8
0
  6
CONTINUOUS
 10
327.532806
 20
268.014587
 40
9.000000
  0
CIRCLE
  8
0
  6
CONTINUOUS
 10
291.532806
 20
268.014587
 40
9.000000
  0
CIRCLE
  8
0
  6
CONTINUOUS
 10
69.532784
 20
268.014587
 40
9.000000
  0
LINE
  8
0
  6
CENTER
 10
79.618958
 20
236.014603
 11
310.798798
 21
236.014603
  0
LINE
  8
0
  6
CENTER
 10
101.532784
 20
250.810196
 11
101.532784
 21
21.584801
  0
LINE
  8
0
  6
CENTER
 10
259.532806
 20
249.292206
 11
259.532806
 21
21.584801
  0
LINE
  8
0
  6
CENTER
 10
295.532806
 20
253.340195
 11
295.532806
 21
65.102203
  0
CIRCLE
  8
0
  6
CONTINUOUS
 10
295.532806
 20
236.014603
 40
6.500000
  0
CIRCLE
  8
0
  6
CONTINUOUS
 10
259.532806
 20
236.014603
 40
6.500000
  0
CIRCLE
  8
0
  6
CONTINUOUS
 10
101.532784
 20
236.014603
 40
6.500000
  0
LINE
  8
0
  6
CENTER
 10
80.630981
 20
42.014599
 11
316.915192
 21
42.014599
  0
LINE
  8
0
  6
CENTER
 10
79.618958
 20
78.014603
 11
322.266998
 21
78.014603
  0
CIRCLE
  8
0
  6
CONTINUOUS
 10
295.532806
 20
78.014603
 40
6.500000
  0
CIRCLE
  8
0
  6
CONTINUOUS
 10
101.532784
 20
78.014603
 40
6.500000
  0
CIRCLE
  8
0
  6
CONTINUOUS
 10
101.532784
 20
42.014599
 40
6.500000
  0
LINE
  8
0
  6
CENTER
 10
84.426224
 20
136.014603
 11
238.167206
 21
136.014603
  0
LINE
  8
0
  6
CONTINUOUS
 10
229.532806
 20
178.014603
 11
229.532806
 21
136.014603
  0
LINE
  8
0
  6
CONTINUOUS
 10
89.532784
 20
178.014801
 11
89.532784
 21
136.014801
  0
ARC
  8
0
  6
CONTINUOUS
 10
159.532776
 20
178.014603
 40
70.000000
 50
0.000000
 51
180.000000
  0
ARC
  8
0
  6
CONTINUOUS
 10
159.532776
 20
136.014603
 40
70.000000
 50
-180.000000
 51
0.000000
  0
LINE
  8
0
  6
CENTER
 10
151.473221
 20
428.014587
 11
245.812607
 21
428.014587
  0
CIRCLE
  8
0
  6
CONTINUOUS
 10
198.532806
 20
428.014587
 40
9.000000
  0
CIRCLE
  8
0
  6
CONTINUOUS
 10
259.532806
 20
42.014599
 40
6.500000
  0
LINE
  8
0
  6
CONTINUOUS
 10
178.694641
 20
443.227997
 11
53.662781
 21
280.184814
  0
LINE
  8
0
  6
CONTINUOUS
 10
218.371002
 20
443.228210
 11
343.404388
 21
280.186401
  0
LINE
  8
0
  6
CONTINUOUS
 10
49.825619
 20
264.604614
 11
88.724800
 21
39.798420
  0
LINE
  8
0
  6
CONTINUOUS
 10
101.532417
 20
29.014601
 11
295.533203
 21
29.014601
  0
ARC
  8
0
  6
CONTINUOUS
 10
198.532806
 20
428.014587
 40
25.000000
 50
37.484211
 51
142.516907
  0
ARC
  8
0
  6
CONTINUOUS
 10
69.532784
 20
268.014587
 40
20.000000
 50
142.516800
 51
189.817200
  0
ARC
  8
0
  6
CONTINUOUS
 10
101.532784
 20
42.014599
 40
13.000000
 50
189.817200
 51
269.998199
  0
LINE
  8
0
  6
CONTINUOUS
 10
347.239990
 20
264.604614
 11
308.341003
 21
39.798420
  0
ARC
  8
0
  6
CONTINUOUS
 10
295.532806
 20
42.014599
 40
13.000000
 50
-89.998230
 51
-9.817215
  0
ARC
  8
0
  6
CONTINUOUS
 10
327.532806
 20
268.014587
 40
20.000000
 50
-9.816711
 51
37.484390
  0
LINE
  8
0
  6
CONTINUOUS
 10
540.926392
 20
29.014601
 11
549.926392
 21
29.014601
  0
LINE
  8
0
  6
CONTINUOUS
 10
540.926392
 20
453.014587
 11
549.926392
 21
453.014587
  0
LINE
  8
0
  6
CONTINUOUS
 10
540.926392
 20
453.014587
 11
540.926392
 21
29.014601
  0
LINE
  8
0
  6
CONTINUOUS
 10
549.926392
 20
453.014587
 11
549.926392
 21
29.014601
  0
LINE
  8
0
  6
CENTER
 10
527.929199
 20
428.014587
 11
564.627197
 21
428.014587
  0
LINE
  8
0
  6
CENTER
 10
527.929199
 20
268.014587
 11
564.627197
 21
268.014587
  0
LINE
  8
0
  6
CENTER
 10
527.929199
 20
236.014603
 11
564.627197
 21
236.014603
  0
LINE
  8
0
  6
CENTER
 10
527.929199
 20
178.014603
 11
564.627197
 21
178.014603
  0
LINE
  8
0
  6
CENTER
 10
527.929199
 20
136.014603
 11
564.627197
 21
136.014603
  0
LINE
  8
0
  6
CENTER
 10
527.929199
 20
78.014603
 11
564.627197
 21
78.014603
  0
LINE
  8
0
  6
CENTER
 10
527.929199
 20
42.014599
 11
564.627197
 21
42.014599
  0
TEXT
  8
0
 10
34.000000
 20
-50.000000
 40
4.000000
 41
1.000000
  1
TA-55
 50
0.000000
  0
ENDSEC
  0
EOF
