  0
SECTION
  2
HEADER
  9
$ACADVER
  1
AC1014
  9
$ACADMAINTVER
 70
     9
  9
$DWGCODEPAGE
  3
ANSI_932
  9
$INSBASE
 10
0.0
 20
0.0
 30
0.0
  9
$EXTMIN
 10
17.66046053282593
 20
11.50468296799922
 30
0.0
  9
$EXTMAX
 10
291.5336649039513
 20
295.542718336824
 30
0.0
  9
$LIMMIN
 10
-65.85119107075695
 20
-19.0162707321316
  9
$LIMMAX
 10
441.5231379180045
 20
243.7167924929659
  9
$ORTHOMODE
 70
     1
  9
$REGENMODE
 70
     1
  9
$FILLMODE
 70
     1
  9
$QTEXTMODE
 70
     0
  9
$MIRRTEXT
 70
     0
  9
$DRAGMODE
 70
     2
  9
$LTSCALE
 40
2.0
  9
$OSMODE
 70
    37
  9
$ATTMODE
 70
     1
  9
$TEXTSIZE
 40
6.0
  9
$TRACEWID
 40
1.0
  9
$TEXTSTYLE
  7
STANDARD
  9
$CLAYER
  8
0
  9
$CELTYPE
  6
BYLAYER
  9
$CECOLOR
 62
   256
  9
$CELTSCALE
 40
1.0
  9
$DELOBJ
 70
     1
  9
$DISPSILH
 70
     0
  9
$DIMSCALE
 40
2.0
  9
$DIMASZ
 40
1.8
  9
$DIMEXO
 40
0.625
  9
$DIMDLI
 40
3.75
  9
$DIMRND
 40
0.0
  9
$DIMDLE
 40
0.0
  9
$DIMEXE
 40
0.8
  9
$DIMTP
 40
0.0
  9
$DIMTM
 40
0.0
  9
$DIMTXT
 40
1.8
  9
$DIMCEN
 40
2.5
  9
$DIMTSZ
 40
0.0
  9
$DIMTOL
 70
     0
  9
$DIMLIM
 70
     0
  9
$DIMTIH
 70
     0
  9
$DIMTOH
 70
     0
  9
$DIMSE1
 70
     0
  9
$DIMSE2
 70
     0
  9
$DIMTAD
 70
     1
  9
$DIMZIN
 70
     8
  9
$DIMBLK
  1

  9
$DIMASO
 70
     1
  9
$DIMSHO
 70
     1
  9
$DIMPOST
  1

  9
$DIMAPOST
  1

  9
$DIMALT
 70
     0
  9
$DIMALTD
 70
     4
  9
$DIMALTF
 40
0.0394
  9
$DIMLFAC
 40
1.0
  9
$DIMTOFL
 70
     1
  9
$DIMTVP
 40
0.0
  9
$DIMTIX
 70
     0
  9
$DIMSOXD
 70
     0
  9
$DIMSAH
 70
     0
  9
$DIMBLK1
  1

  9
$DIMBLK2
  1

  9
$DIMSTYLE
  2
STANDARD
  9
$DIMCLRD
 70
     0
  9
$DIMCLRE
 70
     0
  9
$DIMCLRT
 70
     0
  9
$DIMTFAC
 40
1.0
  9
$DIMGAP
 40
0.75
  9
$DIMJUST
 70
     0
  9
$DIMSD1
 70
     0
  9
$DIMSD2
 70
     0
  9
$DIMTOLJ
 70
     1
  9
$DIMTZIN
 70
     0
  9
$DIMALTZ
 70
     0
  9
$DIMALTTZ
 70
     0
  9
$DIMFIT
 70
     3
  9
$DIMUPT
 70
     0
  9
$DIMUNIT
 70
     8
  9
$DIMDEC
 70
     2
  9
$DIMTDEC
 70
     2
  9
$DIMALTU
 70
     8
  9
$DIMALTTD
 70
     4
  9
$DIMTXSTY
  7
STANDARD
  9
$DIMAUNIT
 70
     0
  9
$LUNITS
 70
     2
  9
$LUPREC
 70
     3
  9
$SKETCHINC
 40
1.0
  9
$FILLETRAD
 40
10.0
  9
$AUNITS
 70
     0
  9
$AUPREC
 70
     2
  9
$MENU
  1
.
  9
$ELEVATION
 40
0.0
  9
$PELEVATION
 40
0.0
  9
$THICKNESS
 40
0.0
  9
$LIMCHECK
 70
     0
  9
$BLIPMODE
 70
     0
  9
$CHAMFERA
 40
0.0
  9
$CHAMFERB
 40
0.0
  9
$CHAMFERC
 40
20.0
  9
$CHAMFERD
 40
0.0
  9
$SKPOLY
 70
     0
  9
$TDCREATE
 40
2453692.451595046
  9
$TDUPDATE
 40
2453928.591130092
  9
$TDINDWG
 40
0.0546375810
  9
$TDUSRTIMER
 40
0.0546375810
  9
$USRTIMER
 70
     1
  9
$ANGBASE
 50
0.0
  9
$ANGDIR
 70
     0
  9
$PDMODE
 70
     0
  9
$PDSIZE
 40
-10.0
  9
$PLINEWID
 40
0.0
  9
$COORDS
 70
     0
  9
$SPLFRAME
 70
     0
  9
$SPLINETYPE
 70
     6
  9
$SPLINESEGS
 70
     8
  9
$ATTDIA
 70
     0
  9
$ATTREQ
 70
     1
  9
$HANDLING
 70
-16383
  9
$HANDSEED
  5
19B0
  9
$SURFTAB1
 70
     6
  9
$SURFTAB2
 70
     6
  9
$SURFTYPE
 70
     6
  9
$SURFU
 70
     6
  9
$SURFV
 70
     6
  9
$UCSNAME
  2

  9
$UCSORG
 10
0.0
 20
0.0
 30
0.0
  9
$UCSXDIR
 10
1.0
 20
0.0
 30
0.0
  9
$UCSYDIR
 10
0.0
 20
1.0
 30
0.0
  9
$PUCSNAME
  2

  9
$PUCSORG
 10
0.0
 20
0.0
 30
0.0
  9
$PUCSXDIR
 10
1.0
 20
0.0
 30
0.0
  9
$PUCSYDIR
 10
0.0
 20
1.0
 30
0.0
  9
$USERI1
 70
     0
  9
$USERI2
 70
     0
  9
$USERI3
 70
     0
  9
$USERI4
 70
     0
  9
$USERI5
 70
     0
  9
$USERR1
 40
0.0
  9
$USERR2
 40
0.0
  9
$USERR3
 40
0.0
  9
$USERR4
 40
0.0
  9
$USERR5
 40
0.0
  9
$WORLDVIEW
 70
     1
  9
$SHADEDGE
 70
     3
  9
$SHADEDIF
 70
    70
  9
$TILEMODE
 70
     1
  9
$MAXACTVP
 70
    48
  9
$PINSBASE
 10
0.0
 20
0.0
 30
0.0
  9
$PLIMCHECK
 70
     0
  9
$PEXTMIN
 10
0.0
 20
0.0
 30
0.0
  9
$PEXTMAX
 10
0.0
 20
0.0
 30
0.0
  9
$PLIMMIN
 10
0.0
 20
0.0
  9
$PLIMMAX
 10
12.0
 20
9.0
  9
$UNITMODE
 70
     0
  9
$VISRETAIN
 70
     1
  9
$PLINEGEN
 70
     0
  9
$PSLTSCALE
 70
     1
  9
$TREEDEPTH
 70
  3020
  9
$PICKSTYLE
 70
     1
  9
$CMLSTYLE
  2
STANDARD
  9
$CMLJUST
 70
     0
  9
$CMLSCALE
 40
1.0
  9
$PROXYGRAPHICS
 70
     1
  9
$MEASUREMENT
 70
     0
  0
ENDSEC
  0
SECTION
  2
CLASSES
  0
CLASS
  1
DICTIONARYVAR
  2
AcDbDictionaryVar
  3
AutoCAD 2000
 90
        0
280
     0
281
     0
  0
CLASS
  1
ACDBDICTIONARYWDFLT
  2
AcDbDictionaryWithDefault
  3
AutoCAD 2000
 90
        0
280
     0
281
     0
  0
CLASS
  1
ACDBPLACEHOLDER
  2
AcDbPlaceHolder
  3
AutoCAD 2000
 90
        0
280
     0
281
     0
  0
CLASS
  1
LAYOUT
  2
AcDbLayout
  3
AutoCAD 2000
 90
        0
280
     0
281
     0
  0
CLASS
  1
LONG_TRANSACTION
  2
AcDbLongTransaction
  3
AutoCAD 2000
 90
        0
280
     0
281
     0
  0
CLASS
  1
LWPOLYLINE
  2
AcDbPolyline
  3
AutoCAD 2000
 90
        0
280
     0
281
     1
  0
CLASS
  1
HATCH
  2
AcDbHatch
  3
AutoCAD 2000
 90
        0
280
     0
281
     1
  0
CLASS
  1
XRECORD
  2
AcDbXrecord
  3
AutoCAD 2000
 90
        0
280
     0
281
     0
  0
ENDSEC
  0
SECTION
  2
TABLES
  0
TABLE
  2
VPORT
  5
6E
330
0
100
AcDbSymbolTable
 70
     2
  0
VPORT
  5
198A
330
6E
100
AcDbSymbolTableRecord
100
AcDbViewportTableRecord
  2
*ACTIVE
 70
     0
 10
0.0
 20
0.0
 11
1.0
 21
1.0
 12
170.8231100839083
 22
153.5324363953709
 13
0.0
 23
0.0
 14
10.0
 24
10.0
 15
12.0
 25
12.0
 16
0.0
 26
0.0
 36
1.0
 17
0.0
 27
0.0
 37
0.0
 40
286.2746757977673
 41
1.566970091027308
 42
50.0
 43
0.0
 44
0.0
 50
0.0
 51
0.0
 71
     0
 72
   100
 73
     1
 74
     3
 75
     0
 76
     0
 77
     0
 78
     0
  0
ENDTAB
  0
TABLE
  2
LTYPE
  5
69
330
0
100
AcDbSymbolTable
 70
     4
  0
LTYPE
  5
6A
330
69
100
AcDbSymbolTableRecord
100
AcDbLinetypeTableRecord
  2
BYBLOCK
 70
     0
  3

 72
    65
 73
     0
 40
0.0
  0
LTYPE
  5
6B
330
69
100
AcDbSymbolTableRecord
100
AcDbLinetypeTableRecord
  2
BYLAYER
 70
     0
  3

 72
    65
 73
     0
 40
0.0
  0
LTYPE
  5
8
330
69
100
AcDbSymbolTableRecord
100
AcDbLinetypeTableRecord
  2
CONTINUOUS
 70
     0
  3
Solid line
 72
    65
 73
     0
 40
0.0
  0
LTYPE
  5
27C
330
69
100
AcDbSymbolTableRecord
100
AcDbLinetypeTableRecord
  2
SEKKEI_A2_
 70
     0
  3
center(A2)  ____ _ ____ _ ____ _ ____ _ ____ _ 
 72
    65
 73
     4
 40
14.28749999999999
 49
9.525
 74
     0
 49
-1.587499999999999
 74
     0
 49
1.587499999999999
 74
     0
 49
-1.587499999999999
 74
     0
  0
LTYPE
  5
2B4
330
69
100
AcDbSymbolTableRecord
100
AcDbLinetypeTableRecord
  2
HIDDEN2
 70
     0
  3
Hidden (.5x) _ _ _ _ _ _ _ _ _ _ _ _ _ _ _ _ _
 72
    65
 73
     2
 40
4.762499999999999
 49
3.174999999999999
 74
     0
 49
-1.587499999999999
 74
     0
  0
LTYPE
  5
48F
330
69
100
AcDbSymbolTableRecord
100
AcDbLinetypeTableRecord
  2
SEKKEI_H
 70
     0
  3
Hidden-S _ _ _ _ _ _ _ _ _ _ _ _ _ _ _ _ _
 72
    65
 73
     2
 40
2.381249999999999
 49
1.587499999999999
 74
     0
 49
-0.79375
 74
     0
  0
ENDTAB
  0
TABLE
  2
LAYER
  5
66
330
0
100
AcDbSymbolTable
 70
     9
  0
LAYER
  5
5E
330
66
100
AcDbSymbolTableRecord
100
AcDbLayerTableRecord
  2
0
 70
     0
 62
     7
  6
CONTINUOUS
  0
LAYER
  5
3E
330
66
100
AcDbSymbolTableRecord
100
AcDbLayerTableRecord
  2
CENTER
 70
     0
 62
     3
  6
SEKKEI_A2_
  0
LAYER
  5
2B5
330
66
100
AcDbSymbolTableRecord
100
AcDbLayerTableRecord
  2
HIDS
 70
     0
 62
     1
  6
HIDDEN2
  0
LAYER
  5
2BA
330
66
100
AcDbSymbolTableRecord
100
AcDbLayerTableRecord
  2
HOJO
 70
     0
 62
     4
  6
CONTINUOUS
  0
LAYER
  5
3FA
330
66
100
AcDbSymbolTableRecord
100
AcDbLayerTableRecord
  2
TITLE
 70
     0
 62
     4
  6
CONTINUOUS
  0
ENDTAB
  0
TABLE
  2
STYLE
  5
67
330
0
100
AcDbSymbolTable
 70
     2
  0
STYLE
  5
16
330
67
100
AcDbSymbolTableRecord
100
AcDbTextStyleTableRecord
  2
STANDARD
 70
     0
 40
0.0
 41
1.0
 50
0.0
 71
     0
 42
6.0
  3
simplex.shx
  4
extfont.shx
  0
ENDTAB
  0
TABLE
  2
VIEW
  5
6C
330
0
100
AcDbSymbolTable
 70
     0
  0
ENDTAB
  0
TABLE
  2
UCS
  5
6D
330
0
100
AcDbSymbolTable
 70
     0
  0
ENDTAB
  0
TABLE
  2
APPID
  5
70
330
0
100
AcDbSymbolTable
 70
     1
  0
APPID
  5
71
330
70
100
AcDbSymbolTableRecord
100
AcDbRegAppTableRecord
  2
ACAD
 70
     0
  0
ENDTAB
  0
TABLE
  2
DIMSTYLE
  5
72
330
0
100
AcDbSymbolTable
 70
     1
  0
DIMSTYLE
105
73
330
72
100
AcDbSymbolTableRecord
100
AcDbDimStyleTableRecord
  2
STANDARD
 70
     0
  3

  4

  5

  6

  7

 40
2.0
 41
1.8
 42
0.625
 43
3.75
 44
0.8
 45
0.0
 46
0.0
 47
0.0
 48
0.0
140
1.8
141
2.5
142
0.0
143
0.0394
144
1.0
145
0.0
146
1.0
147
0.75
 71
     0
 72
     0
 73
     0
 74
     0
 75
     0
 76
     0
 77
     1
 78
     8
170
     0
171
     4
172
     1
173
     0
174
     0
175
     0
176
     0
177
     0
178
     0
270
     8
271
     2
272
     2
273
     8
274
     4
340
16
275
     0
280
     0
281
     0
282
     0
283
     1
284
     0
285
     0
286
     0
287
     3
288
     0
  0
ENDTAB
  0
TABLE
  2
BLOCK_RECORD
  5
1
330
0
100
AcDbSymbolTable
 70
    37
  0
BLOCK_RECORD
  5
2
102
{ACAD_XDICTIONARY
360
19AC
102
}
330
1
100
AcDbSymbolTableRecord
100
AcDbBlockTableRecord
  2
*MODEL_SPACE
  0
BLOCK_RECORD
  5
1985
102
{ACAD_XDICTIONARY
360
19AE
102
}
330
1
100
AcDbSymbolTableRecord
100
AcDbBlockTableRecord
  2
*PAPER_SPACE
  0
ENDTAB
  0
ENDSEC
  0
SECTION
  2
BLOCKS
  0
BLOCK
  5
5D
330
2
100
AcDbEntity
  8
0
100
AcDbBlockBegin
  2
*MODEL_SPACE
 70
     0
 10
0.0
 20
0.0
 30
0.0
  3
*MODEL_SPACE
  1

  0
ENDBLK
  5
5F
330
2
100
AcDbEntity
  8
0
100
AcDbBlockEnd
  0
BLOCK
  5
1987
330
1985
100
AcDbEntity
 67
     1
  8
0
100
AcDbBlockBegin
  2
*PAPER_SPACE
 70
     0
 10
0.0
 20
0.0
 30
0.0
  3
*PAPER_SPACE
  1

  0
ENDBLK
  5
1988
330
1985
100
AcDbEntity
 67
     1
  8
0
100
AcDbBlockEnd
  0
ENDSEC
  0
SECTION
  2
ENTITIES
  0
LINE
  5
795
330
2
100
AcDbEntity
  8
CENTER
100
AcDbLine
 10
17.66046053282593
 20
82.49924507108046
 30
0.0
 11
126.9603945328258
 21
82.49924507108046
 31
0.0
  0
LINE
  5
7CA
330
2
100
AcDbEntity
  8
0
100
AcDbLine
 10
211.5736429039514
 20
107.9992450710804
 30
0.0
 11
220.5536539039515
 21
107.9992450710804
 31
0.0
  0
CIRCLE
  5
7CB
330
2
100
AcDbEntity
  8
0
100
AcDbCircle
 10
216.0536539039515
 20
114.4992450710804
 30
0.0
 40
3.25
  0
LINE
  5
7CC
330
2
100
AcDbEntity
  8
0
100
AcDbLine
 10
211.5736429039514
 20
56.99924507108045
 30
0.0
 11
220.5536539039515
 21
56.99924507108045
 31
0.0
  0
CIRCLE
  5
7CD
330
2
100
AcDbEntity
  8
0
100
AcDbCircle
 10
216.0536539039515
 20
50.49924507108045
 30
0.0
 40
3.25
  0
CIRCLE
  5
7CF
330
2
100
AcDbEntity
  8
0
100
AcDbCircle
 10
248.0536539039515
 20
82.49924507108046
 30
0.0
 40
35.0
  0
LINE
  5
7D0
330
2
100
AcDbEntity
  8
0
100
AcDbLine
 10
216.0736429039514
 20
44.01924507108043
 30
0.0
 11
280.0336649039513
 21
44.01924507108043
 31
0.0
  0
LINE
  5
7D1
330
2
100
AcDbEntity
  8
CENTER
100
AcDbLine
 10
210.0536539039515
 20
50.49924507108045
 30
0.0
 11
286.0536539039514
 21
50.49924507108045
 31
0.0
  0
LINE
  5
7D2
330
2
100
AcDbEntity
  8
0
100
AcDbLine
 10
216.0736429039514
 20
120.9792560710804
 30
0.0
 11
280.0336649039513
 21
120.9792560710804
 31
0.0
  0
LINE
  5
7D3
330
2
100
AcDbEntity
  8
CENTER
100
AcDbLine
 10
210.0536539039515
 20
114.4992450710804
 30
0.0
 11
286.0536539039514
 21
114.4992450710804
 31
0.0
  0
LINE
  5
7D4
330
2
100
AcDbEntity
  8
CENTER
100
AcDbLine
 10
204.5736429039513
 20
82.49924507108046
 30
0.0
 11
291.5336649039513
 21
82.49924507108046
 31
0.0
  0
LINE
  5
7D8
330
2
100
AcDbEntity
  8
0
100
AcDbLine
 10
209.5736429039514
 20
114.4792540710804
 30
0.0
 11
209.5736429039514
 21
50.51924507108044
 31
0.0
  0
LINE
  5
7D9
330
2
100
AcDbEntity
  8
CENTER
100
AcDbLine
 10
216.0536539039515
 20
120.4992450710804
 30
0.0
 11
216.0536539039515
 21
44.49924507108045
 31
0.0
  0
LINE
  5
7DB
330
2
100
AcDbEntity
  8
0
100
AcDbLine
 10
122.3369425328257
 20
107.7992440710804
 30
0.0
 11
122.3369425328257
 21
57.19925507108047
 31
0.0
  0
LINE
  5
7DC
330
2
100
AcDbEntity
  8
0
100
AcDbLine
 10
115.0369325328258
 20
119.9402550710804
 30
0.0
 11
115.0369325328258
 21
45.05825507108045
 31
0.0
  0
LINE
  5
7DD
330
2
100
AcDbEntity
  8
0
100
AcDbLine
 10
82.53694753282593
 20
120.6480450710804
 30
0.0
 11
82.53694753282593
 21
44.35055607108046
 31
0.0
  0
LINE
  5
7DE
330
2
100
AcDbEntity
  8
0
100
AcDbLine
 10
121.5369325328258
 20
120.9883540710804
 30
0.0
 11
121.5369325328258
 21
44.01015507108041
 31
0.0
  0
LINE
  5
7E2
330
2
100
AcDbEntity
  8
0
100
AcDbLine
 10
82.53694753282593
 20
44.35055607108046
 30
0.0
 11
116.0282425328257
 21
44.05825507108045
 31
0.0
  0
LINE
  5
7E3
330
2
100
AcDbEntity
  8
0
100
AcDbLine
 10
81.53694753282593
 20
54.26364507108047
 30
0.0
 11
114.5369325328258
 21
53.97565507108044
 31
0.0
  0
LINE
  5
7E6
330
2
100
AcDbEntity
  8
0
100
AcDbLine
 10
81.53954553282597
 20
44.65924507108042
 30
0.0
 11
82.53694753282593
 21
44.65055507108042
 31
0.0
  0
LINE
  5
7EB
330
2
100
AcDbEntity
  8
0
100
AcDbLine
 10
122.5369325328258
 20
56.99924507108045
 30
0.0
 11
122.5369325328258
 21
45.00145407108044
 31
0.0
  0
LINE
  5
7ED
330
2
100
AcDbEntity
  8
0
100
AcDbLine
 10
116.0282425328257
 20
44.05825507108045
 30
0.0
 11
121.5369325328258
 21
44.01015507108041
 31
0.0
  0
ARC
  5
7EE
330
2
100
AcDbEntity
  8
0
100
AcDbCircle
 10
116.0369325328258
 20
45.05825507108045
 30
0.0
 40
1.0
100
AcDbArc
 50
180.0
 51
269.5000000000002
  0
LINE
  5
7EF
330
2
100
AcDbEntity
  8
0
100
AcDbLine
 10
121.5369325328258
 20
44.01015507108041
 30
0.0
 11
122.5369325328258
 21
45.00145407108044
 31
0.0
  0
LINE
  5
7F0
330
2
100
AcDbEntity
  8
HIDS
  6
SEKKEI_H
100
AcDbLine
 10
114.5369325328258
 20
53.74924507108045
 30
0.0
 11
122.5369325328258
 21
53.74924507108045
 31
0.0
  0
LINE
  5
7F1
330
2
100
AcDbEntity
  8
HIDS
  6
SEKKEI_H
100
AcDbLine
 10
114.5369325328258
 20
47.24924507108045
 30
0.0
 11
122.5369325328258
 21
47.24924507108045
 31
0.0
  0
LINE
  5
7F2
330
2
100
AcDbEntity
  8
CENTER
100
AcDbLine
 10
110.5141435328257
 20
50.49924507108045
 30
0.0
 11
126.286985532826
 21
50.49924507108045
 31
0.0
  0
LINE
  5
7F3
330
2
100
AcDbEntity
  8
0
100
AcDbLine
 10
114.5369325328258
 20
54.99924507108045
 30
0.0
 11
114.5369325328258
 21
45.99924507108045
 31
0.0
  0
LINE
  5
7F4
330
2
100
AcDbEntity
  8
0
100
AcDbLine
 10
114.5369325328258
 20
45.99924507108045
 30
0.0
 11
115.0369325328258
 21
45.49924507108045
 31
0.0
  0
LINE
  5
7F5
330
2
100
AcDbEntity
  8
0
100
AcDbLine
 10
114.5369325328258
 20
54.99924507108045
 30
0.0
 11
115.0369325328258
 21
55.49924507108045
 31
0.0
  0
LINE
  5
7F6
330
2
100
AcDbEntity
  8
0
100
AcDbLine
 10
122.3369425328257
 20
57.19925507108047
 30
0.0
 11
122.5369325328258
 21
56.99924507108045
 31
0.0
  0
ARC
  5
7F7
330
2
100
AcDbEntity
  8
0
100
AcDbCircle
 10
216.0736429039514
 20
50.51924507108044
 30
0.0
 40
6.5
100
AcDbArc
 50
180.0
 51
270.0
  0
ARC
  5
7F8
330
2
100
AcDbEntity
  8
0
100
AcDbCircle
 10
211.5736429039514
 20
54.99924507108045
 30
0.0
 40
2.0
100
AcDbArc
 50
90.0
 51
180.0
  0
LINE
  5
7FA
330
2
100
AcDbEntity
  8
CENTER
100
AcDbLine
 10
153.5369095328258
 20
93.49924507108045
 30
0.0
 11
110.0369325328258
 21
93.49924507108045
 31
0.0
  0
LINE
  5
7FB
330
2
100
AcDbEntity
  8
0
100
AcDbLine
 10
148.0369095328257
 20
99.49924507108045
 30
0.0
 11
126.5369095328258
 21
99.49924507108045
 31
0.0
  0
LINE
  5
7FC
330
2
100
AcDbEntity
  8
0
100
AcDbLine
 10
148.0369095328257
 20
87.49924507108046
 30
0.0
 11
126.5369095328258
 21
87.49924507108046
 31
0.0
  0
LINE
  5
7FD
330
2
100
AcDbEntity
  8
0
100
AcDbLine
 10
148.5369095328258
 20
95.49924507108045
 30
0.0
 11
130.5369095328257
 21
95.49924507108045
 31
0.0
  0
LINE
  5
7FE
330
2
100
AcDbEntity
  8
0
100
AcDbLine
 10
148.5369095328258
 20
91.49924507108044
 30
0.0
 11
130.5369095328257
 21
91.49924507108044
 31
0.0
  0
LINE
  5
801
330
2
100
AcDbEntity
  8
0
100
AcDbLine
 10
122.5369325328258
 20
119.9970440710804
 30
0.0
 11
122.5369325328258
 21
107.9992450710804
 31
0.0
  0
LINE
  5
802
330
2
100
AcDbEntity
  8
0
100
AcDbLine
 10
114.5369325328258
 20
118.9992450710804
 30
0.0
 11
114.5369325328258
 21
109.9992450710804
 31
0.0
  0
LINE
  5
804
330
2
100
AcDbEntity
  8
0
100
AcDbLine
 10
81.53694753282593
 20
110.7348540710804
 30
0.0
 11
114.5369325328258
 21
111.0228540710804
 31
0.0
  0
ARC
  5
808
330
2
100
AcDbEntity
  8
0
100
AcDbCircle
 10
130.5369095328257
 20
93.49924507108045
 30
0.0
 40
2.0
100
AcDbArc
 50
180.0
 51
270.0
  0
LINE
  5
809
330
2
100
AcDbEntity
  8
0
100
AcDbLine
 10
126.5369095328258
 20
100.9992450710804
 30
0.0
 11
126.5369095328258
 21
85.99924507108045
 31
0.0
  0
LINE
  5
80A
330
2
100
AcDbEntity
  8
0
100
AcDbLine
 10
125.5369095328258
 20
109.9992450710804
 30
0.0
 11
125.5369095328258
 21
76.99924507108045
 31
0.0
  0
ARC
  5
80C
330
2
100
AcDbEntity
  8
0
100
AcDbCircle
 10
124.5369095328258
 20
76.99924507108045
 30
0.0
 40
1.0
100
AcDbArc
 50
270.0
 51
0.0
  0
LINE
  5
80D
330
2
100
AcDbEntity
  8
0
100
AcDbLine
 10
126.5369095328258
 20
85.99924507108045
 30
0.0
 11
125.5369095328258
 21
85.99924507108045
 31
0.0
  0
LINE
  5
80E
330
2
100
AcDbEntity
  8
HIDS
  6
SEKKEI_H
100
AcDbLine
 10
114.5369325328258
 20
111.2492450710804
 30
0.0
 11
122.5369325328258
 21
111.2492450710804
 31
0.0
  0
LINE
  5
80F
330
2
100
AcDbEntity
  8
CENTER
100
AcDbLine
 10
110.5141435328257
 20
114.4992450710804
 30
0.0
 11
125.286985532826
 21
114.4992450710804
 31
0.0
  0
LINE
  5
810
330
2
100
AcDbEntity
  8
0
100
AcDbLine
 10
114.5369325328258
 20
109.9992450710804
 30
0.0
 11
115.0369325328258
 21
109.4992450710804
 31
0.0
  0
ARC
  5
811
330
2
100
AcDbEntity
  8
0
100
AcDbCircle
 10
130.5369095328257
 20
93.49924507108045
 30
0.0
 40
2.0
100
AcDbArc
 50
90.0
 51
180.0
  0
LINE
  5
812
330
2
100
AcDbEntity
  8
0
100
AcDbLine
 10
126.5369095328258
 20
100.9992450710804
 30
0.0
 11
125.5369095328258
 21
100.9992450710804
 31
0.0
  0
LINE
  5
813
330
2
100
AcDbEntity
  8
0
100
AcDbLine
 10
122.3369425328257
 20
107.7992440710804
 30
0.0
 11
122.5369325328258
 21
107.9992450710804
 31
0.0
  0
ARC
  5
814
330
2
100
AcDbEntity
  8
0
100
AcDbCircle
 10
124.5369095328258
 20
109.9992450710804
 30
0.0
 40
1.0
100
AcDbArc
 50
0.0
 51
90.0
  0
ARC
  5
815
330
2
100
AcDbEntity
  8
0
100
AcDbCircle
 10
124.5369095328258
 20
112.9992450710804
 30
0.0
 40
2.0
100
AcDbArc
 50
180.0
 51
270.0
  0
LINE
  5
828
330
2
100
AcDbEntity
  8
0
100
AcDbLine
 10
82.53694753282593
 20
120.6480450710804
 30
0.0
 11
116.0282425328257
 21
120.9402550710804
 31
0.0
  0
LINE
  5
82C
330
2
100
AcDbEntity
  8
0
100
AcDbLine
 10
81.53954553282597
 20
120.3392570710804
 30
0.0
 11
82.53694753282593
 21
120.3479540710804
 31
0.0
  0
LINE
  5
864
330
2
100
AcDbEntity
  8
0
100
AcDbLine
 10
116.0282425328257
 20
120.9402550710804
 30
0.0
 11
121.5369325328258
 21
120.9883540710804
 31
0.0
  0
LINE
  5
865
330
2
100
AcDbEntity
  8
HIDS
  6
SEKKEI_H
100
AcDbLine
 10
114.5369325328258
 20
117.7492450710804
 30
0.0
 11
122.5369325328258
 21
117.7492450710804
 31
0.0
  0
ARC
  5
866
330
2
100
AcDbEntity
  8
0
100
AcDbCircle
 10
116.0369325328258
 20
119.9402550710804
 30
0.0
 40
1.0
100
AcDbArc
 50
90.4999999999997
 51
180.0
  0
LINE
  5
867
330
2
100
AcDbEntity
  8
0
100
AcDbLine
 10
114.5369325328258
 20
118.9992450710804
 30
0.0
 11
115.0369325328258
 21
119.4992450710804
 31
0.0
  0
LINE
  5
86F
330
2
100
AcDbEntity
  8
0
100
AcDbLine
 10
121.5369325328258
 20
120.9883540710804
 30
0.0
 11
122.5369325328258
 21
119.9970440710804
 31
0.0
  0
LINE
  5
8C5
330
2
100
AcDbEntity
  8
0
100
AcDbLine
 10
148.5369095328258
 20
98.99924507108046
 30
0.0
 11
148.5369095328258
 21
87.99924507108045
 31
0.0
  0
LINE
  5
8C6
330
2
100
AcDbEntity
  8
0
100
AcDbLine
 10
148.0369095328257
 20
87.49924507108046
 30
0.0
 11
148.5369095328258
 21
87.99924507108045
 31
0.0
  0
LINE
  5
8C7
330
2
100
AcDbEntity
  8
0
100
AcDbLine
 10
148.0369095328257
 20
91.49924507108044
 30
0.0
 11
148.0369095328257
 21
87.49924507108046
 31
0.0
  0
LINE
  5
8C8
330
2
100
AcDbEntity
  8
0
100
AcDbLine
 10
148.0369095328257
 20
99.49924507108045
 30
0.0
 11
148.0369095328257
 21
95.49924507108045
 31
0.0
  0
LINE
  5
8C9
330
2
100
AcDbEntity
  8
0
100
AcDbLine
 10
148.0369095328257
 20
99.49924507108045
 30
0.0
 11
148.5369095328258
 21
98.99924507108046
 31
0.0
  0
ARC
  5
8CC
330
2
100
AcDbEntity
  8
0
100
AcDbCircle
 10
216.0736429039514
 20
114.4792540710804
 30
0.0
 40
6.5
100
AcDbArc
 50
90.0
 51
180.0
  0
ARC
  5
8CF
330
2
100
AcDbEntity
  8
0
100
AcDbCircle
 10
211.5736429039514
 20
109.9992450710804
 30
0.0
 40
2.0
100
AcDbArc
 50
180.0
 51
270.0
  0
LINE
  5
8D0
330
2
100
AcDbEntity
  8
0
100
AcDbLine
 10
286.5336649039513
 20
114.4792540710804
 30
0.0
 11
286.5336649039513
 21
50.51935407108044
 31
0.0
  0
LINE
  5
8D1
330
2
100
AcDbEntity
  8
CENTER
100
AcDbLine
 10
280.0536539039514
 20
120.4992450710804
 30
0.0
 11
280.0536539039514
 21
44.49924507108045
 31
0.0
  0
LINE
  5
8D2
330
2
100
AcDbEntity
  8
CENTER
100
AcDbLine
 10
248.0536539039515
 20
140.5804556902
 30
0.0
 11
248.0536539039515
 21
39.01924507108043
 31
0.0
  0
LINE
  5
8D5
330
2
100
AcDbEntity
  8
0
100
AcDbLine
 10
275.5536539039515
 20
56.99924507108045
 30
0.0
 11
284.5336649039513
 21
56.99924507108045
 31
0.0
  0
CIRCLE
  5
8D6
330
2
100
AcDbEntity
  8
0
100
AcDbCircle
 10
280.0536539039514
 20
50.49924507108045
 30
0.0
 40
3.25
  0
ARC
  5
8D7
330
2
100
AcDbEntity
  8
0
100
AcDbCircle
 10
280.0336649039513
 20
50.51924507108044
 30
0.0
 40
6.5
100
AcDbArc
 50
270.0
 51
0.0
  0
LINE
  5
8D8
330
2
100
AcDbEntity
  8
0
100
AcDbLine
 10
248.5927469039513
 20
63.39775507108043
 30
0.0
 11
250.1559489039514
 21
63.39775507108043
 31
0.0
  0
LINE
  5
8D9
330
2
100
AcDbEntity
  8
0
100
AcDbLine
 10
245.0536539039514
 20
64.49924507108045
 30
0.0
 11
251.0536539039514
 21
64.49924507108045
 31
0.0
  0
ARC
  5
8DB
330
2
100
AcDbEntity
  8
0
100
AcDbCircle
 10
220.5536539039515
 20
46.01924507108043
 30
0.0
 40
2.0
100
AcDbArc
 50
270.0
 51
0.0
  0
ARC
  5
8DC
330
2
100
AcDbEntity
  8
0
100
AcDbCircle
 10
220.5536539039515
 20
54.99924507108045
 30
0.0
 40
2.0
100
AcDbArc
 50
0.0
 51
90.0
  0
LINE
  5
8DD
330
2
100
AcDbEntity
  8
0
100
AcDbLine
 10
222.5536539039515
 20
54.99924507108045
 30
0.0
 11
222.5536539039515
 21
46.01924507108043
 31
0.0
  0
LINE
  5
8DE
330
2
100
AcDbEntity
  8
0
100
AcDbLine
 10
248.5927469039513
 20
63.39775507108043
 30
0.0
 11
248.5927469039513
 21
56.48365407108048
 31
0.0
  0
LINE
  5
8DF
330
2
100
AcDbEntity
  8
0
100
AcDbLine
 10
247.4675479039512
 20
63.39775507108043
 30
0.0
 11
247.4675479039512
 21
56.48365407108048
 31
0.0
  0
LINE
  5
8E0
330
2
100
AcDbEntity
  8
0
100
AcDbLine
 10
236.0536539039514
 20
63.10445407108045
 30
0.0
 11
236.0536539039514
 21
56.66715507108046
 31
0.0
  0
LINE
  5
8E1
330
2
100
AcDbEntity
  8
0
100
AcDbLine
 10
242.0536539039515
 20
60.72585507108044
 30
0.0
 11
242.0536539039515
 21
55.49924507108045
 31
0.0
  0
ARC
  5
8E2
330
2
100
AcDbEntity
  8
0
100
AcDbCircle
 10
239.3114509039514
 20
58.42894607108047
 30
0.0
 40
1.875
100
AcDbArc
 50
270.0002140000007
 51
0.0001089999998967
  0
LINE
  5
8E3
330
2
100
AcDbEntity
  8
0
100
AcDbLine
 10
237.0614509039514
 20
57.27895607108047
 30
0.0
 11
237.7496529039515
 21
56.55394607108047
 31
0.0
  0
LINE
  5
8E4
330
2
100
AcDbEntity
  8
0
100
AcDbLine
 10
241.1864509039514
 20
55.49924507108045
 30
0.0
 11
242.0536539039515
 21
55.49924507108045
 31
0.0
  0
LINE
  5
8E5
330
2
100
AcDbEntity
  8
0
100
AcDbLine
 10
236.0536539039514
 20
56.66715507108046
 30
0.0
 11
237.2110479039513
 21
55.49924507108045
 31
0.0
  0
LINE
  5
8E6
330
2
100
AcDbEntity
  8
0
100
AcDbLine
 10
241.1864509039514
 20
56.21665407108043
 30
0.0
 11
240.3313479039514
 21
55.49924507108045
 31
0.0
  0
LINE
  5
8E7
330
2
100
AcDbEntity
  8
0
100
AcDbLine
 10
241.1864509039514
 20
56.21665407108043
 30
0.0
 11
241.1864509039514
 21
55.49924507108045
 31
0.0
  0
LINE
  5
8E8
330
2
100
AcDbEntity
  8
0
100
AcDbLine
 10
237.2110479039513
 20
55.49924507108045
 30
0.0
 11
240.3313479039514
 21
55.49924507108045
 31
0.0
  0
LINE
  5
8E9
330
2
100
AcDbEntity
  8
0
100
AcDbLine
 10
239.3114509039514
 20
56.55394607108047
 30
0.0
 11
237.7496529039515
 21
56.55394607108047
 31
0.0
  0
LINE
  5
8EA
330
2
100
AcDbEntity
  8
0
100
AcDbLine
 10
248.9677469039513
 20
56.48365407108048
 30
0.0
 11
248.9677469039513
 21
55.49924507108045
 31
0.0
  0
LINE
  5
8EB
330
2
100
AcDbEntity
  8
0
100
AcDbLine
 10
247.0224489039515
 20
56.48365407108048
 30
0.0
 11
247.0224489039515
 21
55.49924507108045
 31
0.0
  0
LINE
  5
8EC
330
2
100
AcDbEntity
  8
0
100
AcDbLine
 10
247.0224489039515
 20
55.49924507108045
 30
0.0
 11
248.9677469039513
 21
55.49924507108045
 31
0.0
  0
LINE
  5
8ED
330
2
100
AcDbEntity
  8
0
100
AcDbLine
 10
247.0224489039515
 20
56.48365407108048
 30
0.0
 11
247.4675479039512
 21
56.48365407108048
 31
0.0
  0
LINE
  5
8EE
330
2
100
AcDbEntity
  8
0
100
AcDbLine
 10
248.5927469039513
 20
56.48365407108048
 30
0.0
 11
248.9677469039513
 21
56.48365407108048
 31
0.0
  0
LINE
  5
8EF
330
2
100
AcDbEntity
  8
0
100
AcDbLine
 10
239.6161539039515
 20
60.72585507108044
 30
0.0
 11
242.0536539039515
 21
60.72585507108044
 31
0.0
  0
LINE
  5
8F0
330
2
100
AcDbEntity
  8
0
100
AcDbLine
 10
241.1864509039514
 20
62.62424507108045
 30
0.0
 11
242.0536539039515
 21
62.62424507108045
 31
0.0
  0
LINE
  5
8F1
330
2
100
AcDbEntity
  8
0
100
AcDbLine
 10
241.1774479039515
 20
64.49924507108045
 30
0.0
 11
242.0536539039515
 21
63.52695507108046
 31
0.0
  0
LINE
  5
8F2
330
2
100
AcDbEntity
  8
0
100
AcDbLine
 10
237.7388499039513
 20
63.30394607108047
 30
0.0
 11
237.0614509039514
 21
62.46395507108042
 31
0.0
  0
LINE
  5
8F3
330
2
100
AcDbEntity
  8
0
100
AcDbLine
 10
237.0614509039514
 20
62.46395507108042
 30
0.0
 11
237.0614509039514
 21
57.27895607108047
 31
0.0
  0
LINE
  5
8F4
330
2
100
AcDbEntity
  8
0
100
AcDbLine
 10
239.6161539039515
 20
60.72585507108044
 30
0.0
 11
239.6161539039515
 21
59.74144607108048
 31
0.0
  0
LINE
  5
8F5
330
2
100
AcDbEntity
  8
0
100
AcDbLine
 10
241.1864509039514
 20
59.74144607108048
 30
0.0
 11
239.6161539039515
 21
59.74144607108048
 31
0.0
  0
LINE
  5
8F6
330
2
100
AcDbEntity
  8
0
100
AcDbLine
 10
241.1864509039514
 20
58.80394607108048
 30
0.0
 11
241.1864509039514
 21
59.55394607108047
 31
0.0
  0
LINE
  5
8F7
330
2
100
AcDbEntity
  8
0
100
AcDbLine
 10
241.1864509039514
 20
59.74144607108048
 30
0.0
 11
241.1864509039514
 21
58.42894607108047
 31
0.0
  0
LINE
  5
8F8
330
2
100
AcDbEntity
  8
0
100
AcDbLine
 10
237.1427499039514
 20
64.49924507108045
 30
0.0
 11
236.0536539039514
 21
63.10445407108045
 31
0.0
  0
LINE
  5
8F9
330
2
100
AcDbEntity
  8
0
100
AcDbLine
 10
241.1864509039514
 20
62.76615607108045
 30
0.0
 11
240.6187479039515
 21
63.30394607108047
 31
0.0
  0
LINE
  5
8FA
330
2
100
AcDbEntity
  8
0
100
AcDbLine
 10
241.1864509039514
 20
62.76615607108045
 30
0.0
 11
241.1864509039514
 21
62.62424507108045
 31
0.0
  0
LINE
  5
8FB
330
2
100
AcDbEntity
  8
0
100
AcDbLine
 10
237.1427499039514
 20
64.49924507108045
 30
0.0
 11
241.1774479039515
 21
64.49924507108045
 31
0.0
  0
LINE
  5
8FC
330
2
100
AcDbEntity
  8
0
100
AcDbLine
 10
240.6301459039514
 20
63.30394607108047
 30
0.0
 11
237.7388499039513
 21
63.30394607108047
 31
0.0
  0
LINE
  5
8FD
330
2
100
AcDbEntity
  8
0
100
AcDbLine
 10
245.0536539039514
 20
62.62424507108045
 30
0.0
 11
245.7196539039514
 21
62.62424507108045
 31
0.0
  0
LINE
  5
8FE
330
2
100
AcDbEntity
  8
0
100
AcDbLine
 10
245.0536539039514
 20
62.62424507108045
 30
0.0
 11
245.0536539039514
 21
64.49924507108045
 31
0.0
  0
LINE
  5
8FF
330
2
100
AcDbEntity
  8
0
100
AcDbLine
 10
242.0536539039515
 20
63.52695507108046
 30
0.0
 11
242.0536539039515
 21
62.62424507108045
 31
0.0
  0
LINE
  5
900
330
2
100
AcDbEntity
  8
0
100
AcDbLine
 10
246.0419499039514
 20
63.39775507108043
 30
0.0
 11
245.7196539039514
 21
62.62424507108045
 31
0.0
  0
LINE
  5
901
330
2
100
AcDbEntity
  8
0
100
AcDbLine
 10
247.4675479039512
 20
63.39775507108043
 30
0.0
 11
246.0419499039514
 21
63.39775507108043
 31
0.0
  0
ARC
  5
902
330
2
100
AcDbEntity
  8
0
100
AcDbCircle
 10
275.5536539039515
 20
46.01924507108043
 30
0.0
 40
2.0
100
AcDbArc
 50
180.0
 51
270.0
  0
LINE
  5
903
330
2
100
AcDbEntity
  8
0
100
AcDbLine
 10
254.4989509039514
 20
63.39775507108043
 30
0.0
 11
254.4989509039514
 21
56.43674507108045
 31
0.0
  0
LINE
  5
904
330
2
100
AcDbEntity
  8
0
100
AcDbLine
 10
255.5302469039513
 20
59.70635407108045
 30
0.0
 11
255.5302469039513
 21
56.43674507108045
 31
0.0
  0
LINE
  5
905
330
2
100
AcDbEntity
  8
0
100
AcDbLine
 10
257.4505499039514
 20
59.70635407108045
 30
0.0
 11
258.8577459039513
 21
56.43674507108045
 31
0.0
  0
LINE
  5
906
330
2
100
AcDbEntity
  8
0
100
AcDbLine
 10
258.3142429039515
 20
59.78784607108043
 30
0.0
 11
259.8011509039513
 21
56.43674507108045
 31
0.0
  0
LINE
  5
907
330
2
100
AcDbEntity
  8
0
100
AcDbLine
 10
255.9402499039513
 20
56.43674507108045
 30
0.0
 11
255.9402499039513
 21
55.49924507108045
 31
0.0
  0
LINE
  5
908
330
2
100
AcDbEntity
  8
0
100
AcDbLine
 10
254.0536539039515
 20
56.43674507108045
 30
0.0
 11
254.0536539039515
 21
55.49924507108045
 31
0.0
  0
LINE
  5
909
330
2
100
AcDbEntity
  8
0
100
AcDbLine
 10
254.0536539039515
 20
56.43674507108045
 30
0.0
 11
254.4989509039514
 21
56.43674507108045
 31
0.0
  0
LINE
  5
90A
330
2
100
AcDbEntity
  8
0
100
AcDbLine
 10
255.9402499039513
 20
55.49924507108045
 30
0.0
 11
254.0536539039515
 21
55.49924507108045
 31
0.0
  0
LINE
  5
90B
330
2
100
AcDbEntity
  8
0
100
AcDbLine
 10
255.5302469039513
 20
56.43674507108045
 30
0.0
 11
255.9402499039513
 21
56.43674507108045
 31
0.0
  0
LINE
  5
90C
330
2
100
AcDbEntity
  8
0
100
AcDbLine
 10
258.6708559039514
 20
56.43674507108045
 30
0.0
 11
258.6708559039514
 21
55.49924507108045
 31
0.0
  0
LINE
  5
90D
330
2
100
AcDbEntity
  8
0
100
AcDbLine
 10
260.0536539039515
 20
56.43674507108045
 30
0.0
 11
260.0536539039515
 21
55.49924507108045
 31
0.0
  0
LINE
  5
90E
330
2
100
AcDbEntity
  8
0
100
AcDbLine
 10
258.6708559039514
 20
55.49924507108045
 30
0.0
 11
260.0536539039515
 21
55.49924507108045
 31
0.0
  0
LINE
  5
90F
330
2
100
AcDbEntity
  8
0
100
AcDbLine
 10
259.8011509039513
 20
56.43674507108045
 30
0.0
 11
260.0536539039515
 21
56.43674507108045
 31
0.0
  0
LINE
  5
910
330
2
100
AcDbEntity
  8
0
100
AcDbLine
 10
258.6708559039514
 20
56.43674507108045
 30
0.0
 11
258.8577459039513
 21
56.43674507108045
 31
0.0
  0
LINE
  5
911
330
2
100
AcDbEntity
  8
0
100
AcDbLine
 10
255.5302469039513
 20
60.64354507108044
 30
0.0
 11
257.8403509039515
 21
60.64354507108044
 31
0.0
  0
LINE
  5
912
330
2
100
AcDbEntity
  8
0
100
AcDbLine
 10
255.5302469039513
 20
63.39775507108043
 30
0.0
 11
258.3300509039515
 21
63.39585507108046
 31
0.0
  0
LINE
  5
913
330
2
100
AcDbEntity
  8
0
100
AcDbLine
 10
254.0536539039515
 20
64.49924507108045
 30
0.0
 11
257.6513559039515
 21
64.49924507108045
 31
0.0
  0
LINE
  5
914
330
2
100
AcDbEntity
  8
0
100
AcDbLine
 10
255.5302469039513
 20
63.39775507108043
 30
0.0
 11
255.5302469039513
 21
60.64354507108044
 31
0.0
  0
LINE
  5
915
330
2
100
AcDbEntity
  8
0
100
AcDbLine
 10
255.5302469039513
 20
59.70635407108045
 30
0.0
 11
257.4505499039514
 21
59.70635407108045
 31
0.0
  0
LINE
  5
916
330
2
100
AcDbEntity
  8
0
100
AcDbLine
 10
251.0536539039514
 20
62.62424507108045
 30
0.0
 11
251.0536539039514
 21
64.49924507108045
 31
0.0
  0
LINE
  5
917
330
2
100
AcDbEntity
  8
0
100
AcDbLine
 10
250.4277529039514
 20
62.62424507108045
 30
0.0
 11
251.0536539039514
 21
62.62424507108045
 31
0.0
  0
LINE
  5
918
330
2
100
AcDbEntity
  8
0
100
AcDbLine
 10
250.1559489039514
 20
63.39775507108043
 30
0.0
 11
250.4277529039514
 21
62.62424507108045
 31
0.0
  0
LINE
  5
919
330
2
100
AcDbEntity
  8
0
100
AcDbLine
 10
254.0536539039515
 20
63.39775507108043
 30
0.0
 11
254.4989509039514
 21
63.39775507108043
 31
0.0
  0
LINE
  5
91A
330
2
100
AcDbEntity
  8
0
100
AcDbLine
 10
254.0536539039515
 20
64.49924507108045
 30
0.0
 11
254.0536539039515
 21
63.39775507108043
 31
0.0
  0
ARC
  5
91B
330
2
100
AcDbEntity
  8
0
100
AcDbCircle
 10
257.6513559039515
 20
62.09694507108048
 30
0.0
 40
2.402343999999999
100
AcDbArc
 50
286.0181269999968
 51
90.00350999999719
  0
ARC
  5
91C
330
2
100
AcDbEntity
  8
0
100
AcDbCircle
 10
257.6513559039515
 20
62.09694507108048
 30
0.0
 40
1.465594
100
AcDbArc
 50
277.4147260000001
 51
62.41184999999841
  0
ARC
  5
91D
330
2
100
AcDbEntity
  8
0
100
AcDbCircle
 10
275.5536539039515
 20
54.99924507108045
 30
0.0
 40
2.0
100
AcDbArc
 50
90.0
 51
180.0
  0
LINE
  5
91E
330
2
100
AcDbEntity
  8
0
100
AcDbLine
 10
273.5536539039514
 20
54.99924507108045
 30
0.0
 11
273.5536539039514
 21
46.01924507108043
 31
0.0
  0
ARC
  5
91F
330
2
100
AcDbEntity
  8
0
100
AcDbCircle
 10
284.5336649039513
 20
54.99924507108045
 30
0.0
 40
2.0
100
AcDbArc
 50
0.0
 51
90.0
  0
ARC
  5
920
330
2
100
AcDbEntity
  8
0
100
AcDbCircle
 10
280.0336649039513
 20
114.4792540710804
 30
0.0
 40
6.5
100
AcDbArc
 50
0.0
 51
90.0
  0
LINE
  5
921
330
2
100
AcDbEntity
  8
0
100
AcDbLine
 10
275.5536539039515
 20
107.9992450710804
 30
0.0
 11
284.5336649039513
 21
107.9992450710804
 31
0.0
  0
CIRCLE
  5
922
330
2
100
AcDbEntity
  8
0
100
AcDbCircle
 10
280.0536539039514
 20
114.4992450710804
 30
0.0
 40
3.25
  0
LINE
  5
924
330
2
100
AcDbEntity
  8
0
100
AcDbLine
 10
273.5536539039514
 20
109.9992450710804
 30
0.0
 11
273.5536539039514
 21
118.9792560710804
 31
0.0
  0
LINE
  5
925
330
2
100
AcDbEntity
  8
0
100
AcDbLine
 10
222.5536539039515
 20
109.9992450710804
 30
0.0
 11
222.5536539039515
 21
118.9792560710804
 31
0.0
  0
ARC
  5
927
330
2
100
AcDbEntity
  8
0
100
AcDbCircle
 10
248.0536539039515
 20
93.49924507108045
 30
0.0
 40
5.999998999999999
100
AcDbArc
 50
199.4712069999986
 51
160.5287930000012
  0
ARC
  5
928
330
2
100
AcDbEntity
  8
0
100
AcDbCircle
 10
248.0536539039515
 20
93.49924507108045
 30
0.0
 40
7.5
100
AcDbArc
 50
195.4660029999983
 51
164.5339969999986
  0
LINE
  5
929
330
2
100
AcDbEntity
  8
CENTER
100
AcDbLine
 10
228.0536539039514
 20
93.49924507108045
 30
0.0
 11
268.0536539039514
 21
93.49924507108045
 31
0.0
  0
CIRCLE
  5
92A
330
2
100
AcDbEntity
  8
0
100
AcDbCircle
 10
248.0536539039515
 20
93.49924507108045
 30
0.0
 40
17.5
  0
LINE
  5
92B
330
2
100
AcDbEntity
  8
0
100
AcDbLine
 10
244.5536539039514
 20
91.49924507108044
 30
0.0
 11
244.5536539039514
 21
95.49924507108045
 31
0.0
  0
LINE
  5
92C
330
2
100
AcDbEntity
  8
0
100
AcDbLine
 10
240.5536539039514
 20
91.49924507108044
 30
0.0
 11
240.5536539039514
 21
95.49924507108045
 31
0.0
  0
LINE
  5
92D
330
2
100
AcDbEntity
  8
0
100
AcDbLine
 10
240.5536539039514
 20
91.49924507108044
 30
0.0
 11
244.5536539039514
 21
91.49924507108044
 31
0.0
  0
ARC
  5
92E
330
2
100
AcDbEntity
  8
0
100
AcDbCircle
 10
220.5536539039515
 20
109.9992450710804
 30
0.0
 40
2.0
100
AcDbArc
 50
270.0
 51
0.0
  0
LINE
  5
92F
330
2
100
AcDbEntity
  8
0
100
AcDbLine
 10
240.5536539039514
 20
95.49924507108045
 30
0.0
 11
244.5536539039514
 21
95.49924507108045
 31
0.0
  0
ARC
  5
930
330
2
100
AcDbEntity
  8
0
100
AcDbCircle
 10
275.5536539039515
 20
109.9992450710804
 30
0.0
 40
2.0
100
AcDbArc
 50
180.0
 51
270.0
  0
ARC
  5
931
330
2
100
AcDbEntity
  8
HOJO
100
AcDbCircle
 10
241.8033639039513
 20
136.4796736902
 30
0.0
 40
1.600781999999999
100
AcDbArc
 50
67.16467300000023
 51
141.3401949999997
  0
ARC
  5
932
330
2
100
AcDbEntity
  8
0
100
AcDbCircle
 10
220.5536539039515
 20
118.9792560710804
 30
0.0
 40
2.0
100
AcDbArc
 50
0.0
 51
90.0
  0
LINE
  5
933
330
2
100
AcDbEntity
  8
0
100
AcDbLine
 10
255.5539439039516
 20
137.4796751959609
 30
0.0
 11
255.5539439039516
 21
121.0192550710804
 31
0.0
  0
LINE
  5
934
330
2
100
AcDbEntity
  8
0
100
AcDbLine
 10
249.5539439039514
 20
137.4796737852196
 30
0.0
 11
249.5539439039516
 21
121.0192550710804
 31
0.0
  0
ARC
  5
935
330
2
100
AcDbEntity
  8
HOJO
100
AcDbCircle
 10
245.3033639039513
 20
138.4796736902
 30
0.0
 40
1.600781
100
AcDbArc
 50
247.1647030000001
 51
321.340194401624
  0
LINE
  5
936
330
2
100
AcDbEntity
  8
HOJO
100
AcDbLine
 10
242.4246559039516
 20
137.9549856902
 30
0.0
 11
244.6822549039513
 21
137.0043776902
 31
0.0
  0
ARC
  5
937
330
2
100
AcDbEntity
  8
HOJO
100
AcDbCircle
 10
250.8033639039513
 20
136.4796736902
 30
0.0
 40
1.600781999999999
100
AcDbArc
 50
67.16467300000023
 51
141.3401949999997
  0
LINE
  5
938
330
2
100
AcDbEntity
  8
0
100
AcDbLine
 10
246.5539439039516
 20
137.4796751959609
 30
0.0
 11
246.5539439039516
 21
121.0192550710804
 31
0.0
  0
LINE
  5
939
330
2
100
AcDbEntity
  8
0
100
AcDbLine
 10
244.5539439039516
 20
137.0584056478168
 30
0.0
 11
244.5539439039516
 21
121.0192550710804
 31
0.0
  0
LINE
  5
93A
330
2
100
AcDbEntity
  8
0
100
AcDbLine
 10
242.5539439039516
 20
137.9005463468516
 30
0.0
 11
242.5539439039516
 21
121.0192550710804
 31
0.0
  0
LINE
  5
93B
330
2
100
AcDbEntity
  8
0
100
AcDbLine
 10
240.5539439039516
 20
137.4796737852195
 30
0.0
 11
240.5539439039516
 21
121.0192550710804
 31
0.0
  0
LINE
  5
93C
330
2
100
AcDbEntity
  8
HOJO
100
AcDbLine
 10
251.4246559039515
 20
137.9549856902
 30
0.0
 11
253.6822549039513
 21
137.0043776902
 31
0.0
  0
ARC
  5
93D
330
2
100
AcDbEntity
  8
HOJO
100
AcDbCircle
 10
254.3033639039513
 20
138.4796736902
 30
0.0
 40
1.600781
100
AcDbArc
 50
247.1647030000001
 51
321.340194401624
  0
ARC
  5
93E
330
2
100
AcDbEntity
  8
0
100
AcDbCircle
 10
275.5536539039515
 20
118.9792560710804
 30
0.0
 40
2.0
100
AcDbArc
 50
90.0
 51
180.0
  0
ARC
  5
93F
330
2
100
AcDbEntity
  8
0
100
AcDbCircle
 10
284.5336649039513
 20
109.9992450710804
 30
0.0
 40
2.0
100
AcDbArc
 50
270.0
 51
0.0
  0
TEXT
  5
BA3
330
2
100
AcDbEntity
  8
TITLE
100
AcDbText
 10
23.10484162149646
 20
13.93726682906089
 30
0.0
 40
6.0
  1
VGKC12-5～60N50
 41
0.9
100
AcDbText
  0
MTEXT
  5
BAC
330
2
100
AcDbEntity
  8
TITLE
100
AcDbMText
 10
100.0665992402101
 20
22.81828296799922
 30
0.0
 40
4.242600000000001
 41
8.846363658651862
 71
     1
 72
     5
  1
L1\PL2
1001
ACAD
1000
MTEXTBEGIN
1070
    73
1070
     1
1070
    44
1040
1.0
1070
    74
1070
     0
1000
MTEXTEND
  0
LINE
  5
D9F
330
2
100
AcDbEntity
  8
0
100
AcDbLine
 10
128.5369095328258
 20
251.240685650836
 30
0.0
 11
148.5369095328258
 21
251.240685650836
 31
0.0
  0
LINE
  5
DA0
330
2
100
AcDbEntity
  8
0
100
AcDbLine
 10
128.5369095328258
 20
249.3976826508359
 30
0.0
 11
148.5369095328258
 21
249.3976826508359
 31
0.0
  0
LINE
  5
DA1
330
2
100
AcDbEntity
  8
0
100
AcDbLine
 10
148.0369095328257
 20
262.8976826508359
 30
0.0
 11
126.5369095328258
 21
262.8976826508359
 31
0.0
  0
LINE
  5
DA2
330
2
100
AcDbEntity
  8
CENTER
100
AcDbLine
 10
153.5369095328258
 20
256.8976826508359
 30
0.0
 11
17.66046053282593
 21
256.8976826508359
 31
0.0
  0
LINE
  5
DD6
330
2
100
AcDbEntity
  8
0
100
AcDbLine
 10
125.5369095328258
 20
273.3976826508359
 30
0.0
 11
125.5369095328258
 21
240.3976826508359
 31
0.0
  0
LINE
  5
DD7
330
2
100
AcDbEntity
  8
0
100
AcDbLine
 10
122.3369125328258
 20
282.197685650836
 30
0.0
 11
122.3369125328258
 21
231.597695650836
 31
0.0
  0
LINE
  5
DD8
330
2
100
AcDbEntity
  8
0
100
AcDbLine
 10
82.5369095328258
 20
295.0464106508359
 30
0.0
 11
82.5369095328258
 21
218.7489556508359
 31
0.0
  0
LINE
  5
DD9
330
2
100
AcDbEntity
  8
0
100
AcDbLine
 10
121.5369095328258
 20
295.386757650836
 30
0.0
 11
121.5369095328258
 21
218.408623650836
 31
0.0
  0
LINE
  5
DDA
330
2
100
AcDbEntity
  8
0
100
AcDbLine
 10
126.5369095328258
 20
264.3976826508359
 30
0.0
 11
126.5369095328258
 21
249.3976826508359
 31
0.0
  0
LINE
  5
DDB
330
2
100
AcDbEntity
  8
0
100
AcDbLine
 10
81.53687153282579
 20
231.2576836508359
 30
0.0
 11
115.0369095328258
 21
230.965340650836
 31
0.0
  0
LINE
  5
DDC
330
2
100
AcDbEntity
  8
0
100
AcDbLine
 10
82.5369095328258
 20
218.7489556508359
 30
0.0
 11
116.0282125328258
 21
218.4566886508359
 31
0.0
  0
LINE
  5
DDD
330
2
100
AcDbEntity
  8
0
100
AcDbLine
 10
81.53951953282581
 20
219.0576716508359
 30
0.0
 11
82.5369095328258
 21
219.0489736508359
 31
0.0
  0
LINE
  5
DDE
330
2
100
AcDbEntity
  8
CENTER
100
AcDbLine
 10
110.5141135328258
 20
224.8976826508359
 30
0.0
 11
126.2869095328257
 21
224.8976826508359
 31
0.0
  0
LINE
  5
DDF
330
2
100
AcDbEntity
  8
HIDS
  6
SEKKEI_H
100
AcDbLine
 10
114.5369095328258
 20
221.6476826508359
 30
0.0
 11
122.5369095328258
 21
221.6476826508359
 31
0.0
  0
LINE
  5
DE0
330
2
100
AcDbEntity
  8
HIDS
  6
SEKKEI_H
100
AcDbLine
 10
114.5369095328258
 20
228.1476826508359
 30
0.0
 11
122.5369095328258
 21
228.1476826508359
 31
0.0
  0
LINE
  5
DE1
330
2
100
AcDbEntity
  8
0
100
AcDbLine
 10
116.0282125328258
 20
218.4566886508359
 30
0.0
 11
121.5369095328258
 21
218.408608650836
 31
0.0
  0
LINE
  5
DE2
330
2
100
AcDbEntity
  8
0
100
AcDbLine
 10
115.0369095328258
 20
230.965340650836
 30
0.0
 11
115.0369095328258
 21
219.456642650836
 31
0.0
  0
LINE
  5
DE3
330
2
100
AcDbEntity
  8
0
100
AcDbLine
 10
114.5369095328258
 20
229.3976826508359
 30
0.0
 11
114.5369095328258
 21
220.3976826508359
 31
0.0
  0
LINE
  5
DE4
330
2
100
AcDbEntity
  8
0
100
AcDbLine
 10
114.5369095328258
 20
220.3976826508359
 30
0.0
 11
115.0369095328258
 21
219.897682650836
 31
0.0
  0
ARC
  5
DE5
330
2
100
AcDbEntity
  8
0
100
AcDbCircle
 10
116.0369095328258
 20
219.456642650836
 30
0.0
 40
1.0
100
AcDbArc
 50
180.0
 51
269.5000000000002
  0
LINE
  5
DE6
330
2
100
AcDbEntity
  8
0
100
AcDbLine
 10
114.5369095328258
 20
229.3976826508359
 30
0.0
 11
115.0369095328258
 21
229.8976826508359
 31
0.0
  0
LINE
  5
DE7
330
2
100
AcDbEntity
  8
0
100
AcDbLine
 10
122.5369095328258
 20
231.3976826508359
 30
0.0
 11
122.5369095328258
 21
219.399880650836
 31
0.0
  0
LINE
  5
DE8
330
2
100
AcDbEntity
  8
0
100
AcDbLine
 10
121.5369095328258
 20
218.408608650836
 30
0.0
 11
122.5369095328258
 21
219.399880650836
 31
0.0
  0
LINE
  5
DE9
330
2
100
AcDbEntity
  8
0
100
AcDbLine
 10
122.3369125328258
 20
231.597695650836
 30
0.0
 11
122.5369095328258
 21
231.3976826508359
 31
0.0
  0
LINE
  5
DEA
330
2
100
AcDbEntity
  8
0
100
AcDbLine
 10
128.5369095328258
 20
250.8976826508359
 30
0.0
 11
126.5369095328258
 21
250.8976826508359
 31
0.0
  0
ARC
  5
DEB
330
2
100
AcDbEntity
  8
0
100
AcDbCircle
 10
123.8369125328258
 20
237.3976826508359
 30
0.0
 40
2.0
100
AcDbArc
 50
90.0
 51
138.5903929999999
  0
ARC
  5
DEC
330
2
100
AcDbEntity
  8
0
100
AcDbCircle
 10
124.5369095328258
 20
240.3976826508359
 30
0.0
 40
1.0
100
AcDbArc
 50
270.0
 51
0.0
  0
LINE
  5
DED
330
2
100
AcDbEntity
  8
0
100
AcDbLine
 10
123.8369125328258
 20
239.3976826508359
 30
0.0
 11
124.5369095328258
 21
239.3976826508359
 31
0.0
  0
LINE
  5
DEE
330
2
100
AcDbEntity
  8
0
100
AcDbLine
 10
126.5369095328258
 20
249.3976826508359
 30
0.0
 11
125.5369095328258
 21
249.3976826508359
 31
0.0
  0
LINE
  5
DEF
330
2
100
AcDbEntity
  8
0
100
AcDbLine
 10
128.5369095328258
 20
251.240685650836
 30
0.0
 11
128.5369095328258
 21
249.3976826508359
 31
0.0
  0
LINE
  5
DF0
330
2
100
AcDbEntity
  8
0
100
AcDbLine
 10
82.5369095328258
 20
295.0464106508359
 30
0.0
 11
116.0282125328258
 21
295.338677650836
 31
0.0
  0
LINE
  5
DF1
330
2
100
AcDbEntity
  8
0
100
AcDbLine
 10
81.53687153282579
 20
282.537682650836
 30
0.0
 11
115.0369095328258
 21
282.8300406508359
 31
0.0
  0
LINE
  5
DF2
330
2
100
AcDbEntity
  8
0
100
AcDbLine
 10
81.53951953282581
 20
294.7376946508359
 30
0.0
 11
82.5369095328258
 21
294.7463916508359
 31
0.0
  0
LINE
  5
DF3
330
2
100
AcDbEntity
  8
0
100
AcDbLine
 10
122.5369095328258
 20
294.3954856508359
 30
0.0
 11
122.5369095328258
 21
282.397682650836
 31
0.0
  0
LINE
  5
DF4
330
2
100
AcDbEntity
  8
0
100
AcDbLine
 10
115.0369095328258
 20
294.338722650836
 30
0.0
 11
115.0369095328258
 21
282.8300406508359
 31
0.0
  0
LINE
  5
DF5
330
2
100
AcDbEntity
  8
0
100
AcDbLine
 10
114.5369095328258
 20
293.3976826508359
 30
0.0
 11
114.5369095328258
 21
284.3976826508359
 31
0.0
  0
LINE
  5
DF6
330
2
100
AcDbEntity
  8
HIDS
  6
SEKKEI_H
100
AcDbLine
 10
114.5369095328258
 20
285.6476826508359
 30
0.0
 11
122.5369095328258
 21
285.6476826508359
 31
0.0
  0
LINE
  5
DF7
330
2
100
AcDbEntity
  8
0
100
AcDbLine
 10
114.5369095328258
 20
284.3976826508359
 30
0.0
 11
115.0369095328258
 21
283.8976826508359
 31
0.0
  0
LINE
  5
DF8
330
2
100
AcDbEntity
  8
0
100
AcDbLine
 10
126.5369095328258
 20
264.3976826508359
 30
0.0
 11
125.5369095328258
 21
264.3976826508359
 31
0.0
  0
ARC
  5
DF9
330
2
100
AcDbEntity
  8
0
100
AcDbCircle
 10
123.8369125328258
 20
276.3976826508359
 30
0.0
 40
2.0
100
AcDbArc
 50
221.4096220000006
 51
270.0
  0
ARC
  5
DFA
330
2
100
AcDbEntity
  8
0
100
AcDbCircle
 10
124.5369095328258
 20
273.3976826508359
 30
0.0
 40
1.0
100
AcDbArc
 50
0.0
 51
90.0
  0
LINE
  5
DFB
330
2
100
AcDbEntity
  8
0
100
AcDbLine
 10
123.8369125328258
 20
274.3976826508359
 30
0.0
 11
124.5369095328258
 21
274.3976826508359
 31
0.0
  0
LINE
  5
DFC
330
2
100
AcDbEntity
  8
0
100
AcDbLine
 10
122.3369125328258
 20
282.197685650836
 30
0.0
 11
122.5369095328258
 21
282.397682650836
 31
0.0
  0
LINE
  5
DFD
330
2
100
AcDbEntity
  8
CENTER
100
AcDbLine
 10
110.5141135328258
 20
288.8976826508359
 30
0.0
 11
125.2869095328257
 21
288.8976826508359
 31
0.0
  0
LINE
  5
DFE
330
2
100
AcDbEntity
  8
HIDS
  6
SEKKEI_H
100
AcDbLine
 10
114.5369095328258
 20
292.1476826508359
 30
0.0
 11
122.5369095328258
 21
292.1476826508359
 31
0.0
  0
LINE
  5
DFF
330
2
100
AcDbEntity
  8
0
100
AcDbLine
 10
116.0282125328258
 20
295.338677650836
 30
0.0
 11
121.5369095328258
 21
295.386757650836
 31
0.0
  0
LINE
  5
E00
330
2
100
AcDbEntity
  8
0
100
AcDbLine
 10
114.5369095328258
 20
293.3976826508359
 30
0.0
 11
115.0369095328258
 21
293.8976826508359
 31
0.0
  0
ARC
  5
E01
330
2
100
AcDbEntity
  8
0
100
AcDbCircle
 10
116.0369095328258
 20
294.338722650836
 30
0.0
 40
1.0
100
AcDbArc
 50
90.4999999999997
 51
180.0
  0
LINE
  5
E02
330
2
100
AcDbEntity
  8
0
100
AcDbLine
 10
121.5369095328258
 20
295.386757650836
 30
0.0
 11
122.5369095328258
 21
294.3954856508359
 31
0.0
  0
LINE
  5
E89
330
2
100
AcDbEntity
  8
0
100
AcDbLine
 10
148.5369095328258
 20
262.3976826508359
 30
0.0
 11
148.5369095328258
 21
251.3976826508359
 31
0.0
  0
LINE
  5
E8A
330
2
100
AcDbEntity
  8
0
100
AcDbLine
 10
148.0369095328257
 20
262.8976826508359
 30
0.0
 11
148.0369095328257
 21
251.240685650836
 31
0.0
  0
LINE
  5
E8B
330
2
100
AcDbEntity
  8
0
100
AcDbLine
 10
148.5369095328258
 20
251.240685650836
 30
0.0
 11
148.5369095328258
 21
249.3976826508359
 31
0.0
  0
LINE
  5
E8C
330
2
100
AcDbEntity
  8
0
100
AcDbLine
 10
148.3799125328258
 20
251.240685650836
 30
0.0
 11
148.5369095328258
 21
251.3976826508359
 31
0.0
  0
LINE
  5
E8D
330
2
100
AcDbEntity
  8
0
100
AcDbLine
 10
148.0369095328257
 20
262.8976826508359
 30
0.0
 11
148.5369095328258
 21
262.3976826508359
 31
0.0
  0
LINE
  5
E8F
330
2
100
AcDbEntity
  8
0
100
AcDbLine
 10
81.53951953282581
 20
218.7576826508359
 30
0.0
 11
81.53951953282581
 21
295.0376826508358
 31
0.0
  0
ARC
  5
E9E
330
2
100
AcDbEntity
  8
0
100
AcDbCircle
 10
124.5369095328258
 20
73.99924507108045
 30
0.0
 40
2.0
100
AcDbArc
 50
90.00000000000003
 51
180.0
  0
LINE
  5
12E3
330
2
100
AcDbEntity
  8
0
100
AcDbLine
 10
81.53694753282593
 20
120.6348460710804
 30
0.0
 11
81.53694753282593
 21
44.36364407108039
 31
0.0
  0
LINE
  5
12E4
330
2
100
AcDbEntity
  8
0
100
AcDbLine
 10
73.03694753282593
 20
119.0736470710804
 30
0.0
 11
73.03684853282584
 21
45.92464507108042
 31
0.0
  0
LINE
  5
12E5
330
2
100
AcDbEntity
  8
0
100
AcDbLine
 10
25.03700853282589
 20
49.91805707108046
 30
0.0
 11
25.03700853282589
 21
106.5308460710804
 31
0.0
  0
LINE
  5
12E6
330
2
100
AcDbEntity
  8
0
100
AcDbLine
 10
23.03700853282589
 20
106.5308460710804
 30
0.0
 11
23.03700853282589
 21
51.22684507108051
 31
0.0
  0
LINE
  5
12E7
330
2
100
AcDbEntity
  8
0
100
AcDbLine
 10
73.03694753282593
 20
52.61605507108043
 30
0.0
 11
25.03700853282589
 21
53.03484607108038
 31
0.0
  0
LINE
  5
12E8
330
2
100
AcDbEntity
  8
0
100
AcDbLine
 10
71.55004753282582
 20
49.51224507108048
 30
0.0
 11
25.03700853282589
 21
49.91805707108046
 31
0.0
  0
ARC
  5
12EA
330
2
100
AcDbEntity
  8
0
100
AcDbCircle
 10
24.03700853282589
 20
51.22684507108051
 30
0.0
 40
1.0
100
AcDbArc
 50
180.0
 51
269.5000000000019
  0
LINE
  5
12EB
330
2
100
AcDbEntity
  8
0
100
AcDbLine
 10
25.03700853282589
 20
50.21814407108042
 30
0.0
 11
24.02826953282601
 21
50.2268450710805
 31
0.0
  0
LINE
  5
12EC
330
2
100
AcDbEntity
  8
0
100
AcDbLine
 10
81.53694753282593
 20
44.36364407108039
 30
0.0
 11
74.5239465328259
 21
44.42484307108048
 31
0.0
  0
LINE
  5
12ED
330
2
100
AcDbEntity
  8
0
100
AcDbLine
 10
81.56334853282578
 20
54.27364607108046
 30
0.0
 11
73.06334853282578
 21
54.19965607108048
 31
0.0
  0
ARC
  5
12EE
330
2
100
AcDbEntity
  8
0
100
AcDbCircle
 10
74.53694753282594
 20
45.92484307108049
 30
0.0
 40
1.5
100
AcDbArc
 50
180.0
 51
269.5000000000019
  0
ARC
  5
12EF
330
2
100
AcDbEntity
  8
0
100
AcDbCircle
 10
71.53694753282593
 20
48.01224507108049
 30
0.0
 40
1.5
100
AcDbArc
 50
0.0
 51
89.50000000000192
  0
ARC
  5
12F0
330
2
100
AcDbEntity
  8
0
100
AcDbCircle
 10
75.43694853282591
 20
50.49924507108045
 30
0.0
 40
6.5
100
AcDbArc
 50
188.5359949999987
 51
213.0556950000019
  0
LINE
  5
12F1
330
2
100
AcDbEntity
  8
0
100
AcDbLine
 10
72.03694753282594
 20
46.49924507108045
 30
0.0
 11
70.82714653282597
 21
46.49924507108045
 31
0.0
  0
LINE
  5
12F2
330
2
100
AcDbEntity
  8
0
100
AcDbLine
 10
72.03694753282594
 20
46.69915407108049
 30
0.0
 11
73.03694753282593
 21
46.69915407108049
 31
0.0
  0
ARC
  5
12F3
330
2
100
AcDbEntity
  8
0
100
AcDbCircle
 10
70.82714653282597
 20
47.49924507108045
 30
0.0
 40
1.0
100
AcDbArc
 50
213.0556950000019
 51
270.0
  0
LINE
  5
12F4
330
2
100
AcDbEntity
  8
0
100
AcDbLine
 10
72.03694753282594
 20
46.49924507108045
 30
0.0
 11
72.03694753282594
 21
49.42644507108042
 31
0.0
  0
LINE
  5
12F5
330
2
100
AcDbEntity
  8
0
100
AcDbLine
 10
69.30264853282597
 20
112.3496460710804
 30
0.0
 11
26.03700853282589
 21
111.9721450710804
 31
0.0
  0
LINE
  5
12F6
330
2
100
AcDbEntity
  8
0
100
AcDbLine
 10
69.00894753282591
 20
115.4640470710804
 30
0.0
 11
26.03700853282589
 21
115.0889550710804
 31
0.0
  0
LINE
  5
12F8
330
2
100
AcDbEntity
  8
0
100
AcDbLine
 10
73.03951953282626
 20
242.8889559569583
 30
0.0
 11
26.03958053282553
 21
243.2991100368749
 31
0.0
  0
LINE
  5
12F9
330
2
100
AcDbEntity
  8
0
100
AcDbLine
 10
71.05697202283386
 20
223.9062569275968
 30
0.0
 11
24.03085428782174
 21
224.3166339774052
 31
0.0
  0
LINE
  5
12FA
330
2
100
AcDbEntity
  8
0
100
AcDbLine
 10
73.03951953282626
 20
270.9064093447135
 30
0.0
 11
26.03958053282577
 21
270.4962552647969
 31
0.0
  0
LINE
  5
12FB
330
2
100
AcDbEntity
  8
0
100
AcDbLine
 10
71.05697202283386
 20
289.8891083740751
 30
0.0
 11
24.03085428782128
 21
289.4787313242669
 31
0.0
  0
LINE
  5
12FC
330
2
100
AcDbEntity
  8
0
100
AcDbLine
 10
35.53703853282604
 20
158.0856486902
 30
0.0
 11
73.95716085996605
 21
158.0856486902
 31
0.0
  0
LINE
  5
12FD
330
2
100
AcDbEntity
  8
0
100
AcDbLine
 10
35.53705853282599
 20
164.0856486902
 30
0.0
 11
73.95768426336394
 21
164.0856486902
 31
0.0
  0
ARC
  5
12FE
330
2
100
AcDbEntity
  8
0
100
AcDbCircle
 10
75.84272331202896
 20
188.449861538499
 30
0.0
 40
42.0
100
AcDbArc
 50
250.5608481874074
 51
270.0
  0
ARC
  5
12FF
330
2
100
AcDbEntity
  8
0
100
AcDbCircle
 10
75.84272331202896
 20
188.449861538499
 30
0.0
 40
44.0
100
AcDbArc
 50
250.5608481874074
 51
270.0
  0
ARC
  5
1300
330
2
100
AcDbEntity
  8
0
100
AcDbCircle
 10
75.84272331202896
 20
188.449861538499
 30
0.0
 40
40.0
100
AcDbArc
 50
250.5608481874074
 51
270.0
  0
ARC
  5
1301
330
2
100
AcDbEntity
  8
0
100
AcDbCircle
 10
75.84272331202896
 20
188.449861538499
 30
0.0
 40
46.0
100
AcDbArc
 50
250.5608481874074
 51
270.0
  0
LINE
  5
1384
330
2
100
AcDbEntity
  8
0
100
AcDbLine
 10
24.53700853282589
 20
144.3234345354857
 30
0.0
 11
24.53700853282589
 21
119.4992450710804
 31
0.0
  0
LINE
  5
1385
330
2
100
AcDbEntity
  8
0
100
AcDbLine
 10
30.53700853282566
 20
144.3234331269903
 30
0.0
 11
30.53700853282589
 21
119.4992450710804
 31
0.0
  0
LINE
  5
1386
330
2
100
AcDbEntity
  8
0
100
AcDbLine
 10
28.53700853282566
 20
143.9092729459485
 30
0.0
 11
28.53700853282589
 21
119.4992450710804
 31
0.0
  0
LINE
  5
1387
330
2
100
AcDbEntity
  8
0
100
AcDbLine
 10
26.53700853282566
 20
144.7446000403866
 30
0.0
 11
26.53700853282589
 21
119.4992450710804
 31
0.0
  0
LINE
  5
1388
330
2
100
AcDbEntity
  8
0
100
AcDbLine
 10
33.03700853282589
 20
118.4992450710804
 30
0.0
 11
33.03700853282589
 21
115.1500440710804
 31
0.0
  0
LINE
  5
1389
330
2
100
AcDbEntity
  8
0
100
AcDbLine
 10
22.03700853282589
 20
118.4992450710804
 30
0.0
 11
22.03700853282589
 21
95.49924507108045
 31
0.0
  0
ARC
  5
138A
330
2
100
AcDbEntity
  8
0
100
AcDbCircle
 10
23.03700853282589
 20
95.49924507108045
 30
0.0
 40
1.0
100
AcDbArc
 50
180.0
 51
270.0
  0
LINE
  5
138B
330
2
100
AcDbEntity
  8
0
100
AcDbLine
 10
26.03700853282589
 20
115.0889550710804
 30
0.0
 11
26.03700853282589
 21
106.5308460710804
 31
0.0
  0
LINE
  5
138C
330
2
100
AcDbEntity
  8
0
100
AcDbLine
 10
23.03700853282589
 20
106.5308460710804
 30
0.0
 11
26.03700853282589
 21
106.5308460710804
 31
0.0
  0
LINE
  5
138D
330
2
100
AcDbEntity
  8
0
100
AcDbLine
 10
22.03700853282589
 20
113.0792450710804
 30
0.0
 11
26.03700853282589
 21
113.0792450710804
 31
0.0
  0
LINE
  5
138E
330
2
100
AcDbEntity
  8
0
100
AcDbLine
 10
32.03700853282589
 20
119.4992450710804
 30
0.0
 11
23.03700853282589
 21
119.4992450710804
 31
0.0
  0
ARC
  5
138F
330
2
100
AcDbEntity
  8
0
100
AcDbCircle
 10
23.03700853282589
 20
118.4992450710804
 30
0.0
 40
1.0
100
AcDbArc
 50
90.0
 51
180.0
  0
ARC
  5
1390
330
2
100
AcDbEntity
  8
0
100
AcDbCircle
 10
32.03700853282589
 20
118.4992450710804
 30
0.0
 40
1.0
100
AcDbArc
 50
0.0
 51
90.0
  0
ARC
  5
1391
330
2
100
AcDbEntity
  8
0
100
AcDbCircle
 10
35.53705853282599
 20
153.0856486902
 30
0.0
 40
11.0
100
AcDbArc
 50
90.0
 51
180.0
  0
ARC
  5
1392
330
2
100
AcDbEntity
  8
0
100
AcDbCircle
 10
35.53703853282604
 20
146.323470625841
 30
0.0
 40
9.0
100
AcDbArc
 50
90.0
 51
123.3057915968515
  0
ARC
  5
1393
330
2
100
AcDbEntity
  8
0
100
AcDbCircle
 10
35.53705974601098
 20
146.3234194126822
 30
0.0
 40
5.000051213203854
100
AcDbArc
 50
90.0002430827012
 51
179.9998428472107
  0
ARC
  5
1394
330
2
100
AcDbEntity
  8
0
100
AcDbCircle
 10
35.53705974601098
 20
146.3234194126822
 30
0.0
 40
7.000051213203854
100
AcDbArc
 50
90.0002430827012
 51
179.9998428472107
  0
ARC
  5
1395
330
2
100
AcDbEntity
  8
0
100
AcDbCircle
 10
35.53705974601098
 20
146.3234194126822
 30
0.0
 40
11.00005121320385
100
AcDbArc
 50
90.0002430827012
 51
179.9998428472107
  0
ARC
  5
1396
330
2
100
AcDbEntity
  8
0
100
AcDbCircle
 10
35.53703853282604
 20
153.0856486902
 30
0.0
 40
5.0
100
AcDbArc
 50
90.0
 51
131.9745634210934
  0
ARC
  5
1397
330
2
100
AcDbEntity
  8
0
100
AcDbCircle
 10
35.53705974601098
 20
146.3234194126822
 30
0.0
 40
9.000051213203853
100
AcDbArc
 50
90.0002430827012
 51
177.3436678381892
  0
LINE
  5
1398
330
2
100
AcDbEntity
  8
HOJO
100
AcDbLine
 10
26.40833053282608
 20
144.7987825308215
 30
0.0
 11
28.66592953282611
 21
143.8481745308216
 31
0.0
  0
LINE
  5
1399
330
2
100
AcDbEntity
  8
HOJO
100
AcDbLine
 10
26.40833053282608
 20
146.7987825308215
 30
0.0
 11
28.66592953282611
 21
145.8481745308216
 31
0.0
  0
LINE
  5
139A
330
2
100
AcDbEntity
  8
0
100
AcDbLine
 10
24.53705853282599
 20
153.0856486902
 30
0.0
 11
24.53700853282612
 21
146.3234345354856
 31
0.0
  0
LINE
  5
139B
330
2
100
AcDbEntity
  8
HOJO
100
AcDbLine
 10
24.53700853282589
 20
144.3235065261574
 30
0.0
 11
24.53700853282589
 21
144.084674206821
 31
0.0
  0
ARC
  5
139C
330
2
100
AcDbEntity
  8
HOJO
100
AcDbCircle
 10
25.78703853282604
 20
143.3234705308215
 30
0.0
 40
1.600781999999999
100
AcDbArc
 50
67.16467299999876
 51
141.3418685641816
  0
ARC
  5
139D
330
2
100
AcDbEntity
  8
HOJO
100
AcDbCircle
 10
25.78703853282604
 20
145.3234705308215
 30
0.0
 40
1.600781999999999
100
AcDbArc
 50
67.16467299999876
 51
141.3418685642128
  0
ARC
  5
139E
330
2
100
AcDbEntity
  8
HOJO
100
AcDbCircle
 10
29.28703853282604
 20
145.3234705308215
 30
0.0
 40
1.600781
100
AcDbArc
 50
247.1647029999995
 51
321.3401944016193
  0
ARC
  5
139F
330
2
100
AcDbEntity
  8
HOJO
100
AcDbCircle
 10
29.28703853282604
 20
147.3234705308215
 30
0.0
 40
1.600781
100
AcDbArc
 50
247.1647029999995
 51
321.3401944016193
  0
LINE
  5
13A0
330
2
100
AcDbEntity
  8
0
100
AcDbLine
 10
28.53700853282589
 20
146.3234194126822
 30
0.0
 11
28.53700853282566
 21
145.9024593413518
 31
0.0
  0
ARC
  5
13A1
330
2
100
AcDbEntity
  8
0
100
AcDbCircle
 10
35.96941532621986
 20
111.3233606242678
 30
0.0
 40
44.0
100
AcDbArc
 50
70.56084818740743
 51
90.0
  0
ARC
  5
13A2
330
2
100
AcDbEntity
  8
0
100
AcDbCircle
 10
35.96941532621986
 20
111.3233606242678
 30
0.0
 40
46.0
100
AcDbArc
 50
70.56084818740743
 51
90.0
  0
LINE
  5
13A3
330
2
100
AcDbEntity
  8
0
100
AcDbLine
 10
49.28163871711785
 20
149.0431791337838
 30
0.0
 11
60.53366641249613
 21
145.0720702525558
 31
0.0
  0
LINE
  5
13A4
330
2
100
AcDbEntity
  8
0
100
AcDbLine
 10
49.94724988666234
 20
150.9291700592596
 30
0.0
 11
61.19927758204108
 21
146.9580611780316
 31
0.0
  0
ARC
  5
13A5
330
2
100
AcDbEntity
  8
0
100
AcDbCircle
 10
35.96941532621986
 20
111.3233606242678
 30
0.0
 40
42.0
100
AcDbArc
 50
70.56084818740743
 51
90.0
  0
ARC
  5
13A6
330
2
100
AcDbEntity
  8
0
100
AcDbCircle
 10
35.96941532621986
 20
111.3233606242678
 30
0.0
 40
40.0
100
AcDbArc
 50
70.56084818740743
 51
90.0
  0
LINE
  5
13A7
330
2
100
AcDbEntity
  8
0
100
AcDbLine
 10
35.53687249818108
 20
153.3233606242678
 30
0.0
 11
35.96941532621986
 21
153.3233606242678
 31
0.0
  0
LINE
  5
13A8
330
2
100
AcDbEntity
  8
0
100
AcDbLine
 10
35.53687249818108
 20
151.3233606242678
 30
0.0
 11
35.96941532621986
 21
151.3233606242678
 31
0.0
  0
LINE
  5
13A9
330
2
100
AcDbEntity
  8
0
100
AcDbLine
 10
35.53687249818108
 20
155.3233606242678
 30
0.0
 11
35.96941532621986
 21
155.3233606242678
 31
0.0
  0
LINE
  5
13AA
330
2
100
AcDbEntity
  8
0
100
AcDbLine
 10
35.53687249818108
 20
157.3233606242678
 30
0.0
 11
35.96941532621986
 21
157.3233606242678
 31
0.0
  0
LINE
  5
13AB
330
2
100
AcDbEntity
  8
0
100
AcDbLine
 10
51.27847222575224
 20
154.7011519102113
 30
0.0
 11
62.53049992113097
 21
150.7300430289832
 31
0.0
  0
LINE
  5
13AC
330
2
100
AcDbEntity
  8
0
100
AcDbLine
 10
50.61286105620752
 20
152.8151609847354
 30
0.0
 11
61.8648887515858
 21
148.8440521035074
 31
0.0
  0
LINE
  5
13AD
330
2
100
AcDbEntity
  8
0
100
AcDbLine
 10
26.03958053282577
 20
267.9238652482283
 30
0.0
 11
26.03958053282577
 21
278.8976826508359
 31
0.0
  0
LINE
  5
13AE
330
2
100
AcDbEntity
  8
0
100
AcDbLine
 10
22.03958053282599
 20
277.8976826508359
 30
0.0
 11
22.03958053282576
 21
235.8976826508359
 31
0.0
  0
LINE
  5
13B0
330
2
100
AcDbEntity
  8
0
100
AcDbLine
 10
27.53958053282599
 20
258.347682650836
 30
0.0
 11
38.66495997206334
 21
258.3476826508357
 31
0.0
  0
LINE
  5
13B1
330
2
100
AcDbEntity
  8
0
100
AcDbLine
 10
27.53958053282599
 20
264.347682650836
 30
0.0
 11
38.58716962820222
 21
264.347682650836
 31
0.0
  0
LINE
  5
13B2
330
2
100
AcDbEntity
  8
0
100
AcDbLine
 10
27.53958053282599
 20
249.9976826508358
 30
0.0
 11
38.36253654401912
 21
249.9976826508358
 31
0.0
  0
LINE
  5
13B3
330
2
100
AcDbEntity
  8
0
100
AcDbLine
 10
27.53958053282599
 20
251.9976826508358
 30
0.0
 11
38.26827695055931
 21
251.9976826508358
 31
0.0
  0
LINE
  5
13B4
330
2
100
AcDbEntity
  8
0
100
AcDbLine
 10
25.73958053282581
 20
255.0976826508358
 30
0.0
 11
36.46827695055913
 21
255.0976826508358
 31
0.0
  0
LINE
  5
13B5
330
2
100
AcDbEntity
  8
0
100
AcDbLine
 10
25.73958053282581
 20
253.0976826508358
 30
0.0
 11
36.56253654401893
 21
253.0976826508358
 31
0.0
  0
LINE
  5
13B6
330
2
100
AcDbEntity
  8
0
100
AcDbLine
 10
26.03958053282577
 20
245.8715000534436
 30
0.0
 11
26.03958053282577
 21
234.8976826508359
 31
0.0
  0
LINE
  5
13B7
330
2
100
AcDbEntity
  8
0
100
AcDbLine
 10
23.03958053282599
 20
225.3165959030044
 30
0.0
 11
23.03958053282576
 21
234.8976826508359
 31
0.0
  0
ARC
  5
13B8
330
2
100
AcDbEntity
  8
0
100
AcDbCircle
 10
24.03958053282599
 20
225.3165959030044
 30
0.0
 40
1.0
100
AcDbArc
 50
180.0
 51
269.5000166447272
  0
ARC
  5
13B9
330
2
100
AcDbEntity
  8
0
100
AcDbCircle
 10
23.03958053282599
 20
235.8976826508359
 30
0.0
 40
1.0
100
AcDbArc
 50
180.0
 51
270.0
  0
LINE
  5
13BA
330
2
100
AcDbEntity
  8
0
100
AcDbLine
 10
26.03958053282577
 20
234.8976826508359
 30
0.0
 11
23.03958053282576
 21
234.8976826508359
 31
0.0
  0
ARC
  5
13BB
330
2
100
AcDbEntity
  8
0
100
AcDbCircle
 10
29.33958053282572
 20
254.0976826508359
 30
0.0
 40
2.0
100
AcDbArc
 50
30.00000000000054
 51
90.00000000002605
  0
LINE
  5
13BC
330
2
100
AcDbEntity
  8
0
100
AcDbLine
 10
33.03958053282508
 20
258.347682650836
 30
0.0
 11
33.03958053282599
 21
255.0976826508358
 31
0.0
  0
ARC
  5
13BD
330
2
100
AcDbEntity
  8
0
100
AcDbCircle
 10
25.73958053282581
 20
254.0976826508359
 30
0.0
 40
2.0
100
AcDbArc
 50
89.99999999997395
 51
204.6092450239451
  0
ARC
  5
13BE
330
2
100
AcDbEntity
  8
0
100
AcDbCircle
 10
27.53958053282599
 20
250.9976826508359
 30
0.0
 40
2.0
100
AcDbArc
 50
235.272931295419
 51
304.7270687045809
  0
LINE
  5
13BF
330
2
100
AcDbEntity
  8
0
100
AcDbLine
 10
27.53958053282599
 20
245.8976826508359
 30
0.0
 11
23.03958053282599
 21
245.8191348586589
 31
0.0
  0
ARC
  5
13C0
330
2
100
AcDbEntity
  8
0
100
AcDbCircle
 10
27.53958053282599
 20
250.9976826508359
 30
0.0
 40
1.0
100
AcDbArc
 50
90.0
 51
270.0
  0
ARC
  5
13C1
330
2
100
AcDbEntity
  8
0
100
AcDbCircle
 10
27.53958053282599
 20
252.3976826508358
 30
0.0
 40
3.25
100
AcDbArc
 50
176.177837868673
 51
249.4781325999764
  0
LINE
  5
13C2
330
2
100
AcDbEntity
  8
0
100
AcDbLine
 10
23.92124267729991
 20
253.2648276555564
 30
0.0
 11
24.29680931685175
 21
252.6143271542252
 31
0.0
  0
ARC
  5
13C3
330
2
100
AcDbEntity
  8
0
100
AcDbCircle
 10
25.73958053282581
 20
254.0976826508359
 30
0.0
 40
1.0
100
AcDbArc
 50
90.0
 51
270.0
  0
LINE
  5
13C4
330
2
100
AcDbEntity
  8
0
100
AcDbLine
 10
33.03958053282599
 20
249.9976826508357
 30
0.0
 11
33.03958053282599
 21
247.0554356578476
 31
0.0
  0
ARC
  5
13C5
330
2
100
AcDbEntity
  8
0
100
AcDbCircle
 10
27.53958053282599
 20
252.3976826508358
 30
0.0
 40
3.25
100
AcDbArc
 50
290.5218674000235
 51
312.3994733644442
  0
LINE
  5
13C6
330
2
100
AcDbEntity
  8
0
100
AcDbLine
 10
27.53958053282599
 20
245.8976826508359
 30
0.0
 11
32.07448002952856
 21
246.0560448308285
 31
0.0
  0
LINE
  5
13C7
330
2
100
AcDbEntity
  8
0
100
AcDbLine
 10
27.53958053282599
 20
248.9976826508359
 30
0.0
 11
27.53958053282599
 21
245.8976826508359
 31
0.0
  0
ARC
  5
13C8
330
2
100
AcDbEntity
  8
0
100
AcDbCircle
 10
32.03958053282599
 20
247.0554356578475
 30
0.0
 40
1.0
100
AcDbArc
 50
272.0000000000036
 51
0.0
  0
LINE
  5
13C9
330
2
100
AcDbEntity
  8
0
100
AcDbLine
 10
33.03958053282599
 20
253.0976826508358
 30
0.0
 11
33.03958053282599
 21
251.9976826508358
 31
0.0
  0
LINE
  5
13CA
330
2
100
AcDbEntity
  8
0
100
AcDbLine
 10
31.06141717488231
 20
253.0976826508358
 30
0.0
 11
30.78235174880024
 21
252.6143271542252
 31
0.0
  0
LINE
  5
13CB
330
2
100
AcDbEntity
  8
0
100
AcDbLine
 10
31.06141717488231
 20
253.0976826508358
 30
0.0
 11
30.78235174880024
 21
252.6143271542252
 31
0.0
  0
ARC
  5
13CC
330
2
100
AcDbEntity
  8
0
100
AcDbCircle
 10
27.53958053282599
 20
252.3976826508358
 30
0.0
 40
3.25
100
AcDbArc
 50
352.930285957695
 51
3.822162131326958
  0
LINE
  5
13CD
330
2
100
AcDbEntity
  8
0
100
AcDbLine
 10
27.53958053282599
 20
267.8976826508359
 30
0.0
 11
23.03958053282599
 21
267.9762304430128
 31
0.0
  0
ARC
  5
13CE
330
2
100
AcDbEntity
  8
0
100
AcDbCircle
 10
27.53958053282599
 20
261.3976826508359
 30
0.0
 40
2.95
100
AcDbArc
 50
90.0
 51
270.0
  0
LINE
  5
13CF
330
2
100
AcDbEntity
  8
0
100
AcDbLine
 10
25.73958053282672
 20
256.0976826508359
 30
0.0
 11
29.33958053282481
 21
256.0976826508359
 31
0.0
  0
LINE
  5
13D0
330
2
100
AcDbEntity
  8
0
100
AcDbLine
 10
27.53958053282599
 20
258.347682650836
 30
0.0
 11
27.53958053282599
 21
256.097682650836
 31
0.0
  0
LINE
  5
13D1
330
2
100
AcDbEntity
  8
0
100
AcDbLine
 10
27.54008927775862
 20
267.8976737706601
 30
0.0
 11
32.07448002952856
 21
267.739329356432
 31
0.0
  0
LINE
  5
13D2
330
2
100
AcDbEntity
  8
0
100
AcDbLine
 10
27.53958053282599
 20
267.8976826508359
 30
0.0
 11
27.53958053282599
 21
264.347682650836
 31
0.0
  0
LINE
  5
13D3
330
2
100
AcDbEntity
  8
0
100
AcDbLine
 10
33.03958053282599
 20
266.7399385294128
 30
0.0
 11
33.03958053282599
 21
264.347682650836
 31
0.0
  0
ARC
  5
13D4
330
2
100
AcDbEntity
  8
0
100
AcDbCircle
 10
32.03958053282599
 20
266.7399385294128
 30
0.0
 40
1.0
100
AcDbArc
 50
0.0
 51
87.99999999999633
  0
SPLINE
  5
13D5
330
2
100
AcDbEntity
  8
HOJO
100
AcDbSpline
210
0.0
220
0.0
230
1.0
 70
     8
 71
     3
 72
    10
 73
     6
 74
     4
 42
0.0000000001
 43
0.0000000001
 44
0.0000000001
 40
0.0
 40
0.0
 40
0.0
 40
0.0
 40
0.697190763405494
 40
1.694952319108353
 40
2.335350738679082
 40
2.335350738679082
 40
2.335350738679082
 40
2.335350738679082
 10
36.56253654401893
 20
253.0976826508358
 30
0.0
 10
36.72975068612712
 20
253.3186676629595
 30
0.0
 10
37.13626783011452
 20
253.8559080832968
 30
0.0
 10
35.95995871933129
 20
254.3663551289697
 30
0.0
 10
36.32541197389061
 20
254.8921399751461
 30
0.0
 10
36.46827695055913
 20
255.0976826508358
 30
0.0
 11
36.56253654401893
 21
253.0976826508358
 31
0.0
 11
36.85094899314822
 21
253.7324213527953
 31
0.0
 11
36.22163112565544
 21
254.5066869039423
 31
0.0
 11
36.46827695055913
 21
255.0976826508358
 31
0.0
  0
SPLINE
  5
13D6
330
2
100
AcDbEntity
  8
HOJO
100
AcDbSpline
210
0.0
220
0.0
230
1.0
 70
     8
 71
     3
 72
    10
 73
     6
 74
     4
 42
0.0000000001
 43
0.0000000001
 44
0.0000000001
 40
0.0
 40
0.0
 40
0.0
 40
0.0
 40
0.697190763405494
 40
1.694952319108353
 40
2.335350738679082
 40
2.335350738679082
 40
2.335350738679082
 40
2.335350738679082
 10
38.36253654401912
 20
249.9976826508358
 30
0.0
 10
38.5297506861273
 20
250.2186676629595
 30
0.0
 10
38.9362678301147
 20
250.7559080832967
 30
0.0
 10
37.75995871933147
 20
251.2663551289697
 30
0.0
 10
38.12541197389079
 20
251.7921399751461
 30
0.0
 10
38.26827695055931
 20
251.9976826508358
 30
0.0
 11
38.36253654401912
 21
249.9976826508358
 31
0.0
 11
38.6509489931484
 21
250.6324213527953
 31
0.0
 11
38.02163112565563
 21
251.4066869039423
 31
0.0
 11
38.26827695055931
 21
251.9976826508358
 31
0.0
  0
SPLINE
  5
13D7
330
2
100
AcDbEntity
  8
HOJO
100
AcDbSpline
210
0.0
220
0.0
230
1.0
 70
     8
 71
     3
 72
    12
 73
     8
 74
     6
 42
0.0000000001
 43
0.0000000001
 44
0.0000000001
 40
0.0
 40
0.0
 40
0.0
 40
0.0
 40
1.684659730310412
 40
2.786160565551638
 40
4.550934817628737
 40
5.718899366607267
 40
6.33557052276732
 40
6.33557052276732
 40
6.33557052276732
 40
6.33557052276732
 10
38.66495997206334
 20
258.3476826508357
 30
0.0
 10
38.38804836378952
 20
258.8986424645193
 30
0.0
 10
37.9300803900588
 20
259.8098427968296
 30
0.0
 10
38.81270500799648
 20
261.1468440288521
 30
0.0
 10
39.37478284584379
 20
262.4726634953219
 30
0.0
 10
38.87737335436552
 20
263.6068567039312
 30
0.0
 10
38.66169582484095
 20
264.1574337490592
 30
0.0
 10
38.58716962820222
 20
264.347682650836
 30
0.0
 11
38.66495997206334
 21
258.3476826508357
 31
0.0
 11
38.1992180881814
 21
259.9666832390159
 31
0.0
 11
38.66094792454783
 21
260.9667380616362
 31
0.0
 11
39.16115549983647
 21
262.6591388836692
 31
0.0
 11
38.81485787000361
 21
263.7745845969349
 31
0.0
 11
38.58716962820222
 21
264.347682650836
 31
0.0
  0
LINE
  5
13D8
330
2
100
AcDbEntity
  8
0
100
AcDbLine
 10
23.03958053282554
 20
288.4787693986676
 30
0.0
 11
23.03958053282599
 21
278.8976826508359
 31
0.0
  0
ARC
  5
13D9
330
2
100
AcDbEntity
  8
0
100
AcDbCircle
 10
23.03958053282599
 20
277.8976826508359
 30
0.0
 40
1.0
100
AcDbArc
 50
90.0
 51
180.0
  0
LINE
  5
13DA
330
2
100
AcDbEntity
  8
0
100
AcDbLine
 10
26.03958053282577
 20
278.8976826508359
 30
0.0
 11
23.03958053282599
 21
278.8976826508359
 31
0.0
  0
ARC
  5
13DB
330
2
100
AcDbEntity
  8
0
100
AcDbCircle
 10
24.03958053282554
 20
288.4787693986676
 30
0.0
 40
1.0
100
AcDbArc
 50
90.4999833552727
 51
180.0000000000032
  0
LINE
  5
13DC
330
2
100
AcDbEntity
  8
0
100
AcDbLine
 10
105.6143827577234
 20
139.879355802375
 30
0.0
 11
105.7886942432187
 21
141.8717451985584
 31
0.0
  0
LINE
  5
13DD
330
2
100
AcDbEntity
  8
0
100
AcDbLine
 10
110.7197450861528
 20
140.7878512561287
 30
0.0
 11
105.7387715956942
 21
141.2236299698668
 31
0.0
  0
LINE
  5
13DE
330
2
100
AcDbEntity
  8
0
100
AcDbLine
 10
76.23336774927839
 20
142.449861538499
 30
0.0
 11
105.6143827577234
 21
139.879355802375
 31
0.0
  0
ARC
  5
13DF
330
2
100
AcDbEntity
  8
0
100
AcDbCircle
 10
75.43694853282591
 20
114.4991550710804
 30
0.0
 40
6.5
100
AcDbArc
 50
146.944304999998
 51
213.0556950000019
  0
LINE
  5
13E0
330
2
100
AcDbEntity
  8
0
100
AcDbLine
 10
72.03694753282594
 20
118.4991530710804
 30
0.0
 11
72.03694753282594
 21
110.4991550710804
 31
0.0
  0
LINE
  5
13E1
330
2
100
AcDbEntity
  8
0
100
AcDbLine
 10
81.53694753282593
 20
110.7244460710804
 30
0.0
 11
73.03694753282593
 21
110.7986550710804
 31
0.0
  0
LINE
  5
13E2
330
2
100
AcDbEntity
  8
CENTER
100
AcDbLine
 10
67.88304753282591
 20
114.4991550710804
 30
0.0
 11
73.92444853282587
 21
114.4991550710804
 31
0.0
  0
LINE
  5
13E3
330
2
100
AcDbEntity
  8
0
100
AcDbLine
 10
72.03694753282594
 20
110.4991550710804
 30
0.0
 11
70.82714653282597
 21
110.4991550710804
 31
0.0
  0
LINE
  5
13E4
330
2
100
AcDbEntity
  8
0
100
AcDbLine
 10
73.03694753282593
 20
110.6992460710804
 30
0.0
 11
72.03694753282594
 21
110.6992460710804
 31
0.0
  0
ARC
  5
13E5
330
2
100
AcDbEntity
  8
0
100
AcDbCircle
 10
70.82714653282597
 20
111.4991550710804
 30
0.0
 40
1.0
100
AcDbArc
 50
213.0556950000019
 51
270.0
  0
LINE
  5
13E6
330
2
100
AcDbEntity
  8
0
100
AcDbLine
 10
81.53694753282593
 20
120.6348460710804
 30
0.0
 11
74.5239465328259
 21
120.5736470710804
 31
0.0
  0
ARC
  5
13E7
330
2
100
AcDbEntity
  8
0
100
AcDbCircle
 10
74.53694753282594
 20
119.0736470710804
 30
0.0
 40
1.5
100
AcDbArc
 50
90.49999999999805
 51
180.0
  0
LINE
  5
13E8
330
2
100
AcDbEntity
  8
0
100
AcDbLine
 10
72.03694753282594
 20
118.4991530710804
 30
0.0
 11
70.82714653282597
 21
118.4991530710804
 31
0.0
  0
LINE
  5
13E9
330
2
100
AcDbEntity
  8
0
100
AcDbLine
 10
72.03694753282594
 20
118.2992440710804
 30
0.0
 11
73.03694753282593
 21
118.2992440710804
 31
0.0
  0
ARC
  5
13EA
330
2
100
AcDbEntity
  8
0
100
AcDbCircle
 10
70.82714653282597
 20
117.4991530710804
 30
0.0
 40
1.0
100
AcDbArc
 50
90.0
 51
146.944304999998
  0
LINE
  5
13EB
330
2
100
AcDbEntity
  8
0
100
AcDbLine
 10
110.628231556268
 20
139.7418468231323
 30
0.0
 11
105.6472580658091
 21
140.1776255368706
 31
0.0
  0
LINE
  5
13EC
330
2
100
AcDbEntity
  8
0
100
AcDbLine
 10
110.6587360662297
 20
140.0905149674644
 30
0.0
 11
105.6777625757708
 21
140.5262936812027
 31
0.0
  0
LINE
  5
13ED
330
2
100
AcDbEntity
  8
0
100
AcDbLine
 10
110.6892405761912
 20
140.4391831117965
 30
0.0
 11
105.7082670857325
 21
140.8749618255348
 31
0.0
  0
LINE
  5
13EE
330
2
100
AcDbEntity
  8
0
100
AcDbLine
 10
99.59622107483369
 20
162.9849882534674
 30
0.0
 11
91.79361911912634
 21
162.9849882534673
 31
0.0
  0
LINE
  5
13EF
330
2
100
AcDbEntity
  8
0
100
AcDbLine
 10
99.59622107483369
 20
164.1849882534673
 30
0.0
 11
91.7412259876362
 21
164.1849882534672
 31
0.0
  0
LINE
  5
13F0
330
2
100
AcDbEntity
  8
0
100
AcDbLine
 10
99.59622107483369
 20
165.4849882534672
 30
0.0
 11
93.33498991941018
 21
165.4849882534672
 31
0.0
  0
LINE
  5
13F1
330
2
100
AcDbEntity
  8
0
100
AcDbLine
 10
99.59622107483369
 20
166.6849882534673
 30
0.0
 11
93.23000352317922
 21
166.6849882534673
 31
0.0
  0
LINE
  5
13F2
330
2
100
AcDbEntity
  8
0
100
AcDbLine
 10
99.59622107483369
 20
155.4849882534674
 30
0.0
 11
93.23000352317967
 21
155.4849882534673
 31
0.0
  0
LINE
  5
13F3
330
2
100
AcDbEntity
  8
0
100
AcDbLine
 10
99.59622107483369
 20
156.6849882534673
 30
0.0
 11
93.33498991941155
 21
156.6849882534672
 31
0.0
  0
LINE
  5
13F4
330
2
100
AcDbEntity
  8
0
100
AcDbLine
 10
99.59622107483369
 20
157.9849882534673
 30
0.0
 11
91.74122598763938
 21
157.9849882534673
 31
0.0
  0
LINE
  5
13F5
330
2
100
AcDbEntity
  8
0
100
AcDbLine
 10
99.59622107483369
 20
159.1849882534673
 30
0.0
 11
91.79361911913042
 21
159.1849882534672
 31
0.0
  0
LINE
  5
13F6
330
2
100
AcDbEntity
  8
0
100
AcDbLine
 10
99.59622107483369
 20
161.6849882534673
 30
0.0
 11
83.71795408648223
 21
161.6849882534673
 31
0.0
  0
LINE
  5
13F7
330
2
100
AcDbEntity
  8
0
100
AcDbLine
 10
99.59622107483369
 20
160.4849882534674
 30
0.0
 11
83.71795408648223
 21
160.4849882534671
 31
0.0
  0
LINE
  5
13F8
330
2
100
AcDbEntity
  8
0
100
AcDbLine
 10
105.7333677492783
 20
144.449861538499
 30
0.0
 11
75.84272331201987
 21
144.449861538499
 31
0.0
  0
LINE
  5
13F9
330
2
100
AcDbEntity
  8
0
100
AcDbLine
 10
105.7333677492783
 20
146.449861538499
 30
0.0
 11
75.84272331202033
 21
146.449861538499
 31
0.0
  0
LINE
  5
13FA
330
2
100
AcDbEntity
  8
0
100
AcDbLine
 10
76.3206896350955
 20
144.449861538499
 30
0.0
 11
105.7886942432187
 21
141.8717451985585
 31
0.0
  0
LINE
  5
13FB
330
2
100
AcDbEntity
  8
0
100
AcDbLine
 10
76.3206896350955
 20
146.449861538499
 30
0.0
 11
105.7954228284802
 21
149.0285665533714
 31
0.0
  0
LINE
  5
13FC
330
2
100
AcDbEntity
  8
0
100
AcDbLine
 10
76.23336774927839
 20
148.449861538499
 30
0.0
 11
105.6211113429849
 21
151.020955949555
 31
0.0
  0
ARC
  5
13FD
330
2
100
AcDbEntity
  8
0
100
AcDbCircle
 10
93.23000352317922
 20
146.6849882534673
 30
0.0
 40
20.0
100
AcDbArc
 50
90.0
 51
99.99999999999861
  0
LINE
  5
13FE
330
2
100
AcDbEntity
  8
0
100
AcDbLine
 10
81.93187944781517
 20
165.4474173443042
 30
0.0
 11
76.8863830638627
 21
164.3356486902
 31
0.0
  0
ARC
  5
13FF
330
2
100
AcDbEntity
  8
0
100
AcDbCircle
 10
81.01795408648241
 20
157.2917678033094
 30
0.0
 40
0.4
100
AcDbArc
 50
257.0698677002805
 51
326.0187104207618
  0
LINE
  5
1400
330
2
100
AcDbEntity
  8
0
100
AcDbLine
 10
76.23336774927839
 20
142.449861538499
 30
0.0
 11
75.84272331201941
 21
142.449861538499
 31
0.0
  0
LINE
  5
1401
330
2
100
AcDbEntity
  8
0
100
AcDbLine
 10
76.23336774927839
 20
148.449861538499
 30
0.0
 11
75.84272331202896
 21
148.449861538499
 31
0.0
  0
LINE
  5
1402
330
2
100
AcDbEntity
  8
0
100
AcDbLine
 10
73.95133343067413
 20
158.0356486902
 30
0.0
 11
73.95133343067413
 21
164.1356486902
 31
0.0
  0
LINE
  5
1403
330
2
100
AcDbEntity
  8
0
100
AcDbLine
 10
80.92844899861438
 20
156.9019103431451
 30
0.0
 11
76.86136332658747
 21
157.8356486902
 31
0.0
  0
LINE
  5
1404
330
2
100
AcDbEntity
  8
0
100
AcDbLine
 10
74.15133343067418
 20
157.8356486902
 30
0.0
 11
76.86136332658725
 21
157.8356486902
 31
0.0
  0
ARC
  5
1405
330
2
100
AcDbEntity
  8
0
100
AcDbCircle
 10
74.15133343067418
 20
158.0356486902
 30
0.0
 40
0.2
100
AcDbArc
 50
180.0
 51
270.0
  0
LINE
  5
1406
330
2
100
AcDbEntity
  8
0
100
AcDbLine
 10
74.15133343067418
 20
164.3356486902001
 30
0.0
 11
76.8863830638627
 21
164.3356486902001
 31
0.0
  0
ARC
  5
1407
330
2
100
AcDbEntity
  8
0
100
AcDbCircle
 10
74.15133343067418
 20
164.1356486902
 30
0.0
 40
0.2
100
AcDbArc
 50
90.0
 51
180.0
  0
LINE
  5
1408
330
2
100
AcDbEntity
  8
0
100
AcDbLine
 10
83.71491563708469
 20
156.8542227338833
 30
0.0
 11
89.75703996984089
 21
155.7888331932231
 31
0.0
  0
LINE
  5
1409
330
2
100
AcDbEntity
  8
0
100
AcDbLine
 10
90.05050426417325
 20
162.9088822153021
 30
0.0
 11
83.71795408648223
 21
162.3548558635452
 31
0.0
  0
LINE
  5
140A
330
2
100
AcDbEntity
  8
0
100
AcDbLine
 10
83.71795408648223
 20
164.0977775993968
 30
0.0
 11
89.86202636607186
 21
165.1811433137114
 31
0.0
  0
LINE
  5
140B
330
2
100
AcDbEntity
  8
0
100
AcDbLine
 10
89.99811113268334
 20
164.1088822153022
 30
0.0
 11
83.71795408648223
 21
163.5594396685971
 31
0.0
  0
LINE
  5
140C
330
2
100
AcDbEntity
  8
0
100
AcDbLine
 10
90.0505042641771
 20
159.2610942916323
 30
0.0
 11
83.71795408648223
 21
159.8151206433896
 31
0.0
  0
LINE
  5
140D
330
2
100
AcDbEntity
  8
0
100
AcDbLine
 10
83.71795408648223
 20
158.0721989075378
 30
0.0
 11
89.86202636607254
 21
156.9888331932231
 31
0.0
  0
LINE
  5
140E
330
2
100
AcDbEntity
  8
0
100
AcDbLine
 10
89.99811113268606
 20
158.0610942916323
 30
0.0
 11
83.71795408648223
 21
158.6105368383376
 31
0.0
  0
LINE
  5
140F
330
2
100
AcDbEntity
  8
0
100
AcDbLine
 10
83.71491563708469
 20
165.3157537730515
 30
0.0
 11
89.75703996984066
 21
166.3811433137115
 31
0.0
  0
LINE
  5
1410
330
2
100
AcDbEntity
  8
0
100
AcDbLine
 10
83.71795408648223
 20
156.8889523694167
 30
0.0
 11
83.71795408648223
 21
165.2810241375182
 31
0.0
  0
ARC
  5
1411
330
2
100
AcDbEntity
  8
0
100
AcDbCircle
 10
83.51795408648218
 20
156.8889523694167
 30
0.0
 40
0.2
100
AcDbArc
 50
260.0000000000013
 51
0.0
  0
LINE
  5
1412
330
2
100
AcDbEntity
  8
0
100
AcDbLine
 10
81.34964214148771
 20
157.0681989455345
 30
0.0
 11
83.48322445094892
 21
156.6919908188141
 31
0.0
  0
ARC
  5
1413
330
2
100
AcDbEntity
  8
0
100
AcDbCircle
 10
83.51795408648218
 20
165.2810241375182
 30
0.0
 40
0.2
100
AcDbArc
 50
0.0
 51
99.99999999999861
  0
ARC
  5
1414
330
2
100
AcDbEntity
  8
0
100
AcDbCircle
 10
82.01795408648241
 20
165.0567881639063
 30
0.0
 40
0.4
100
AcDbArc
 50
33.63399402201179
 51
102.4264747477324
  0
LINE
  5
1415
330
2
100
AcDbEntity
  8
0
100
AcDbLine
 10
82.35099119156712
 20
165.278342416036
 30
0.0
 11
83.48322445094892
 21
165.4779856881206
 31
0.0
  0
ARC
  5
1416
330
2
100
AcDbEntity
  8
0
100
AcDbCircle
 10
93.33498991941132
 20
176.6849882534673
 30
0.0
 40
20.0
100
AcDbArc
 50
260.0000000000013
 51
270.0
  0
ARC
  5
1417
330
2
100
AcDbEntity
  8
0
100
AcDbCircle
 10
93.23000352317967
 20
175.4849882534674
 30
0.0
 40
20.0
100
AcDbArc
 50
260.0000000000013
 51
270.0
  0
ARC
  5
1418
330
2
100
AcDbEntity
  8
0
100
AcDbCircle
 10
91.79361911913042
 20
179.1849882534672
 30
0.0
 40
20.0
100
AcDbArc
 50
265.0000000000003
 51
270.0
  0
ARC
  5
1419
330
2
100
AcDbEntity
  8
0
100
AcDbCircle
 10
91.74122598763938
 20
177.9849882534672
 30
0.0
 40
20.0
100
AcDbArc
 50
265.0000000000003
 51
270.0
  0
ARC
  5
141A
330
2
100
AcDbEntity
  8
0
100
AcDbCircle
 10
93.33498991941041
 20
145.4849882534671
 30
0.0
 40
20.0
100
AcDbArc
 50
90.0
 51
99.99999999999861
  0
ARC
  5
141B
330
2
100
AcDbEntity
  8
0
100
AcDbCircle
 10
91.74122598763643
 20
144.1849882534672
 30
0.0
 40
20.0
100
AcDbArc
 50
90.0
 51
94.99999999999975
  0
ARC
  5
141C
330
2
100
AcDbEntity
  8
0
100
AcDbCircle
 10
91.79361911912655
 20
142.9849882534673
 30
0.0
 40
20.0
100
AcDbArc
 50
90.0
 51
94.99999999999975
  0
LINE
  5
141D
330
2
100
AcDbEntity
  8
0
100
AcDbLine
 10
107.5962210748336
 20
165.1849882534673
 30
0.0
 11
107.5962210748336
 21
166.9849882534673
 31
0.0
  0
LINE
  5
141E
330
2
100
AcDbEntity
  8
0
100
AcDbLine
 10
110.0962210748337
 20
165.3849882534672
 30
0.0
 11
110.0962210748337
 21
166.7849882534673
 31
0.0
  0
LINE
  5
141F
330
2
100
AcDbEntity
  8
0
100
AcDbLine
 10
111.0962210748337
 20
167.3349882534673
 30
0.0
 11
111.0962210748337
 21
154.8349882534673
 31
0.0
  0
LINE
  5
1420
330
2
100
AcDbEntity
  8
0
100
AcDbLine
 10
111.0962210748337
 20
167.3349882534673
 30
0.0
 11
111.0962210748337
 21
154.8349882534673
 31
0.0
  0
LINE
  5
1421
330
2
100
AcDbEntity
  8
0
100
AcDbLine
 10
99.59622107483369
 20
167.3349882534673
 30
0.0
 11
99.59622107483369
 21
154.8349882534673
 31
0.0
  0
LINE
  5
1422
330
2
100
AcDbEntity
  8
0
100
AcDbLine
 10
101.5962210748337
 20
167.3349882534673
 30
0.0
 11
101.5962210748337
 21
154.8349882534673
 31
0.0
  0
LINE
  5
1423
330
2
100
AcDbEntity
  8
0
100
AcDbLine
 10
110.7333677492783
 20
145.099861538499
 30
0.0
 11
105.7333677492783
 21
145.099861538499
 31
0.0
  0
LINE
  5
1424
330
2
100
AcDbEntity
  8
0
100
AcDbLine
 10
110.7333677492783
 20
144.749861538499
 30
0.0
 11
105.7333677492783
 21
144.749861538499
 31
0.0
  0
LINE
  5
1425
330
2
100
AcDbEntity
  8
0
100
AcDbLine
 10
110.7333677492783
 20
145.449861538499
 30
0.0
 11
105.7333677492783
 21
145.449861538499
 31
0.0
  0
LINE
  5
1426
330
2
100
AcDbEntity
  8
0
100
AcDbLine
 10
110.7333677492783
 20
145.7998615384989
 30
0.0
 11
105.7333677492783
 21
145.7998615384989
 31
0.0
  0
LINE
  5
1427
330
2
100
AcDbEntity
  8
0
100
AcDbLine
 10
110.7333677492783
 20
146.1498615384989
 30
0.0
 11
105.7333677492783
 21
146.1498615384989
 31
0.0
  0
LINE
  5
1428
330
2
100
AcDbEntity
  8
0
100
AcDbLine
 10
110.7671314429508
 20
141.1350424302432
 30
0.0
 11
105.7692761056559
 21
141.5722981141989
 31
0.0
  0
LINE
  5
1429
330
2
100
AcDbEntity
  8
0
100
AcDbLine
 10
105.7333677492783
 20
144.449861538499
 30
0.0
 11
105.7333677492783
 21
146.449861538499
 31
0.0
  0
LINE
  5
142A
330
2
100
AcDbEntity
  8
0
100
AcDbLine
 10
110.628231556268
 20
151.1578762538657
 30
0.0
 11
105.6472580658091
 21
150.7220975401274
 31
0.0
  0
LINE
  5
142B
330
2
100
AcDbEntity
  8
0
100
AcDbLine
 10
110.7197450861528
 20
150.1118718208693
 30
0.0
 11
105.7387715956942
 21
149.676093107131
 31
0.0
  0
LINE
  5
142C
330
2
100
AcDbEntity
  8
0
100
AcDbLine
 10
110.767131442951
 20
149.7646806467548
 30
0.0
 11
105.7692761056559
 21
149.3274249627989
 31
0.0
  0
LINE
  5
142D
330
2
100
AcDbEntity
  8
0
100
AcDbLine
 10
110.6892405761912
 20
150.4605399652014
 30
0.0
 11
105.7082670857325
 21
150.0247612514631
 31
0.0
  0
LINE
  5
142E
330
2
100
AcDbEntity
  8
0
100
AcDbLine
 10
110.6587360662297
 20
150.8092081095336
 30
0.0
 11
105.6777625757708
 21
150.3734293957953
 31
0.0
  0
LINE
  5
142F
330
2
100
AcDbEntity
  8
0
100
AcDbLine
 10
105.6211113429849
 20
151.020955949555
 30
0.0
 11
105.7954228284802
 21
149.0285665533714
 31
0.0
  0
LINE
  5
1430
330
2
100
AcDbEntity
  8
0
100
AcDbLine
 10
107.4962210748337
 20
162.0849882534673
 30
0.0
 11
104.1962210748335
 21
162.0849882534673
 31
0.0
  0
LINE
  5
1431
330
2
100
AcDbEntity
  8
0
100
AcDbLine
 10
107.4962210748337
 20
162.5849882534673
 30
0.0
 11
104.1962210748335
 21
162.5849882534673
 31
0.0
  0
LINE
  5
1432
330
2
100
AcDbEntity
  8
0
100
AcDbLine
 10
107.4962210748337
 20
164.5849882534673
 30
0.0
 11
104.1962210748335
 21
164.5849882534673
 31
0.0
  0
LINE
  5
1433
330
2
100
AcDbEntity
  8
0
100
AcDbLine
 10
107.4962210748337
 20
165.0849882534673
 30
0.0
 11
104.1962210748335
 21
165.0849882534673
 31
0.0
  0
LINE
  5
1434
330
2
100
AcDbEntity
  8
0
100
AcDbLine
 10
107.4962210748337
 20
159.5849882534673
 30
0.0
 11
104.1962210748335
 21
159.5849882534673
 31
0.0
  0
LINE
  5
1435
330
2
100
AcDbEntity
  8
0
100
AcDbLine
 10
107.4962210748337
 20
160.0849882534673
 30
0.0
 11
104.1962210748335
 21
160.0849882534673
 31
0.0
  0
LINE
  5
1436
330
2
100
AcDbEntity
  8
0
100
AcDbLine
 10
107.4962210748337
 20
155.0849882534673
 30
0.0
 11
104.1962210748335
 21
155.0849882534673
 31
0.0
  0
LINE
  5
1437
330
2
100
AcDbEntity
  8
0
100
AcDbLine
 10
107.4962210748337
 20
157.0849882534673
 30
0.0
 11
104.1962210748335
 21
157.0849882534673
 31
0.0
  0
LINE
  5
1438
330
2
100
AcDbEntity
  8
0
100
AcDbLine
 10
107.4962210748337
 20
157.5849882534673
 30
0.0
 11
104.1962210748335
 21
157.5849882534673
 31
0.0
  0
LINE
  5
1439
330
2
100
AcDbEntity
  8
0
100
AcDbLine
 10
111.0962210748337
 20
154.8349882534673
 30
0.0
 11
99.59622107483369
 21
154.8349882534673
 31
0.0
  0
ARC
  5
143A
330
2
100
AcDbEntity
  8
0
100
AcDbCircle
 10
104.1962210748335
 20
159.6849882534673
 30
0.0
 40
0.1
100
AcDbArc
 50
180.0
 51
270.0
  0
LINE
  5
143B
330
2
100
AcDbEntity
  8
0
100
AcDbLine
 10
104.0962210748336
 20
159.6849882534673
 30
0.0
 11
104.0962210748336
 21
159.9849882534672
 31
0.0
  0
ARC
  5
143C
330
2
100
AcDbEntity
  8
0
100
AcDbCircle
 10
104.1962210748335
 20
159.9849882534672
 30
0.0
 40
0.1
100
AcDbArc
 50
90.0
 51
180.0
  0
LINE
  5
143D
330
2
100
AcDbEntity
  8
0
100
AcDbLine
 10
104.0962210748336
 20
154.9849882534672
 30
0.0
 11
104.0962210748336
 21
154.8349882534673
 31
0.0
  0
ARC
  5
143E
330
2
100
AcDbEntity
  8
0
100
AcDbCircle
 10
104.1962210748335
 20
154.9849882534672
 30
0.0
 40
0.1
100
AcDbArc
 50
90.0
 51
180.0
  0
LINE
  5
143F
330
2
100
AcDbEntity
  8
0
100
AcDbLine
 10
104.0962210748336
 20
157.3349882534673
 30
0.0
 11
104.0962210748336
 21
157.1849882534673
 31
0.0
  0
ARC
  5
1440
330
2
100
AcDbEntity
  8
0
100
AcDbCircle
 10
104.1962210748335
 20
157.1849882534673
 30
0.0
 40
0.1
100
AcDbArc
 50
180.0
 51
270.0
  0
LINE
  5
1441
330
2
100
AcDbEntity
  8
0
100
AcDbLine
 10
104.0962210748336
 20
157.3349882534673
 30
0.0
 11
104.0962210748336
 21
157.4849882534673
 31
0.0
  0
ARC
  5
1442
330
2
100
AcDbEntity
  8
0
100
AcDbCircle
 10
104.1962210748335
 20
157.4849882534673
 30
0.0
 40
0.1
100
AcDbArc
 50
90.0
 51
180.0
  0
LINE
  5
1443
330
2
100
AcDbEntity
  8
0
100
AcDbLine
 10
104.0962210748336
 20
164.8349882534673
 30
0.0
 11
104.0962210748336
 21
164.6849882534673
 31
0.0
  0
ARC
  5
1444
330
2
100
AcDbEntity
  8
0
100
AcDbCircle
 10
104.1962210748335
 20
164.9849882534673
 30
0.0
 40
0.1
100
AcDbArc
 50
90.0
 51
180.0
  0
LINE
  5
1445
330
2
100
AcDbEntity
  8
0
100
AcDbLine
 10
104.0962210748336
 20
164.8349882534673
 30
0.0
 11
104.0962210748336
 21
164.9849882534673
 31
0.0
  0
ARC
  5
1446
330
2
100
AcDbEntity
  8
0
100
AcDbCircle
 10
104.1962210748335
 20
162.1849882534673
 30
0.0
 40
0.1
100
AcDbArc
 50
180.0
 51
270.0
  0
ARC
  5
1447
330
2
100
AcDbEntity
  8
0
100
AcDbCircle
 10
104.1962210748335
 20
162.4849882534672
 30
0.0
 40
0.1
100
AcDbArc
 50
90.0
 51
180.0
  0
LINE
  5
1448
330
2
100
AcDbEntity
  8
0
100
AcDbLine
 10
104.0962210748336
 20
162.4849882534672
 30
0.0
 11
104.0962210748336
 21
162.1849882534673
 31
0.0
  0
ARC
  5
1449
330
2
100
AcDbEntity
  8
0
100
AcDbCircle
 10
104.1962210748335
 20
164.6849882534673
 30
0.0
 40
0.1
100
AcDbArc
 50
180.0
 51
270.0
  0
LINE
  5
144A
330
2
100
AcDbEntity
  8
0
100
AcDbLine
 10
107.5962210748336
 20
160.1849882534673
 30
0.0
 11
107.5962210748336
 21
161.0849882534673
 31
0.0
  0
ARC
  5
144B
330
2
100
AcDbEntity
  8
0
100
AcDbCircle
 10
109.1962210748335
 20
160.1849882534673
 30
0.0
 40
0.1
100
AcDbArc
 50
90.0
 51
180.0
  0
ARC
  5
144C
330
2
100
AcDbEntity
  8
0
100
AcDbCircle
 10
107.4962210748337
 20
160.1849882534673
 30
0.0
 40
0.1
100
AcDbArc
 50
270.0
 51
0.0
  0
LINE
  5
144D
330
2
100
AcDbEntity
  8
0
100
AcDbLine
 10
107.5962210748336
 20
156.9849882534672
 30
0.0
 11
107.5962210748336
 21
155.1849882534673
 31
0.0
  0
ARC
  5
144E
330
2
100
AcDbEntity
  8
0
100
AcDbCircle
 10
107.4962210748337
 20
155.1849882534673
 30
0.0
 40
0.1
100
AcDbArc
 50
270.0
 51
0.0
  0
ARC
  5
144F
330
2
100
AcDbEntity
  8
0
100
AcDbCircle
 10
107.4962210748337
 20
156.9849882534672
 30
0.0
 40
0.1
100
AcDbArc
 50
0.0
 51
90.0
  0
ARC
  5
1450
330
2
100
AcDbEntity
  8
0
100
AcDbCircle
 10
107.4962210748337
 20
157.6849882534673
 30
0.0
 40
0.1
100
AcDbArc
 50
270.0
 51
0.0
  0
LINE
  5
1451
330
2
100
AcDbEntity
  8
0
100
AcDbLine
 10
107.5962210748336
 20
157.6849882534673
 30
0.0
 11
107.5962210748336
 21
159.4849882534672
 31
0.0
  0
ARC
  5
1452
330
2
100
AcDbEntity
  8
0
100
AcDbCircle
 10
107.4962210748337
 20
159.4849882534672
 30
0.0
 40
0.1
100
AcDbArc
 50
0.0
 51
90.0
  0
LINE
  5
1453
330
2
100
AcDbEntity
  8
0
100
AcDbLine
 10
109.0962210748337
 20
159.8349882534673
 30
0.0
 11
109.0962210748337
 21
160.1849882534673
 31
0.0
  0
LINE
  5
1454
330
2
100
AcDbEntity
  8
0
100
AcDbLine
 10
110.0962210748337
 20
156.7849882534673
 30
0.0
 11
110.0962210748337
 21
155.3849882534673
 31
0.0
  0
ARC
  5
1455
330
2
100
AcDbEntity
  8
0
100
AcDbCircle
 10
109.9962210748335
 20
155.3849882534673
 30
0.0
 40
0.1
100
AcDbArc
 50
270.0
 51
0.0
  0
ARC
  5
1456
330
2
100
AcDbEntity
  8
0
100
AcDbCircle
 10
109.1962210748335
 20
155.1849882534673
 30
0.0
 40
0.1
100
AcDbArc
 50
90.0
 51
180.0
  0
LINE
  5
1457
330
2
100
AcDbEntity
  8
0
100
AcDbLine
 10
109.0962210748337
 20
154.8349882534673
 30
0.0
 11
109.0962210748337
 21
155.1849882534673
 31
0.0
  0
LINE
  5
1458
330
2
100
AcDbEntity
  8
0
100
AcDbLine
 10
109.9962210748335
 20
155.2849882534673
 30
0.0
 11
109.1962210748335
 21
155.2849882534673
 31
0.0
  0
ARC
  5
1459
330
2
100
AcDbEntity
  8
0
100
AcDbCircle
 10
109.9962210748335
 20
159.2849882534673
 30
0.0
 40
0.1
100
AcDbArc
 50
0.0
 51
90.0
  0
ARC
  5
145A
330
2
100
AcDbEntity
  8
0
100
AcDbCircle
 10
109.1962210748335
 20
159.4849882534672
 30
0.0
 40
0.1
100
AcDbArc
 50
180.0
 51
270.0
  0
LINE
  5
145B
330
2
100
AcDbEntity
  8
0
100
AcDbLine
 10
109.9962210748335
 20
159.3849882534673
 30
0.0
 11
109.1962210748335
 21
159.3849882534673
 31
0.0
  0
LINE
  5
145C
330
2
100
AcDbEntity
  8
0
100
AcDbLine
 10
109.0962210748337
 20
157.3349882534673
 30
0.0
 11
109.0962210748337
 21
156.9849882534672
 31
0.0
  0
ARC
  5
145D
330
2
100
AcDbEntity
  8
0
100
AcDbCircle
 10
109.9962210748335
 20
156.7849882534673
 30
0.0
 40
0.1
100
AcDbArc
 50
0.0
 51
90.0
  0
ARC
  5
145E
330
2
100
AcDbEntity
  8
0
100
AcDbCircle
 10
109.1962210748335
 20
156.9849882534672
 30
0.0
 40
0.1
100
AcDbArc
 50
180.0
 51
270.0
  0
LINE
  5
145F
330
2
100
AcDbEntity
  8
0
100
AcDbLine
 10
109.9962210748335
 20
156.8849882534673
 30
0.0
 11
109.1962210748335
 21
156.8849882534673
 31
0.0
  0
ARC
  5
1460
330
2
100
AcDbEntity
  8
0
100
AcDbCircle
 10
109.9962210748335
 20
157.8849882534672
 30
0.0
 40
0.1
100
AcDbArc
 50
270.0
 51
0.0
  0
ARC
  5
1461
330
2
100
AcDbEntity
  8
0
100
AcDbCircle
 10
109.1962210748335
 20
157.6849882534673
 30
0.0
 40
0.1
100
AcDbArc
 50
90.0
 51
180.0
  0
LINE
  5
1462
330
2
100
AcDbEntity
  8
0
100
AcDbLine
 10
109.0962210748337
 20
157.3349882534673
 30
0.0
 11
109.0962210748337
 21
157.6849882534673
 31
0.0
  0
LINE
  5
1463
330
2
100
AcDbEntity
  8
0
100
AcDbLine
 10
109.9962210748335
 20
157.7849882534673
 30
0.0
 11
109.1962210748335
 21
157.7849882534673
 31
0.0
  0
LINE
  5
1464
330
2
100
AcDbEntity
  8
0
100
AcDbLine
 10
110.0962210748337
 20
157.8849882534672
 30
0.0
 11
110.0962210748337
 21
159.2849882534673
 31
0.0
  0
LINE
  5
1465
330
2
100
AcDbEntity
  8
0
100
AcDbLine
 10
109.0962210748337
 20
159.8349882534673
 30
0.0
 11
109.0962210748337
 21
159.4849882534672
 31
0.0
  0
ARC
  5
1466
330
2
100
AcDbEntity
  8
0
100
AcDbCircle
 10
107.4962210748337
 20
165.1849882534673
 30
0.0
 40
0.1
100
AcDbArc
 50
270.0
 51
0.0
  0
LINE
  5
1467
330
2
100
AcDbEntity
  8
0
100
AcDbLine
 10
107.5962210748336
 20
161.9849882534673
 30
0.0
 11
107.5962210748336
 21
161.0849882534673
 31
0.0
  0
ARC
  5
1468
330
2
100
AcDbEntity
  8
0
100
AcDbCircle
 10
107.4962210748337
 20
161.9849882534673
 30
0.0
 40
0.1
100
AcDbArc
 50
0.0
 51
90.0
  0
ARC
  5
1469
330
2
100
AcDbEntity
  8
0
100
AcDbCircle
 10
107.4962210748337
 20
162.6849882534673
 30
0.0
 40
0.1
100
AcDbArc
 50
270.0
 51
0.0
  0
ARC
  5
146A
330
2
100
AcDbEntity
  8
0
100
AcDbCircle
 10
107.4962210748337
 20
164.4849882534672
 30
0.0
 40
0.1
100
AcDbArc
 50
0.0
 51
90.0
  0
LINE
  5
146B
330
2
100
AcDbEntity
  8
0
100
AcDbLine
 10
107.5962210748336
 20
164.4849882534672
 30
0.0
 11
107.5962210748336
 21
162.6849882534673
 31
0.0
  0
LINE
  5
146C
330
2
100
AcDbEntity
  8
0
100
AcDbLine
 10
110.0962210748337
 20
161.0849882534673
 30
0.0
 11
110.0962210748337
 21
160.3849882534672
 31
0.0
  0
LINE
  5
146D
330
2
100
AcDbEntity
  8
0
100
AcDbLine
 10
109.0962210748337
 20
164.8349882534673
 30
0.0
 11
109.0962210748337
 21
164.4849882534672
 31
0.0
  0
ARC
  5
146E
330
2
100
AcDbEntity
  8
0
100
AcDbCircle
 10
109.9962210748335
 20
165.3849882534672
 30
0.0
 40
0.1
100
AcDbArc
 50
270.0
 51
0.0
  0
ARC
  5
146F
330
2
100
AcDbEntity
  8
0
100
AcDbCircle
 10
109.1962210748335
 20
165.1849882534673
 30
0.0
 40
0.1
100
AcDbArc
 50
90.0
 51
180.0
  0
LINE
  5
1470
330
2
100
AcDbEntity
  8
0
100
AcDbLine
 10
109.0962210748337
 20
164.8349882534673
 30
0.0
 11
109.0962210748337
 21
165.1849882534673
 31
0.0
  0
LINE
  5
1471
330
2
100
AcDbEntity
  8
0
100
AcDbLine
 10
109.9962210748335
 20
165.2849882534673
 30
0.0
 11
109.1962210748335
 21
165.2849882534673
 31
0.0
  0
LINE
  5
1472
330
2
100
AcDbEntity
  8
0
100
AcDbLine
 10
110.0962210748337
 20
161.0849882534673
 30
0.0
 11
110.0962210748337
 21
161.7849882534673
 31
0.0
  0
ARC
  5
1473
330
2
100
AcDbEntity
  8
0
100
AcDbCircle
 10
109.9962210748335
 20
161.7849882534673
 30
0.0
 40
0.1
100
AcDbArc
 50
0.0
 51
90.0
  0
ARC
  5
1474
330
2
100
AcDbEntity
  8
0
100
AcDbCircle
 10
109.9962210748335
 20
164.2849882534673
 30
0.0
 40
0.1
100
AcDbArc
 50
0.0
 51
90.0
  0
LINE
  5
1475
330
2
100
AcDbEntity
  8
0
100
AcDbLine
 10
110.0962210748337
 20
164.2849882534673
 30
0.0
 11
110.0962210748337
 21
162.8849882534673
 31
0.0
  0
ARC
  5
1476
330
2
100
AcDbEntity
  8
0
100
AcDbCircle
 10
109.9962210748335
 20
162.8849882534673
 30
0.0
 40
0.1
100
AcDbArc
 50
270.0
 51
0.0
  0
ARC
  5
1477
330
2
100
AcDbEntity
  8
0
100
AcDbCircle
 10
109.1962210748335
 20
161.9849882534673
 30
0.0
 40
0.1
100
AcDbArc
 50
180.0
 51
270.0
  0
ARC
  5
1478
330
2
100
AcDbEntity
  8
0
100
AcDbCircle
 10
109.1962210748335
 20
162.6849882534673
 30
0.0
 40
0.1
100
AcDbArc
 50
90.0
 51
180.0
  0
LINE
  5
1479
330
2
100
AcDbEntity
  8
0
100
AcDbLine
 10
109.0962210748337
 20
162.3349882534673
 30
0.0
 11
109.0962210748337
 21
162.6849882534673
 31
0.0
  0
LINE
  5
147A
330
2
100
AcDbEntity
  8
0
100
AcDbLine
 10
109.0962210748337
 20
162.3349882534673
 30
0.0
 11
109.0962210748337
 21
161.9849882534673
 31
0.0
  0
LINE
  5
147B
330
2
100
AcDbEntity
  8
0
100
AcDbLine
 10
109.9962210748335
 20
164.3849882534673
 30
0.0
 11
109.1962210748335
 21
164.3849882534673
 31
0.0
  0
LINE
  5
147C
330
2
100
AcDbEntity
  8
0
100
AcDbLine
 10
109.9962210748335
 20
162.7849882534673
 30
0.0
 11
109.1962210748335
 21
162.7849882534673
 31
0.0
  0
LINE
  5
147D
330
2
100
AcDbEntity
  8
0
100
AcDbLine
 10
109.9962210748335
 20
161.8849882534673
 30
0.0
 11
109.1962210748335
 21
161.8849882534673
 31
0.0
  0
ARC
  5
147E
330
2
100
AcDbEntity
  8
0
100
AcDbCircle
 10
109.1962210748335
 20
164.4849882534672
 30
0.0
 40
0.1
100
AcDbArc
 50
180.0
 51
270.0
  0
LINE
  5
147F
330
2
100
AcDbEntity
  8
0
100
AcDbLine
 10
109.9962210748335
 20
160.2849882534673
 30
0.0
 11
109.1962210748335
 21
160.2849882534673
 31
0.0
  0
ARC
  5
1480
330
2
100
AcDbEntity
  8
0
100
AcDbCircle
 10
109.9962210748335
 20
160.3849882534672
 30
0.0
 40
0.1
100
AcDbArc
 50
270.0
 51
0.0
  0
LINE
  5
1481
330
2
100
AcDbEntity
  8
0
100
AcDbLine
 10
107.4962210748337
 20
167.0849882534673
 30
0.0
 11
104.1962210748335
 21
167.0849882534673
 31
0.0
  0
LINE
  5
1482
330
2
100
AcDbEntity
  8
0
100
AcDbLine
 10
111.0962210748337
 20
167.3349882534673
 30
0.0
 11
99.59622107483369
 21
167.3349882534673
 31
0.0
  0
ARC
  5
1483
330
2
100
AcDbEntity
  8
0
100
AcDbCircle
 10
104.1962210748335
 20
167.1849882534673
 30
0.0
 40
0.1
100
AcDbArc
 50
180.0
 51
270.0
  0
LINE
  5
1484
330
2
100
AcDbEntity
  8
0
100
AcDbLine
 10
104.0962210748336
 20
167.1849882534673
 30
0.0
 11
104.0962210748336
 21
167.3349882534673
 31
0.0
  0
ARC
  5
1485
330
2
100
AcDbEntity
  8
0
100
AcDbCircle
 10
107.4962210748337
 20
166.9849882534673
 30
0.0
 40
0.1
100
AcDbArc
 50
0.0
 51
90.0
  0
ARC
  5
1486
330
2
100
AcDbEntity
  8
0
100
AcDbCircle
 10
109.9962210748335
 20
166.7849882534673
 30
0.0
 40
0.1
100
AcDbArc
 50
0.0
 51
90.0
  0
LINE
  5
1487
330
2
100
AcDbEntity
  8
0
100
AcDbLine
 10
109.0962210748337
 20
167.3349882534673
 30
0.0
 11
109.0962210748337
 21
166.9849882534673
 31
0.0
  0
ARC
  5
1488
330
2
100
AcDbEntity
  8
0
100
AcDbCircle
 10
109.1962210748335
 20
166.9849882534673
 30
0.0
 40
0.1
100
AcDbArc
 50
180.0
 51
270.0
  0
LINE
  5
1489
330
2
100
AcDbEntity
  8
0
100
AcDbLine
 10
109.9962210748335
 20
166.8849882534673
 30
0.0
 11
109.1962210748335
 21
166.8849882534673
 31
0.0
  0
LINE
  5
148A
330
2
100
AcDbEntity
  8
0
100
AcDbLine
 10
73.03951953282603
 20
220.7576826508359
 30
0.0
 11
73.03951953282581
 21
293.0376826508358
 31
0.0
  0
LINE
  5
148C
330
2
100
AcDbEntity
  8
0
100
AcDbLine
 10
75.03951953282603
 20
218.7576826508359
 30
0.0
 11
81.53951953282581
 21
218.7576826508359
 31
0.0
  0
LINE
  5
148D
330
2
100
AcDbEntity
  8
0
100
AcDbLine
 10
75.0395195328258
 20
231.307682650836
 30
0.0
 11
81.53951953282581
 21
231.307682650836
 31
0.0
  0
ARC
  5
148E
330
2
100
AcDbEntity
  8
0
100
AcDbCircle
 10
71.03951953282581
 20
221.9063330763982
 30
0.0
 40
2.0
100
AcDbArc
 50
0.0000000000032569
 51
89.50001664472077
  0
ARC
  5
148F
330
2
100
AcDbEntity
  8
0
100
AcDbCircle
 10
75.03951953282603
 20
220.7576826508359
 30
0.0
 40
2.0
100
AcDbArc
 50
180.0
 51
270.0
  0
ARC
  5
1490
330
2
100
AcDbEntity
  8
0
100
AcDbCircle
 10
75.0395195328258
 20
233.307682650836
 30
0.0
 40
2.0
100
AcDbArc
 50
180.0
 51
270.0
  0
LINE
  5
1491
330
2
100
AcDbEntity
  8
CENTER
100
AcDbLine
 10
67.73261953282622
 20
236.8976826508359
 30
0.0
 11
77.93122053282605
 21
236.8976826508359
 31
0.0
  0
ARC
  5
1492
330
2
100
AcDbEntity
  8
0
100
AcDbCircle
 10
75.43952153282612
 20
236.8976826508359
 30
0.0
 40
6.5
100
AcDbArc
 50
146.944304999998
 51
213.0556950000019
  0
LINE
  5
1493
330
2
100
AcDbEntity
  8
0
100
AcDbLine
 10
73.03951953282603
 20
232.8802836508359
 30
0.0
 11
73.03951953282603
 21
240.922283650836
 31
0.0
  0
LINE
  5
1494
330
2
100
AcDbEntity
  8
0
100
AcDbLine
 10
72.03951953282603
 20
240.8976826508359
 30
0.0
 11
72.03951953282603
 21
232.8976826508359
 31
0.0
  0
LINE
  5
1495
330
2
100
AcDbEntity
  8
0
100
AcDbLine
 10
72.03951953282603
 20
232.8976826508359
 30
0.0
 11
70.82971853282606
 21
232.8976826508359
 31
0.0
  0
LINE
  5
1496
330
2
100
AcDbEntity
  8
0
100
AcDbLine
 10
73.09111753282604
 20
233.0977826508359
 30
0.0
 11
72.03951953282603
 21
233.0977826508359
 31
0.0
  0
ARC
  5
1497
330
2
100
AcDbEntity
  8
0
100
AcDbCircle
 10
70.82971853282606
 20
233.8976826508359
 30
0.0
 40
1.0
100
AcDbArc
 50
213.0556950000019
 51
270.0
  0
LINE
  5
1498
330
2
100
AcDbEntity
  8
0
100
AcDbLine
 10
72.03951953282603
 20
240.8976826508359
 30
0.0
 11
70.82971853282606
 21
240.8976826508359
 31
0.0
  0
ARC
  5
1499
330
2
100
AcDbEntity
  8
0
100
AcDbCircle
 10
70.82971853282606
 20
239.8976826508359
 30
0.0
 40
1.0
100
AcDbArc
 50
90.0
 51
146.944304999998
  0
LINE
  5
149A
330
2
100
AcDbEntity
  8
0
100
AcDbLine
 10
72.03951953282603
 20
240.697792650836
 30
0.0
 11
73.03951953282603
 21
240.697792650836
 31
0.0
  0
ARC
  5
149B
330
2
100
AcDbEntity
  8
0
100
AcDbCircle
 10
75.0395195328258
 20
293.0376826508358
 30
0.0
 40
2.0
100
AcDbArc
 50
90.0
 51
180.0
  0
LINE
  5
149C
330
2
100
AcDbEntity
  8
0
100
AcDbLine
 10
75.0395195328258
 20
282.487682650836
 30
0.0
 11
81.53951953282581
 21
282.4876826508358
 31
0.0
  0
ARC
  5
149D
330
2
100
AcDbEntity
  8
0
100
AcDbCircle
 10
75.0395195328258
 20
280.4876826508358
 30
0.0
 40
2.0
100
AcDbArc
 50
90.0
 51
180.0
  0
ARC
  5
149E
330
2
100
AcDbEntity
  8
0
100
AcDbCircle
 10
71.03951953282581
 20
291.8890322252737
 30
0.0
 40
2.0
100
AcDbArc
 50
270.4999833552792
 51
359.9999999999967
  0
LINE
  5
149F
330
2
100
AcDbEntity
  8
0
100
AcDbLine
 10
75.0395195328258
 20
295.0376826508358
 30
0.0
 11
81.53951953282581
 21
295.0376826508358
 31
0.0
  0
ENDSEC
  0
SECTION
  2
OBJECTS
  0
DICTIONARY
  5
7
330
0
100
AcDbDictionary
  3
ACAD_GROUP
350
75
  3
ACAD_LAYOUT
350
61
  3
ACAD_MLINESTYLE
350
76
  3
ACAD_PLOTSETTINGS
350
77
  3
ACAD_PLOTSTYLENAME
350
6
  3
ACADDIM
350
174B
  3
ACDBHEADERROUNDTRIPXREC
350
198B
  3
ACDBVARIABLEDICTIONARY
350
102
  3
DWGPROPS
350
3D2
  0
DICTIONARY
  5
19AC
330
2
100
AcDbDictionary
280
     1
  3
ACAD_LAYOUTSELFREF
360
19AD
  0
DICTIONARY
  5
19AE
330
1985
100
AcDbDictionary
280
     1
  3
ACAD_LAYOUTSELFREF
360
19AF
  0
DICTIONARY
  5
75
102
{ACAD_REACTORS
330
7
102
}
330
7
100
AcDbDictionary
  0
DICTIONARY
  5
61
102
{ACAD_REACTORS
330
7
102
}
330
7
100
AcDbDictionary
  0
DICTIONARY
  5
76
102
{ACAD_REACTORS
330
7
102
}
330
7
100
AcDbDictionary
  3
STANDARD
350
78
  0
DICTIONARY
  5
77
102
{ACAD_REACTORS
330
7
102
}
330
7
100
AcDbDictionary
  0
ACDBDICTIONARYWDFLT
  5
6
102
{ACAD_REACTORS
330
7
102
}
330
7
100
AcDbDictionary
281
     1
  3
Normal
350
5
100
AcDbDictionaryWithDefault
340
5
  0
XRECORD
  5
174B
102
{ACAD_REACTORS
330
7
102
}
330
7
100
AcDbXrecord
 90
   990106
  3

 60
     0
 61
     0
 62
     4
 63
     4
 64
     1
 65
     0
 66
     0
 67
     3
 68
     1
 69
     0
 70
     0
 71
     0
 72
     0
 40
0.0
170
     2
340
0
  0
DICTIONARY
  5
198B
102
{ACAD_REACTORS
330
7
102
}
330
7
100
AcDbDictionary
  3
CEPSNTYPE
350
1995
  3
DIMSTYLEDATA
350
1999
  3
FINGERPRINTGUID
350
1996
  3
HYPERLINKBASE
350
198E
  3
INSUNITS
350
1994
  3
LAYOUTDICT
350
1990
  3
LWETCUNION
350
1993
  3
PLOTSETDICT
350
1991
  3
PLOTSTYLNAMDICT
350
1992
  3
PSVPSCALE
350
1998
  3
PUCSBASE
350
199C
  3
PUCSORGBACK
350
19A2
  3
PUCSORGBOTTOM
350
199E
  3
PUCSORGFRONT
350
19A1
  3
PUCSORGLEFT
350
199F
  3
PUCSORGRIGHT
350
19A0
  3
PUCSORGTOP
350
199D
  3
PUCSORTHOREF
350
199A
  3
PUCSORTHOVIEW
350
199B
  3
STYLESHEET
350
198F
  3
TSTACKALIGN
350
198C
  3
TSTACKSIZE
350
198D
  3
UCSBASE
350
19A5
  3
UCSORGBACK
350
19AB
  3
UCSORGBOTTOM
350
19A7
  3
UCSORGFRONT
350
19AA
  3
UCSORGLEFT
350
19A8
  3
UCSORGRIGHT
350
19A9
  3
UCSORGTOP
350
19A6
  3
UCSORTHOREF
350
19A3
  3
UCSORTHOVIEW
350
19A4
  3
VERSIONGUID
350
1997
  0
DICTIONARY
  5
102
102
{ACAD_REACTORS
330
7
102
}
330
7
100
AcDbDictionary
  3
DIMASSOC
350
103
  0
XRECORD
  5
3D2
102
{ACAD_REACTORS
330
7
102
}
330
7
100
AcDbXrecord
  1
DWGPROPS COOKIE
  2

  3

  4

  6

  7

  8

  9

300
=
301
=
302
=
303
=
304
=
305
=
306
=
307
=
308
=
309
=
 40
0.5353330671296296
 41
2452052.431989363
 42
2453406.550756377
  1

 90
        0
  0
XRECORD
  5
19AD
102
{ACAD_REACTORS
330
19AC
102
}
330
19AC
100
AcDbXrecord
340
2
  0
XRECORD
  5
19AF
102
{ACAD_REACTORS
330
19AE
102
}
330
19AE
100
AcDbXrecord
340
1985
  0
MLINESTYLE
  5
78
102
{ACAD_REACTORS
330
76
102
}
330
76
100
AcDbMlineStyle
  2
STANDARD
 70
     0
  3

 62
     0
 51
90.0
 52
90.0
 71
     2
 49
0.5
 62
   256
  6
BYLAYER
 49
-0.5
 62
   256
  6
BYLAYER
  0
ACDBPLACEHOLDER
  5
5
102
{ACAD_REACTORS
330
6
102
}
330
6
100
AcDbPlaceHolder
280
     0
  0
XRECORD
  5
1995
102
{ACAD_REACTORS
330
198B
102
}
330
198B
100
AcDbXrecord
 90
        0
  0
XRECORD
  5
1999
102
{ACAD_REACTORS
330
198B
102
}
330
198B
100
AcDbXrecord
1000
DSTYLE
1002
{
1070
   179
 70
     2
1070
   277
 70
     6
1002
}
  0
XRECORD
  5
1996
102
{ACAD_REACTORS
330
198B
102
}
330
198B
100
AcDbXrecord
  1
{6385560B-F4B1-4644-A7C2-A3E32AC3D232}
  0
XRECORD
  5
198E
102
{ACAD_REACTORS
330
198B
102
}
330
198B
100
AcDbXrecord
  1

  0
XRECORD
  5
1994
102
{ACAD_REACTORS
330
198B
102
}
330
198B
100
AcDbXrecord
 90
        0
  0
XRECORD
  5
1990
102
{ACAD_REACTORS
330
198B
102
}
330
198B
100
AcDbXrecord
340
61
  0
XRECORD
  5
1993
102
{ACAD_REACTORS
330
198B
102
}
330
198B
100
AcDbXrecord
 90
    10781
  0
XRECORD
  5
1991
102
{ACAD_REACTORS
330
198B
102
}
330
198B
100
AcDbXrecord
340
77
  0
XRECORD
  5
1992
102
{ACAD_REACTORS
330
198B
102
}
330
198B
100
AcDbXrecord
340
6
  0
XRECORD
  5
1998
102
{ACAD_REACTORS
330
198B
102
}
330
198B
100
AcDbXrecord
 40
0.0
  0
XRECORD
  5
199C
102
{ACAD_REACTORS
330
198B
102
}
330
198B
100
AcDbXrecord
340
0
  0
XRECORD
  5
19A2
102
{ACAD_REACTORS
330
198B
102
}
330
198B
100
AcDbXrecord
 10
0.0
 20
0.0
 30
0.0
  0
XRECORD
  5
199E
102
{ACAD_REACTORS
330
198B
102
}
330
198B
100
AcDbXrecord
 10
0.0
 20
0.0
 30
0.0
  0
XRECORD
  5
19A1
102
{ACAD_REACTORS
330
198B
102
}
330
198B
100
AcDbXrecord
 10
0.0
 20
0.0
 30
0.0
  0
XRECORD
  5
199F
102
{ACAD_REACTORS
330
198B
102
}
330
198B
100
AcDbXrecord
 10
0.0
 20
0.0
 30
0.0
  0
XRECORD
  5
19A0
102
{ACAD_REACTORS
330
198B
102
}
330
198B
100
AcDbXrecord
 10
0.0
 20
0.0
 30
0.0
  0
XRECORD
  5
199D
102
{ACAD_REACTORS
330
198B
102
}
330
198B
100
AcDbXrecord
 10
0.0
 20
0.0
 30
0.0
  0
XRECORD
  5
199A
102
{ACAD_REACTORS
330
198B
102
}
330
198B
100
AcDbXrecord
340
0
  0
XRECORD
  5
199B
102
{ACAD_REACTORS
330
198B
102
}
330
198B
100
AcDbXrecord
 70
     0
  0
XRECORD
  5
198F
102
{ACAD_REACTORS
330
198B
102
}
330
198B
100
AcDbXrecord
  1
Sekkei.ctb
  0
XRECORD
  5
198C
102
{ACAD_REACTORS
330
198B
102
}
330
198B
100
AcDbXrecord
 90
        1
  0
XRECORD
  5
198D
102
{ACAD_REACTORS
330
198B
102
}
330
198B
100
AcDbXrecord
 90
       70
  0
XRECORD
  5
19A5
102
{ACAD_REACTORS
330
198B
102
}
330
198B
100
AcDbXrecord
340
0
  0
XRECORD
  5
19AB
102
{ACAD_REACTORS
330
198B
102
}
330
198B
100
AcDbXrecord
 10
0.0
 20
0.0
 30
0.0
  0
XRECORD
  5
19A7
102
{ACAD_REACTORS
330
198B
102
}
330
198B
100
AcDbXrecord
 10
0.0
 20
0.0
 30
0.0
  0
XRECORD
  5
19AA
102
{ACAD_REACTORS
330
198B
102
}
330
198B
100
AcDbXrecord
 10
0.0
 20
0.0
 30
0.0
  0
XRECORD
  5
19A8
102
{ACAD_REACTORS
330
198B
102
}
330
198B
100
AcDbXrecord
 10
0.0
 20
0.0
 30
0.0
  0
XRECORD
  5
19A9
102
{ACAD_REACTORS
330
198B
102
}
330
198B
100
AcDbXrecord
 10
0.0
 20
0.0
 30
0.0
  0
XRECORD
  5
19A6
102
{ACAD_REACTORS
330
198B
102
}
330
198B
100
AcDbXrecord
 10
0.0
 20
0.0
 30
0.0
  0
XRECORD
  5
19A3
102
{ACAD_REACTORS
330
198B
102
}
330
198B
100
AcDbXrecord
340
0
  0
XRECORD
  5
19A4
102
{ACAD_REACTORS
330
198B
102
}
330
198B
100
AcDbXrecord
 70
     0
  0
XRECORD
  5
1997
102
{ACAD_REACTORS
330
198B
102
}
330
198B
100
AcDbXrecord
  1
{1D59A461-3E53-4E48-92C5-60CC2F665404}
  0
DICTIONARYVAR
  5
103
102
{ACAD_REACTORS
330
102
102
}
330
102
100
DictionaryVariables
280
     0
  1
1
  0
ENDSEC
  0
EOF
