  0
SECTION
  2
HEADER
  9
$ACADVER
  1
AC1014
  9
$ACADMAINTVER
 70
     9
  9
$DWGCODEPAGE
  3
ANSI_932
  9
$INSBASE
 10
0.0
 20
0.0
 30
0.0
  9
$EXTMIN
 10
34.80528767151554
 20
19.64607826154995
 30
0.0
  9
$EXTMAX
 10
378.2326688707458
 20
334.5743953589125
 30
0.0
  9
$LIMMIN
 10
0.0
 20
0.0
  9
$LIMMAX
 10
297.0
 20
210.0
  9
$ORTHOMODE
 70
     1
  9
$REGENMODE
 70
     1
  9
$FILLMODE
 70
     1
  9
$QTEXTMODE
 70
     0
  9
$MIRRTEXT
 70
     0
  9
$DRAGMODE
 70
     2
  9
$LTSCALE
 40
2.0
  9
$OSMODE
 70
    37
  9
$ATTMODE
 70
     1
  9
$TEXTSIZE
 40
6.0
  9
$TRACEWID
 40
1.0
  9
$TEXTSTYLE
  7
STANDARD
  9
$CLAYER
  8
0
  9
$CELTYPE
  6
BYLAYER
  9
$CECOLOR
 62
   256
  9
$CELTSCALE
 40
1.0
  9
$DELOBJ
 70
     1
  9
$DISPSILH
 70
     0
  9
$DIMSCALE
 40
2.0
  9
$DIMASZ
 40
1.8
  9
$DIMEXO
 40
0.625
  9
$DIMDLI
 40
3.75
  9
$DIMRND
 40
0.0
  9
$DIMDLE
 40
0.0
  9
$DIMEXE
 40
0.8
  9
$DIMTP
 40
0.0
  9
$DIMTM
 40
0.0
  9
$DIMTXT
 40
1.8
  9
$DIMCEN
 40
2.5
  9
$DIMTSZ
 40
0.0
  9
$DIMTOL
 70
     0
  9
$DIMLIM
 70
     0
  9
$DIMTIH
 70
     0
  9
$DIMTOH
 70
     0
  9
$DIMSE1
 70
     0
  9
$DIMSE2
 70
     0
  9
$DIMTAD
 70
     1
  9
$DIMZIN
 70
     8
  9
$DIMBLK
  1

  9
$DIMASO
 70
     1
  9
$DIMSHO
 70
     1
  9
$DIMPOST
  1

  9
$DIMAPOST
  1

  9
$DIMALT
 70
     0
  9
$DIMALTD
 70
     4
  9
$DIMALTF
 40
0.0394
  9
$DIMLFAC
 40
1.0
  9
$DIMTOFL
 70
     1
  9
$DIMTVP
 40
0.0
  9
$DIMTIX
 70
     0
  9
$DIMSOXD
 70
     0
  9
$DIMSAH
 70
     0
  9
$DIMBLK1
  1

  9
$DIMBLK2
  1

  9
$DIMSTYLE
  2
STANDARD
  9
$DIMCLRD
 70
     0
  9
$DIMCLRE
 70
     0
  9
$DIMCLRT
 70
     0
  9
$DIMTFAC
 40
1.0
  9
$DIMGAP
 40
0.75
  9
$DIMJUST
 70
     0
  9
$DIMSD1
 70
     0
  9
$DIMSD2
 70
     0
  9
$DIMTOLJ
 70
     1
  9
$DIMTZIN
 70
     0
  9
$DIMALTZ
 70
     0
  9
$DIMALTTZ
 70
     0
  9
$DIMFIT
 70
     3
  9
$DIMUPT
 70
     0
  9
$DIMUNIT
 70
     8
  9
$DIMDEC
 70
     2
  9
$DIMTDEC
 70
     2
  9
$DIMALTU
 70
     8
  9
$DIMALTTD
 70
     4
  9
$DIMTXSTY
  7
STANDARD
  9
$DIMAUNIT
 70
     0
  9
$LUNITS
 70
     2
  9
$LUPREC
 70
     3
  9
$SKETCHINC
 40
1.0
  9
$FILLETRAD
 40
10.0
  9
$AUNITS
 70
     0
  9
$AUPREC
 70
     2
  9
$MENU
  1
.
  9
$ELEVATION
 40
0.0
  9
$PELEVATION
 40
0.0
  9
$THICKNESS
 40
0.0
  9
$LIMCHECK
 70
     0
  9
$BLIPMODE
 70
     0
  9
$CHAMFERA
 40
0.0
  9
$CHAMFERB
 40
0.0
  9
$CHAMFERC
 40
20.0
  9
$CHAMFERD
 40
0.0
  9
$SKPOLY
 70
     0
  9
$TDCREATE
 40
2453692.479265046
  9
$TDUPDATE
 40
2453928.589759467
  9
$TDINDWG
 40
0.0509087269
  9
$TDUSRTIMER
 40
0.0509087269
  9
$USRTIMER
 70
     1
  9
$ANGBASE
 50
0.0
  9
$ANGDIR
 70
     0
  9
$PDMODE
 70
     0
  9
$PDSIZE
 40
-10.0
  9
$PLINEWID
 40
0.0
  9
$COORDS
 70
     0
  9
$SPLFRAME
 70
     0
  9
$SPLINETYPE
 70
     6
  9
$SPLINESEGS
 70
     8
  9
$ATTDIA
 70
     0
  9
$ATTREQ
 70
     1
  9
$HANDLING
 70
-16383
  9
$HANDSEED
  5
23F9
  9
$SURFTAB1
 70
     6
  9
$SURFTAB2
 70
     6
  9
$SURFTYPE
 70
     6
  9
$SURFU
 70
     6
  9
$SURFV
 70
     6
  9
$UCSNAME
  2

  9
$UCSORG
 10
0.0
 20
0.0
 30
0.0
  9
$UCSXDIR
 10
1.0
 20
0.0
 30
0.0
  9
$UCSYDIR
 10
0.0
 20
1.0
 30
0.0
  9
$PUCSNAME
  2

  9
$PUCSORG
 10
0.0
 20
0.0
 30
0.0
  9
$PUCSXDIR
 10
1.0
 20
0.0
 30
0.0
  9
$PUCSYDIR
 10
0.0
 20
1.0
 30
0.0
  9
$USERI1
 70
     0
  9
$USERI2
 70
     0
  9
$USERI3
 70
     0
  9
$USERI4
 70
     0
  9
$USERI5
 70
     0
  9
$USERR1
 40
0.0
  9
$USERR2
 40
0.0
  9
$USERR3
 40
0.0
  9
$USERR4
 40
0.0
  9
$USERR5
 40
0.0
  9
$WORLDVIEW
 70
     1
  9
$SHADEDGE
 70
     3
  9
$SHADEDIF
 70
    70
  9
$TILEMODE
 70
     1
  9
$MAXACTVP
 70
    48
  9
$PINSBASE
 10
0.0
 20
0.0
 30
0.0
  9
$PLIMCHECK
 70
     0
  9
$PEXTMIN
 10
0.0
 20
0.0
 30
0.0
  9
$PEXTMAX
 10
0.0
 20
0.0
 30
0.0
  9
$PLIMMIN
 10
0.0
 20
0.0
  9
$PLIMMAX
 10
12.0
 20
9.0
  9
$UNITMODE
 70
     0
  9
$VISRETAIN
 70
     1
  9
$PLINEGEN
 70
     0
  9
$PSLTSCALE
 70
     1
  9
$TREEDEPTH
 70
  3020
  9
$PICKSTYLE
 70
     1
  9
$CMLSTYLE
  2
STANDARD
  9
$CMLJUST
 70
     0
  9
$CMLSCALE
 40
1.0
  9
$PROXYGRAPHICS
 70
     1
  9
$MEASUREMENT
 70
     0
  0
ENDSEC
  0
SECTION
  2
CLASSES
  0
CLASS
  1
DICTIONARYVAR
  2
AcDbDictionaryVar
  3
AutoCAD 2000
 90
        0
280
     0
281
     0
  0
CLASS
  1
ACDBDICTIONARYWDFLT
  2
AcDbDictionaryWithDefault
  3
AutoCAD 2000
 90
        0
280
     0
281
     0
  0
CLASS
  1
ACDBPLACEHOLDER
  2
AcDbPlaceHolder
  3
AutoCAD 2000
 90
        0
280
     0
281
     0
  0
CLASS
  1
LAYOUT
  2
AcDbLayout
  3
AutoCAD 2000
 90
        0
280
     0
281
     0
  0
CLASS
  1
LONG_TRANSACTION
  2
AcDbLongTransaction
  3
AutoCAD 2000
 90
        0
280
     0
281
     0
  0
CLASS
  1
LWPOLYLINE
  2
AcDbPolyline
  3
AutoCAD 2000
 90
        0
280
     0
281
     1
  0
CLASS
  1
HATCH
  2
AcDbHatch
  3
AutoCAD 2000
 90
        0
280
     0
281
     1
  0
CLASS
  1
XRECORD
  2
AcDbXrecord
  3
AutoCAD 2000
 90
        0
280
     0
281
     0
  0
ENDSEC
  0
SECTION
  2
TABLES
  0
TABLE
  2
VPORT
  5
6E
330
0
100
AcDbSymbolTable
 70
     2
  0
VPORT
  5
23D3
330
6E
100
AcDbSymbolTableRecord
100
AcDbViewportTableRecord
  2
*ACTIVE
 70
     0
 10
0.0
 20
0.0
 11
1.0
 21
1.0
 12
215.792226926273
 22
175.2474548689766
 13
0.0
 23
0.0
 14
10.0
 24
10.0
 15
10.0
 25
10.0
 16
0.0
 26
0.0
 36
1.0
 17
0.0
 27
0.0
 37
0.0
 40
321.2098611718626
 41
1.566970091027308
 42
50.0
 43
0.0
 44
0.0
 50
0.0
 51
0.0
 71
     0
 72
   100
 73
     1
 74
     3
 75
     0
 76
     0
 77
     0
 78
     0
  0
ENDTAB
  0
TABLE
  2
LTYPE
  5
69
330
0
100
AcDbSymbolTable
 70
     4
  0
LTYPE
  5
6A
330
69
100
AcDbSymbolTableRecord
100
AcDbLinetypeTableRecord
  2
BYBLOCK
 70
     0
  3

 72
    65
 73
     0
 40
0.0
  0
LTYPE
  5
6B
330
69
100
AcDbSymbolTableRecord
100
AcDbLinetypeTableRecord
  2
BYLAYER
 70
     0
  3

 72
    65
 73
     0
 40
0.0
  0
LTYPE
  5
8
330
69
100
AcDbSymbolTableRecord
100
AcDbLinetypeTableRecord
  2
CONTINUOUS
 70
     0
  3
Solid line
 72
    65
 73
     0
 40
0.0
  0
LTYPE
  5
27C
330
69
100
AcDbSymbolTableRecord
100
AcDbLinetypeTableRecord
  2
SEKKEI_A2_
 70
     0
  3
center(A2)  ____ _ ____ _ ____ _ ____ _ ____ _ 
 72
    65
 73
     4
 40
14.28749999999999
 49
9.525
 74
     0
 49
-1.587499999999999
 74
     0
 49
1.587499999999999
 74
     0
 49
-1.587499999999999
 74
     0
  0
LTYPE
  5
2B4
330
69
100
AcDbSymbolTableRecord
100
AcDbLinetypeTableRecord
  2
HIDDEN2
 70
     0
  3
Hidden (.5x) _ _ _ _ _ _ _ _ _ _ _ _ _ _ _ _ _
 72
    65
 73
     2
 40
4.762499999999999
 49
3.174999999999999
 74
     0
 49
-1.587499999999999
 74
     0
  0
LTYPE
  5
48F
330
69
100
AcDbSymbolTableRecord
100
AcDbLinetypeTableRecord
  2
SEKKEI_H
 70
     0
  3
Hidden-S _ _ _ _ _ _ _ _ _ _ _ _ _ _ _ _ _
 72
    65
 73
     2
 40
2.381249999999999
 49
1.587499999999999
 74
     0
 49
-0.79375
 74
     0
  0
ENDTAB
  0
TABLE
  2
LAYER
  5
66
330
0
100
AcDbSymbolTable
 70
     9
  0
LAYER
  5
5E
330
66
100
AcDbSymbolTableRecord
100
AcDbLayerTableRecord
  2
0
 70
     0
 62
     7
  6
CONTINUOUS
  0
LAYER
  5
3E
330
66
100
AcDbSymbolTableRecord
100
AcDbLayerTableRecord
  2
CENTER
 70
     0
 62
     3
  6
SEKKEI_A2_
  0
LAYER
  5
2B5
330
66
100
AcDbSymbolTableRecord
100
AcDbLayerTableRecord
  2
HIDS
 70
     0
 62
     1
  6
HIDDEN2
  0
LAYER
  5
2BA
330
66
100
AcDbSymbolTableRecord
100
AcDbLayerTableRecord
  2
HOJO
 70
     0
 62
     4
  6
CONTINUOUS
  0
LAYER
  5
3FA
330
66
100
AcDbSymbolTableRecord
100
AcDbLayerTableRecord
  2
TITLE
 70
     0
 62
     4
  6
CONTINUOUS
  0
ENDTAB
  0
TABLE
  2
STYLE
  5
67
330
0
100
AcDbSymbolTable
 70
     2
  0
STYLE
  5
16
330
67
100
AcDbSymbolTableRecord
100
AcDbTextStyleTableRecord
  2
STANDARD
 70
     0
 40
0.0
 41
1.0
 50
0.0
 71
     0
 42
6.0
  3
simplex.shx
  4
extfont.shx
  0
ENDTAB
  0
TABLE
  2
VIEW
  5
6C
330
0
100
AcDbSymbolTable
 70
     0
  0
ENDTAB
  0
TABLE
  2
UCS
  5
6D
330
0
100
AcDbSymbolTable
 70
     0
  0
ENDTAB
  0
TABLE
  2
APPID
  5
70
330
0
100
AcDbSymbolTable
 70
     1
  0
APPID
  5
71
330
70
100
AcDbSymbolTableRecord
100
AcDbRegAppTableRecord
  2
ACAD
 70
     0
  0
ENDTAB
  0
TABLE
  2
DIMSTYLE
  5
72
330
0
100
AcDbSymbolTable
 70
     1
  0
DIMSTYLE
105
73
330
72
100
AcDbSymbolTableRecord
100
AcDbDimStyleTableRecord
  2
STANDARD
 70
     0
  3

  4

  5

  6

  7

 40
2.0
 41
1.8
 42
0.625
 43
3.75
 44
0.8
 45
0.0
 46
0.0
 47
0.0
 48
0.0
140
1.8
141
2.5
142
0.0
143
0.0394
144
1.0
145
0.0
146
1.0
147
0.75
 71
     0
 72
     0
 73
     0
 74
     0
 75
     0
 76
     0
 77
     1
 78
     8
170
     0
171
     4
172
     1
173
     0
174
     0
175
     0
176
     0
177
     0
178
     0
270
     8
271
     2
272
     2
273
     8
274
     4
340
16
275
     0
280
     0
281
     0
282
     0
283
     1
284
     0
285
     0
286
     0
287
     3
288
     0
  0
ENDTAB
  0
TABLE
  2
BLOCK_RECORD
  5
1
330
0
100
AcDbSymbolTable
 70
    38
  0
BLOCK_RECORD
  5
2
102
{ACAD_XDICTIONARY
360
23F5
102
}
330
1
100
AcDbSymbolTableRecord
100
AcDbBlockTableRecord
  2
*MODEL_SPACE
  0
BLOCK_RECORD
  5
23CE
102
{ACAD_XDICTIONARY
360
23F7
102
}
330
1
100
AcDbSymbolTableRecord
100
AcDbBlockTableRecord
  2
*PAPER_SPACE
  0
ENDTAB
  0
ENDSEC
  0
SECTION
  2
BLOCKS
  0
BLOCK
  5
5D
330
2
100
AcDbEntity
  8
0
100
AcDbBlockBegin
  2
*MODEL_SPACE
 70
     0
 10
0.0
 20
0.0
 30
0.0
  3
*MODEL_SPACE
  1

  0
ENDBLK
  5
5F
330
2
100
AcDbEntity
  8
0
100
AcDbBlockEnd
  0
BLOCK
  5
23D0
330
23CE
100
AcDbEntity
 67
     1
  8
0
100
AcDbBlockBegin
  2
*PAPER_SPACE
 70
     0
 10
0.0
 20
0.0
 30
0.0
  3
*PAPER_SPACE
  1

  0
ENDBLK
  5
23D1
330
23CE
100
AcDbEntity
 67
     1
  8
0
100
AcDbBlockEnd
  0
ENDSEC
  0
SECTION
  2
ENTITIES
  0
LINE
  5
679
330
2
100
AcDbEntity
  8
CENTER
100
AcDbLine
 10
34.80528767151554
 20
91.13419254801982
 30
0.0
 11
181.2825912155462
 21
91.13419254801982
 31
0.0
  0
LINE
  5
67A
330
2
100
AcDbEntity
  8
0
100
AcDbLine
 10
57.28258121554631
 20
56.7248905480198
 30
0.0
 11
163.2825912155462
 21
56.7248905480198
 31
0.0
  0
LINE
  5
67B
330
2
100
AcDbEntity
  8
0
100
AcDbLine
 10
57.28258121554631
 20
46.13419254801982
 30
0.0
 11
172.2825912155462
 21
46.13419254801982
 31
0.0
  0
LINE
  5
67C
330
2
100
AcDbEntity
  8
0
100
AcDbLine
 10
57.28258121554631
 20
125.5434945480198
 30
0.0
 11
163.2825912155462
 21
125.5434945480198
 31
0.0
  0
LINE
  5
67D
330
2
100
AcDbEntity
  8
0
100
AcDbLine
 10
57.28258121554631
 20
136.1341925480198
 30
0.0
 11
172.2825912155462
 21
136.1341925480198
 31
0.0
  0
LINE
  5
67F
330
2
100
AcDbEntity
  8
0
100
AcDbLine
 10
57.28258121554631
 20
136.1341925480198
 30
0.0
 11
57.28258121554631
 21
46.13419254801982
 31
0.0
  0
LINE
  5
6C5
330
2
100
AcDbEntity
  8
0
100
AcDbLine
 10
163.2825912155462
 20
134.1341925480198
 30
0.0
 11
163.2825912155462
 21
48.13419254801982
 31
0.0
  0
LINE
  5
6C6
330
2
100
AcDbEntity
  8
0
100
AcDbLine
 10
172.2825912155462
 20
136.1341925480198
 30
0.0
 11
172.2825912155462
 21
46.13419254801982
 31
0.0
  0
LINE
  5
6C7
330
2
100
AcDbEntity
  8
CENTER
100
AcDbLine
 10
160.7825912155463
 20
53.13419254801982
 30
0.0
 11
174.7825912155462
 21
53.13419254801982
 31
0.0
  0
LINE
  5
6C8
330
2
100
AcDbEntity
  8
HIDS
  6
SEKKEI_H
100
AcDbLine
 10
163.2825912155462
 20
49.88419254801982
 30
0.0
 11
172.2825912155462
 21
49.88419254801982
 31
0.0
  0
LINE
  5
6C9
330
2
100
AcDbEntity
  8
HIDS
  6
SEKKEI_H
100
AcDbLine
 10
163.2825912155462
 20
56.38419254801982
 30
0.0
 11
172.2825912155462
 21
56.38419254801982
 31
0.0
  0
ARC
  5
6CA
330
2
100
AcDbEntity
  8
0
100
AcDbCircle
 10
165.2825912155462
 20
48.13419254801982
 30
0.0
 40
2.0
100
AcDbArc
 50
180.0
 51
270.0
  0
LINE
  5
6CB
330
2
100
AcDbEntity
  8
0
100
AcDbLine
 10
183.7825912155462
 20
101.6341925480198
 30
0.0
 11
205.2825912155463
 21
101.6341925480198
 31
0.0
  0
LINE
  5
6CC
330
2
100
AcDbEntity
  8
0
100
AcDbLine
 10
183.7825912155462
 20
106.6341925480198
 30
0.0
 11
205.2825912155463
 21
106.6341925480198
 31
0.0
  0
LINE
  5
6CD
330
2
100
AcDbEntity
  8
CENTER
100
AcDbLine
 10
158.2825912155462
 20
104.1341925480198
 30
0.0
 11
210.2825912155462
 21
104.1341925480198
 31
0.0
  0
LINE
  5
6CE
330
2
100
AcDbEntity
  8
0
100
AcDbLine
 10
178.2825912155463
 20
96.63419254801983
 30
0.0
 11
205.2825912155463
 21
96.63419254801983
 31
0.0
  0
LINE
  5
6CF
330
2
100
AcDbEntity
  8
0
100
AcDbLine
 10
178.2825912155463
 20
111.6341925480198
 30
0.0
 11
205.2825912155463
 21
111.6341925480198
 31
0.0
  0
LINE
  5
737
330
2
100
AcDbEntity
  8
HIDS
  6
SEKKEI_H
100
AcDbLine
 10
163.2825912155462
 20
125.8841925480198
 30
0.0
 11
172.2825912155462
 21
125.8841925480198
 31
0.0
  0
ARC
  5
738
330
2
100
AcDbEntity
  8
0
100
AcDbCircle
 10
183.7825912155462
 20
104.1341925480198
 30
0.0
 40
2.5
100
AcDbArc
 50
90.0
 51
180.0
  0
LINE
  5
739
330
2
100
AcDbEntity
  8
0
100
AcDbLine
 10
178.2825912155463
 20
112.6341925480198
 30
0.0
 11
178.2825912155463
 21
95.63419254801983
 31
0.0
  0
LINE
  5
73A
330
2
100
AcDbEntity
  8
0
100
AcDbLine
 10
176.2825912155463
 20
85.13419254801982
 30
0.0
 11
176.2825912155463
 21
123.1341925480198
 31
0.0
  0
ARC
  5
73B
330
2
100
AcDbEntity
  8
0
100
AcDbCircle
 10
175.2825912155462
 20
85.13419254801982
 30
0.0
 40
1.0
100
AcDbArc
 50
270.0
 51
0.0
  0
LINE
  5
73C
330
2
100
AcDbEntity
  8
0
100
AcDbLine
 10
175.2825912155462
 20
84.13419254801983
 30
0.0
 11
172.2825912155462
 21
84.13419254801983
 31
0.0
  0
LINE
  5
73D
330
2
100
AcDbEntity
  8
0
100
AcDbLine
 10
176.2825912155463
 20
95.63419254801983
 30
0.0
 11
178.2825912155463
 21
95.63419254801983
 31
0.0
  0
ARC
  5
73E
330
2
100
AcDbEntity
  8
0
100
AcDbCircle
 10
183.7825912155462
 20
104.1341925480198
 30
0.0
 40
2.5
100
AcDbArc
 50
180.0
 51
270.0
  0
LINE
  5
73F
330
2
100
AcDbEntity
  8
0
100
AcDbLine
 10
176.2825912155463
 20
112.6341925480198
 30
0.0
 11
178.2825912155463
 21
112.6341925480198
 31
0.0
  0
ARC
  5
740
330
2
100
AcDbEntity
  8
0
100
AcDbCircle
 10
175.2825912155462
 20
123.1341925480198
 30
0.0
 40
1.0
100
AcDbArc
 50
0.0
 51
90.0
  0
LINE
  5
741
330
2
100
AcDbEntity
  8
0
100
AcDbLine
 10
175.2825912155462
 20
124.1341925480198
 30
0.0
 11
172.2825912155462
 21
124.1341925480198
 31
0.0
  0
LINE
  5
742
330
2
100
AcDbEntity
  8
CENTER
100
AcDbLine
 10
160.7825912155463
 20
129.1341925480198
 30
0.0
 11
174.7825912155462
 21
129.1341925480198
 31
0.0
  0
LINE
  5
743
330
2
100
AcDbEntity
  8
HIDS
  6
SEKKEI_H
100
AcDbLine
 10
163.2825912155462
 20
132.3841925480198
 30
0.0
 11
172.2825912155462
 21
132.3841925480198
 31
0.0
  0
ARC
  5
744
330
2
100
AcDbEntity
  8
0
100
AcDbCircle
 10
165.2825912155462
 20
134.1341925480198
 30
0.0
 40
2.0
100
AcDbArc
 50
90.0
 51
180.0
  0
LINE
  5
786
330
2
100
AcDbEntity
  8
0
100
AcDbLine
 10
205.2825912155463
 20
111.6341925480198
 30
0.0
 11
205.2825912155463
 21
96.63419254801983
 31
0.0
  0
LINE
  5
787
330
2
100
AcDbEntity
  8
0
100
AcDbLine
 10
373.2326688707457
 20
51.83320154801982
 30
0.0
 11
373.2326688707457
 21
130.4351835480198
 31
0.0
  0
LINE
  5
788
330
2
100
AcDbEntity
  8
CENTER
100
AcDbLine
 10
366.2326688707457
 20
47.38419254801982
 30
0.0
 11
366.2326688707457
 21
134.8841925480198
 31
0.0
  0
LINE
  5
789
330
2
100
AcDbEntity
  8
0
100
AcDbLine
 10
368.2326688707457
 20
105.4955925480198
 30
0.0
 11
368.2326688707457
 21
76.77279254801982
 31
0.0
  0
LINE
  5
78A
330
2
100
AcDbEntity
  8
0
100
AcDbLine
 10
283.2326688707457
 20
51.8330035480198
 30
0.0
 11
283.2326688707457
 21
130.4350925480198
 31
0.0
  0
LINE
  5
78B
330
2
100
AcDbEntity
  8
CENTER
100
AcDbLine
 10
290.2326688707457
 20
47.38419254801982
 30
0.0
 11
290.2326688707457
 21
134.8841925480198
 31
0.0
  0
LINE
  5
78C
330
2
100
AcDbEntity
  8
0
100
AcDbLine
 10
288.2326688707457
 20
105.4955925480198
 30
0.0
 11
288.2326688707457
 21
76.77279254801982
 31
0.0
  0
LINE
  5
78D
330
2
100
AcDbEntity
  8
CENTER
100
AcDbLine
 10
328.2326688707458
 20
37.17101720835762
 30
0.0
 11
328.2326688707458
 21
159.7353921671394
 31
0.0
  0
LINE
  5
78E
330
2
100
AcDbEntity
  8
0
100
AcDbLine
 10
331.7326688707457
 20
76.13419254801982
 30
0.0
 11
324.7326688707457
 21
76.13419254801982
 31
0.0
  0
LINE
  5
78F
330
2
100
AcDbEntity
  8
0
100
AcDbLine
 10
329.9826688707458
 20
72.63419254801982
 30
0.0
 11
331.7326688707457
 21
72.63419254801982
 31
0.0
  0
LINE
  5
790
330
2
100
AcDbEntity
  8
CENTER
100
AcDbLine
 10
371.9826688707458
 20
53.13419254801982
 30
0.0
 11
284.4826688707458
 21
53.13419254801982
 31
0.0
  0
LINE
  5
791
330
2
100
AcDbEntity
  8
0
100
AcDbLine
 10
368.3198578707458
 20
46.83389154801983
 30
0.0
 11
328.2326688707458
 21
46.13419254801982
 31
0.0
  0
ARC
  5
792
330
2
100
AcDbEntity
  8
0
100
AcDbCircle
 10
328.2326688707458
 20
91.13419254801982
 30
0.0
 40
42.5
100
AcDbArc
 50
270.0
 51
340.2500919999988
  0
LINE
  5
793
330
2
100
AcDbEntity
  8
0
100
AcDbLine
 10
288.1454648707458
 20
46.83379254801979
 30
0.0
 11
328.2326688707458
 21
46.13419254801982
 31
0.0
  0
ARC
  5
794
330
2
100
AcDbEntity
  8
0
100
AcDbCircle
 10
328.2326688707458
 20
91.13419254801982
 30
0.0
 40
42.5
100
AcDbArc
 50
199.7498929999988
 51
270.0
  0
ARC
  5
795
330
2
100
AcDbEntity
  8
0
100
AcDbCircle
 10
288.2326688707457
 20
51.8330035480198
 30
0.0
 40
5.0
100
AcDbArc
 50
180.0
 51
269.0004879999996
  0
CIRCLE
  5
796
330
2
100
AcDbEntity
  8
0
100
AcDbCircle
 10
290.2326688707457
 20
53.13419254801982
 30
0.0
 40
3.25
  0
LINE
  5
797
330
2
100
AcDbEntity
  8
0
100
AcDbLine
 10
313.7326688707458
 20
66.13419254801982
 30
0.0
 11
323.4826688707457
 21
66.13419254801982
 31
0.0
  0
ARC
  5
798
330
2
100
AcDbEntity
  8
0
100
AcDbCircle
 10
318.8429629883926
 20
69.92095725390214
 30
0.0
 40
6.360400373134885
100
AcDbArc
 50
109.330727832983
 51
216.5387118574264
  0
ARC
  5
799
330
2
100
AcDbEntity
  8
0
100
AcDbCircle
 10
318.5238683122743
 20
70.13419254801982
 30
0.0
 40
2.5
100
AcDbArc
 50
90.0
 51
166.3033947545365
  0
LINE
  5
79A
330
2
100
AcDbEntity
  8
0
100
AcDbLine
 10
329.9826688707458
 20
72.63419254801982
 30
0.0
 11
329.9826688707458
 21
66.13419254801982
 31
0.0
  0
LINE
  5
79B
330
2
100
AcDbEntity
  8
0
100
AcDbLine
 10
329.9826688707458
 20
72.63419254801982
 30
0.0
 11
329.9826688707458
 21
66.13419254801982
 31
0.0
  0
LINE
  5
79C
330
2
100
AcDbEntity
  8
0
100
AcDbLine
 10
329.9826688707458
 20
72.63419254801982
 30
0.0
 11
329.9826688707458
 21
66.13419254801982
 31
0.0
  0
LINE
  5
79D
330
2
100
AcDbEntity
  8
0
100
AcDbLine
 10
329.9826688707458
 20
66.13419254801982
 30
0.0
 11
329.9826688707458
 21
72.63419254801982
 31
0.0
  0
LINE
  5
79E
330
2
100
AcDbEntity
  8
0
100
AcDbLine
 10
326.4826688707457
 20
72.63419254801982
 30
0.0
 11
326.4826688707457
 21
66.13419254801982
 31
0.0
  0
LINE
  5
79F
330
2
100
AcDbEntity
  8
0
100
AcDbLine
 10
326.4826688707457
 20
72.63419254801982
 30
0.0
 11
326.4826688707457
 21
66.13419254801982
 31
0.0
  0
LINE
  5
7A0
330
2
100
AcDbEntity
  8
0
100
AcDbLine
 10
323.4826688707457
 20
66.13419254801982
 30
0.0
 11
323.4826688707457
 21
71.13419254801982
 31
0.0
  0
LINE
  5
7A1
330
2
100
AcDbEntity
  8
0
100
AcDbLine
 10
320.2326688707457
 20
71.13419254801982
 30
0.0
 11
320.2326688707457
 21
67.13419254801983
 31
0.0
  0
LINE
  5
7A2
330
2
100
AcDbEntity
  8
0
100
AcDbLine
 10
320.2326688707457
 20
67.13419254801983
 30
0.0
 11
317.3154936823793
 21
67.13419254801983
 31
0.0
  0
ARC
  5
7A3
330
2
100
AcDbEntity
  8
0
100
AcDbCircle
 10
317.3154936823793
 20
67.88419254801983
 30
0.0
 40
0.75
100
AcDbArc
 50
214.615505381436
 51
270.0
  0
ARC
  5
7A4
330
2
100
AcDbEntity
  8
0
100
AcDbCircle
 10
320.0398958154132
 20
69.7647200399677
 30
0.0
 40
4.060400373134885
100
AcDbArc
 50
166.3033947545365
 51
214.615505381436
  0
LINE
  5
7A5
330
2
100
AcDbEntity
  8
0
100
AcDbLine
 10
326.4826688707457
 20
66.13419254801982
 30
0.0
 11
329.9826688707458
 21
66.13419254801982
 31
0.0
  0
LINE
  5
7A6
330
2
100
AcDbEntity
  8
0
100
AcDbLine
 10
323.4826688707457
 20
71.13419254801982
 30
0.0
 11
320.2326688707457
 21
71.13419254801982
 31
0.0
  0
LINE
  5
7A7
330
2
100
AcDbEntity
  8
0
100
AcDbLine
 10
317.9788669324616
 20
76.13419254801982
 30
0.0
 11
323.4826688707457
 21
76.13419254801982
 31
0.0
  0
LINE
  5
7A8
330
2
100
AcDbEntity
  8
0
100
AcDbLine
 10
323.4826688707457
 20
72.63419254801982
 30
0.0
 11
318.5238683122743
 21
72.63419254801982
 31
0.0
  0
ARC
  5
7A9
330
2
100
AcDbEntity
  8
0
100
AcDbCircle
 10
317.9788669324616
 20
72.38419254801982
 30
0.0
 40
3.75
100
AcDbArc
 50
90.0
 51
109.330727832983
  0
LINE
  5
7AA
330
2
100
AcDbEntity
  8
0
100
AcDbLine
 10
324.7326688707457
 20
72.63419254801982
 30
0.0
 11
326.4826688707457
 21
72.63419254801982
 31
0.0
  0
LINE
  5
7AB
330
2
100
AcDbEntity
  8
0
100
AcDbLine
 10
324.7326688707457
 20
76.13419254801982
 30
0.0
 11
324.7326688707457
 21
72.63419254801982
 31
0.0
  0
LINE
  5
7AC
330
2
100
AcDbEntity
  8
0
100
AcDbLine
 10
323.4826688707457
 20
76.13419254801982
 30
0.0
 11
323.4826688707457
 21
72.63419254801982
 31
0.0
  0
CIRCLE
  5
7AD
330
2
100
AcDbEntity
  8
0
100
AcDbCircle
 10
366.2326688707457
 20
53.13419254801982
 30
0.0
 40
3.25
  0
ARC
  5
7AE
330
2
100
AcDbEntity
  8
0
100
AcDbCircle
 10
339.6302981810904
 20
72.03720978939912
 30
0.0
 40
4.60491370615741
100
AcDbArc
 50
312.379409433819
 51
49.34908835590179
  0
LINE
  5
7AF
330
2
100
AcDbEntity
  8
0
100
AcDbLine
 10
336.2326688707458
 20
66.13419254801982
 30
0.0
 11
336.2326688707458
 21
72.63419254801982
 31
0.0
  0
LINE
  5
7B0
330
2
100
AcDbEntity
  8
0
100
AcDbLine
 10
332.9826688707457
 20
66.13419254801982
 30
0.0
 11
332.9826688707457
 21
76.13419254801982
 31
0.0
  0
LINE
  5
7B1
330
2
100
AcDbEntity
  8
0
100
AcDbLine
 10
340.4826688707458
 20
66.13419254801982
 30
0.0
 11
337.4826688707457
 21
71.13419254801982
 31
0.0
  0
LINE
  5
7B2
330
2
100
AcDbEntity
  8
0
100
AcDbLine
 10
332.9826688707457
 20
66.13419254801982
 30
0.0
 11
336.2326688707458
 21
66.13419254801982
 31
0.0
  0
LINE
  5
7B3
330
2
100
AcDbEntity
  8
0
100
AcDbLine
 10
344.2826688707459
 20
66.13419254801982
 30
0.0
 11
340.4826688707458
 21
66.13419254801982
 31
0.0
  0
LINE
  5
7B4
330
2
100
AcDbEntity
  8
0
100
AcDbLine
 10
344.2826688707459
 20
66.13419254801982
 30
0.0
 11
342.7337215905891
 21
68.63243801494792
 31
0.0
  0
ARC
  5
7B5
330
2
100
AcDbEntity
  8
0
100
AcDbCircle
 10
342.7358653229034
 20
68.63372425433652
 30
0.0
 40
0.0025
100
AcDbArc
 50
132.3794094338536
 51
210.963756532034
  0
LINE
  5
7B6
330
2
100
AcDbEntity
  8
0
100
AcDbLine
 10
337.4826688707457
 20
71.13419254801982
 30
0.0
 11
339.7576688707458
 21
71.13419254801982
 31
0.0
  0
LINE
  5
7B7
330
2
100
AcDbEntity
  8
0
100
AcDbLine
 10
336.2326688707458
 20
72.63419254801982
 30
0.0
 11
339.7576688707458
 21
72.63419254801982
 31
0.0
  0
LINE
  5
7B8
330
2
100
AcDbEntity
  8
0
100
AcDbLine
 10
332.9826688707457
 20
76.13419254801982
 30
0.0
 11
341.0015413320443
 21
76.13419254801982
 31
0.0
  0
LINE
  5
7B9
330
2
100
AcDbEntity
  8
0
100
AcDbLine
 10
331.7326688707457
 20
72.63419254801982
 30
0.0
 11
331.7326688707457
 21
76.13419254801982
 31
0.0
  0
ARC
  5
7BA
330
2
100
AcDbEntity
  8
0
100
AcDbCircle
 10
341.0015413320443
 20
73.63419254801982
 30
0.0
 40
2.5
100
AcDbArc
 50
49.34908835590179
 51
90.0
  0
LINE
  5
7BB
330
2
100
AcDbEntity
  8
0
100
AcDbLine
 10
340.4826688707458
 20
71.9091925480198
 30
0.0
 11
340.4826688707458
 21
71.85919254801985
 31
0.0
  0
ARC
  5
7BC
330
2
100
AcDbEntity
  8
0
100
AcDbCircle
 10
339.7576688707458
 20
71.9091925480198
 30
0.0
 40
0.7250000000000001
100
AcDbArc
 50
359.9999999999967
 51
90.0
  0
ARC
  5
7BD
330
2
100
AcDbEntity
  8
0
100
AcDbCircle
 10
339.7576688707458
 20
71.85919254801985
 30
0.0
 40
0.7250000000000001
100
AcDbArc
 50
270.0
 51
0.0
  0
ARC
  5
7BE
330
2
100
AcDbEntity
  8
0
100
AcDbCircle
 10
368.2326688707457
 20
51.83320154801982
 30
0.0
 40
5.0
100
AcDbArc
 50
271.0001829999991
 51
0.0
  0
LINE
  5
7C0
330
2
100
AcDbEntity
  8
0
100
AcDbLine
 10
338.3096643707458
 20
140.1341925480198
 30
0.0
 11
316.3096643707458
 21
140.1341925480198
 31
0.0
  0
ARC
  5
7C1
330
2
100
AcDbEntity
  8
0
100
AcDbCircle
 10
328.2326688707458
 20
104.1341925480198
 30
0.0
 40
7.5
100
AcDbArc
 50
199.4712070000018
 51
160.528792999998
  0
CIRCLE
  5
7C2
330
2
100
AcDbEntity
  8
0
100
AcDbCircle
 10
328.2326688707458
 20
104.1341925480198
 30
0.0
 40
20.0
  0
LINE
  5
7C3
330
2
100
AcDbEntity
  8
CENTER
100
AcDbLine
 10
302.6933199685093
 20
104.1341925480198
 30
0.0
 11
353.7720177729823
 21
104.1341925480198
 31
0.0
  0
ARC
  5
7C4
330
2
100
AcDbEntity
  8
0
100
AcDbCircle
 10
328.2326688707458
 20
91.13419254801982
 30
0.0
 40
42.5
100
AcDbArc
 50
19.74990099999923
 51
90.0
  0
LINE
  5
7C5
330
2
100
AcDbEntity
  8
CENTER
100
AcDbLine
 10
371.9826688707458
 20
129.1341925480198
 30
0.0
 11
284.4826688707458
 21
129.1341925480198
 31
0.0
  0
LINE
  5
7C6
330
2
100
AcDbEntity
  8
0
100
AcDbLine
 10
368.3198578707458
 20
135.4344815480198
 30
0.0
 11
328.2326688707458
 21
136.1341925480198
 31
0.0
  0
LINE
  5
7C7
330
2
100
AcDbEntity
  8
CENTER
100
AcDbLine
 10
278.2326688707458
 20
91.13419254801982
 30
0.0
 11
378.2326688707458
 21
91.13419254801982
 31
0.0
  0
CIRCLE
  5
7C8
330
2
100
AcDbEntity
  8
0
100
AcDbCircle
 10
290.2326688707457
 20
129.1341925480198
 30
0.0
 40
3.25
  0
ARC
  5
7C9
330
2
100
AcDbEntity
  8
0
100
AcDbCircle
 10
328.2326688707458
 20
91.13419254801982
 30
0.0
 40
42.5
100
AcDbArc
 50
90.0
 51
160.2501070000011
  0
LINE
  5
7CA
330
2
100
AcDbEntity
  8
0
100
AcDbLine
 10
323.7326688707458
 20
106.6341925480198
 30
0.0
 11
323.7326688707458
 21
101.6341925480198
 31
0.0
  0
LINE
  5
7CB
330
2
100
AcDbEntity
  8
0
100
AcDbLine
 10
318.7326688707457
 20
101.6341925480198
 30
0.0
 11
318.7326688707457
 21
106.6341925480198
 31
0.0
  0
LINE
  5
7CC
330
2
100
AcDbEntity
  8
0
100
AcDbLine
 10
318.7326688707457
 20
101.6341925480198
 30
0.0
 11
323.7326688707458
 21
101.6341925480198
 31
0.0
  0
LINE
  5
7CD
330
2
100
AcDbEntity
  8
0
100
AcDbLine
 10
318.7326688707457
 20
106.6341925480198
 30
0.0
 11
323.7326688707458
 21
106.6341925480198
 31
0.0
  0
LINE
  5
7CE
330
2
100
AcDbEntity
  8
0
100
AcDbLine
 10
288.1453728707456
 20
135.4342835480198
 30
0.0
 11
328.2326688707458
 21
136.1341925480198
 31
0.0
  0
ARC
  5
7CF
330
2
100
AcDbEntity
  8
0
100
AcDbCircle
 10
288.2326688707457
 20
130.4350925480198
 30
0.0
 40
5.0
100
AcDbArc
 50
91.0006099999993
 51
180.0
  0
LINE
  5
7D0
330
2
100
AcDbEntity
  8
0
100
AcDbLine
 10
326.7322723709974
 20
156.634610262159
 30
0.0
 11
326.7322723709972
 21
140.1341925480198
 31
0.0
  0
LINE
  5
7D1
330
2
100
AcDbEntity
  8
0
100
AcDbLine
 10
329.7322723709971
 20
156.6346566066732
 30
0.0
 11
329.7322723709971
 21
140.1741915480198
 31
0.0
  0
LINE
  5
7D2
330
2
100
AcDbEntity
  8
0
100
AcDbLine
 10
320.7322723709974
 20
156.6346116729003
 30
0.0
 11
320.7322723709971
 21
140.1341925480198
 31
0.0
  0
LINE
  5
7D3
330
2
100
AcDbEntity
  8
0
100
AcDbLine
 10
309.2829613707458
 20
137.4992015480198
 30
0.0
 11
316.3096643707458
 21
140.1341925480198
 31
0.0
  0
ARC
  5
7D4
330
2
100
AcDbEntity
  8
0
100
AcDbCircle
 10
309.8096643707458
 20
136.0946835480198
 30
0.0
 40
1.5
100
AcDbArc
 50
110.5565030000013
 51
180.0005040000005
  0
LINE
  5
7D5
330
2
100
AcDbEntity
  8
0
100
AcDbLine
 10
308.3096643707458
 20
136.0946835480198
 30
0.0
 11
308.3095723707458
 21
135.8024935480198
 31
0.0
  0
LINE
  5
7D6
330
2
100
AcDbEntity
  8
0
100
AcDbLine
 10
316.3096643707458
 20
140.1341925480198
 30
0.0
 11
316.3096643707458
 21
135.9421915480198
 31
0.0
  0
LINE
  5
7D7
330
2
100
AcDbEntity
  8
HOJO
100
AcDbLine
 10
322.6035643709974
 20
157.1099221671394
 30
0.0
 11
324.8611633709974
 21
156.1593141671394
 31
0.0
  0
ARC
  5
7D8
330
2
100
AcDbEntity
  8
HOJO
100
AcDbCircle
 10
321.9822723709971
 20
155.6346101671394
 30
0.0
 40
1.600781999999999
100
AcDbArc
 50
67.16467299999876
 51
141.3401949999988
  0
ARC
  5
7D9
330
2
100
AcDbEntity
  8
HOJO
100
AcDbCircle
 10
325.4822723709971
 20
157.6346101671394
 30
0.0
 40
1.600781
100
AcDbArc
 50
247.1647030000001
 51
321.340194401624
  0
CIRCLE
  5
7DB
330
2
100
AcDbEntity
  8
0
100
AcDbCircle
 10
366.2326688707457
 20
129.1341925480198
 30
0.0
 40
3.25
  0
LINE
  5
7DC
330
2
100
AcDbEntity
  8
0
100
AcDbLine
 10
335.7322723709971
 20
156.6346566066731
 30
0.0
 11
335.7322723709971
 21
140.1341925480198
 31
0.0
  0
LINE
  5
7DD
330
2
100
AcDbEntity
  8
0
100
AcDbLine
 10
322.7330653704943
 20
157.0553931360184
 30
0.0
 11
322.7330653704943
 21
140.1341925480198
 31
0.0
  0
LINE
  5
7DE
330
2
100
AcDbEntity
  8
0
100
AcDbLine
 10
324.7330653704943
 20
156.2132524369837
 30
0.0
 11
324.7330653704943
 21
140.1741915480198
 31
0.0
  0
LINE
  5
7DF
330
2
100
AcDbEntity
  8
0
100
AcDbLine
 10
345.3362753707458
 20
137.4992015480198
 30
0.0
 11
338.3096643707458
 21
140.1341925480198
 31
0.0
  0
LINE
  5
7E0
330
2
100
AcDbEntity
  8
0
100
AcDbLine
 10
338.3096643707458
 20
140.1341925480198
 30
0.0
 11
338.3096643707458
 21
135.9421915480198
 31
0.0
  0
ARC
  5
7E1
330
2
100
AcDbEntity
  8
0
100
AcDbCircle
 10
344.8096643707458
 20
136.0946835480198
 30
0.0
 40
1.5
100
AcDbArc
 50
0.0001300000000561
 51
69.4441989999993
  0
LINE
  5
7E2
330
2
100
AcDbEntity
  8
0
100
AcDbLine
 10
346.3096643707458
 20
136.0946835480198
 30
0.0
 11
346.3095723707458
 21
135.8025925480198
 31
0.0
  0
ARC
  5
7E5
330
2
100
AcDbEntity
  8
0
100
AcDbCircle
 10
368.2326688707457
 20
130.4351835480198
 30
0.0
 40
5.0
100
AcDbArc
 50
0.0
 51
89.00009199999994
  0
TEXT
  5
7E6
330
2
100
AcDbEntity
  8
TITLE
100
AcDbText
 10
44.72697129272103
 20
22.84332276409105
 30
0.0
 40
6.0
  1
VGKC15-5～60N100
100
AcDbText
  0
MTEXT
  5
7F8
330
2
100
AcDbEntity
  8
TITLE
100
AcDbMText
 10
133.4527697682613
 20
31.90247826154996
 30
0.0
 40
2.8284
 41
11.6777565
 71
     1
 72
     5
  1
L1\PL2\PL4
1001
ACAD
1000
MTEXTBEGIN
1070
    73
1070
     1
1070
    44
1040
1.0
1070
    74
1070
     0
1000
MTEXTEND
  0
ARC
  5
80C
330
2
100
AcDbEntity
  8
HOJO
100
AcDbCircle
 10
330.9822723709971
 20
155.6746091671394
 30
0.0
 40
1.600781999999999
100
AcDbArc
 50
67.16467299999876
 51
141.3401949999988
  0
ARC
  5
80D
330
2
100
AcDbEntity
  8
HOJO
100
AcDbCircle
 10
334.4822723709971
 20
157.6746091671394
 30
0.0
 40
1.600781
100
AcDbArc
 50
247.1647030000001
 51
321.340194401624
  0
LINE
  5
80E
330
2
100
AcDbEntity
  8
HOJO
100
AcDbLine
 10
331.6035643709974
 20
157.1499211671394
 30
0.0
 11
333.8611633709974
 21
156.1993131671393
 31
0.0
  0
LINE
  5
8C4
330
2
100
AcDbEntity
  8
0
100
AcDbLine
 10
181.2825912155462
 20
281.882075015353
 30
0.0
 11
205.2825912155463
 21
281.882075015353
 31
0.0
  0
LINE
  5
8C5
330
2
100
AcDbEntity
  8
0
100
AcDbLine
 10
181.2825912155462
 20
279.4530750153529
 30
0.0
 11
205.2825912155463
 21
279.4530750153529
 31
0.0
  0
LINE
  5
8C6
330
2
100
AcDbEntity
  8
0
100
AcDbLine
 10
178.2825912155463
 20
296.4530750153528
 30
0.0
 11
205.2825912155463
 21
296.4530750153528
 31
0.0
  0
LINE
  5
8C7
330
2
100
AcDbEntity
  8
CENTER
100
AcDbLine
 10
210.2825912155462
 20
288.9530750153529
 30
0.0
 11
34.80528767151554
 21
288.9530750153529
 31
0.0
  0
LINE
  5
8E9
330
2
100
AcDbEntity
  8
0
100
AcDbLine
 10
163.2826682155463
 20
259.9530750153529
 30
0.0
 11
57.28267121554631
 21
259.9530750153529
 31
0.0
  0
LINE
  5
8EA
330
2
100
AcDbEntity
  8
0
100
AcDbLine
 10
163.2826682155463
 20
317.9530750153529
 30
0.0
 11
57.28267121554631
 21
317.9530750153529
 31
0.0
  0
LINE
  5
8EB
330
2
100
AcDbEntity
  8
0
100
AcDbLine
 10
57.28267121554631
 20
243.9530750153529
 30
0.0
 11
172.2826682155463
 21
243.9530750153529
 31
0.0
  0
LINE
  5
8EC
330
2
100
AcDbEntity
  8
0
100
AcDbLine
 10
57.28267121554631
 20
333.9530590153529
 30
0.0
 11
172.2826682155463
 21
333.9530590153529
 31
0.0
  0
LINE
  5
8ED
330
2
100
AcDbEntity
  8
0
100
AcDbLine
 10
176.2825912155463
 20
269.9530750153529
 30
0.0
 11
176.2825912155463
 21
307.9530750153529
 31
0.0
  0
LINE
  5
8EE
330
2
100
AcDbEntity
  8
0
100
AcDbLine
 10
178.2825912155463
 20
297.4530750153529
 30
0.0
 11
178.2825912155463
 21
280.4530750153529
 31
0.0
  0
LINE
  5
8EF
330
2
100
AcDbEntity
  8
0
100
AcDbLine
 10
172.2825912155462
 20
333.9530590153529
 30
0.0
 11
172.2825912155462
 21
243.9530750153529
 31
0.0
  0
ARC
  5
8F0
330
2
100
AcDbEntity
  8
0
100
AcDbCircle
 10
165.2826682155463
 20
245.9530750153529
 30
0.0
 40
2.0
100
AcDbArc
 50
180.0
 51
270.0
  0
LINE
  5
8F1
330
2
100
AcDbEntity
  8
CENTER
100
AcDbLine
 10
159.2826682155463
 20
250.953075015353
 30
0.0
 11
176.2825912155463
 21
250.9530750153529
 31
0.0
  0
LINE
  5
8F2
330
2
100
AcDbEntity
  8
0
100
AcDbLine
 10
163.2826682155463
 20
259.9530750153529
 30
0.0
 11
163.2826682155463
 21
245.9530590153529
 31
0.0
  0
LINE
  5
8F3
330
2
100
AcDbEntity
  8
HIDS
  6
SEKKEI_H
100
AcDbLine
 10
163.2825912155462
 20
247.7030750153529
 30
0.0
 11
172.2825912155462
 21
247.7030750153529
 31
0.0
  0
LINE
  5
8F4
330
2
100
AcDbEntity
  8
HIDS
  6
SEKKEI_H
100
AcDbLine
 10
163.2825912155462
 20
254.2030750153529
 30
0.0
 11
172.2825912155462
 21
254.2030750153529
 31
0.0
  0
LINE
  5
8F5
330
2
100
AcDbEntity
  8
0
100
AcDbLine
 10
175.2825912155462
 20
268.9530750153529
 30
0.0
 11
172.2825912155462
 21
268.9530750153529
 31
0.0
  0
ARC
  5
8F6
330
2
100
AcDbEntity
  8
0
100
AcDbCircle
 10
175.2825912155462
 20
269.9530750153529
 30
0.0
 40
1.0
100
AcDbArc
 50
270.0
 51
0.0
  0
LINE
  5
8F7
330
2
100
AcDbEntity
  8
0
100
AcDbLine
 10
178.2825912155463
 20
281.4530750153529
 30
0.0
 11
181.2825912155462
 21
281.4530750153529
 31
0.0
  0
LINE
  5
8F8
330
2
100
AcDbEntity
  8
0
100
AcDbLine
 10
176.2825912155463
 20
280.4530750153529
 30
0.0
 11
178.2825912155463
 21
280.4530750153529
 31
0.0
  0
LINE
  5
8F9
330
2
100
AcDbEntity
  8
0
100
AcDbLine
 10
181.2825912155462
 20
281.882075015353
 30
0.0
 11
181.2825912155462
 21
279.4530750153529
 31
0.0
  0
LINE
  5
8FA
330
2
100
AcDbEntity
  8
0
100
AcDbLine
 10
163.2826682155463
 20
317.9530750153529
 30
0.0
 11
163.2826682155463
 21
331.9530590153529
 31
0.0
  0
LINE
  5
8FB
330
2
100
AcDbEntity
  8
0
100
AcDbLine
 10
176.2825912155463
 20
297.4530750153529
 30
0.0
 11
178.2825912155463
 21
297.4530750153529
 31
0.0
  0
LINE
  5
8FC
330
2
100
AcDbEntity
  8
0
100
AcDbLine
 10
175.2825912155462
 20
308.9530750153528
 30
0.0
 11
172.2825912155462
 21
308.9530750153528
 31
0.0
  0
LINE
  5
8FD
330
2
100
AcDbEntity
  8
HIDS
  6
SEKKEI_H
100
AcDbLine
 10
163.2825912155462
 20
323.7030750153529
 30
0.0
 11
172.2825912155462
 21
323.7030750153529
 31
0.0
  0
ARC
  5
8FE
330
2
100
AcDbEntity
  8
0
100
AcDbCircle
 10
175.2825912155462
 20
307.9530750153529
 30
0.0
 40
1.0
100
AcDbArc
 50
0.0
 51
90.0
  0
LINE
  5
8FF
330
2
100
AcDbEntity
  8
CENTER
100
AcDbLine
 10
159.2826682155463
 20
326.9530750153529
 30
0.0
 11
176.2825912155463
 21
326.9530750153529
 31
0.0
  0
LINE
  5
900
330
2
100
AcDbEntity
  8
HIDS
  6
SEKKEI_H
100
AcDbLine
 10
163.2825912155462
 20
330.2030750153529
 30
0.0
 11
172.2825912155462
 21
330.2030750153529
 31
0.0
  0
ARC
  5
901
330
2
100
AcDbEntity
  8
0
100
AcDbCircle
 10
165.2826682155463
 20
331.9530900153529
 30
0.0
 40
2.0
100
AcDbArc
 50
90.0
 51
180.0
  0
LINE
  5
962
330
2
100
AcDbEntity
  8
0
100
AcDbLine
 10
205.2825912155463
 20
296.4530750153528
 30
0.0
 11
205.2825912155463
 21
279.4530750153529
 31
0.0
  0
LINE
  5
16A8
330
2
100
AcDbEntity
  8
0
100
AcDbLine
 10
45.7825852155463
 20
124.4020915480198
 30
0.0
 11
45.78247521554636
 21
57.86618354801982
 31
0.0
  0
LINE
  5
16A9
330
2
100
AcDbEntity
  8
0
100
AcDbLine
 10
46.78258521554631
 20
56.13419254801982
 30
0.0
 11
46.78258521554631
 21
47.13419254801983
 31
0.0
  0
ARC
  5
16AA
330
2
100
AcDbEntity
  8
0
100
AcDbCircle
 10
49.18259421554648
 20
51.13419254801982
 30
0.0
 40
6.5
100
AcDbArc
 50
146.9443049999989
 51
213.0556949999997
  0
LINE
  5
16AB
330
2
100
AcDbEntity
  8
0
100
AcDbLine
 10
45.7825852155463
 20
55.13419254801982
 30
0.0
 11
45.7825852155463
 21
47.13419254801983
 31
0.0
  0
ARC
  5
16AC
330
2
100
AcDbEntity
  8
0
100
AcDbCircle
 10
48.22078721554635
 20
47.66639254801981
 30
0.0
 40
1.533470999999999
100
AcDbArc
 50
200.3083040000001
 51
272.3116150000011
  0
LINE
  5
16AD
330
2
100
AcDbEntity
  8
0
100
AcDbLine
 10
45.7825852155463
 20
47.13419254801983
 30
0.0
 11
44.57279121554643
 21
47.13419254801983
 31
0.0
  0
ARC
  5
16AE
330
2
100
AcDbEntity
  8
0
100
AcDbCircle
 10
44.57279121554643
 20
48.13419254801982
 30
0.0
 40
1.0
100
AcDbArc
 50
213.0556949999997
 51
270.0
  0
LINE
  5
16AF
330
2
100
AcDbEntity
  8
0
100
AcDbLine
 10
46.78258521554631
 20
47.33419354801981
 30
0.0
 11
45.7825852155463
 21
47.33419354801981
 31
0.0
  0
LINE
  5
16B0
330
2
100
AcDbEntity
  8
0
100
AcDbLine
 10
57.28258121554631
 20
46.13419254801982
 30
0.0
 11
48.22078721554635
 21
46.13419254801982
 31
0.0
  0
LINE
  5
16B1
330
2
100
AcDbEntity
  8
0
100
AcDbLine
 10
57.28258121554631
 20
56.72500154801986
 30
0.0
 11
46.58939521554635
 21
56.72500154801986
 31
0.0
  0
LINE
  5
16B2
330
2
100
AcDbEntity
  8
CENTER
100
AcDbLine
 10
40.18259421554648
 20
51.13419254801982
 30
0.0
 11
49.28258521554631
 21
51.13419254801982
 31
0.0
  0
ARC
  5
16B3
330
2
100
AcDbEntity
  8
0
100
AcDbCircle
 10
45.2825852155463
 20
58.13419254801982
 30
0.0
 40
1.0
100
AcDbArc
 50
180.0
 51
270.0
  0
LINE
  5
16B4
330
2
100
AcDbEntity
  8
0
100
AcDbLine
 10
45.2825852155463
 20
57.13419254801983
 30
0.0
 11
45.7825852155463
 21
57.13419254801983
 31
0.0
  0
ARC
  5
16B5
330
2
100
AcDbEntity
  8
0
100
AcDbCircle
 10
44.57279121554643
 20
54.13419254801983
 30
0.0
 40
1.0
100
AcDbArc
 50
90.0
 51
146.9443049999989
  0
LINE
  5
16B6
330
2
100
AcDbEntity
  8
0
100
AcDbLine
 10
45.7825852155463
 20
55.13419254801982
 30
0.0
 11
44.57279121554643
 21
55.13419254801982
 31
0.0
  0
ARC
  5
16B7
330
2
100
AcDbEntity
  8
0
100
AcDbCircle
 10
46.78258521554631
 20
57.86618354801982
 30
0.0
 40
1.0
100
AcDbArc
 50
180.0
 51
240.0001979999977
  0
ARC
  5
16B8
330
2
100
AcDbEntity
  8
0
100
AcDbCircle
 10
45.7825852155463
 20
56.13419254801982
 30
0.0
 40
1.0
100
AcDbArc
 50
0.0
 51
90.0
  0
LINE
  5
16B9
330
2
100
AcDbEntity
  8
0
100
AcDbLine
 10
45.7825852155463
 20
54.93419154801983
 30
0.0
 11
46.78258521554631
 21
54.93419154801983
 31
0.0
  0
LINE
  5
172D
330
2
100
AcDbEntity
  8
0
100
AcDbLine
 10
46.78258521554631
 20
126.1341925480198
 30
0.0
 11
46.78258521554631
 21
135.1341925480198
 31
0.0
  0
ARC
  5
172E
330
2
100
AcDbEntity
  8
0
100
AcDbCircle
 10
49.18259421554648
 20
131.1341925480198
 30
0.0
 40
6.5
100
AcDbArc
 50
146.9443049999989
 51
213.0556949999997
  0
LINE
  5
172F
330
2
100
AcDbEntity
  8
0
100
AcDbLine
 10
45.7825852155463
 20
135.1341925480198
 30
0.0
 11
45.7825852155463
 21
127.1341925480198
 31
0.0
  0
LINE
  5
1731
330
2
100
AcDbEntity
  8
0
100
AcDbLine
 10
43.28255121554639
 20
128.4065925480198
 30
0.0
 11
43.28253121554644
 21
107.6341925480198
 31
0.0
  0
LINE
  5
1732
330
2
100
AcDbEntity
  8
0
100
AcDbLine
 10
44.28258121554631
 20
55.09115553366763
 30
0.0
 11
44.28258121554631
 21
127.1771915480198
 31
0.0
  0
ARC
  5
1733
330
2
100
AcDbEntity
  8
0
100
AcDbCircle
 10
44.28258121554631
 20
107.6341925480198
 30
0.0
 40
1.0
100
AcDbArc
 50
180.0
 51
270.0
  0
LINE
  5
1734
330
2
100
AcDbEntity
  8
0
100
AcDbLine
 10
57.28258121554631
 20
125.5433835480197
 30
0.0
 11
46.58939521554635
 21
125.5433835480197
 31
0.0
  0
LINE
  5
1735
330
2
100
AcDbEntity
  8
0
100
AcDbLine
 10
45.2825852155463
 20
125.1341925480198
 30
0.0
 11
45.7825852155463
 21
125.1341925480198
 31
0.0
  0
LINE
  5
1736
330
2
100
AcDbEntity
  8
0
100
AcDbLine
 10
45.7825852155463
 20
127.1341925480198
 30
0.0
 11
44.57279121554643
 21
127.1341925480198
 31
0.0
  0
ARC
  5
1737
330
2
100
AcDbEntity
  8
0
100
AcDbCircle
 10
44.57279121554643
 20
128.1341925480198
 30
0.0
 40
1.0
100
AcDbArc
 50
213.0556949999997
 51
270.0
  0
ARC
  5
1738
330
2
100
AcDbEntity
  8
0
100
AcDbCircle
 10
45.2825852155463
 20
124.1341925480198
 30
0.0
 40
1.0
100
AcDbArc
 50
90.0
 51
180.0
  0
ARC
  5
1739
330
2
100
AcDbEntity
  8
0
100
AcDbCircle
 10
45.7825852155463
 20
126.1341925480198
 30
0.0
 40
1.0
100
AcDbArc
 50
270.0
 51
0.0
  0
LINE
  5
173A
330
2
100
AcDbEntity
  8
0
100
AcDbLine
 10
46.78258521554631
 20
127.3341935480198
 30
0.0
 11
45.7825852155463
 21
127.3341935480198
 31
0.0
  0
ARC
  5
173B
330
2
100
AcDbEntity
  8
0
100
AcDbCircle
 10
46.78258521554631
 20
124.4020915480198
 30
0.0
 40
1.0
100
AcDbArc
 50
120.0002980000033
 51
180.0
  0
ARC
  5
173C
330
2
100
AcDbEntity
  8
0
100
AcDbCircle
 10
53.2825852155463
 20
139.1341925480198
 30
0.0
 40
1.0
100
AcDbArc
 50
0.0
 51
90.0
  0
ARC
  5
173D
330
2
100
AcDbEntity
  8
0
100
AcDbCircle
 10
44.28258121554631
 20
139.1341925480198
 30
0.0
 40
1.0
100
AcDbArc
 50
90.0
 51
180.0
  0
ARC
  5
173E
330
2
100
AcDbEntity
  8
0
100
AcDbCircle
 10
48.22078721554635
 20
134.6019925480198
 30
0.0
 40
1.533470999999999
100
AcDbArc
 50
87.68839299999994
 51
159.6916959999983
  0
LINE
  5
173F
330
2
100
AcDbEntity
  8
CENTER
100
AcDbLine
 10
40.18259421554648
 20
131.1341925480198
 30
0.0
 11
49.28258521554631
 21
131.1341925480198
 31
0.0
  0
LINE
  5
1740
330
2
100
AcDbEntity
  8
0
100
AcDbLine
 10
43.28256121554637
 20
139.1341925480198
 30
0.0
 11
43.28255121554639
 21
133.8617925480198
 31
0.0
  0
LINE
  5
1741
330
2
100
AcDbEntity
  8
0
100
AcDbLine
 10
45.7825852155463
 20
135.1341925480198
 30
0.0
 11
44.57279121554643
 21
135.1341925480198
 31
0.0
  0
ARC
  5
1742
330
2
100
AcDbEntity
  8
0
100
AcDbCircle
 10
44.57279121554643
 20
134.1341925480198
 30
0.0
 40
1.0
100
AcDbArc
 50
90.0
 51
146.9443049999989
  0
LINE
  5
1743
330
2
100
AcDbEntity
  8
0
100
AcDbLine
 10
45.7825852155463
 20
134.9341915480198
 30
0.0
 11
46.78258521554631
 21
134.9341915480198
 31
0.0
  0
LINE
  5
1744
330
2
100
AcDbEntity
  8
0
100
AcDbLine
 10
54.28258121554631
 20
139.1341925480198
 30
0.0
 11
54.28258121554631
 21
136.1341925480198
 31
0.0
  0
LINE
  5
1745
330
2
100
AcDbEntity
  8
0
100
AcDbLine
 10
57.28258121554631
 20
136.1341925480198
 30
0.0
 11
48.22078721554635
 21
136.1341925480198
 31
0.0
  0
LINE
  5
1746
330
2
100
AcDbEntity
  8
0
100
AcDbLine
 10
44.28258121554631
 20
140.1341925480198
 30
0.0
 11
53.2825852155463
 21
140.1341925480198
 31
0.0
  0
LINE
  5
17B1
330
2
100
AcDbEntity
  8
0
100
AcDbLine
 10
57.28267121554631
 20
287.1530750153527
 30
0.0
 11
57.28267121554631
 21
290.4530750153526
 31
0.0
  0
LINE
  5
17B2
330
2
100
AcDbEntity
  8
0
100
AcDbLine
 10
44.28267521554585
 20
316.9530900153527
 30
0.0
 11
44.28267521554608
 21
330.9530750153529
 31
0.0
  0
LINE
  5
1809
330
2
100
AcDbEntity
  8
0
100
AcDbLine
 10
57.28267121554608
 20
243.9530750153529
 30
0.0
 11
57.28267121554608
 21
282.0530750153528
 31
0.0
  0
LINE
  5
180A
330
2
100
AcDbEntity
  8
0
100
AcDbLine
 10
44.28267521554608
 20
246.9530750153529
 30
0.0
 11
44.28267521554585
 21
260.9961166938979
 31
0.0
  0
ARC
  5
180B
330
2
100
AcDbEntity
  8
0
100
AcDbCircle
 10
47.78267521554607
 20
260.9530830153528
 30
0.0
 40
1.0
100
AcDbArc
 50
180.0
 51
270.0
  0
LINE
  5
180C
330
2
100
AcDbEntity
  8
0
100
AcDbLine
 10
47.28267521554608
 20
243.9530750153529
 30
0.0
 11
57.28267121554608
 21
243.9530750153529
 31
0.0
  0
ARC
  5
180D
330
2
100
AcDbEntity
  8
0
100
AcDbCircle
 10
47.28267521554608
 20
246.9530750153527
 30
0.0
 40
3.0
100
AcDbArc
 50
179.9999999999967
 51
270.0
  0
LINE
  5
180E
330
2
100
AcDbEntity
  8
0
100
AcDbLine
 10
46.78267521554608
 20
260.9530830153528
 30
0.0
 11
46.78267521554608
 21
269.9530750153529
 31
0.0
  0
LINE
  5
180F
330
2
100
AcDbEntity
  8
0
100
AcDbLine
 10
46.78267521554608
 20
260.9530830153528
 30
0.0
 11
46.78267521554608
 21
269.9530750153529
 31
0.0
  0
LINE
  5
1810
330
2
100
AcDbEntity
  8
0
100
AcDbLine
 10
44.28267521554585
 20
268.9100493368078
 30
0.0
 11
44.28267521554608
 21
269.953075015641
 31
0.0
  0
LINE
  5
1811
330
2
100
AcDbEntity
  8
CENTER
100
AcDbLine
 10
39.62006921554598
 20
264.9530830153528
 30
0.0
 11
51.42507021554616
 21
264.9530830153528
 31
0.0
  0
LINE
  5
1812
330
2
100
AcDbEntity
  8
0
100
AcDbLine
 10
47.78267521554607
 20
259.9530830153529
 30
0.0
 11
57.28267121554608
 21
259.9530830153529
 31
0.0
  0
LINE
  5
1813
330
2
100
AcDbEntity
  8
0
100
AcDbLine
 10
45.78267521554607
 20
268.9530830153529
 30
0.0
 11
45.78267521554607
 21
260.9530830153528
 31
0.0
  0
LINE
  5
1814
330
2
100
AcDbEntity
  8
0
100
AcDbLine
 10
46.78267521554608
 20
261.1529730153528
 30
0.0
 11
45.78267521554607
 21
261.1529730153528
 31
0.0
  0
LINE
  5
1815
330
2
100
AcDbEntity
  8
0
100
AcDbLine
 10
45.78267521554607
 20
268.7529710153528
 30
0.0
 11
46.78267521554608
 21
268.7529710153528
 31
0.0
  0
ARC
  5
1816
330
2
100
AcDbEntity
  8
0
100
AcDbCircle
 10
49.18267521554594
 20
264.9530830153528
 30
0.0
 40
6.5
100
AcDbArc
 50
146.9443049999971
 51
213.0556950000028
  0
ARC
  5
1817
330
2
100
AcDbEntity
  8
0
100
AcDbCircle
 10
44.57287421554588
 20
261.9530830153528
 30
0.0
 40
1.0
100
AcDbArc
 50
213.0556950000028
 51
270.0
  0
ARC
  5
1818
330
2
100
AcDbEntity
  8
0
100
AcDbCircle
 10
44.57287421554588
 20
267.9530830153528
 30
0.0
 40
1.0
100
AcDbArc
 50
90.0
 51
146.9443049999971
  0
LINE
  5
1819
330
2
100
AcDbEntity
  8
0
100
AcDbLine
 10
45.78267521554607
 20
260.9530830153528
 30
0.0
 11
44.57287421554588
 21
260.9530830153528
 31
0.0
  0
LINE
  5
181A
330
2
100
AcDbEntity
  8
0
100
AcDbLine
 10
45.78267521554607
 20
268.9530830153529
 30
0.0
 11
44.57287421554588
 21
268.9530830153529
 31
0.0
  0
LINE
  5
181C
330
2
100
AcDbEntity
  8
0
100
AcDbLine
 10
46.7826752155463
 20
316.9530900153528
 30
0.0
 11
46.78267521554608
 21
307.9530750153529
 31
0.0
  0
ARC
  5
181D
330
2
100
AcDbEntity
  8
0
100
AcDbCircle
 10
44.57287421554588
 20
309.9530670153529
 30
0.0
 40
1.0
100
AcDbArc
 50
213.0556950000028
 51
270.0
  0
LINE
  5
181E
330
2
100
AcDbEntity
  8
0
100
AcDbLine
 10
45.78267521554607
 20
308.9530670153529
 30
0.0
 11
45.78267521554607
 21
316.9530670153529
 31
0.0
  0
LINE
  5
181F
330
2
100
AcDbEntity
  8
0
100
AcDbLine
 10
44.28267521554585
 20
307.9530750150648
 30
0.0
 11
44.28267521554608
 21
308.9530900153528
 31
0.0
  0
LINE
  5
1820
330
2
100
AcDbEntity
  8
0
100
AcDbLine
 10
45.78267521554607
 20
308.9530670153529
 30
0.0
 11
44.57287421554588
 21
308.9530670153529
 31
0.0
  0
LINE
  5
1821
330
2
100
AcDbEntity
  8
CENTER
100
AcDbLine
 10
39.62006921554598
 20
312.9530900153528
 30
0.0
 11
51.42507021554616
 21
312.9530900153528
 31
0.0
  0
LINE
  5
1822
330
2
100
AcDbEntity
  8
0
100
AcDbLine
 10
47.78267521554607
 20
317.9530900153528
 30
0.0
 11
57.28267121554608
 21
317.9530900153528
 31
0.0
  0
LINE
  5
1823
330
2
100
AcDbEntity
  8
0
100
AcDbLine
 10
45.78267521554607
 20
309.1531790153529
 30
0.0
 11
46.78267521554608
 21
309.1531790153529
 31
0.0
  0
LINE
  5
1824
330
2
100
AcDbEntity
  8
0
100
AcDbLine
 10
46.78267521554608
 20
316.7531770153529
 30
0.0
 11
45.78267521554607
 21
316.7531770153529
 31
0.0
  0
ARC
  5
1825
330
2
100
AcDbEntity
  8
0
100
AcDbCircle
 10
47.78267521554607
 20
316.9530900153528
 30
0.0
 40
1.0
100
AcDbArc
 50
90.0
 51
180.0
  0
ARC
  5
1826
330
2
100
AcDbEntity
  8
0
100
AcDbCircle
 10
44.57287421554588
 20
315.9530670153529
 30
0.0
 40
1.0
100
AcDbArc
 50
90.0
 51
146.9443049999971
  0
ARC
  5
1827
330
2
100
AcDbEntity
  8
0
100
AcDbCircle
 10
49.18267521554594
 20
312.9530670153529
 30
0.0
 40
6.5
100
AcDbArc
 50
146.9443049999971
 51
213.0556950000028
  0
LINE
  5
1828
330
2
100
AcDbEntity
  8
0
100
AcDbLine
 10
45.78267521554607
 20
316.9530670153529
 30
0.0
 11
44.57287421554588
 21
316.9530670153529
 31
0.0
  0
LINE
  5
182D
330
2
100
AcDbEntity
  8
0
100
AcDbLine
 10
47.28267521554608
 20
333.9530750153528
 30
0.0
 11
57.28267121554608
 21
333.9530750153528
 31
0.0
  0
ARC
  5
182E
330
2
100
AcDbEntity
  8
0
100
AcDbCircle
 10
47.2826752155463
 20
330.9530750153529
 30
0.0
 40
3.0
100
AcDbArc
 50
90.00000000000325
 51
180.0
  0
LINE
  5
1906
330
2
100
AcDbEntity
  8
0
100
AcDbLine
 10
43.28265121554614
 20
306.9530750153528
 30
0.0
 11
43.28265121554614
 21
270.9530750153529
 31
0.0
  0
LINE
  5
1907
330
2
100
AcDbEntity
  8
0
100
AcDbLine
 10
47.28265121554613
 20
299.9792576127452
 30
0.0
 11
47.28265121554613
 21
307.9530750153529
 31
0.0
  0
ARC
  5
1908
330
2
100
AcDbEntity
  8
0
100
AcDbCircle
 10
44.28265121554614
 20
306.9530750153528
 30
0.0
 40
1.0
100
AcDbArc
 50
90.0
 51
180.0
  0
LINE
  5
1909
330
2
100
AcDbEntity
  8
0
100
AcDbLine
 10
47.28265121554613
 20
307.9530750153529
 30
0.0
 11
44.28265121554614
 21
307.9530750153529
 31
0.0
  0
LINE
  5
190A
330
2
100
AcDbEntity
  8
0
100
AcDbLine
 10
47.28265121554613
 20
277.9268924179605
 30
0.0
 11
47.28265121554613
 21
269.9530750153529
 31
0.0
  0
ARC
  5
190B
330
2
100
AcDbEntity
  8
0
100
AcDbCircle
 10
44.28265121554614
 20
270.9530750153529
 30
0.0
 40
1.0
100
AcDbArc
 50
180.0
 51
270.0
  0
LINE
  5
190C
330
2
100
AcDbEntity
  8
0
100
AcDbLine
 10
47.28265121554613
 20
269.9530750153529
 30
0.0
 11
44.28265121554637
 21
269.9530750153529
 31
0.0
  0
LINE
  5
1911
330
2
100
AcDbEntity
  8
0
100
AcDbLine
 10
54.28265121555114
 20
298.7953308939298
 30
0.0
 11
54.2826512155516
 21
296.4530750153528
 31
0.0
  0
ARC
  5
1912
330
2
100
AcDbEntity
  8
0
100
AcDbCircle
 10
53.28265121555114
 20
298.7953308939298
 30
0.0
 40
1.0
100
AcDbArc
 50
0.0
 51
87.99999999999633
  0
LINE
  5
1913
330
2
100
AcDbEntity
  8
0
100
AcDbLine
 10
48.78265121555114
 20
299.9530750153529
 30
0.0
 11
48.78265121555092
 21
296.4530750153528
 31
0.0
  0
LINE
  5
1914
330
2
100
AcDbEntity
  8
0
100
AcDbLine
 10
48.78265121555114
 20
299.9530750153529
 30
0.0
 11
44.28265121555114
 21
300.0316228075297
 31
0.0
  0
LINE
  5
1915
330
2
100
AcDbEntity
  8
0
100
AcDbLine
 10
48.78315996048399
 20
299.953066135177
 30
0.0
 11
53.3175507122537
 21
299.7947217209489
 31
0.0
  0
LINE
  5
1916
330
2
100
AcDbEntity
  8
0
100
AcDbLine
 10
54.28265121555046
 20
290.4530750153528
 30
0.0
 11
54.28265121555137
 21
287.1530750153528
 31
0.0
  0
LINE
  5
1917
330
2
100
AcDbEntity
  8
0
100
AcDbLine
 10
48.78265121555114
 20
290.4530750153529
 30
0.0
 11
48.78265121555114
 21
288.1530750153529
 31
0.0
  0
LINE
  5
1918
330
2
100
AcDbEntity
  8
0
100
AcDbLine
 10
48.78265121555114
 20
282.0530750153528
 30
0.0
 11
59.60560722674427
 21
282.0530750153528
 31
0.0
  0
LINE
  5
1919
330
2
100
AcDbEntity
  8
0
100
AcDbLine
 10
48.78265121555114
 20
284.0530750153528
 30
0.0
 11
59.51134763328446
 21
284.0530750153528
 31
0.0
  0
LINE
  5
191A
330
2
100
AcDbEntity
  8
0
100
AcDbLine
 10
46.98265121555118
 20
287.1530750153528
 30
0.0
 11
57.71134763328451
 21
287.1530750153528
 31
0.0
  0
LINE
  5
191B
330
2
100
AcDbEntity
  8
0
100
AcDbLine
 10
46.98265121555118
 20
285.1530750153528
 30
0.0
 11
57.80560722674431
 21
285.1530750153528
 31
0.0
  0
LINE
  5
191C
330
2
100
AcDbEntity
  8
0
100
AcDbLine
 10
54.28265121555137
 20
282.0530750153526
 30
0.0
 11
54.28265121555114
 21
279.1108280223645
 31
0.0
  0
ARC
  5
191D
330
2
100
AcDbEntity
  8
0
100
AcDbCircle
 10
48.78265121555114
 20
284.4530750153527
 30
0.0
 40
3.25
100
AcDbArc
 50
290.5218674000235
 51
312.3994733644442
  0
ARC
  5
191E
330
2
100
AcDbEntity
  8
0
100
AcDbCircle
 10
48.78265121555114
 20
284.4530750153527
 30
0.0
 40
3.25
100
AcDbArc
 50
176.1778378686729
 51
249.4781325999764
  0
ARC
  5
191F
330
2
100
AcDbEntity
  8
0
100
AcDbCircle
 10
53.28265121555114
 20
279.1108280223645
 30
0.0
 40
1.0
100
AcDbArc
 50
272.0000000000036
 51
0.0
  0
LINE
  5
1920
330
2
100
AcDbEntity
  8
0
100
AcDbLine
 10
48.78265121555114
 20
281.0530750153528
 30
0.0
 11
48.78265121555114
 21
277.9530750153529
 31
0.0
  0
ARC
  5
1921
330
2
100
AcDbEntity
  8
0
100
AcDbCircle
 10
48.78265121555114
 20
283.0530750153528
 30
0.0
 40
2.0
100
AcDbArc
 50
235.272931295419
 51
304.7270687045809
  0
LINE
  5
1922
330
2
100
AcDbEntity
  8
0
100
AcDbLine
 10
48.78265121555114
 20
277.9530750153529
 30
0.0
 11
53.31755071225393
 21
278.1114371953454
 31
0.0
  0
ARC
  5
1923
330
2
100
AcDbEntity
  8
0
100
AcDbCircle
 10
46.98265121555118
 20
286.1530750153528
 30
0.0
 40
1.0
100
AcDbArc
 50
90.0
 51
270.0
  0
ARC
  5
1924
330
2
100
AcDbEntity
  8
0
100
AcDbCircle
 10
46.98265121555118
 20
286.1530750153528
 30
0.0
 40
2.0
100
AcDbArc
 50
89.99999999997395
 51
204.6092450239451
  0
LINE
  5
1925
330
2
100
AcDbEntity
  8
0
100
AcDbLine
 10
45.16431336002528
 20
285.3202200200733
 30
0.0
 11
45.5398799995769
 21
284.6697195187421
 31
0.0
  0
LINE
  5
1926
330
2
100
AcDbEntity
  8
0
100
AcDbLine
 10
54.28265121555114
 20
285.1530750153527
 30
0.0
 11
54.28265121555137
 21
284.0530750153528
 31
0.0
  0
LINE
  5
1927
330
2
100
AcDbEntity
  8
0
100
AcDbLine
 10
52.30448785760768
 20
285.1530750153528
 30
0.0
 11
52.02542243152539
 21
284.6697195187421
 31
0.0
  0
LINE
  5
1928
330
2
100
AcDbEntity
  8
0
100
AcDbLine
 10
52.30448785760768
 20
285.1530750153528
 30
0.0
 11
52.02542243152539
 21
284.6697195187421
 31
0.0
  0
ARC
  5
1929
330
2
100
AcDbEntity
  8
0
100
AcDbCircle
 10
50.58265121555109
 20
286.1530750153528
 30
0.0
 40
2.0
100
AcDbArc
 50
30.00000000000054
 51
90.00000000002605
  0
ARC
  5
192A
330
2
100
AcDbEntity
  8
0
100
AcDbCircle
 10
48.78265121555114
 20
284.4530750153527
 30
0.0
 40
3.25
100
AcDbArc
 50
352.930285957695
 51
3.822162131327067
  0
LINE
  5
192B
330
2
100
AcDbEntity
  8
0
100
AcDbLine
 10
46.98265121555209
 20
288.1530750153528
 30
0.0
 11
50.58265121555018
 21
288.1530750153528
 31
0.0
  0
ARC
  5
192C
330
2
100
AcDbEntity
  8
0
100
AcDbCircle
 10
48.78265121555114
 20
283.0530750153528
 30
0.0
 40
1.0
100
AcDbArc
 50
90.0
 51
270.0
  0
SPLINE
  5
192D
330
2
100
AcDbEntity
  8
HOJO
100
AcDbSpline
210
0.0
220
0.0
230
1.0
 70
     8
 71
     3
 72
    10
 73
     6
 74
     4
 42
0.0000000001
 43
0.0000000001
 44
0.0000000001
 40
0.0
 40
0.0
 40
0.0
 40
0.0
 40
0.697190763405494
 40
1.694952319108353
 40
2.335350738679082
 40
2.335350738679082
 40
2.335350738679082
 40
2.335350738679082
 10
57.80560722674431
 20
285.1530750153528
 30
0.0
 10
57.97282136885249
 20
285.3740600274765
 30
0.0
 10
58.3793385128399
 20
285.9113004478137
 30
0.0
 10
57.20302940205666
 20
286.4217474934866
 30
0.0
 10
57.56848265661599
 20
286.9475323396631
 30
0.0
 10
57.71134763328451
 20
287.1530750153528
 30
0.0
 11
57.80560722674431
 21
285.1530750153528
 31
0.0
 11
58.09401967587359
 21
285.7878137173123
 31
0.0
 11
57.46470180838082
 21
286.5620792684592
 31
0.0
 11
57.71134763328451
 21
287.1530750153528
 31
0.0
  0
SPLINE
  5
192E
330
2
100
AcDbEntity
  8
HOJO
100
AcDbSpline
210
0.0
220
0.0
230
1.0
 70
     8
 71
     3
 72
    10
 73
     6
 74
     4
 42
0.0000000001
 43
0.0000000001
 44
0.0000000001
 40
0.0
 40
0.0
 40
0.0
 40
0.0
 40
0.697190763405494
 40
1.694952319108353
 40
2.335350738679082
 40
2.335350738679082
 40
2.335350738679082
 40
2.335350738679082
 10
59.60560722674427
 20
282.0530750153528
 30
0.0
 10
59.77282136885246
 20
282.2740600274764
 30
0.0
 10
60.17933851283986
 20
282.8113004478137
 30
0.0
 10
59.00302940205662
 20
283.3217474934866
 30
0.0
 10
59.36848265661594
 20
283.847532339663
 30
0.0
 10
59.51134763328446
 20
284.0530750153528
 30
0.0
 11
59.60560722674427
 21
282.0530750153528
 31
0.0
 11
59.89401967587355
 21
282.6878137173122
 31
0.0
 11
59.26470180838077
 21
283.4620792684592
 31
0.0
 11
59.51134763328446
 21
284.0530750153528
 31
0.0
  0
LINE
  5
192F
330
2
100
AcDbEntity
  8
0
100
AcDbLine
 10
48.78265121555114
 20
277.9530750153529
 30
0.0
 11
44.28265121555114
 21
277.8745272231759
 31
0.0
  0
LINE
  5
1930
330
2
100
AcDbEntity
  8
0
100
AcDbLine
 10
57.28267121554631
 20
296.4530750153528
 30
0.0
 11
57.28267121554608
 21
333.9530750153528
 31
0.0
  0
LINE
  5
1931
330
2
100
AcDbEntity
  8
0
100
AcDbLine
 10
57.28267121554608
 20
284.0530750153528
 30
0.0
 11
57.28267121554608
 21
285.1530750153528
 31
0.0
  0
LINE
  5
1932
330
2
100
AcDbEntity
  8
0
100
AcDbLine
 10
132.3417977575541
 20
187.9699357304066
 30
0.0
 11
120.8417977575541
 21
187.9699357304066
 31
0.0
  0
LINE
  5
1933
330
2
100
AcDbEntity
  8
0
100
AcDbLine
 10
132.3417977575541
 20
175.4699357304066
 30
0.0
 11
120.8417977575541
 21
175.4699357304066
 31
0.0
  0
LINE
  5
1934
330
2
100
AcDbEntity
  8
0
100
AcDbLine
 10
97.4789444319988
 20
169.0848090154384
 30
0.0
 11
126.8666880257053
 21
171.6559034264943
 31
0.0
  0
LINE
  5
1935
330
2
100
AcDbEntity
  8
0
100
AcDbLine
 10
97.56626631781593
 20
167.0848090154384
 30
0.0
 11
127.0409995112006
 21
169.6635140303108
 31
0.0
  0
LINE
  5
1936
330
2
100
AcDbEntity
  8
0
100
AcDbLine
 10
97.56626631781593
 20
165.0848090154384
 30
0.0
 11
127.0342709259391
 21
162.5066926754979
 31
0.0
  0
LINE
  5
1937
330
2
100
AcDbEntity
  8
0
100
AcDbLine
 10
97.4789444319988
 20
163.0848090154384
 30
0.0
 11
126.8599594404438
 21
160.5143032793144
 31
0.0
  0
LINE
  5
1938
330
2
100
AcDbEntity
  8
0
100
AcDbLine
 10
126.9789444319987
 20
167.0848090154384
 30
0.0
 11
97.08829999474074
 21
167.0848090154384
 31
0.0
  0
LINE
  5
1939
330
2
100
AcDbEntity
  8
0
100
AcDbLine
 10
126.9789444319987
 20
165.0848090154384
 30
0.0
 11
97.08829999474028
 21
165.0848090154384
 31
0.0
  0
ARC
  5
193A
330
2
100
AcDbEntity
  8
0
100
AcDbCircle
 10
56.78263642873139
 20
166.9583668896215
 30
0.0
 40
11.00005121320385
100
AcDbArc
 50
90.0002430827012
 51
179.9998428472123
  0
ARC
  5
193B
330
2
100
AcDbEntity
  8
0
100
AcDbCircle
 10
56.78263642873139
 20
166.9583668896215
 30
0.0
 40
9.000051213203853
100
AcDbArc
 50
90.0002430827012
 51
177.3436678381908
  0
ARC
  5
193C
330
2
100
AcDbEntity
  8
0
100
AcDbCircle
 10
56.78263642873139
 20
166.9583668896215
 30
0.0
 40
7.000051213203854
100
AcDbArc
 50
90.0002430827012
 51
179.9998428472123
  0
ARC
  5
193D
330
2
100
AcDbEntity
  8
0
100
AcDbCircle
 10
56.78261521554645
 20
166.9584181027803
 30
0.0
 40
9.0
100
AcDbArc
 50
90.0
 51
123.3057915968515
  0
ARC
  5
193E
330
2
100
AcDbEntity
  8
0
100
AcDbCircle
 10
56.78263642873139
 20
166.9583668896215
 30
0.0
 40
5.000051213203854
100
AcDbArc
 50
90.0002430827012
 51
179.9998428472123
  0
ARC
  5
193F
330
2
100
AcDbEntity
  8
0
100
AcDbCircle
 10
56.7826352155464
 20
173.7205961671393
 30
0.0
 40
11.0
100
AcDbArc
 50
90.0
 51
180.0
  0
ARC
  5
1940
330
2
100
AcDbEntity
  8
0
100
AcDbCircle
 10
56.78261521554645
 20
173.7205961671393
 30
0.0
 40
5.0
100
AcDbArc
 50
90.0
 51
131.9745634210934
  0
LINE
  5
1941
330
2
100
AcDbEntity
  8
0
100
AcDbLine
 10
45.78263521554641
 20
173.7205961671393
 30
0.0
 11
45.78258521554653
 21
166.958382012425
 31
0.0
  0
LINE
  5
1942
330
2
100
AcDbEntity
  8
0
100
AcDbLine
 10
49.78258521554607
 20
164.5442204228879
 30
0.0
 11
49.7825852155463
 21
140.1341925480198
 31
0.0
  0
LINE
  5
1943
330
2
100
AcDbEntity
  8
0
100
AcDbLine
 10
47.78258521554607
 20
165.3795475173259
 30
0.0
 11
47.7825852155463
 21
140.1341925480198
 31
0.0
  0
LINE
  5
1944
330
2
100
AcDbEntity
  8
0
100
AcDbLine
 10
45.7825852155463
 20
164.9583820124251
 30
0.0
 11
45.7825852155463
 21
140.1341925480198
 31
0.0
  0
LINE
  5
1945
330
2
100
AcDbEntity
  8
0
100
AcDbLine
 10
51.78258521554653
 20
164.9583806039298
 30
0.0
 11
51.78258521554631
 21
140.1341925480198
 31
0.0
  0
ARC
  5
1946
330
2
100
AcDbEntity
  8
HOJO
100
AcDbCircle
 10
47.03261521554646
 20
165.9584180077609
 30
0.0
 40
1.600781999999999
100
AcDbArc
 50
67.16467299999876
 51
141.3418685642139
  0
ARC
  5
1947
330
2
100
AcDbEntity
  8
HOJO
100
AcDbCircle
 10
47.03261521554646
 20
163.9584180077609
 30
0.0
 40
1.600781999999999
100
AcDbArc
 50
67.16467299999876
 51
141.3418685641826
  0
LINE
  5
1948
330
2
100
AcDbEntity
  8
HOJO
100
AcDbLine
 10
45.7825852155463
 20
164.9584540030968
 30
0.0
 11
45.7825852155463
 21
164.7196216837604
 31
0.0
  0
LINE
  5
1949
330
2
100
AcDbEntity
  8
0
100
AcDbLine
 10
49.7825852155463
 20
166.9583668896215
 30
0.0
 11
49.78258521554607
 21
166.5374068182912
 31
0.0
  0
LINE
  5
194A
330
2
100
AcDbEntity
  8
HOJO
100
AcDbLine
 10
47.65390721554649
 20
167.4337300077609
 30
0.0
 11
49.91150621554652
 21
166.4831220077609
 31
0.0
  0
LINE
  5
194B
330
2
100
AcDbEntity
  8
HOJO
100
AcDbLine
 10
47.65390721554649
 20
165.4337300077609
 30
0.0
 11
49.91150621554652
 21
164.4831220077609
 31
0.0
  0
ARC
  5
194C
330
2
100
AcDbEntity
  8
HOJO
100
AcDbCircle
 10
50.53261521554645
 20
167.9584180077609
 30
0.0
 40
1.600781
100
AcDbArc
 50
247.1647029999995
 51
321.3401944016206
  0
ARC
  5
194D
330
2
100
AcDbEntity
  8
HOJO
100
AcDbCircle
 10
50.53261521554645
 20
165.9584180077609
 30
0.0
 40
1.600781
100
AcDbArc
 50
247.1647029999995
 51
321.3401944016206
  0
LINE
  5
194E
330
2
100
AcDbEntity
  8
0
100
AcDbLine
 10
71.85843773892793
 20
173.4501084616748
 30
0.0
 11
83.1104654343062
 21
169.4789995804467
 31
0.0
  0
LINE
  5
194F
330
2
100
AcDbEntity
  8
0
100
AcDbLine
 10
72.52404890847265
 20
175.3360993871506
 30
0.0
 11
83.77607660385137
 21
171.3649905059226
 31
0.0
  0
ARC
  5
1950
330
2
100
AcDbEntity
  8
0
100
AcDbCircle
 10
57.21499200894027
 20
131.9583081012072
 30
0.0
 40
40.0
100
AcDbArc
 50
70.56084818740743
 51
90.0
  0
ARC
  5
1951
330
2
100
AcDbEntity
  8
0
100
AcDbCircle
 10
57.21499200894027
 20
131.9583081012072
 30
0.0
 40
42.0
100
AcDbArc
 50
70.56084818740743
 51
90.0
  0
ARC
  5
1952
330
2
100
AcDbEntity
  8
0
100
AcDbCircle
 10
97.08829999474938
 20
209.0848090154384
 30
0.0
 40
46.0
100
AcDbArc
 50
250.5608481874074
 51
270.0
  0
ARC
  5
1953
330
2
100
AcDbEntity
  8
0
100
AcDbCircle
 10
97.08829999474938
 20
209.0848090154384
 30
0.0
 40
40.0
100
AcDbArc
 50
250.5608481874074
 51
270.0
  0
ARC
  5
1954
330
2
100
AcDbEntity
  8
0
100
AcDbCircle
 10
97.08829999474938
 20
209.0848090154384
 30
0.0
 40
44.0
100
AcDbArc
 50
250.5608481874074
 51
270.0
  0
ARC
  5
1955
330
2
100
AcDbEntity
  8
0
100
AcDbCircle
 10
97.08829999474938
 20
209.0848090154384
 30
0.0
 40
42.0
100
AcDbArc
 50
250.5608481874074
 51
270.0
  0
LINE
  5
1956
330
2
100
AcDbEntity
  8
0
100
AcDbLine
 10
71.19282656938276
 20
171.564117536199
 30
0.0
 11
82.44485426476149
 21
167.593008654971
 31
0.0
  0
LINE
  5
1957
330
2
100
AcDbEntity
  8
0
100
AcDbLine
 10
70.52721539983827
 20
169.6781266107232
 30
0.0
 11
81.77924309521655
 21
165.7070177294952
 31
0.0
  0
LINE
  5
1958
330
2
100
AcDbEntity
  8
0
100
AcDbLine
 10
56.78244918090149
 20
171.9583081012072
 30
0.0
 11
57.21499200894027
 21
171.9583081012072
 31
0.0
  0
LINE
  5
1959
330
2
100
AcDbEntity
  8
0
100
AcDbLine
 10
97.4789444319988
 20
163.0848090154384
 30
0.0
 11
97.08829999473984
 21
163.0848090154384
 31
0.0
  0
LINE
  5
195A
330
2
100
AcDbEntity
  8
0
100
AcDbLine
 10
97.4789444319988
 20
169.0848090154384
 30
0.0
 11
97.08829999474938
 21
169.0848090154384
 31
0.0
  0
LINE
  5
195B
330
2
100
AcDbEntity
  8
0
100
AcDbLine
 10
56.7826352155464
 20
184.7205961671393
 30
0.0
 11
95.20326094608435
 21
184.7205961671393
 31
0.0
  0
LINE
  5
195C
330
2
100
AcDbEntity
  8
0
100
AcDbLine
 10
56.78261521554645
 20
178.7205961671393
 30
0.0
 11
95.20273754268647
 21
178.7205961671393
 31
0.0
  0
ARC
  5
195D
330
2
100
AcDbEntity
  8
0
100
AcDbCircle
 10
57.21499200894027
 20
131.9583081012072
 30
0.0
 40
46.0
100
AcDbArc
 50
70.56084818740743
 51
90.0
  0
ARC
  5
195E
330
2
100
AcDbEntity
  8
0
100
AcDbCircle
 10
57.21499200894027
 20
131.9583081012072
 30
0.0
 40
44.0
100
AcDbArc
 50
70.56084818740743
 51
90.0
  0
LINE
  5
195F
330
2
100
AcDbEntity
  8
0
100
AcDbLine
 10
56.78244918090149
 20
177.9583081012072
 30
0.0
 11
57.21499200894027
 21
177.9583081012072
 31
0.0
  0
LINE
  5
1960
330
2
100
AcDbEntity
  8
0
100
AcDbLine
 10
56.78244918090149
 20
175.9583081012072
 30
0.0
 11
57.21499200894027
 21
175.9583081012072
 31
0.0
  0
LINE
  5
1961
330
2
100
AcDbEntity
  8
0
100
AcDbLine
 10
56.78244918090149
 20
173.9583081012072
 30
0.0
 11
57.21499200894027
 21
173.9583081012072
 31
0.0
  0
LINE
  5
1962
330
2
100
AcDbEntity
  8
0
100
AcDbLine
 10
104.9604923198051
 20
185.9507012499909
 30
0.0
 11
111.002616652561
 21
187.0160907906509
 31
0.0
  0
LINE
  5
1963
330
2
100
AcDbEntity
  8
0
100
AcDbLine
 10
111.2436878154064
 20
178.6960417685717
 30
0.0
 11
104.9635307692026
 21
179.245484315277
 31
0.0
  0
LINE
  5
1964
330
2
100
AcDbEntity
  8
0
100
AcDbLine
 10
104.9635307692026
 20
178.7071463844772
 30
0.0
 11
111.1076030487929
 21
177.6237806701624
 31
0.0
  0
LINE
  5
1965
330
2
100
AcDbEntity
  8
0
100
AcDbLine
 10
111.2960809468975
 20
179.8960417685717
 30
0.0
 11
104.9635307692026
 21
180.450068120329
 31
0.0
  0
LINE
  5
1966
330
2
100
AcDbEntity
  8
0
100
AcDbLine
 10
111.2436878154037
 20
184.7438296922416
 30
0.0
 11
104.9635307692026
 21
184.1943871455365
 31
0.0
  0
LINE
  5
1967
330
2
100
AcDbEntity
  8
0
100
AcDbLine
 10
104.9635307692026
 20
184.7327250763361
 30
0.0
 11
111.1076030487922
 21
185.8160907906507
 31
0.0
  0
LINE
  5
1968
330
2
100
AcDbEntity
  8
0
100
AcDbLine
 10
111.2960809468936
 20
183.5438296922415
 30
0.0
 11
104.9635307692026
 21
182.9898033404845
 31
0.0
  0
LINE
  5
1969
330
2
100
AcDbEntity
  8
0
100
AcDbLine
 10
104.9604923198051
 20
177.4891702108226
 30
0.0
 11
111.0026166525613
 21
176.4237806701625
 31
0.0
  0
LINE
  5
196A
330
2
100
AcDbEntity
  8
0
100
AcDbLine
 10
120.8417977575541
 20
181.1199357304067
 30
0.0
 11
104.9635307692026
 21
181.1199357304065
 31
0.0
  0
LINE
  5
196B
330
2
100
AcDbEntity
  8
0
100
AcDbLine
 10
120.8417977575541
 20
182.3199357304067
 30
0.0
 11
104.9635307692026
 21
182.3199357304067
 31
0.0
  0
LINE
  5
196C
330
2
100
AcDbEntity
  8
0
100
AcDbLine
 10
104.9635307692026
 20
177.523899846356
 30
0.0
 11
104.9635307692026
 21
185.9159716144576
 31
0.0
  0
LINE
  5
196D
330
2
100
AcDbEntity
  8
0
100
AcDbLine
 10
95.19691011339455
 20
178.6705961671394
 30
0.0
 11
95.19691011339455
 21
184.7705961671394
 31
0.0
  0
LINE
  5
196E
330
2
100
AcDbEntity
  8
0
100
AcDbLine
 10
102.1740256813348
 20
177.5368578200845
 30
0.0
 11
98.10694000930789
 21
178.4705961671393
 31
0.0
  0
ARC
  5
196F
330
2
100
AcDbEntity
  8
0
100
AcDbCircle
 10
95.3969101133946
 20
178.6705961671394
 30
0.0
 40
0.2
100
AcDbArc
 50
180.0
 51
270.0
  0
LINE
  5
1970
330
2
100
AcDbEntity
  8
0
100
AcDbLine
 10
95.3969101133946
 20
178.4705961671393
 30
0.0
 11
98.10694000930766
 21
178.4705961671393
 31
0.0
  0
ARC
  5
1971
330
2
100
AcDbEntity
  8
0
100
AcDbCircle
 10
102.2635307692028
 20
177.9267152802488
 30
0.0
 40
0.4
100
AcDbArc
 50
257.0698677002805
 51
326.0187104207608
  0
LINE
  5
1972
330
2
100
AcDbEntity
  8
0
100
AcDbLine
 10
102.5952188242081
 20
177.7031464224739
 30
0.0
 11
104.7288011336693
 21
177.3269382957535
 31
0.0
  0
ARC
  5
1973
330
2
100
AcDbEntity
  8
0
100
AcDbCircle
 10
104.7635307692025
 20
177.523899846356
 30
0.0
 40
0.2
100
AcDbArc
 50
260.0000000000013
 51
0.0
  0
LINE
  5
1974
330
2
100
AcDbEntity
  8
0
100
AcDbLine
 10
103.1774561305355
 20
186.0823648212436
 30
0.0
 11
98.13195974658311
 21
184.9705961671393
 31
0.0
  0
ARC
  5
1975
330
2
100
AcDbEntity
  8
0
100
AcDbCircle
 10
95.3969101133946
 20
184.7705961671394
 30
0.0
 40
0.2
100
AcDbArc
 50
90.0
 51
180.0
  0
LINE
  5
1976
330
2
100
AcDbEntity
  8
0
100
AcDbLine
 10
95.3969101133946
 20
184.9705961671394
 30
0.0
 11
98.13195974658311
 21
184.9705961671394
 31
0.0
  0
LINE
  5
1977
330
2
100
AcDbEntity
  8
0
100
AcDbLine
 10
103.5965678742875
 20
185.9132898929754
 30
0.0
 11
104.7288011336693
 21
186.11293316506
 31
0.0
  0
ARC
  5
1978
330
2
100
AcDbEntity
  8
0
100
AcDbCircle
 10
103.2635307692028
 20
185.6917356408457
 30
0.0
 40
0.4
100
AcDbArc
 50
33.63399402201315
 51
102.4264747477324
  0
ARC
  5
1979
330
2
100
AcDbEntity
  8
0
100
AcDbCircle
 10
104.7635307692025
 20
185.9159716144576
 30
0.0
 40
0.2
100
AcDbArc
 50
0.0
 51
99.99999999999861
  0
LINE
  5
197A
330
2
100
AcDbEntity
  8
0
100
AcDbLine
 10
122.8417977575541
 20
187.9699357304066
 30
0.0
 11
122.8417977575541
 21
175.4699357304066
 31
0.0
  0
LINE
  5
197B
330
2
100
AcDbEntity
  8
0
100
AcDbLine
 10
120.8417977575541
 20
187.9699357304066
 30
0.0
 11
120.8417977575541
 21
175.4699357304066
 31
0.0
  0
LINE
  5
197C
330
2
100
AcDbEntity
  8
0
100
AcDbLine
 10
120.8417977575541
 20
179.8199357304067
 30
0.0
 11
113.0391958018508
 21
179.8199357304065
 31
0.0
  0
LINE
  5
197D
330
2
100
AcDbEntity
  8
0
100
AcDbLine
 10
120.8417977575541
 20
178.6199357304066
 30
0.0
 11
112.9868026703597
 21
178.6199357304066
 31
0.0
  0
LINE
  5
197E
330
2
100
AcDbEntity
  8
0
100
AcDbLine
 10
120.8417977575541
 20
177.3199357304067
 30
0.0
 11
114.5805666021319
 21
177.3199357304066
 31
0.0
  0
LINE
  5
197F
330
2
100
AcDbEntity
  8
0
100
AcDbLine
 10
120.8417977575541
 20
176.1199357304067
 30
0.0
 11
114.4755802059
 21
176.1199357304066
 31
0.0
  0
ARC
  5
1980
330
2
100
AcDbEntity
  8
0
100
AcDbCircle
 10
112.9868026703597
 20
198.6199357304066
 30
0.0
 40
20.0
100
AcDbArc
 50
265.0000000000003
 51
270.0
  0
ARC
  5
1981
330
2
100
AcDbEntity
  8
0
100
AcDbCircle
 10
113.0391958018508
 20
199.8199357304065
 30
0.0
 40
20.0
100
AcDbArc
 50
265.0000000000003
 51
270.0
  0
ARC
  5
1982
330
2
100
AcDbEntity
  8
0
100
AcDbCircle
 10
114.4755802059
 20
196.1199357304067
 30
0.0
 40
20.0
100
AcDbArc
 50
260.0000000000013
 51
270.0
  0
ARC
  5
1983
330
2
100
AcDbEntity
  8
0
100
AcDbCircle
 10
114.5805666021317
 20
197.3199357304067
 30
0.0
 40
20.0
100
AcDbArc
 50
260.0000000000013
 51
270.0
  0
LINE
  5
1984
330
2
100
AcDbEntity
  8
0
100
AcDbLine
 10
120.8417977575541
 20
187.3199357304067
 30
0.0
 11
114.4755802058996
 21
187.3199357304067
 31
0.0
  0
LINE
  5
1985
330
2
100
AcDbEntity
  8
0
100
AcDbLine
 10
120.8417977575541
 20
186.1199357304066
 30
0.0
 11
114.5805666021306
 21
186.1199357304066
 31
0.0
  0
LINE
  5
1986
330
2
100
AcDbEntity
  8
0
100
AcDbLine
 10
120.8417977575541
 20
184.8199357304067
 30
0.0
 11
112.9868026703566
 21
184.8199357304066
 31
0.0
  0
LINE
  5
1987
330
2
100
AcDbEntity
  8
0
100
AcDbLine
 10
120.8417977575541
 20
183.6199357304067
 30
0.0
 11
113.0391958018467
 21
183.6199357304066
 31
0.0
  0
ARC
  5
1988
330
2
100
AcDbEntity
  8
0
100
AcDbCircle
 10
113.0391958018469
 20
163.6199357304066
 30
0.0
 40
20.0
100
AcDbArc
 50
90.0
 51
94.99999999999975
  0
ARC
  5
1989
330
2
100
AcDbEntity
  8
0
100
AcDbCircle
 10
112.9868026703568
 20
164.8199357304066
 30
0.0
 40
20.0
100
AcDbArc
 50
90.0
 51
94.99999999999975
  0
ARC
  5
198A
330
2
100
AcDbEntity
  8
0
100
AcDbCircle
 10
114.5805666021308
 20
166.1199357304065
 30
0.0
 40
20.0
100
AcDbArc
 50
90.0
 51
99.99999999999861
  0
ARC
  5
198B
330
2
100
AcDbEntity
  8
0
100
AcDbCircle
 10
114.4755802058996
 20
167.3199357304067
 30
0.0
 40
20.0
100
AcDbArc
 50
90.0
 51
99.99999999999861
  0
LINE
  5
198C
330
2
100
AcDbEntity
  8
0
100
AcDbLine
 10
131.9348172589116
 20
161.0741305887359
 30
0.0
 11
126.953843768453
 21
161.5099093024742
 31
0.0
  0
LINE
  5
198D
330
2
100
AcDbEntity
  8
0
100
AcDbLine
 10
131.9043127489501
 20
160.7254624444038
 30
0.0
 11
126.9233392584913
 21
161.161241158142
 31
0.0
  0
LINE
  5
198E
330
2
100
AcDbEntity
  8
0
100
AcDbLine
 10
131.8738082389884
 20
160.3767943000717
 30
0.0
 11
126.8928347485295
 21
160.8125730138099
 31
0.0
  0
LINE
  5
198F
330
2
100
AcDbEntity
  8
0
100
AcDbLine
 10
132.0127081256712
 20
161.7699899071826
 30
0.0
 11
127.0148527883764
 21
162.2072455911383
 31
0.0
  0
LINE
  5
1990
330
2
100
AcDbEntity
  8
0
100
AcDbLine
 10
131.9653217688733
 20
161.422798733068
 30
0.0
 11
126.9843482784146
 21
161.8585774468062
 31
0.0
  0
LINE
  5
1991
330
2
100
AcDbEntity
  8
0
100
AcDbLine
 10
126.8599594404438
 20
160.5143032793144
 30
0.0
 11
127.0342709259391
 21
162.5066926754978
 31
0.0
  0
LINE
  5
1992
330
2
100
AcDbEntity
  8
0
100
AcDbLine
 10
126.8666880257053
 20
171.6559034264943
 30
0.0
 11
127.0409995112006
 21
169.6635140303108
 31
0.0
  0
LINE
  5
1993
330
2
100
AcDbEntity
  8
0
100
AcDbLine
 10
131.9043127489501
 20
171.4441555864729
 30
0.0
 11
126.9233392584913
 21
171.0083768727346
 31
0.0
  0
LINE
  5
1994
330
2
100
AcDbEntity
  8
0
100
AcDbLine
 10
131.9348172589116
 20
171.0954874421408
 30
0.0
 11
126.953843768453
 21
170.6597087284025
 31
0.0
  0
LINE
  5
1995
330
2
100
AcDbEntity
  8
0
100
AcDbLine
 10
131.9789444319988
 20
166.7848090154383
 30
0.0
 11
126.9789444319987
 21
166.7848090154383
 31
0.0
  0
LINE
  5
1996
330
2
100
AcDbEntity
  8
0
100
AcDbLine
 10
131.9789444319988
 20
166.4348090154383
 30
0.0
 11
126.9789444319987
 21
166.4348090154383
 31
0.0
  0
LINE
  5
1997
330
2
100
AcDbEntity
  8
0
100
AcDbLine
 10
131.9789444319988
 20
166.0848090154384
 30
0.0
 11
126.9789444319987
 21
166.0848090154384
 31
0.0
  0
LINE
  5
1998
330
2
100
AcDbEntity
  8
0
100
AcDbLine
 10
132.0127081256714
 20
170.3996281236941
 30
0.0
 11
127.0148527883764
 21
169.9623724397383
 31
0.0
  0
LINE
  5
1999
330
2
100
AcDbEntity
  8
0
100
AcDbLine
 10
131.9653217688733
 20
170.7468192978087
 30
0.0
 11
126.9843482784146
 21
170.3110405840704
 31
0.0
  0
LINE
  5
199A
330
2
100
AcDbEntity
  8
0
100
AcDbLine
 10
131.8738082389884
 20
171.792823730805
 30
0.0
 11
126.8928347485295
 21
171.3570450170668
 31
0.0
  0
LINE
  5
199B
330
2
100
AcDbEntity
  8
0
100
AcDbLine
 10
131.9789444319988
 20
165.3848090154384
 30
0.0
 11
126.9789444319987
 21
165.3848090154384
 31
0.0
  0
LINE
  5
199C
330
2
100
AcDbEntity
  8
0
100
AcDbLine
 10
131.9789444319988
 20
165.7348090154384
 30
0.0
 11
126.9789444319987
 21
165.7348090154384
 31
0.0
  0
LINE
  5
199D
330
2
100
AcDbEntity
  8
0
100
AcDbLine
 10
126.9789444319987
 20
165.0848090154384
 30
0.0
 11
126.9789444319987
 21
167.0848090154384
 31
0.0
  0
LINE
  5
199E
330
2
100
AcDbEntity
  8
0
100
AcDbLine
 10
130.3417977575541
 20
180.4699357304066
 30
0.0
 11
130.3417977575541
 21
180.1199357304066
 31
0.0
  0
ARC
  5
199F
330
2
100
AcDbEntity
  8
0
100
AcDbCircle
 10
128.7417977575541
 20
180.1199357304066
 30
0.0
 40
0.1
100
AcDbArc
 50
0.0
 51
90.0
  0
LINE
  5
19A0
330
2
100
AcDbEntity
  8
0
100
AcDbLine
 10
132.3417977575541
 20
187.9699357304066
 30
0.0
 11
132.3417977575541
 21
175.4699357304066
 31
0.0
  0
LINE
  5
19A1
330
2
100
AcDbEntity
  8
0
100
AcDbLine
 10
132.3417977575541
 20
187.9699357304066
 30
0.0
 11
132.3417977575541
 21
175.4699357304066
 31
0.0
  0
LINE
  5
19A2
330
2
100
AcDbEntity
  8
0
100
AcDbLine
 10
128.7417977575541
 20
178.2199357304066
 30
0.0
 11
125.441797757554
 21
178.2199357304066
 31
0.0
  0
LINE
  5
19A3
330
2
100
AcDbEntity
  8
0
100
AcDbLine
 10
128.7417977575541
 20
177.7199357304066
 30
0.0
 11
125.441797757554
 21
177.7199357304066
 31
0.0
  0
ARC
  5
19A4
330
2
100
AcDbEntity
  8
0
100
AcDbCircle
 10
125.441797757554
 20
178.1199357304066
 30
0.0
 40
0.1
100
AcDbArc
 50
90.0
 51
180.0
  0
LINE
  5
19A5
330
2
100
AcDbEntity
  8
0
100
AcDbLine
 10
125.341797757554
 20
177.9699357304066
 30
0.0
 11
125.341797757554
 21
178.1199357304066
 31
0.0
  0
ARC
  5
19A6
330
2
100
AcDbEntity
  8
0
100
AcDbCircle
 10
125.441797757554
 20
177.8199357304067
 30
0.0
 40
0.1
100
AcDbArc
 50
180.0
 51
270.0
  0
LINE
  5
19A7
330
2
100
AcDbEntity
  8
0
100
AcDbLine
 10
125.341797757554
 20
177.9699357304066
 30
0.0
 11
125.341797757554
 21
177.8199357304067
 31
0.0
  0
LINE
  5
19A8
330
2
100
AcDbEntity
  8
0
100
AcDbLine
 10
131.3417977575541
 20
178.5199357304066
 30
0.0
 11
131.3417977575541
 21
179.9199357304067
 31
0.0
  0
LINE
  5
19A9
330
2
100
AcDbEntity
  8
0
100
AcDbLine
 10
128.8417977575541
 20
178.3199357304067
 30
0.0
 11
128.8417977575541
 21
180.1199357304066
 31
0.0
  0
LINE
  5
19AA
330
2
100
AcDbEntity
  8
0
100
AcDbLine
 10
131.2417977575539
 20
178.4199357304067
 30
0.0
 11
130.441797757554
 21
178.4199357304067
 31
0.0
  0
LINE
  5
19AB
330
2
100
AcDbEntity
  8
0
100
AcDbLine
 10
130.3417977575541
 20
177.9699357304066
 30
0.0
 11
130.3417977575541
 21
178.3199357304067
 31
0.0
  0
ARC
  5
19AC
330
2
100
AcDbEntity
  8
0
100
AcDbCircle
 10
130.441797757554
 20
178.3199357304067
 30
0.0
 40
0.1
100
AcDbArc
 50
90.0
 51
180.0
  0
ARC
  5
19AD
330
2
100
AcDbEntity
  8
0
100
AcDbCircle
 10
131.2417977575539
 20
178.5199357304066
 30
0.0
 40
0.1
100
AcDbArc
 50
270.0
 51
0.0
  0
LINE
  5
19AE
330
2
100
AcDbEntity
  8
0
100
AcDbLine
 10
131.2417977575539
 20
177.5199357304067
 30
0.0
 11
130.441797757554
 21
177.5199357304067
 31
0.0
  0
ARC
  5
19AF
330
2
100
AcDbEntity
  8
0
100
AcDbCircle
 10
130.441797757554
 20
177.6199357304066
 30
0.0
 40
0.1
100
AcDbArc
 50
180.0
 51
270.0
  0
ARC
  5
19B0
330
2
100
AcDbEntity
  8
0
100
AcDbCircle
 10
131.2417977575539
 20
177.4199357304067
 30
0.0
 40
0.1
100
AcDbArc
 50
0.0
 51
90.0
  0
LINE
  5
19B1
330
2
100
AcDbEntity
  8
0
100
AcDbLine
 10
130.3417977575541
 20
177.9699357304066
 30
0.0
 11
130.3417977575541
 21
177.6199357304066
 31
0.0
  0
ARC
  5
19B2
330
2
100
AcDbEntity
  8
0
100
AcDbCircle
 10
128.7417977575541
 20
178.3199357304067
 30
0.0
 40
0.1
100
AcDbArc
 50
270.0
 51
0.0
  0
ARC
  5
19B3
330
2
100
AcDbEntity
  8
0
100
AcDbCircle
 10
128.7417977575541
 20
177.6199357304066
 30
0.0
 40
0.1
100
AcDbArc
 50
0.0
 51
90.0
  0
LINE
  5
19B4
330
2
100
AcDbEntity
  8
0
100
AcDbLine
 10
131.2417977575539
 20
180.0199357304067
 30
0.0
 11
130.441797757554
 21
180.0199357304067
 31
0.0
  0
ARC
  5
19B5
330
2
100
AcDbEntity
  8
0
100
AcDbCircle
 10
130.441797757554
 20
180.1199357304066
 30
0.0
 40
0.1
100
AcDbArc
 50
180.0
 51
270.0
  0
ARC
  5
19B6
330
2
100
AcDbEntity
  8
0
100
AcDbCircle
 10
131.2417977575539
 20
179.9199357304067
 30
0.0
 40
0.1
100
AcDbArc
 50
0.0
 51
90.0
  0
LINE
  5
19B7
330
2
100
AcDbEntity
  8
0
100
AcDbLine
 10
128.7417977575541
 20
175.7199357304067
 30
0.0
 11
125.441797757554
 21
175.7199357304067
 31
0.0
  0
ARC
  5
19B8
330
2
100
AcDbEntity
  8
0
100
AcDbCircle
 10
125.441797757554
 20
175.6199357304066
 30
0.0
 40
0.1
100
AcDbArc
 50
90.0
 51
180.0
  0
LINE
  5
19B9
330
2
100
AcDbEntity
  8
0
100
AcDbLine
 10
125.341797757554
 20
175.6199357304066
 30
0.0
 11
125.341797757554
 21
175.4699357304066
 31
0.0
  0
LINE
  5
19BA
330
2
100
AcDbEntity
  8
0
100
AcDbLine
 10
131.2417977575539
 20
175.9199357304067
 30
0.0
 11
130.441797757554
 21
175.9199357304067
 31
0.0
  0
LINE
  5
19BB
330
2
100
AcDbEntity
  8
0
100
AcDbLine
 10
130.3417977575541
 20
175.4699357304066
 30
0.0
 11
130.3417977575541
 21
175.8199357304067
 31
0.0
  0
ARC
  5
19BC
330
2
100
AcDbEntity
  8
0
100
AcDbCircle
 10
130.441797757554
 20
175.8199357304067
 30
0.0
 40
0.1
100
AcDbArc
 50
90.0
 51
180.0
  0
ARC
  5
19BD
330
2
100
AcDbEntity
  8
0
100
AcDbCircle
 10
131.2417977575539
 20
176.0199357304067
 30
0.0
 40
0.1
100
AcDbArc
 50
270.0
 51
0.0
  0
ARC
  5
19BE
330
2
100
AcDbEntity
  8
0
100
AcDbCircle
 10
128.7417977575541
 20
175.8199357304067
 30
0.0
 40
0.1
100
AcDbArc
 50
270.0
 51
0.0
  0
LINE
  5
19BF
330
2
100
AcDbEntity
  8
0
100
AcDbLine
 10
131.3417977575541
 20
177.4199357304067
 30
0.0
 11
131.3417977575541
 21
176.0199357304067
 31
0.0
  0
LINE
  5
19C0
330
2
100
AcDbEntity
  8
0
100
AcDbLine
 10
128.8417977575541
 20
177.6199357304066
 30
0.0
 11
128.8417977575541
 21
175.8199357304067
 31
0.0
  0
LINE
  5
19C1
330
2
100
AcDbEntity
  8
0
100
AcDbLine
 10
131.3417977575541
 20
186.0199357304066
 30
0.0
 11
131.3417977575541
 21
187.4199357304067
 31
0.0
  0
LINE
  5
19C2
330
2
100
AcDbEntity
  8
0
100
AcDbLine
 10
128.8417977575541
 20
185.8199357304067
 30
0.0
 11
128.8417977575541
 21
187.6199357304066
 31
0.0
  0
LINE
  5
19C3
330
2
100
AcDbEntity
  8
0
100
AcDbLine
 10
128.7417977575541
 20
180.7199357304067
 30
0.0
 11
125.441797757554
 21
180.7199357304067
 31
0.0
  0
LINE
  5
19C4
330
2
100
AcDbEntity
  8
0
100
AcDbLine
 10
128.7417977575541
 20
180.2199357304066
 30
0.0
 11
125.441797757554
 21
180.2199357304066
 31
0.0
  0
LINE
  5
19C5
330
2
100
AcDbEntity
  8
0
100
AcDbLine
 10
128.7417977575541
 20
185.7199357304066
 30
0.0
 11
125.441797757554
 21
185.7199357304066
 31
0.0
  0
LINE
  5
19C6
330
2
100
AcDbEntity
  8
0
100
AcDbLine
 10
128.7417977575541
 20
185.2199357304066
 30
0.0
 11
125.441797757554
 21
185.2199357304066
 31
0.0
  0
LINE
  5
19C7
330
2
100
AcDbEntity
  8
0
100
AcDbLine
 10
128.7417977575541
 20
183.2199357304066
 30
0.0
 11
125.441797757554
 21
183.2199357304066
 31
0.0
  0
LINE
  5
19C8
330
2
100
AcDbEntity
  8
0
100
AcDbLine
 10
128.7417977575541
 20
182.7199357304067
 30
0.0
 11
125.441797757554
 21
182.7199357304067
 31
0.0
  0
ARC
  5
19C9
330
2
100
AcDbEntity
  8
0
100
AcDbCircle
 10
125.441797757554
 20
180.6199357304066
 30
0.0
 40
0.1
100
AcDbArc
 50
90.0
 51
180.0
  0
LINE
  5
19CA
330
2
100
AcDbEntity
  8
0
100
AcDbLine
 10
125.341797757554
 20
180.3199357304067
 30
0.0
 11
125.341797757554
 21
180.6199357304066
 31
0.0
  0
ARC
  5
19CB
330
2
100
AcDbEntity
  8
0
100
AcDbCircle
 10
125.441797757554
 20
180.3199357304067
 30
0.0
 40
0.1
100
AcDbArc
 50
180.0
 51
270.0
  0
ARC
  5
19CC
330
2
100
AcDbEntity
  8
0
100
AcDbCircle
 10
125.441797757554
 20
185.3199357304067
 30
0.0
 40
0.1
100
AcDbArc
 50
180.0
 51
270.0
  0
LINE
  5
19CD
330
2
100
AcDbEntity
  8
0
100
AcDbLine
 10
125.341797757554
 20
183.1199357304066
 30
0.0
 11
125.341797757554
 21
182.8199357304067
 31
0.0
  0
ARC
  5
19CE
330
2
100
AcDbEntity
  8
0
100
AcDbCircle
 10
125.441797757554
 20
183.1199357304066
 30
0.0
 40
0.1
100
AcDbArc
 50
90.0
 51
180.0
  0
ARC
  5
19CF
330
2
100
AcDbEntity
  8
0
100
AcDbCircle
 10
125.441797757554
 20
182.8199357304067
 30
0.0
 40
0.1
100
AcDbArc
 50
180.0
 51
270.0
  0
LINE
  5
19D0
330
2
100
AcDbEntity
  8
0
100
AcDbLine
 10
125.341797757554
 20
185.4699357304066
 30
0.0
 11
125.341797757554
 21
185.6199357304066
 31
0.0
  0
ARC
  5
19D1
330
2
100
AcDbEntity
  8
0
100
AcDbCircle
 10
125.441797757554
 20
185.6199357304066
 30
0.0
 40
0.1
100
AcDbArc
 50
90.0
 51
180.0
  0
LINE
  5
19D2
330
2
100
AcDbEntity
  8
0
100
AcDbLine
 10
125.341797757554
 20
185.4699357304066
 30
0.0
 11
125.341797757554
 21
185.3199357304067
 31
0.0
  0
ARC
  5
19D3
330
2
100
AcDbEntity
  8
0
100
AcDbCircle
 10
131.2417977575539
 20
181.0199357304066
 30
0.0
 40
0.1
100
AcDbArc
 50
270.0
 51
0.0
  0
LINE
  5
19D4
330
2
100
AcDbEntity
  8
0
100
AcDbLine
 10
131.2417977575539
 20
180.9199357304067
 30
0.0
 11
130.441797757554
 21
180.9199357304067
 31
0.0
  0
ARC
  5
19D5
330
2
100
AcDbEntity
  8
0
100
AcDbCircle
 10
130.441797757554
 20
180.8199357304067
 30
0.0
 40
0.1
100
AcDbArc
 50
90.0
 51
180.0
  0
LINE
  5
19D6
330
2
100
AcDbEntity
  8
0
100
AcDbLine
 10
130.3417977575541
 20
180.4699357304066
 30
0.0
 11
130.3417977575541
 21
180.8199357304067
 31
0.0
  0
ARC
  5
19D7
330
2
100
AcDbEntity
  8
0
100
AcDbCircle
 10
128.7417977575541
 20
180.8199357304067
 30
0.0
 40
0.1
100
AcDbArc
 50
270.0
 51
0.0
  0
ARC
  5
19D8
330
2
100
AcDbEntity
  8
0
100
AcDbCircle
 10
130.441797757554
 20
185.1199357304066
 30
0.0
 40
0.1
100
AcDbArc
 50
180.0
 51
270.0
  0
LINE
  5
19D9
330
2
100
AcDbEntity
  8
0
100
AcDbLine
 10
128.8417977575541
 20
185.1199357304066
 30
0.0
 11
128.8417977575541
 21
183.3199357304067
 31
0.0
  0
ARC
  5
19DA
330
2
100
AcDbEntity
  8
0
100
AcDbCircle
 10
128.7417977575541
 20
185.1199357304066
 30
0.0
 40
0.1
100
AcDbArc
 50
0.0
 51
90.0
  0
LINE
  5
19DB
330
2
100
AcDbEntity
  8
0
100
AcDbLine
 10
131.2417977575539
 20
182.5199357304067
 30
0.0
 11
130.441797757554
 21
182.5199357304067
 31
0.0
  0
LINE
  5
19DC
330
2
100
AcDbEntity
  8
0
100
AcDbLine
 10
131.2417977575539
 20
183.4199357304067
 30
0.0
 11
130.441797757554
 21
183.4199357304067
 31
0.0
  0
LINE
  5
19DD
330
2
100
AcDbEntity
  8
0
100
AcDbLine
 10
131.2417977575539
 20
185.0199357304067
 30
0.0
 11
130.441797757554
 21
185.0199357304067
 31
0.0
  0
LINE
  5
19DE
330
2
100
AcDbEntity
  8
0
100
AcDbLine
 10
130.3417977575541
 20
182.9699357304066
 30
0.0
 11
130.3417977575541
 21
182.6199357304066
 31
0.0
  0
LINE
  5
19DF
330
2
100
AcDbEntity
  8
0
100
AcDbLine
 10
130.3417977575541
 20
182.9699357304066
 30
0.0
 11
130.3417977575541
 21
183.3199357304067
 31
0.0
  0
ARC
  5
19E0
330
2
100
AcDbEntity
  8
0
100
AcDbCircle
 10
130.441797757554
 20
183.3199357304067
 30
0.0
 40
0.1
100
AcDbArc
 50
90.0
 51
180.0
  0
ARC
  5
19E1
330
2
100
AcDbEntity
  8
0
100
AcDbCircle
 10
130.441797757554
 20
182.6199357304066
 30
0.0
 40
0.1
100
AcDbArc
 50
180.0
 51
270.0
  0
ARC
  5
19E2
330
2
100
AcDbEntity
  8
0
100
AcDbCircle
 10
131.2417977575539
 20
183.5199357304067
 30
0.0
 40
0.1
100
AcDbArc
 50
270.0
 51
0.0
  0
LINE
  5
19E3
330
2
100
AcDbEntity
  8
0
100
AcDbLine
 10
131.3417977575541
 20
184.9199357304067
 30
0.0
 11
131.3417977575541
 21
183.5199357304067
 31
0.0
  0
ARC
  5
19E4
330
2
100
AcDbEntity
  8
0
100
AcDbCircle
 10
131.2417977575539
 20
184.9199357304067
 30
0.0
 40
0.1
100
AcDbArc
 50
0.0
 51
90.0
  0
ARC
  5
19E5
330
2
100
AcDbEntity
  8
0
100
AcDbCircle
 10
131.2417977575539
 20
182.4199357304067
 30
0.0
 40
0.1
100
AcDbArc
 50
0.0
 51
90.0
  0
LINE
  5
19E6
330
2
100
AcDbEntity
  8
0
100
AcDbLine
 10
131.3417977575541
 20
181.7199357304066
 30
0.0
 11
131.3417977575541
 21
182.4199357304067
 31
0.0
  0
ARC
  5
19E7
330
2
100
AcDbEntity
  8
0
100
AcDbCircle
 10
128.7417977575541
 20
183.3199357304067
 30
0.0
 40
0.1
100
AcDbArc
 50
270.0
 51
0.0
  0
ARC
  5
19E8
330
2
100
AcDbEntity
  8
0
100
AcDbCircle
 10
128.7417977575541
 20
182.6199357304066
 30
0.0
 40
0.1
100
AcDbArc
 50
0.0
 51
90.0
  0
LINE
  5
19E9
330
2
100
AcDbEntity
  8
0
100
AcDbLine
 10
128.8417977575541
 20
182.6199357304066
 30
0.0
 11
128.8417977575541
 21
181.7199357304066
 31
0.0
  0
LINE
  5
19EA
330
2
100
AcDbEntity
  8
0
100
AcDbLine
 10
131.2417977575539
 20
185.9199357304067
 30
0.0
 11
130.441797757554
 21
185.9199357304067
 31
0.0
  0
LINE
  5
19EB
330
2
100
AcDbEntity
  8
0
100
AcDbLine
 10
130.3417977575541
 20
185.4699357304066
 30
0.0
 11
130.3417977575541
 21
185.8199357304067
 31
0.0
  0
ARC
  5
19EC
330
2
100
AcDbEntity
  8
0
100
AcDbCircle
 10
130.441797757554
 20
185.8199357304067
 30
0.0
 40
0.1
100
AcDbArc
 50
90.0
 51
180.0
  0
ARC
  5
19ED
330
2
100
AcDbEntity
  8
0
100
AcDbCircle
 10
131.2417977575539
 20
186.0199357304066
 30
0.0
 40
0.1
100
AcDbArc
 50
270.0
 51
0.0
  0
ARC
  5
19EE
330
2
100
AcDbEntity
  8
0
100
AcDbCircle
 10
128.7417977575541
 20
185.8199357304067
 30
0.0
 40
0.1
100
AcDbArc
 50
270.0
 51
0.0
  0
LINE
  5
19EF
330
2
100
AcDbEntity
  8
0
100
AcDbLine
 10
130.3417977575541
 20
185.4699357304066
 30
0.0
 11
130.3417977575541
 21
185.1199357304066
 31
0.0
  0
LINE
  5
19F0
330
2
100
AcDbEntity
  8
0
100
AcDbLine
 10
131.3417977575541
 20
181.7199357304066
 30
0.0
 11
131.3417977575541
 21
181.0199357304066
 31
0.0
  0
LINE
  5
19F1
330
2
100
AcDbEntity
  8
0
100
AcDbLine
 10
128.8417977575541
 20
180.8199357304067
 30
0.0
 11
128.8417977575541
 21
181.7199357304066
 31
0.0
  0
LINE
  5
19F2
330
2
100
AcDbEntity
  8
0
100
AcDbLine
 10
128.7417977575541
 20
187.7199357304066
 30
0.0
 11
125.441797757554
 21
187.7199357304066
 31
0.0
  0
LINE
  5
19F3
330
2
100
AcDbEntity
  8
0
100
AcDbLine
 10
125.341797757554
 20
187.8199357304067
 30
0.0
 11
125.341797757554
 21
187.9699357304066
 31
0.0
  0
ARC
  5
19F4
330
2
100
AcDbEntity
  8
0
100
AcDbCircle
 10
125.441797757554
 20
187.8199357304067
 30
0.0
 40
0.1
100
AcDbArc
 50
180.0
 51
270.0
  0
LINE
  5
19F5
330
2
100
AcDbEntity
  8
0
100
AcDbLine
 10
131.2417977575539
 20
187.5199357304067
 30
0.0
 11
130.441797757554
 21
187.5199357304067
 31
0.0
  0
ARC
  5
19F6
330
2
100
AcDbEntity
  8
0
100
AcDbCircle
 10
130.441797757554
 20
187.6199357304066
 30
0.0
 40
0.1
100
AcDbArc
 50
180.0
 51
270.0
  0
LINE
  5
19F7
330
2
100
AcDbEntity
  8
0
100
AcDbLine
 10
130.3417977575541
 20
187.9699357304066
 30
0.0
 11
130.3417977575541
 21
187.6199357304066
 31
0.0
  0
ARC
  5
19F8
330
2
100
AcDbEntity
  8
0
100
AcDbCircle
 10
131.2417977575539
 20
187.4199357304067
 30
0.0
 40
0.1
100
AcDbArc
 50
0.0
 51
90.0
  0
ARC
  5
19F9
330
2
100
AcDbEntity
  8
0
100
AcDbCircle
 10
128.7417977575541
 20
187.6199357304066
 30
0.0
 40
0.1
100
AcDbArc
 50
0.0
 51
90.0
  0
LINE
  5
1A01
330
2
100
AcDbEntity
  8
0
100
AcDbLine
 10
48.78265121555114
 20
296.4530750153528
 30
0.0
 11
59.83024031092759
 21
296.4530750153528
 31
0.0
  0
LINE
  5
1A02
330
2
100
AcDbEntity
  8
0
100
AcDbLine
 10
48.78265121555114
 20
290.4530750153529
 30
0.0
 11
59.90803065478849
 21
290.4530750153526
 31
0.0
  0
ARC
  5
1A03
330
2
100
AcDbEntity
  8
0
100
AcDbCircle
 10
48.78265121555114
 20
293.4530750153529
 30
0.0
 40
3.0
100
AcDbArc
 50
90.0
 51
270.0
  0
SPLINE
  5
1A04
330
2
100
AcDbEntity
  8
HOJO
100
AcDbSpline
210
0.0
220
0.0
230
1.0
 70
     8
 71
     3
 72
    12
 73
     8
 74
     6
 42
0.0000000001
 43
0.0000000001
 44
0.0000000001
 40
0.0
 40
0.0
 40
0.0
 40
0.0
 40
1.684659730310349
 40
2.786160565551575
 40
4.550934817628674
 40
5.718899366607204
 40
6.335570522767257
 40
6.335570522767257
 40
6.335570522767257
 40
6.335570522767257
 10
59.90803065478849
 20
290.4530750153526
 30
0.0
 10
59.63111904651476
 20
291.0040348290361
 30
0.0
 10
59.17315107278422
 20
291.9152351613465
 30
0.0
 10
60.05577569072186
 20
293.2522363933689
 30
0.0
 10
60.61785352856915
 20
294.5780558598387
 30
0.0
 10
60.1204440370909
 20
295.7122490684481
 30
0.0
 10
59.90476650756633
 20
296.2628261135761
 30
0.0
 10
59.83024031092759
 20
296.4530750153528
 30
0.0
 11
59.90803065478849
 21
290.4530750153526
 31
0.0
 11
59.44228877090677
 21
292.0720756035328
 31
0.0
 11
59.9040186072732
 21
293.0721304261531
 31
0.0
 11
60.40422618256184
 21
294.7645312481861
 31
0.0
 11
60.05792855272898
 21
295.8799769614518
 31
0.0
 11
59.83024031092759
 21
296.4530750153528
 31
0.0
  0
ENDSEC
  0
SECTION
  2
OBJECTS
  0
DICTIONARY
  5
7
330
0
100
AcDbDictionary
  3
ACAD_GROUP
350
75
  3
ACAD_LAYOUT
350
61
  3
ACAD_MLINESTYLE
350
76
  3
ACAD_PLOTSETTINGS
350
77
  3
ACAD_PLOTSTYLENAME
350
6
  3
ACADDIM
350
480
  3
ACDBHEADERROUNDTRIPXREC
350
23D4
  3
ACDBVARIABLEDICTIONARY
350
102
  3
DWGPROPS
350
3D2
  0
DICTIONARY
  5
23F5
330
2
100
AcDbDictionary
280
     1
  3
ACAD_LAYOUTSELFREF
360
23F6
  0
DICTIONARY
  5
23F7
330
23CE
100
AcDbDictionary
280
     1
  3
ACAD_LAYOUTSELFREF
360
23F8
  0
DICTIONARY
  5
75
102
{ACAD_REACTORS
330
7
102
}
330
7
100
AcDbDictionary
  0
DICTIONARY
  5
61
102
{ACAD_REACTORS
330
7
102
}
330
7
100
AcDbDictionary
  0
DICTIONARY
  5
76
102
{ACAD_REACTORS
330
7
102
}
330
7
100
AcDbDictionary
  3
STANDARD
350
78
  0
DICTIONARY
  5
77
102
{ACAD_REACTORS
330
7
102
}
330
7
100
AcDbDictionary
  0
ACDBDICTIONARYWDFLT
  5
6
102
{ACAD_REACTORS
330
7
102
}
330
7
100
AcDbDictionary
281
     1
  3
Normal
350
5
100
AcDbDictionaryWithDefault
340
5
  0
XRECORD
  5
480
102
{ACAD_REACTORS
330
7
102
}
330
7
100
AcDbXrecord
 90
   990106
  3

 60
     0
 61
     0
 62
     1
 63
     3
 64
     1
 65
     0
 66
     0
 67
     3
 68
     1
 69
     0
 70
     0
 71
     0
 72
     0
 40
0.0
170
     2
340
0
  0
DICTIONARY
  5
23D4
102
{ACAD_REACTORS
330
7
102
}
330
7
100
AcDbDictionary
  3
CEPSNTYPE
350
23DE
  3
DIMSTYLEDATA
350
23E2
  3
FINGERPRINTGUID
350
23DF
  3
HYPERLINKBASE
350
23D7
  3
INSUNITS
350
23DD
  3
LAYOUTDICT
350
23D9
  3
LWETCUNION
350
23DC
  3
PLOTSETDICT
350
23DA
  3
PLOTSTYLNAMDICT
350
23DB
  3
PSVPSCALE
350
23E1
  3
PUCSBASE
350
23E5
  3
PUCSORGBACK
350
23EB
  3
PUCSORGBOTTOM
350
23E7
  3
PUCSORGFRONT
350
23EA
  3
PUCSORGLEFT
350
23E8
  3
PUCSORGRIGHT
350
23E9
  3
PUCSORGTOP
350
23E6
  3
PUCSORTHOREF
350
23E3
  3
PUCSORTHOVIEW
350
23E4
  3
STYLESHEET
350
23D8
  3
TSTACKALIGN
350
23D5
  3
TSTACKSIZE
350
23D6
  3
UCSBASE
350
23EE
  3
UCSORGBACK
350
23F4
  3
UCSORGBOTTOM
350
23F0
  3
UCSORGFRONT
350
23F3
  3
UCSORGLEFT
350
23F1
  3
UCSORGRIGHT
350
23F2
  3
UCSORGTOP
350
23EF
  3
UCSORTHOREF
350
23EC
  3
UCSORTHOVIEW
350
23ED
  3
VERSIONGUID
350
23E0
  0
DICTIONARY
  5
102
102
{ACAD_REACTORS
330
7
102
}
330
7
100
AcDbDictionary
  3
DIMASSOC
350
103
  0
XRECORD
  5
3D2
102
{ACAD_REACTORS
330
7
102
}
330
7
100
AcDbXrecord
  1
DWGPROPS COOKIE
  2

  3

  4

  6

  7

  8

  9

300
=
301
=
302
=
303
=
304
=
305
=
306
=
307
=
308
=
309
=
 40
0.5353330671296296
 41
2452052.431989363
 42
2453406.550756377
  1

 90
        0
  0
XRECORD
  5
23F6
102
{ACAD_REACTORS
330
23F5
102
}
330
23F5
100
AcDbXrecord
340
2
  0
XRECORD
  5
23F8
102
{ACAD_REACTORS
330
23F7
102
}
330
23F7
100
AcDbXrecord
340
23CE
  0
MLINESTYLE
  5
78
102
{ACAD_REACTORS
330
76
102
}
330
76
100
AcDbMlineStyle
  2
STANDARD
 70
     0
  3

 62
     0
 51
90.0
 52
90.0
 71
     2
 49
0.5
 62
   256
  6
BYLAYER
 49
-0.5
 62
   256
  6
BYLAYER
  0
ACDBPLACEHOLDER
  5
5
102
{ACAD_REACTORS
330
6
102
}
330
6
100
AcDbPlaceHolder
280
     0
  0
XRECORD
  5
23DE
102
{ACAD_REACTORS
330
23D4
102
}
330
23D4
100
AcDbXrecord
 90
        0
  0
XRECORD
  5
23E2
102
{ACAD_REACTORS
330
23D4
102
}
330
23D4
100
AcDbXrecord
1000
DSTYLE
1002
{
1070
   179
 70
     2
1070
   277
 70
     6
1002
}
  0
XRECORD
  5
23DF
102
{ACAD_REACTORS
330
23D4
102
}
330
23D4
100
AcDbXrecord
  1
{6385560B-F4B1-4644-A7C2-A3E32AC3D232}
  0
XRECORD
  5
23D7
102
{ACAD_REACTORS
330
23D4
102
}
330
23D4
100
AcDbXrecord
  1

  0
XRECORD
  5
23DD
102
{ACAD_REACTORS
330
23D4
102
}
330
23D4
100
AcDbXrecord
 90
        0
  0
XRECORD
  5
23D9
102
{ACAD_REACTORS
330
23D4
102
}
330
23D4
100
AcDbXrecord
340
61
  0
XRECORD
  5
23DC
102
{ACAD_REACTORS
330
23D4
102
}
330
23D4
100
AcDbXrecord
 90
    10781
  0
XRECORD
  5
23DA
102
{ACAD_REACTORS
330
23D4
102
}
330
23D4
100
AcDbXrecord
340
77
  0
XRECORD
  5
23DB
102
{ACAD_REACTORS
330
23D4
102
}
330
23D4
100
AcDbXrecord
340
6
  0
XRECORD
  5
23E1
102
{ACAD_REACTORS
330
23D4
102
}
330
23D4
100
AcDbXrecord
 40
0.0
  0
XRECORD
  5
23E5
102
{ACAD_REACTORS
330
23D4
102
}
330
23D4
100
AcDbXrecord
340
0
  0
XRECORD
  5
23EB
102
{ACAD_REACTORS
330
23D4
102
}
330
23D4
100
AcDbXrecord
 10
0.0
 20
0.0
 30
0.0
  0
XRECORD
  5
23E7
102
{ACAD_REACTORS
330
23D4
102
}
330
23D4
100
AcDbXrecord
 10
0.0
 20
0.0
 30
0.0
  0
XRECORD
  5
23EA
102
{ACAD_REACTORS
330
23D4
102
}
330
23D4
100
AcDbXrecord
 10
0.0
 20
0.0
 30
0.0
  0
XRECORD
  5
23E8
102
{ACAD_REACTORS
330
23D4
102
}
330
23D4
100
AcDbXrecord
 10
0.0
 20
0.0
 30
0.0
  0
XRECORD
  5
23E9
102
{ACAD_REACTORS
330
23D4
102
}
330
23D4
100
AcDbXrecord
 10
0.0
 20
0.0
 30
0.0
  0
XRECORD
  5
23E6
102
{ACAD_REACTORS
330
23D4
102
}
330
23D4
100
AcDbXrecord
 10
0.0
 20
0.0
 30
0.0
  0
XRECORD
  5
23E3
102
{ACAD_REACTORS
330
23D4
102
}
330
23D4
100
AcDbXrecord
340
0
  0
XRECORD
  5
23E4
102
{ACAD_REACTORS
330
23D4
102
}
330
23D4
100
AcDbXrecord
 70
     0
  0
XRECORD
  5
23D8
102
{ACAD_REACTORS
330
23D4
102
}
330
23D4
100
AcDbXrecord
  1
Sekkei.ctb
  0
XRECORD
  5
23D5
102
{ACAD_REACTORS
330
23D4
102
}
330
23D4
100
AcDbXrecord
 90
        1
  0
XRECORD
  5
23D6
102
{ACAD_REACTORS
330
23D4
102
}
330
23D4
100
AcDbXrecord
 90
       70
  0
XRECORD
  5
23EE
102
{ACAD_REACTORS
330
23D4
102
}
330
23D4
100
AcDbXrecord
340
0
  0
XRECORD
  5
23F4
102
{ACAD_REACTORS
330
23D4
102
}
330
23D4
100
AcDbXrecord
 10
0.0
 20
0.0
 30
0.0
  0
XRECORD
  5
23F0
102
{ACAD_REACTORS
330
23D4
102
}
330
23D4
100
AcDbXrecord
 10
0.0
 20
0.0
 30
0.0
  0
XRECORD
  5
23F3
102
{ACAD_REACTORS
330
23D4
102
}
330
23D4
100
AcDbXrecord
 10
0.0
 20
0.0
 30
0.0
  0
XRECORD
  5
23F1
102
{ACAD_REACTORS
330
23D4
102
}
330
23D4
100
AcDbXrecord
 10
0.0
 20
0.0
 30
0.0
  0
XRECORD
  5
23F2
102
{ACAD_REACTORS
330
23D4
102
}
330
23D4
100
AcDbXrecord
 10
0.0
 20
0.0
 30
0.0
  0
XRECORD
  5
23EF
102
{ACAD_REACTORS
330
23D4
102
}
330
23D4
100
AcDbXrecord
 10
0.0
 20
0.0
 30
0.0
  0
XRECORD
  5
23EC
102
{ACAD_REACTORS
330
23D4
102
}
330
23D4
100
AcDbXrecord
340
0
  0
XRECORD
  5
23ED
102
{ACAD_REACTORS
330
23D4
102
}
330
23D4
100
AcDbXrecord
 70
     0
  0
XRECORD
  5
23E0
102
{ACAD_REACTORS
330
23D4
102
}
330
23D4
100
AcDbXrecord
  1
{8D2887D1-ADD8-475D-A17E-90D657CF4298}
  0
DICTIONARYVAR
  5
103
102
{ACAD_REACTORS
330
102
102
}
330
102
100
DictionaryVariables
280
     0
  1
1
  0
ENDSEC
  0
EOF
