  0
SECTION
  2
HEADER
  9
$ACADVER
  1
AC1014
  9
$ACADMAINTVER
 70
     9
  9
$DWGCODEPAGE
  3
ANSI_932
  9
$INSBASE
 10
0.0
 20
0.0
 30
0.0
  9
$EXTMIN
 10
27.151504063228
 20
24.05510891247834
 30
0.0
  9
$EXTMAX
 10
506.4027979323165
 20
479.9593897250693
 30
0.0
  9
$LIMMIN
 10
0.0
 20
0.0
  9
$LIMMAX
 10
297.0
 20
210.0
  9
$ORTHOMODE
 70
     1
  9
$REGENMODE
 70
     1
  9
$FILLMODE
 70
     1
  9
$QTEXTMODE
 70
     0
  9
$MIRRTEXT
 70
     0
  9
$DRAGMODE
 70
     2
  9
$LTSCALE
 40
3.0
  9
$OSMODE
 70
    37
  9
$ATTMODE
 70
     1
  9
$TEXTSIZE
 40
9.0
  9
$TRACEWID
 40
1.0
  9
$TEXTSTYLE
  7
STANDARD
  9
$CLAYER
  8
0
  9
$CELTYPE
  6
BYLAYER
  9
$CECOLOR
 62
   256
  9
$CELTSCALE
 40
1.0
  9
$DELOBJ
 70
     1
  9
$DISPSILH
 70
     0
  9
$DIMSCALE
 40
3.0
  9
$DIMASZ
 40
1.8
  9
$DIMEXO
 40
0.625
  9
$DIMDLI
 40
3.75
  9
$DIMRND
 40
0.0
  9
$DIMDLE
 40
0.0
  9
$DIMEXE
 40
0.8
  9
$DIMTP
 40
0.0
  9
$DIMTM
 40
0.0
  9
$DIMTXT
 40
1.8
  9
$DIMCEN
 40
2.5
  9
$DIMTSZ
 40
0.0
  9
$DIMTOL
 70
     0
  9
$DIMLIM
 70
     0
  9
$DIMTIH
 70
     0
  9
$DIMTOH
 70
     0
  9
$DIMSE1
 70
     0
  9
$DIMSE2
 70
     0
  9
$DIMTAD
 70
     1
  9
$DIMZIN
 70
     8
  9
$DIMBLK
  1

  9
$DIMASO
 70
     1
  9
$DIMSHO
 70
     1
  9
$DIMPOST
  1

  9
$DIMAPOST
  1

  9
$DIMALT
 70
     0
  9
$DIMALTD
 70
     4
  9
$DIMALTF
 40
0.0394
  9
$DIMLFAC
 40
1.0
  9
$DIMTOFL
 70
     1
  9
$DIMTVP
 40
0.0
  9
$DIMTIX
 70
     0
  9
$DIMSOXD
 70
     0
  9
$DIMSAH
 70
     0
  9
$DIMBLK1
  1

  9
$DIMBLK2
  1

  9
$DIMSTYLE
  2
STANDARD
  9
$DIMCLRD
 70
     0
  9
$DIMCLRE
 70
     0
  9
$DIMCLRT
 70
     0
  9
$DIMTFAC
 40
1.0
  9
$DIMGAP
 40
0.75
  9
$DIMJUST
 70
     0
  9
$DIMSD1
 70
     0
  9
$DIMSD2
 70
     0
  9
$DIMTOLJ
 70
     1
  9
$DIMTZIN
 70
     0
  9
$DIMALTZ
 70
     0
  9
$DIMALTTZ
 70
     0
  9
$DIMFIT
 70
     3
  9
$DIMUPT
 70
     0
  9
$DIMUNIT
 70
     8
  9
$DIMDEC
 70
     2
  9
$DIMTDEC
 70
     2
  9
$DIMALTU
 70
     8
  9
$DIMALTTD
 70
     4
  9
$DIMTXSTY
  7
STANDARD
  9
$DIMAUNIT
 70
     0
  9
$LUNITS
 70
     2
  9
$LUPREC
 70
     3
  9
$SKETCHINC
 40
1.0
  9
$FILLETRAD
 40
10.0
  9
$AUNITS
 70
     0
  9
$AUPREC
 70
     2
  9
$MENU
  1
.
  9
$ELEVATION
 40
0.0
  9
$PELEVATION
 40
0.0
  9
$THICKNESS
 40
0.0
  9
$LIMCHECK
 70
     0
  9
$BLIPMODE
 70
     0
  9
$CHAMFERA
 40
0.0
  9
$CHAMFERB
 40
0.0
  9
$CHAMFERC
 40
20.0
  9
$CHAMFERD
 40
0.0
  9
$SKPOLY
 70
     0
  9
$TDCREATE
 40
2453692.467492222
  9
$TDUPDATE
 40
2453928.590857558
  9
$TDINDWG
 40
0.0475057870
  9
$TDUSRTIMER
 40
0.0475057870
  9
$USRTIMER
 70
     1
  9
$ANGBASE
 50
0.0
  9
$ANGDIR
 70
     0
  9
$PDMODE
 70
     0
  9
$PDSIZE
 40
-10.0
  9
$PLINEWID
 40
0.0
  9
$COORDS
 70
     0
  9
$SPLFRAME
 70
     0
  9
$SPLINETYPE
 70
     6
  9
$SPLINESEGS
 70
     8
  9
$ATTDIA
 70
     0
  9
$ATTREQ
 70
     1
  9
$HANDLING
 70
-16383
  9
$HANDSEED
  5
1D58
  9
$SURFTAB1
 70
     6
  9
$SURFTAB2
 70
     6
  9
$SURFTYPE
 70
     6
  9
$SURFU
 70
     6
  9
$SURFV
 70
     6
  9
$UCSNAME
  2

  9
$UCSORG
 10
0.0
 20
0.0
 30
0.0
  9
$UCSXDIR
 10
1.0
 20
0.0
 30
0.0
  9
$UCSYDIR
 10
0.0
 20
1.0
 30
0.0
  9
$PUCSNAME
  2

  9
$PUCSORG
 10
0.0
 20
0.0
 30
0.0
  9
$PUCSXDIR
 10
1.0
 20
0.0
 30
0.0
  9
$PUCSYDIR
 10
0.0
 20
1.0
 30
0.0
  9
$USERI1
 70
     0
  9
$USERI2
 70
     0
  9
$USERI3
 70
     0
  9
$USERI4
 70
     0
  9
$USERI5
 70
     0
  9
$USERR1
 40
0.0
  9
$USERR2
 40
0.0
  9
$USERR3
 40
0.0
  9
$USERR4
 40
0.0
  9
$USERR5
 40
0.0
  9
$WORLDVIEW
 70
     1
  9
$SHADEDGE
 70
     3
  9
$SHADEDIF
 70
    70
  9
$TILEMODE
 70
     1
  9
$MAXACTVP
 70
    48
  9
$PINSBASE
 10
0.0
 20
0.0
 30
0.0
  9
$PLIMCHECK
 70
     0
  9
$PEXTMIN
 10
0.0
 20
0.0
 30
0.0
  9
$PEXTMAX
 10
0.0
 20
0.0
 30
0.0
  9
$PLIMMIN
 10
0.0
 20
0.0
  9
$PLIMMAX
 10
12.0
 20
9.0
  9
$UNITMODE
 70
     0
  9
$VISRETAIN
 70
     1
  9
$PLINEGEN
 70
     0
  9
$PSLTSCALE
 70
     1
  9
$TREEDEPTH
 70
  3020
  9
$PICKSTYLE
 70
     1
  9
$CMLSTYLE
  2
STANDARD
  9
$CMLJUST
 70
     0
  9
$CMLSCALE
 40
1.0
  9
$PROXYGRAPHICS
 70
     1
  9
$MEASUREMENT
 70
     0
  0
ENDSEC
  0
SECTION
  2
CLASSES
  0
CLASS
  1
DICTIONARYVAR
  2
AcDbDictionaryVar
  3
AutoCAD 2000
 90
        0
280
     0
281
     0
  0
CLASS
  1
ACDBDICTIONARYWDFLT
  2
AcDbDictionaryWithDefault
  3
AutoCAD 2000
 90
        0
280
     0
281
     0
  0
CLASS
  1
ACDBPLACEHOLDER
  2
AcDbPlaceHolder
  3
AutoCAD 2000
 90
        0
280
     0
281
     0
  0
CLASS
  1
LAYOUT
  2
AcDbLayout
  3
AutoCAD 2000
 90
        0
280
     0
281
     0
  0
CLASS
  1
LONG_TRANSACTION
  2
AcDbLongTransaction
  3
AutoCAD 2000
 90
        0
280
     0
281
     0
  0
CLASS
  1
LWPOLYLINE
  2
AcDbPolyline
  3
AutoCAD 2000
 90
        0
280
     0
281
     1
  0
CLASS
  1
HATCH
  2
AcDbHatch
  3
AutoCAD 2000
 90
        0
280
     0
281
     1
  0
CLASS
  1
XRECORD
  2
AcDbXrecord
  3
AutoCAD 2000
 90
        0
280
     0
281
     0
  0
ENDSEC
  0
SECTION
  2
TABLES
  0
TABLE
  2
VPORT
  5
6E
330
0
100
AcDbSymbolTable
 70
     2
  0
VPORT
  5
1D32
330
6E
100
AcDbSymbolTableRecord
100
AcDbViewportTableRecord
  2
*ACTIVE
 70
     0
 10
0.0
 20
0.0
 11
1.0
 21
1.0
 12
285.0550762715009
 22
252.0087074934118
 13
0.0
 23
0.0
 14
10.0
 24
10.0
 15
10.0
 25
10.0
 16
0.0
 26
0.0
 36
1.0
 17
0.0
 27
0.0
 37
0.0
 40
459.7109462366367
 41
1.566970091027308
 42
50.0
 43
0.0
 44
0.0
 50
0.0
 51
0.0
 71
     0
 72
   100
 73
     1
 74
     3
 75
     0
 76
     0
 77
     0
 78
     0
  0
ENDTAB
  0
TABLE
  2
LTYPE
  5
69
330
0
100
AcDbSymbolTable
 70
     4
  0
LTYPE
  5
6A
330
69
100
AcDbSymbolTableRecord
100
AcDbLinetypeTableRecord
  2
BYBLOCK
 70
     0
  3

 72
    65
 73
     0
 40
0.0
  0
LTYPE
  5
6B
330
69
100
AcDbSymbolTableRecord
100
AcDbLinetypeTableRecord
  2
BYLAYER
 70
     0
  3

 72
    65
 73
     0
 40
0.0
  0
LTYPE
  5
8
330
69
100
AcDbSymbolTableRecord
100
AcDbLinetypeTableRecord
  2
CONTINUOUS
 70
     0
  3
Solid line
 72
    65
 73
     0
 40
0.0
  0
LTYPE
  5
27C
330
69
100
AcDbSymbolTableRecord
100
AcDbLinetypeTableRecord
  2
SEKKEI_A2_
 70
     0
  3
center(A2)  ____ _ ____ _ ____ _ ____ _ ____ _ 
 72
    65
 73
     4
 40
14.28749999999999
 49
9.525
 74
     0
 49
-1.587499999999999
 74
     0
 49
1.587499999999999
 74
     0
 49
-1.587499999999999
 74
     0
  0
LTYPE
  5
2B4
330
69
100
AcDbSymbolTableRecord
100
AcDbLinetypeTableRecord
  2
HIDDEN2
 70
     0
  3
Hidden (.5x) _ _ _ _ _ _ _ _ _ _ _ _ _ _ _ _ _
 72
    65
 73
     2
 40
4.762499999999999
 49
3.174999999999999
 74
     0
 49
-1.587499999999999
 74
     0
  0
LTYPE
  5
48F
330
69
100
AcDbSymbolTableRecord
100
AcDbLinetypeTableRecord
  2
SEKKEI_H
 70
     0
  3
Hidden-S _ _ _ _ _ _ _ _ _ _ _ _ _ _ _ _ _
 72
    65
 73
     2
 40
2.381249999999999
 49
1.587499999999999
 74
     0
 49
-0.79375
 74
     0
  0
ENDTAB
  0
TABLE
  2
LAYER
  5
66
330
0
100
AcDbSymbolTable
 70
     9
  0
LAYER
  5
5E
330
66
100
AcDbSymbolTableRecord
100
AcDbLayerTableRecord
  2
0
 70
     0
 62
     7
  6
CONTINUOUS
  0
LAYER
  5
3E
330
66
100
AcDbSymbolTableRecord
100
AcDbLayerTableRecord
  2
CENTER
 70
     0
 62
     3
  6
SEKKEI_A2_
  0
LAYER
  5
2B5
330
66
100
AcDbSymbolTableRecord
100
AcDbLayerTableRecord
  2
HIDS
 70
     0
 62
     1
  6
HIDDEN2
  0
LAYER
  5
2BA
330
66
100
AcDbSymbolTableRecord
100
AcDbLayerTableRecord
  2
HOJO
 70
     0
 62
     4
  6
CONTINUOUS
  0
LAYER
  5
3FA
330
66
100
AcDbSymbolTableRecord
100
AcDbLayerTableRecord
  2
TITLE
 70
     0
 62
     4
  6
CONTINUOUS
  0
ENDTAB
  0
TABLE
  2
STYLE
  5
67
330
0
100
AcDbSymbolTable
 70
     2
  0
STYLE
  5
16
330
67
100
AcDbSymbolTableRecord
100
AcDbTextStyleTableRecord
  2
STANDARD
 70
     0
 40
0.0
 41
1.0
 50
0.0
 71
     0
 42
9.0
  3
simplex.shx
  4
extfont.shx
  0
ENDTAB
  0
TABLE
  2
VIEW
  5
6C
330
0
100
AcDbSymbolTable
 70
     0
  0
ENDTAB
  0
TABLE
  2
UCS
  5
6D
330
0
100
AcDbSymbolTable
 70
     0
  0
ENDTAB
  0
TABLE
  2
APPID
  5
70
330
0
100
AcDbSymbolTable
 70
     1
  0
APPID
  5
71
330
70
100
AcDbSymbolTableRecord
100
AcDbRegAppTableRecord
  2
ACAD
 70
     0
  0
ENDTAB
  0
TABLE
  2
DIMSTYLE
  5
72
330
0
100
AcDbSymbolTable
 70
     1
  0
DIMSTYLE
105
73
330
72
100
AcDbSymbolTableRecord
100
AcDbDimStyleTableRecord
  2
STANDARD
 70
     0
  3

  4

  5

  6

  7

 40
3.0
 41
1.8
 42
0.625
 43
3.75
 44
0.8
 45
0.0
 46
0.0
 47
0.0
 48
0.0
140
1.8
141
2.5
142
0.0
143
0.0394
144
1.0
145
0.0
146
1.0
147
0.75
 71
     0
 72
     0
 73
     0
 74
     0
 75
     0
 76
     0
 77
     1
 78
     8
170
     0
171
     4
172
     1
173
     0
174
     0
175
     0
176
     0
177
     0
178
     0
270
     8
271
     2
272
     2
273
     8
274
     4
340
16
275
     0
280
     0
281
     0
282
     0
283
     1
284
     0
285
     0
286
     0
287
     3
288
     0
  0
ENDTAB
  0
TABLE
  2
BLOCK_RECORD
  5
1
330
0
100
AcDbSymbolTable
 70
    37
  0
BLOCK_RECORD
  5
2
102
{ACAD_XDICTIONARY
360
1D54
102
}
330
1
100
AcDbSymbolTableRecord
100
AcDbBlockTableRecord
  2
*MODEL_SPACE
  0
BLOCK_RECORD
  5
1D2D
102
{ACAD_XDICTIONARY
360
1D56
102
}
330
1
100
AcDbSymbolTableRecord
100
AcDbBlockTableRecord
  2
*PAPER_SPACE
  0
ENDTAB
  0
ENDSEC
  0
SECTION
  2
BLOCKS
  0
BLOCK
  5
5D
330
2
100
AcDbEntity
  8
0
100
AcDbBlockBegin
  2
*MODEL_SPACE
 70
     0
 10
0.0
 20
0.0
 30
0.0
  3
*MODEL_SPACE
  1

  0
ENDBLK
  5
5F
330
2
100
AcDbEntity
  8
0
100
AcDbBlockEnd
  0
BLOCK
  5
1D2F
330
1D2D
100
AcDbEntity
 67
     1
  8
0
100
AcDbBlockBegin
  2
*PAPER_SPACE
 70
     0
 10
0.0
 20
0.0
 30
0.0
  3
*PAPER_SPACE
  1

  0
ENDBLK
  5
1D30
330
1D2D
100
AcDbEntity
 67
     1
  8
0
100
AcDbBlockEnd
  0
ENDSEC
  0
SECTION
  2
ENTITIES
  0
LINE
  5
835
330
2
100
AcDbEntity
  8
0
100
AcDbLine
 10
105.1514809194735
 20
216.5729122597534
 30
0.0
 11
109.6514579194737
 21
216.5729122597534
 31
0.0
  0
LINE
  5
83A
330
2
100
AcDbEntity
  8
CENTER
100
AcDbLine
 10
27.151504063228
 20
159.0729122597534
 30
0.0
 11
158.6803867863222
 21
159.0729122597534
 31
0.0
  0
LINE
  5
83C
330
2
100
AcDbEntity
  8
0
100
AcDbLine
 10
105.1514809194735
 20
101.5729122597534
 30
0.0
 11
109.6515039194736
 21
101.5729122597534
 31
0.0
  0
LINE
  5
840
330
2
100
AcDbEntity
  8
0
100
AcDbLine
 10
105.1514809194735
 20
216.5729122597534
 30
0.0
 11
105.1514809194735
 21
101.5729122597534
 31
0.0
  0
LINE
  5
841
330
2
100
AcDbEntity
  8
0
100
AcDbLine
 10
105.1514809194735
 20
216.5729122597534
 30
0.0
 11
105.1514809194735
 21
101.5729122597534
 31
0.0
  0
LINE
  5
956
330
2
100
AcDbEntity
  8
0
100
AcDbLine
 10
328.1983909323165
 20
227.3176322597534
 30
0.0
 11
361.4027979323164
 21
208.1476558078823
 31
0.0
  0
LINE
  5
957
330
2
100
AcDbEntity
  8
0
100
AcDbLine
 10
323.0630396206308
 20
217.5806536786438
 30
0.0
 11
361.4027979323164
 21
195.4459819874996
 31
0.0
  0
LINE
  5
95A
330
2
100
AcDbEntity
  8
0
100
AcDbLine
 10
320.6985749323165
 20
214.3272302597534
 30
0.0
 11
361.4027979323164
 21
190.8272214659603
 31
0.0
  0
LINE
  5
95B
330
2
100
AcDbEntity
  8
0
100
AcDbLine
 10
323.6983909323165
 20
219.5233712597534
 30
0.0
 11
361.4027979323164
 21
197.7555648811169
 31
0.0
  0
LINE
  5
95C
330
2
100
AcDbEntity
  8
0
100
AcDbLine
 10
325.1983909323165
 20
222.1214502597534
 30
0.0
 11
361.4027979323164
 21
201.2195797731753
 31
0.0
  0
LINE
  5
95D
330
2
100
AcDbEntity
  8
0
100
AcDbLine
 10
321.3336511575884
 20
216.2697003131273
 30
0.0
 11
361.4027979323164
 21
193.13660172673
 31
0.0
  0
LINE
  5
95F
330
2
100
AcDbEntity
  8
0
100
AcDbLine
 10
193.6515799194735
 20
148.5729122597534
 30
0.0
 11
193.6515799194735
 21
207.5729122597534
 31
0.0
  0
LINE
  5
961
330
2
100
AcDbEntity
  8
0
100
AcDbLine
 10
176.6515879194736
 20
228.4124432597534
 30
0.0
 11
176.6515879194736
 21
91.42334525975343
 31
0.0
  0
LINE
  5
962
330
2
100
AcDbEntity
  8
0
100
AcDbLine
 10
188.6515879194736
 20
228.5729122597534
 30
0.0
 11
188.6515879194736
 21
89.57291225975342
 31
0.0
  0
LINE
  5
963
330
2
100
AcDbEntity
  8
0
100
AcDbLine
 10
118.6513739194734
 20
226.5728812597533
 30
0.0
 11
118.6515879194736
 21
93.57288125975339
 31
0.0
  0
LINE
  5
964
330
2
100
AcDbEntity
  8
0
100
AcDbLine
 10
112.6514809194735
 20
95.07291225975341
 30
0.0
 11
112.6514809194735
 21
225.0729502597534
 31
0.0
  0
LINE
  5
966
330
2
100
AcDbEntity
  8
0
100
AcDbLine
 10
119.1515119194735
 20
93.06415325975342
 30
0.0
 11
176.1601939194735
 21
92.06906725975342
 31
0.0
  0
LINE
  5
967
330
2
100
AcDbEntity
  8
CENTER
100
AcDbLine
 10
174.1515879194736
 20
98.07291225975342
 30
0.0
 11
191.1515879194736
 21
98.07291225975342
 31
0.0
  0
LINE
  5
969
330
2
100
AcDbEntity
  8
0
100
AcDbLine
 10
114.6514809194735
 20
93.07291225975342
 30
0.0
 11
118.6514809194735
 21
93.07291225975342
 31
0.0
  0
ARC
  5
96A
330
2
100
AcDbEntity
  8
0
100
AcDbCircle
 10
114.6514809194735
 20
95.07291225975341
 30
0.0
 40
2.0
100
AcDbArc
 50
180.0
 51
270.0
  0
ARC
  5
96B
330
2
100
AcDbEntity
  8
0
100
AcDbCircle
 10
109.6515039194736
 20
98.57289325975342
 30
0.0
 40
3.0
100
AcDbArc
 50
0.0
 51
90.0
  0
LINE
  5
96C
330
2
100
AcDbEntity
  8
0
100
AcDbLine
 10
118.6515879194736
 20
93.57288125975339
 30
0.0
 11
119.1515119194735
 21
93.06415325975342
 31
0.0
  0
LINE
  5
96D
330
2
100
AcDbEntity
  8
0
100
AcDbLine
 10
121.0442419194736
 20
122.7048892597534
 30
0.0
 11
173.8590769194735
 21
123.1658082597534
 31
0.0
  0
LINE
  5
96E
330
2
100
AcDbEntity
  8
0
100
AcDbLine
 10
120.8089059194736
 20
105.7560332597534
 30
0.0
 11
173.3672859194736
 21
104.3801102597534
 31
0.0
  0
LINE
  5
96F
330
2
100
AcDbEntity
  8
0
100
AcDbLine
 10
118.0264809194735
 20
105.7560142597534
 30
0.0
 11
113.5264809194735
 21
105.7560142597534
 31
0.0
  0
LINE
  5
970
330
2
100
AcDbEntity
  8
0
100
AcDbLine
 10
118.0264809194735
 20
122.5760322597534
 30
0.0
 11
113.5264809194735
 21
122.5760322597534
 31
0.0
  0
ARC
  5
972
330
2
100
AcDbEntity
  8
0
100
AcDbCircle
 10
176.1514659194737
 20
91.56914325975344
 30
0.0
 40
0.5
100
AcDbArc
 50
0.0
 51
88.99999999999986
  0
LINE
  5
973
330
2
100
AcDbEntity
  8
0
100
AcDbLine
 10
188.1560889194735
 20
89.09021525975338
 30
0.0
 11
178.5816719194737
 21
89.42455825975343
 31
0.0
  0
ARC
  5
974
330
2
100
AcDbEntity
  8
0
100
AcDbCircle
 10
178.6514809194735
 20
91.42334525975343
 30
0.0
 40
2.0
100
AcDbArc
 50
180.0
 51
267.9999999999996
  0
LINE
  5
975
330
2
100
AcDbEntity
  8
0
100
AcDbLine
 10
188.1517859194735
 20
89.08601225975344
 30
0.0
 11
188.6515879194736
 21
89.57291225975342
 31
0.0
  0
LINE
  5
976
330
2
100
AcDbEntity
  8
HIDS
  6
SEKKEI_H
100
AcDbLine
 10
176.6515879194736
 20
102.3729122597534
 30
0.0
 11
188.6515879194736
 21
102.3729122597534
 31
0.0
  0
LINE
  5
977
330
2
100
AcDbEntity
  8
HIDS
  6
SEKKEI_H
100
AcDbLine
 10
176.6515879194736
 20
93.77291225975341
 30
0.0
 11
188.6515879194736
 21
93.77291225975341
 31
0.0
  0
LINE
  5
978
330
2
100
AcDbEntity
  8
0
100
AcDbLine
 10
188.6515879194737
 20
148.0729122597534
 30
0.0
 11
193.1515799194735
 21
148.0729122597534
 31
0.0
  0
LINE
  5
979
330
2
100
AcDbEntity
  8
0
100
AcDbLine
 10
193.1515799194735
 20
148.0729122597534
 30
0.0
 11
193.6515799194735
 21
148.5729122597534
 31
0.0
  0
LINE
  5
97F
330
2
100
AcDbEntity
  8
0
100
AcDbLine
 10
176.4059519194735
 20
228.0809922597534
 30
0.0
 11
119.1512979194736
 21
227.0816102597533
 31
0.0
  0
LINE
  5
980
330
2
100
AcDbEntity
  8
CENTER
100
AcDbLine
 10
240.6514809194735
 20
178.0729122597534
 30
0.0
 11
171.6515879194736
 21
178.0729122597534
 31
0.0
  0
LINE
  5
981
330
2
100
AcDbEntity
  8
CENTER
100
AcDbLine
 10
174.1515879194736
 20
220.0729122597534
 30
0.0
 11
191.1515879194736
 21
220.0729122597534
 31
0.0
  0
ARC
  5
983
330
2
100
AcDbEntity
  8
0
100
AcDbCircle
 10
109.6514809194735
 20
219.5729122597534
 30
0.0
 40
3.0
100
AcDbArc
 50
270.0
 51
0.0
  0
LINE
  5
984
330
2
100
AcDbEntity
  8
0
100
AcDbLine
 10
114.6514809194735
 20
227.0729122597534
 30
0.0
 11
118.6514809194735
 21
227.0729122597534
 31
0.0
  0
ARC
  5
985
330
2
100
AcDbEntity
  8
0
100
AcDbCircle
 10
114.6514809194735
 20
225.0729502597534
 30
0.0
 40
2.0
100
AcDbArc
 50
90.0
 51
180.0
  0
LINE
  5
986
330
2
100
AcDbEntity
  8
0
100
AcDbLine
 10
119.1512979194736
 20
227.0816102597533
 30
0.0
 11
118.6513739194734
 21
226.5728812597533
 31
0.0
  0
LINE
  5
993
330
2
100
AcDbEntity
  8
0
100
AcDbLine
 10
203.6516789194735
 20
175.0729122597534
 30
0.0
 11
235.6514809194735
 21
175.0729122597534
 31
0.0
  0
LINE
  5
994
330
2
100
AcDbEntity
  8
0
100
AcDbLine
 10
203.6516789194735
 20
181.0729122597534
 30
0.0
 11
235.6514809194735
 21
181.0729122597534
 31
0.0
  0
LINE
  5
995
330
2
100
AcDbEntity
  8
0
100
AcDbLine
 10
195.6514809194735
 20
167.0729122597534
 30
0.0
 11
235.6514809194735
 21
167.0729122597534
 31
0.0
  0
LINE
  5
996
330
2
100
AcDbEntity
  8
0
100
AcDbLine
 10
195.6516789194735
 20
189.0729122597534
 30
0.0
 11
235.6514809194735
 21
189.0729122597534
 31
0.0
  0
LINE
  5
998
330
2
100
AcDbEntity
  8
0
100
AcDbLine
 10
195.6516789194735
 20
190.0729122597534
 30
0.0
 11
195.6516789194735
 21
166.0729122597534
 31
0.0
  0
LINE
  5
999
330
2
100
AcDbEntity
  8
0
100
AcDbLine
 10
193.6516789194735
 20
166.0729122597534
 30
0.0
 11
195.6516789194735
 21
166.0729122597534
 31
0.0
  0
ARC
  5
99A
330
2
100
AcDbEntity
  8
0
100
AcDbCircle
 10
203.6516789194735
 20
178.0729122597534
 30
0.0
 40
3.0
100
AcDbArc
 50
90.0
 51
270.0
  0
LINE
  5
99B
330
2
100
AcDbEntity
  8
0
100
AcDbLine
 10
193.6514809194735
 20
190.0729122597534
 30
0.0
 11
195.6516789194735
 21
190.0729122597534
 31
0.0
  0
LINE
  5
99C
330
2
100
AcDbEntity
  8
0
100
AcDbLine
 10
235.6514809194735
 20
189.0729122597534
 30
0.0
 11
235.6514809194735
 21
167.0729122597534
 31
0.0
  0
LINE
  5
99D
330
2
100
AcDbEntity
  8
0
 48
0.1
100
AcDbLine
 10
188.6515879194736
 20
208.0729122597533
 30
0.0
 11
193.1515799194735
 21
208.0729122597534
 31
0.0
  0
LINE
  5
99E
330
2
100
AcDbEntity
  8
HIDS
  6
SEKKEI_H
100
AcDbLine
 10
176.6515879194736
 20
215.7729122597533
 30
0.0
 11
188.6515879194736
 21
215.7729122597534
 31
0.0
  0
LINE
  5
99F
330
2
100
AcDbEntity
  8
0
100
AcDbLine
 10
193.1515799194735
 20
208.0729122597534
 30
0.0
 11
193.6515799194735
 21
207.5729122597534
 31
0.0
  0
LINE
  5
9A0
330
2
100
AcDbEntity
  8
0
100
AcDbLine
 10
176.8928599194736
 20
228.6622902597534
 30
0.0
 11
188.1518929194736
 21
229.0554642597534
 31
0.0
  0
LINE
  5
9A1
330
2
100
AcDbEntity
  8
HIDS
  6
SEKKEI_H
100
AcDbLine
 10
176.6515879194736
 20
224.3729122597534
 30
0.0
 11
188.6515879194736
 21
224.3729122597534
 31
0.0
  0
ARC
  5
9A2
330
2
100
AcDbEntity
  8
0
100
AcDbCircle
 10
176.9015879194736
 20
228.4124432597534
 30
0.0
 40
0.25
100
AcDbArc
 50
91.99999999999874
 51
180.0
  0
ARC
  5
9A3
330
2
100
AcDbEntity
  8
0
100
AcDbCircle
 10
176.4015879194736
 20
228.3309532597534
 30
0.0
 40
0.25
100
AcDbArc
 50
271.0000000000001
 51
0.0
  0
LINE
  5
9A4
330
2
100
AcDbEntity
  8
0
100
AcDbLine
 10
188.1518929194736
 20
229.0554642597534
 30
0.0
 11
188.6515879194736
 21
228.5729122597534
 31
0.0
  0
ARC
  5
A0C
330
2
100
AcDbEntity
  8
HOJO
100
AcDbCircle
 10
322.2073939323166
 20
218.9408322597534
 30
0.0
 40
1.600781
100
AcDbArc
 50
307.1647000000007
 51
21.34008999999978
  0
ARC
  5
A0D
330
2
100
AcDbEntity
  8
HOJO
100
AcDbCircle
 10
322.1895719323166
 20
214.9097542597534
 30
0.0
 40
1.600781999999999
100
AcDbArc
 50
127.1647030000008
 51
201.3401950000011
  0
LINE
  5
A0E
330
2
100
AcDbEntity
  8
HOJO
100
AcDbLine
 10
321.2223779323165
 20
216.1853502597534
 30
0.0
 11
323.1745879323167
 21
217.6652122597534
 31
0.0
  0
ARC
  5
A0F
330
2
100
AcDbEntity
  8
HOJO
100
AcDbCircle
 10
326.7073939323166
 20
226.7350902597534
 30
0.0
 40
1.600781
100
AcDbArc
 50
307.1647000000007
 51
21.34008999999978
  0
LINE
  5
A10
330
2
100
AcDbEntity
  8
HOJO
100
AcDbLine
 10
325.7223779323165
 20
223.9796502597534
 30
0.0
 11
327.6743739323165
 21
225.4594712597533
 31
0.0
  0
ARC
  5
A11
330
2
100
AcDbEntity
  8
HOJO
100
AcDbCircle
 10
326.6893889323165
 20
222.7040312597534
 30
0.0
 40
1.600781999999999
100
AcDbArc
 50
127.1647030000008
 51
201.3401950000011
  0
LINE
  5
A12
330
2
100
AcDbEntity
  8
0
100
AcDbLine
 10
496.4027979323165
 20
201.2739242597534
 30
0.0
 11
496.4027979323165
 21
116.8719002597534
 31
0.0
  0
LINE
  5
A13
330
2
100
AcDbEntity
  8
0
100
AcDbLine
 10
366.4027979323165
 20
201.2739242597534
 30
0.0
 11
366.4027979323165
 21
116.8719002597534
 31
0.0
  0
CIRCLE
  5
A14
330
2
100
AcDbEntity
  8
0
100
AcDbCircle
 10
431.4027979323165
 20
178.0729122597534
 30
0.0
 40
30.0
  0
LINE
  5
A15
330
2
100
AcDbEntity
  8
CENTER
100
AcDbLine
 10
492.4027979323165
 20
226.9729122597534
 30
0.0
 11
492.4027979323165
 21
91.27291225975341
 31
0.0
  0
LINE
  5
A16
330
2
100
AcDbEntity
  8
CENTER
100
AcDbLine
 10
370.4027979323165
 20
226.9729122597534
 30
0.0
 11
370.4027979323165
 21
91.27291225975341
 31
0.0
  0
LINE
  5
A17
330
2
100
AcDbEntity
  8
0
100
AcDbLine
 10
501.4027979323165
 20
220.0729122597534
 30
0.0
 11
501.4027979323165
 21
98.07291225975342
 31
0.0
  0
LINE
  5
A18
330
2
100
AcDbEntity
  8
0
100
AcDbLine
 10
361.4027979323164
 20
98.07291225975342
 30
0.0
 11
361.4027979323164
 21
220.0729122597534
 31
0.0
  0
LINE
  5
A19
330
2
100
AcDbEntity
  8
CENTER
100
AcDbLine
 10
431.4027979323165
 20
233.0729122597534
 30
0.0
 11
431.4027979323165
 21
83.07291225975342
 31
0.0
  0
LINE
  5
A1D
330
2
100
AcDbEntity
  8
0
100
AcDbLine
 10
389.2017789323166
 20
94.07291225975342
 30
0.0
 11
473.6037869323164
 21
94.07291225975342
 31
0.0
  0
LINE
  5
A1E
330
2
100
AcDbEntity
  8
0
100
AcDbLine
 10
492.4027979323165
 20
89.07291225975342
 30
0.0
 11
370.4027979323165
 21
89.07291225975342
 31
0.0
  0
LINE
  5
A1F
330
2
100
AcDbEntity
  8
CENTER
100
AcDbLine
 10
363.6027979323165
 20
98.07291225975342
 30
0.0
 11
499.2027979323166
 21
98.07291225975342
 31
0.0
  0
ARC
  5
A21
330
2
100
AcDbEntity
  8
0
100
AcDbCircle
 10
431.4027979323165
 20
178.0729122597534
 30
0.0
 40
75.5
100
AcDbArc
 50
237.0580440000002
 51
302.9419559999997
  0
ARC
  5
A23
330
2
100
AcDbEntity
  8
0
100
AcDbCircle
 10
382.0256619323164
 20
103.4206102597533
 30
0.0
 40
3.0
100
AcDbArc
 50
142.6744839999997
 51
225.0
  0
LINE
  5
A24
330
2
100
AcDbEntity
  8
0
100
AcDbLine
 10
367.8672449323165
 20
113.3363662597534
 30
0.0
 11
385.6662559323166
 21
95.53737825975344
 31
0.0
  0
CIRCLE
  5
A26
330
2
100
AcDbEntity
  8
0
100
AcDbCircle
 10
370.4027979323165
 20
98.07291225975342
 30
0.0
 40
4.299999999999999
  0
ARC
  5
A27
330
2
100
AcDbEntity
  8
0
100
AcDbCircle
 10
370.4027979323165
 20
98.07291225975342
 30
0.0
 40
9.0
100
AcDbArc
 50
180.0
 51
270.0
  0
ARC
  5
A28
330
2
100
AcDbEntity
  8
0
100
AcDbCircle
 10
389.2017789323166
 20
99.07291225975342
 30
0.0
 40
5.0
100
AcDbArc
 50
225.0
 51
270.0
  0
ARC
  5
A29
330
2
100
AcDbEntity
  8
0
100
AcDbCircle
 10
371.4027979323164
 20
124.4049512597534
 30
0.0
 40
5.0
100
AcDbArc
 50
41.81154999999974
 51
180.0
  0
ARC
  5
A2A
330
2
100
AcDbEntity
  8
0
100
AcDbCircle
 10
371.4027979323164
 20
116.8719002597534
 30
0.0
 40
5.0
100
AcDbArc
 50
180.0
 51
225.0
  0
ARC
  5
A2B
330
2
100
AcDbEntity
  8
0
100
AcDbCircle
 10
431.4027979323165
 20
178.0729122597534
 30
0.0
 40
75.5
100
AcDbArc
 50
221.8115539999979
 51
228.2909090000004
  0
LINE
  5
A2C
330
2
100
AcDbEntity
  8
0
100
AcDbLine
 10
386.3297389323166
 20
114.0130172597534
 30
0.0
 11
379.6400419323166
 21
105.2396412597534
 31
0.0
  0
LINE
  5
A2D
330
2
100
AcDbEntity
  8
0
100
AcDbLine
 10
381.5585289323165
 20
117.6510712597534
 30
0.0
 11
375.8492699323165
 21
110.1635612597534
 31
0.0
  0
ARC
  5
A2E
330
2
100
AcDbEntity
  8
0
100
AcDbCircle
 10
373.4636809323166
 20
111.9825882597534
 30
0.0
 40
3.0
100
AcDbArc
 50
225.0
 51
322.6744769999985
  0
ARC
  5
A2F
330
2
100
AcDbEntity
  8
0
100
AcDbCircle
 10
379.1729089323165
 20
119.4700982597534
 30
0.0
 40
3.0
100
AcDbArc
 50
322.6744729999989
 51
48.29090900000039
  0
ARC
  5
A30
330
2
100
AcDbEntity
  8
0
100
AcDbCircle
 10
388.7153589323166
 20
112.1939902597534
 30
0.0
 40
3.0
100
AcDbArc
 50
57.05804799999924
 51
142.6744839999997
  0
ARC
  5
A31
330
2
100
AcDbEntity
  8
0
100
AcDbCircle
 10
480.7799339323166
 20
103.4206102597533
 30
0.0
 40
3.0
100
AcDbArc
 50
315.0
 51
37.32551999999975
  0
LINE
  5
A32
330
2
100
AcDbEntity
  8
0
100
AcDbLine
 10
477.1393399323166
 20
95.53737825975344
 30
0.0
 11
494.9383209323165
 21
113.3363662597534
 31
0.0
  0
ARC
  5
A33
330
2
100
AcDbEntity
  8
0
100
AcDbCircle
 10
492.4027979323165
 20
98.07291225975342
 30
0.0
 40
9.0
100
AcDbArc
 50
270.0
 51
0.0
  0
ARC
  5
A34
330
2
100
AcDbEntity
  8
0
100
AcDbCircle
 10
473.6037869323164
 20
99.07291225975342
 30
0.0
 40
5.0
100
AcDbArc
 50
270.0
 51
315.0
  0
CIRCLE
  5
A35
330
2
100
AcDbEntity
  8
0
100
AcDbCircle
 10
492.4027979323165
 20
98.07291225975342
 30
0.0
 40
4.299999999999999
  0
ARC
  5
A36
330
2
100
AcDbEntity
  8
0
100
AcDbCircle
 10
431.4027979323165
 20
178.0729122597534
 30
0.0
 40
75.5
100
AcDbArc
 50
311.7090759999991
 51
318.1884460000017
  0
ARC
  5
A37
330
2
100
AcDbEntity
  8
0
100
AcDbCircle
 10
491.4027979323164
 20
124.4049512597534
 30
0.0
 40
5.0
100
AcDbArc
 50
0.0
 51
138.1884460000018
  0
LINE
  5
A38
330
2
100
AcDbEntity
  8
0
100
AcDbLine
 10
481.2470669323166
 20
117.6510712597534
 30
0.0
 11
486.9562959323167
 21
110.1635612597534
 31
0.0
  0
ARC
  5
A39
330
2
100
AcDbEntity
  8
0
100
AcDbCircle
 10
474.0902369323165
 20
112.1939902597534
 30
0.0
 40
3.0
100
AcDbArc
 50
37.32551600000022
 51
122.9419479999993
  0
LINE
  5
A3A
330
2
100
AcDbEntity
  8
0
100
AcDbLine
 10
476.4758269323166
 20
114.0130172597534
 30
0.0
 11
483.1655239323164
 21
105.2396412597534
 31
0.0
  0
ARC
  5
A3B
330
2
100
AcDbEntity
  8
0
100
AcDbCircle
 10
483.6326569323165
 20
119.4700982597534
 30
0.0
 40
3.0
100
AcDbArc
 50
131.7090909999996
 51
217.3255310000015
  0
ARC
  5
A3C
330
2
100
AcDbEntity
  8
0
100
AcDbCircle
 10
491.4027979323164
 20
116.8719002597534
 30
0.0
 40
5.0
100
AcDbArc
 50
315.0
 51
0.0
  0
ARC
  5
A3D
330
2
100
AcDbEntity
  8
0
100
AcDbCircle
 10
489.3418849323166
 20
111.9825882597534
 30
0.0
 40
3.0
100
AcDbArc
 50
217.3255310000015
 51
315.0
  0
ARC
  5
A3E
330
2
100
AcDbEntity
  8
0
100
AcDbCircle
 10
431.4027979323165
 20
159.0729122597534
 30
0.0
 40
66.0
100
AcDbArc
 50
52.834225
 51
57.67948200000061
  0
ARC
  5
A3F
330
2
100
AcDbEntity
  8
0
100
AcDbCircle
 10
469.3632779323166
 20
219.0729122597534
 30
0.0
 40
5.0
100
AcDbArc
 50
90.0
 51
237.6794889999996
  0
LINE
  5
A41
330
2
100
AcDbEntity
  8
0
100
AcDbLine
 10
473.6037869323164
 20
224.0729122597534
 30
0.0
 11
389.2017789323166
 21
224.0729122597534
 31
0.0
  0
LINE
  5
A42
330
2
100
AcDbEntity
  8
0
100
AcDbLine
 10
492.4027979323165
 20
229.0729122597534
 30
0.0
 11
370.4027979323165
 21
229.0729122597534
 31
0.0
  0
LINE
  5
A43
330
2
100
AcDbEntity
  8
CENTER
100
AcDbLine
 10
363.5027979323166
 20
220.0729122597534
 30
0.0
 11
499.3027979323166
 21
220.0729122597534
 31
0.0
  0
LINE
  5
A44
330
2
100
AcDbEntity
  8
CENTER
100
AcDbLine
 10
356.4027979323165
 20
159.0729122597534
 30
0.0
 11
506.4027979323165
 21
159.0729122597534
 31
0.0
  0
LINE
  5
A47
330
2
100
AcDbEntity
  8
CENTER
100
AcDbLine
 10
395.7627979323164
 20
178.0729122597534
 30
0.0
 11
467.0427979323165
 21
178.0729122597534
 31
0.0
  0
ARC
  5
A48
330
2
100
AcDbEntity
  8
0
100
AcDbCircle
 10
371.4027979323164
 20
197.0334182597534
 30
0.0
 40
5.0
100
AcDbArc
 50
180.0
 51
327.6794740000007
  0
ARC
  5
A49
330
2
100
AcDbEntity
  8
0
100
AcDbCircle
 10
431.4027979323165
 20
159.0729122597534
 30
0.0
 40
66.0
100
AcDbArc
 50
137.4127499999998
 51
147.6794889999996
  0
CIRCLE
  5
A4A
330
2
100
AcDbEntity
  8
0
100
AcDbCircle
 10
370.4027979323165
 20
220.0729122597534
 30
0.0
 40
4.299999999999999
  0
ARC
  5
A4B
330
2
100
AcDbEntity
  8
0
100
AcDbCircle
 10
370.4027979323165
 20
220.0729122597534
 30
0.0
 40
9.0
100
AcDbArc
 50
90.0
 51
180.0
  0
LINE
  5
A4C
330
2
100
AcDbEntity
  8
0
100
AcDbLine
 10
385.6662559323166
 20
222.6084462597534
 30
0.0
 11
367.8672449323165
 21
204.8094582597534
 31
0.0
  0
ARC
  5
A4D
330
2
100
AcDbEntity
  8
0
100
AcDbCircle
 10
371.4027979323164
 20
201.2739242597534
 30
0.0
 40
5.0
100
AcDbArc
 50
135.0
 51
180.0
  0
ARC
  5
A4E
330
2
100
AcDbEntity
  8
0
100
AcDbCircle
 10
371.4027979323164
 20
201.2739242597534
 30
0.0
 40
5.0
100
AcDbArc
 50
135.0
 51
180.0
  0
ARC
  5
A4F
330
2
100
AcDbEntity
  8
0
100
AcDbCircle
 10
393.4422879323166
 20
219.0729122597534
 30
0.0
 40
5.0
100
AcDbArc
 50
302.3205179999993
 51
90.0
  0
LINE
  5
A50
330
2
100
AcDbEntity
  8
0
100
AcDbLine
 10
383.0662199323165
 20
214.9961562597534
 30
0.0
 11
387.4249539323164
 21
211.9950732597533
 31
0.0
  0
LINE
  5
A51
330
2
100
AcDbEntity
  8
0
100
AcDbLine
 10
384.8932459323165
 20
213.7382032597534
 30
0.0
 11
388.0169639323165
 21
211.5874422597534
 31
0.0
  0
ARC
  5
A52
330
2
100
AcDbEntity
  8
0
100
AcDbCircle
 10
380.6016809323165
 20
205.7660462597534
 30
0.0
 40
3.0
100
AcDbArc
 50
317.412754000001
 51
55.45162599999934
  0
ARC
  5
A53
330
2
100
AcDbEntity
  8
0
100
AcDbCircle
 10
376.1390959323165
 20
208.8386552597534
 30
0.0
 40
3.0
100
AcDbArc
 50
55.45162599999934
 51
135.0
  0
LINE
  5
A54
330
2
100
AcDbEntity
  8
0
100
AcDbLine
 10
379.3635529323165
 20
210.2608702597533
 30
0.0
 11
381.3626979323165
 21
208.8844052597534
 31
0.0
  0
LINE
  5
A55
330
2
100
AcDbEntity
  8
0
100
AcDbLine
 10
377.8403899323167
 20
211.3095992597533
 30
0.0
 11
382.3030059323165
 21
208.2369902597534
 31
0.0
  0
ARC
  5
A56
330
2
100
AcDbEntity
  8
0
100
AcDbCircle
 10
384.7675439323166
 20
217.4670962597534
 30
0.0
 40
3.0
100
AcDbArc
 50
135.0
 51
235.4516140000006
  0
ARC
  5
A57
330
2
100
AcDbEntity
  8
0
100
AcDbCircle
 10
431.4027979323165
 20
159.0729122597534
 30
0.0
 40
66.0
100
AcDbArc
 50
122.3205179999993
 51
126.5731810000007
  0
ARC
  5
A58
330
2
100
AcDbEntity
  8
0
100
AcDbCircle
 10
431.4027979323165
 20
159.0729122597534
 30
0.0
 40
66.0
100
AcDbArc
 50
122.3205179999993
 51
127.1657790000002
  0
ARC
  5
A59
330
2
100
AcDbEntity
  8
0
100
AcDbCircle
 10
389.7182889323165
 20
214.0583862597534
 30
0.0
 40
3.0
100
AcDbArc
 50
235.4516140000006
 51
307.1657709999992
  0
ARC
  5
A5A
330
2
100
AcDbEntity
  8
0
100
AcDbCircle
 10
389.2017789323166
 20
219.0729122597534
 30
0.0
 40
5.0
100
AcDbArc
 50
90.0
 51
135.0
  0
ARC
  5
A5B
330
2
100
AcDbEntity
  8
0
100
AcDbCircle
 10
389.2017789323166
 20
219.0729122597534
 30
0.0
 40
5.0
100
AcDbArc
 50
90.0
 51
135.0
  0
CIRCLE
  5
A5C
330
2
100
AcDbEntity
  8
0
100
AcDbCircle
 10
431.4027979323165
 20
178.0729122597534
 30
0.0
 40
20.0
  0
ARC
  5
A5D
330
2
100
AcDbEntity
  8
0
100
AcDbCircle
 10
431.4027979323165
 20
178.0729122597534
 30
0.0
 40
11.0
100
AcDbArc
 50
195.8265990000011
 51
164.1734009999988
  0
LINE
  5
A5E
330
2
100
AcDbEntity
  8
0
100
AcDbLine
 10
417.9027979323165
 20
175.0729122597534
 30
0.0
 11
423.9027979323164
 21
175.0729122597534
 31
0.0
  0
LINE
  5
A5F
330
2
100
AcDbEntity
  8
0
100
AcDbLine
 10
417.9027979323165
 20
181.0729122597534
 30
0.0
 11
423.9027979323164
 21
181.0729122597534
 31
0.0
  0
LINE
  5
A60
330
2
100
AcDbEntity
  8
0
100
AcDbLine
 10
417.9027979323165
 20
181.0729122597534
 30
0.0
 11
417.9027979323165
 21
175.0729122597534
 31
0.0
  0
LINE
  5
A61
330
2
100
AcDbEntity
  8
0
100
AcDbLine
 10
423.9027979323164
 20
181.0729122597534
 30
0.0
 11
423.9027979323164
 21
175.0729122597534
 31
0.0
  0
ARC
  5
A62
330
2
100
AcDbEntity
  8
0
100
AcDbCircle
 10
431.4027979323165
 20
159.0729122597534
 30
0.0
 40
66.0
100
AcDbArc
 50
32.32051799999939
 51
42.58724599999897
  0
ARC
  5
A63
330
2
100
AcDbEntity
  8
0
100
AcDbCircle
 10
491.4027979323164
 20
197.0334182597534
 30
0.0
 40
5.0
100
AcDbArc
 50
212.3205110000003
 51
0.0
  0
ARC
  5
A64
330
2
100
AcDbEntity
  8
0
100
AcDbCircle
 10
492.4027979323165
 20
220.0729122597534
 30
0.0
 40
9.0
100
AcDbArc
 50
0.0
 51
90.0
  0
CIRCLE
  5
A65
330
2
100
AcDbEntity
  8
0
100
AcDbCircle
 10
492.4027979323165
 20
220.0729122597534
 30
0.0
 40
4.299999999999999
  0
LINE
  5
A66
330
2
100
AcDbEntity
  8
0
100
AcDbLine
 10
494.9383209323165
 20
204.8094582597534
 30
0.0
 11
477.1393399323166
 21
222.6084462597534
 31
0.0
  0
LINE
  5
A67
330
2
100
AcDbEntity
  8
0
100
AcDbLine
 10
484.9651759323165
 20
211.3095992597533
 30
0.0
 11
480.5025599323167
 21
208.2369902597534
 31
0.0
  0
ARC
  5
A68
330
2
100
AcDbEntity
  8
0
100
AcDbCircle
 10
482.2038849323168
 20
205.7660462597534
 30
0.0
 40
3.0
100
AcDbArc
 50
124.5483699999998
 51
222.5872500000001
  0
LINE
  5
A69
330
2
100
AcDbEntity
  8
0
100
AcDbLine
 10
479.7393459323164
 20
214.9961562597534
 30
0.0
 11
475.3806419323165
 21
211.9950732597533
 31
0.0
  0
LINE
  5
A6A
330
2
100
AcDbEntity
  8
0
100
AcDbLine
 10
477.9123199323165
 20
213.7382032597534
 30
0.0
 11
474.7886009323166
 21
211.5874422597534
 31
0.0
  0
ARC
  5
A6B
330
2
100
AcDbEntity
  8
0
100
AcDbCircle
 10
473.0872769323164
 20
214.0583862597534
 30
0.0
 40
3.0
100
AcDbArc
 50
232.8342209999997
 51
304.548377999999
  0
ARC
  5
A6C
330
2
100
AcDbEntity
  8
0
100
AcDbCircle
 10
478.0380519323165
 20
217.4670962597534
 30
0.0
 40
3.0
100
AcDbArc
 50
304.548377999999
 51
45.0
  0
ARC
  5
A6D
330
2
100
AcDbEntity
  8
0
100
AcDbCircle
 10
491.4027979323164
 20
201.2739242597534
 30
0.0
 40
5.0
100
AcDbArc
 50
0.0
 51
45.0
  0
ARC
  5
A6E
330
2
100
AcDbEntity
  8
0
100
AcDbCircle
 10
486.6664699323165
 20
208.8386552597534
 30
0.0
 40
3.0
100
AcDbArc
 50
45.0
 51
124.5483699999998
  0
ARC
  5
A6F
330
2
100
AcDbEntity
  8
0
100
AcDbCircle
 10
473.6037869323164
 20
219.0729122597534
 30
0.0
 40
5.0
100
AcDbArc
 50
45.0
 51
90.0
  0
TEXT
  5
BFA
330
2
100
AcDbEntity
  8
TITLE
100
AcDbText
 10
35.52847960285612
 20
26.87895313723902
 30
0.0
 40
9.0
  1
VGKC22-40～100N200
100
AcDbText
  0
MTEXT
  5
C11
330
2
100
AcDbEntity
  8
TITLE
100
AcDbMText
 10
187.682084010172
 20
39.13990891247834
 30
0.0
 40
5.6568
 41
23.355513
 71
     1
 72
     5
  1
L2\PL4
1001
ACAD
1000
MTEXTBEGIN
1070
    73
1070
     1
1070
    44
1040
1.0
1070
    74
1070
     0
1000
MTEXTEND
  0
LINE
  5
C7D
330
2
100
AcDbEntity
  8
0
100
AcDbLine
 10
105.1513889194735
 20
467.4769067250692
 30
0.0
 11
105.1515109194735
 21
352.4768457250692
 31
0.0
  0
LINE
  5
C7E
330
2
100
AcDbEntity
  8
0
100
AcDbLine
 10
118.6515719194736
 20
475.9768457250692
 30
0.0
 11
118.6515719194736
 21
343.9767847250691
 31
0.0
  0
LINE
  5
C7F
330
2
100
AcDbEntity
  8
0
100
AcDbLine
 10
112.6512969194735
 20
345.9767847250691
 30
0.0
 11
112.6512969194735
 21
473.9769067250692
 31
0.0
  0
LINE
  5
C80
330
2
100
AcDbEntity
  8
0
100
AcDbLine
 10
188.6515719194736
 20
340.4768457250692
 30
0.0
 11
188.6515719194736
 21
479.4768457250691
 31
0.0
  0
LINE
  5
C81
330
2
100
AcDbEntity
  8
0
100
AcDbLine
 10
176.6515869194736
 20
340.8787317250692
 30
0.0
 11
176.6515569194735
 21
479.0749597250692
 31
0.0
  0
LINE
  5
C82
330
2
100
AcDbEntity
  8
CENTER
100
AcDbLine
 10
27.15151559076093
 20
409.9768457250692
 30
0.0
 11
240.6514729194735
 21
409.9768457250692
 31
0.0
  0
LINE
  5
C83
330
2
100
AcDbEntity
  8
0
100
AcDbLine
 10
176.4059509194736
 20
342.9687277250691
 30
0.0
 11
119.1514959194736
 21
343.9680567250691
 31
0.0
  0
LINE
  5
C84
330
2
100
AcDbEntity
  8
CENTER
100
AcDbLine
 10
193.6515719194736
 20
348.9768457250692
 30
0.0
 11
171.65156723081
 21
348.9768457250693
 31
0.0
  0
ARC
  5
C85
330
2
100
AcDbEntity
  8
0
100
AcDbCircle
 10
114.6512969194735
 20
345.9767847250691
 30
0.0
 40
2.0
100
AcDbArc
 50
180.0
 51
270.0
  0
LINE
  5
C86
330
2
100
AcDbEntity
  8
0
100
AcDbLine
 10
118.6515719194736
 20
344.4767847250691
 30
0.0
 11
119.1514959194736
 21
343.9680567250691
 31
0.0
  0
LINE
  5
C87
330
2
100
AcDbEntity
  8
0
100
AcDbLine
 10
114.6512969194735
 20
343.9767847250691
 30
0.0
 11
118.6515719194736
 21
343.9767847250691
 31
0.0
  0
LINE
  5
C88
330
2
100
AcDbEntity
  8
0
100
AcDbLine
 10
118.6550049194736
 20
343.9767847250691
 30
0.0
 11
118.6515719194736
 21
343.9768457250692
 31
0.0
  0
LINE
  5
C89
330
2
100
AcDbEntity
  8
0
100
AcDbLine
 10
105.1515109194735
 20
352.4768757250692
 30
0.0
 11
109.6512969194735
 21
352.4768757250692
 31
0.0
  0
ARC
  5
C8A
330
2
100
AcDbEntity
  8
0
100
AcDbCircle
 10
109.6512969194735
 20
349.4768757250692
 30
0.0
 40
3.0
100
AcDbArc
 50
0.0
 51
90.0
  0
LINE
  5
C8B
330
2
100
AcDbEntity
  8
0
100
AcDbLine
 10
177.1341309194735
 20
340.3790367250692
 30
0.0
 11
188.1518769194735
 21
339.9943017250691
 31
0.0
  0
LINE
  5
C8C
330
2
100
AcDbEntity
  8
HIDS
  6
SEKKEI_H
100
AcDbLine
 10
188.6515719194736
 20
344.6768267250691
 30
0.0
 11
176.6588659194736
 21
344.6768267250691
 31
0.0
  0
ARC
  5
C8D
330
2
100
AcDbEntity
  8
0
100
AcDbCircle
 10
177.1515869194736
 20
340.8787317250692
 30
0.0
 40
0.5
100
AcDbArc
 50
180.0
 51
267.9999999999996
  0
ARC
  5
C8E
330
2
100
AcDbEntity
  8
0
100
AcDbCircle
 10
176.4015869194736
 20
342.7187887250692
 30
0.0
 40
0.25
100
AcDbArc
 50
0.0
 51
89.00000000000151
  0
LINE
  5
C8F
330
2
100
AcDbEntity
  8
0
100
AcDbLine
 10
188.6515719194736
 20
340.4768457250692
 30
0.0
 11
188.1518769194735
 21
339.9943017250691
 31
0.0
  0
LINE
  5
C90
330
2
100
AcDbEntity
  8
HIDS
  6
SEKKEI_H
100
AcDbLine
 10
188.6515719194736
 20
353.2768327250692
 30
0.0
 11
176.6588659194736
 21
353.2768327250692
 31
0.0
  0
LINE
  5
C91
330
2
100
AcDbEntity
  8
0
100
AcDbLine
 10
235.6514809194735
 20
420.9768457250691
 30
0.0
 11
235.6514809194735
 21
396.4768457250692
 31
0.0
  0
LINE
  5
C92
330
2
100
AcDbEntity
  8
0
100
AcDbLine
 10
195.6516789194736
 20
421.9768457250692
 30
0.0
 11
195.6516789194736
 21
397.9768457250692
 31
0.0
  0
LINE
  5
C93
330
2
100
AcDbEntity
  8
0
100
AcDbLine
 10
193.6515719194736
 20
380.4768457250692
 30
0.0
 11
193.6515719194736
 21
439.4768457250692
 31
0.0
  0
LINE
  5
C94
330
2
100
AcDbEntity
  8
0
100
AcDbLine
 10
200.6516639194736
 20
396.4768457250692
 30
0.0
 11
235.6514809194735
 21
396.4768457250692
 31
0.0
  0
LINE
  5
C95
330
2
100
AcDbEntity
  8
0
100
AcDbLine
 10
200.6516639194736
 20
399.3938377250692
 30
0.0
 11
235.6514809194735
 21
399.3938377250692
 31
0.0
  0
LINE
  5
C96
330
2
100
AcDbEntity
  8
0
100
AcDbLine
 10
193.1515719194736
 20
379.9768457250692
 30
0.0
 11
188.6515719194736
 21
379.9768457250692
 31
0.0
  0
LINE
  5
C97
330
2
100
AcDbEntity
  8
0
100
AcDbLine
 10
193.6515719194736
 20
380.4768457250692
 30
0.0
 11
193.1515719194736
 21
379.9768457250692
 31
0.0
  0
LINE
  5
C98
330
2
100
AcDbEntity
  8
0
100
AcDbLine
 10
195.6514649194735
 20
398.9768457250692
 30
0.0
 11
200.6516639194736
 21
398.9768457250692
 31
0.0
  0
LINE
  5
C99
330
2
100
AcDbEntity
  8
0
100
AcDbLine
 10
193.6516789194736
 20
397.9768457250692
 30
0.0
 11
195.6516789194736
 21
397.9768457250692
 31
0.0
  0
LINE
  5
C9A
330
2
100
AcDbEntity
  8
0
100
AcDbLine
 10
200.6516639194736
 20
399.3938377250692
 30
0.0
 11
200.6516639194736
 21
396.4768457250692
 31
0.0
  0
LINE
  5
C9B
330
2
100
AcDbEntity
  8
0
100
AcDbLine
 10
195.6516789194736
 20
420.9768457250691
 30
0.0
 11
235.6514809194735
 21
420.9768457250691
 31
0.0
  0
LINE
  5
C9C
330
2
100
AcDbEntity
  8
0
100
AcDbLine
 10
193.6514649194736
 20
421.9768457250692
 30
0.0
 11
195.6516789194736
 21
421.9768457250692
 31
0.0
  0
LINE
  5
C9D
330
2
100
AcDbEntity
  8
0
100
AcDbLine
 10
193.1515719194736
 20
439.9768457250692
 30
0.0
 11
188.6515719194736
 21
439.9768457250692
 31
0.0
  0
LINE
  5
C9E
330
2
100
AcDbEntity
  8
0
100
AcDbLine
 10
193.1515719194736
 20
439.9768457250692
 30
0.0
 11
193.6515719194736
 21
439.4768457250692
 31
0.0
  0
LINE
  5
C9F
330
2
100
AcDbEntity
  8
0
100
AcDbLine
 10
176.4059209194735
 20
476.9849327250692
 30
0.0
 11
119.1514959194736
 21
475.9855737250692
 31
0.0
  0
LINE
  5
CA0
330
2
100
AcDbEntity
  8
CENTER
100
AcDbLine
 10
193.6515719194736
 20
470.9768457250691
 30
0.0
 11
171.6515575613151
 21
470.9768457250691
 31
0.0
  0
LINE
  5
CA1
330
2
100
AcDbEntity
  8
0
100
AcDbLine
 10
105.1515109194735
 20
467.4768147250692
 30
0.0
 11
109.6512969194735
 21
467.4768147250692
 31
0.0
  0
LINE
  5
CA2
330
2
100
AcDbEntity
  8
0
100
AcDbLine
 10
118.6515719194736
 20
475.4768457250691
 30
0.0
 11
119.1514959194736
 21
475.9855737250692
 31
0.0
  0
ARC
  5
CA3
330
2
100
AcDbEntity
  8
0
100
AcDbCircle
 10
114.6512969194735
 20
473.9769067250692
 30
0.0
 40
2.0
100
AcDbArc
 50
90.0
 51
180.0
  0
ARC
  5
CA4
330
2
100
AcDbEntity
  8
0
100
AcDbCircle
 10
109.6512969194735
 20
470.4768147250693
 30
0.0
 40
3.0
100
AcDbArc
 50
270.0
 51
0.0
  0
LINE
  5
CA5
330
2
100
AcDbEntity
  8
0
100
AcDbLine
 10
114.6512969194735
 20
475.9769067250693
 30
0.0
 11
118.6515719194736
 21
475.9769067250693
 31
0.0
  0
LINE
  5
CA6
330
2
100
AcDbEntity
  8
0
100
AcDbLine
 10
118.6550049194736
 20
475.9769067250693
 30
0.0
 11
118.6515719194736
 21
475.9768457250692
 31
0.0
  0
LINE
  5
CA7
330
2
100
AcDbEntity
  8
HIDS
  6
SEKKEI_H
100
AcDbLine
 10
188.6515719194736
 20
475.2768327250691
 30
0.0
 11
176.6588659194736
 21
475.2768327250691
 31
0.0
  0
LINE
  5
CA8
330
2
100
AcDbEntity
  8
HIDS
  6
SEKKEI_H
100
AcDbLine
 10
188.6515719194736
 20
466.6768267250691
 30
0.0
 11
176.6588659194736
 21
466.6768267250691
 31
0.0
  0
LINE
  5
CA9
330
2
100
AcDbEntity
  8
0
100
AcDbLine
 10
177.1341159194736
 20
479.5746537250692
 30
0.0
 11
188.1518769194735
 21
479.9593897250693
 31
0.0
  0
ARC
  5
CAA
330
2
100
AcDbEntity
  8
0
100
AcDbCircle
 10
177.1515569194735
 20
479.0749597250692
 30
0.0
 40
0.5
100
AcDbArc
 50
91.99999199999785
 51
180.0
  0
ARC
  5
CAB
330
2
100
AcDbEntity
  8
0
100
AcDbCircle
 10
176.4015569194735
 20
477.2349017250692
 30
0.0
 40
0.25
100
AcDbArc
 50
270.9999919999999
 51
0.0
  0
LINE
  5
CAC
330
2
100
AcDbEntity
  8
0
100
AcDbLine
 10
188.1518769194735
 20
479.9593897250693
 30
0.0
 11
188.6515719194736
 21
479.4768457250691
 31
0.0
  0
LINE
  5
10B3
330
2
100
AcDbEntity
  8
0
100
AcDbLine
 10
36.15166291950584
 20
450.4770247250692
 30
0.0
 11
36.15130804076318
 21
387.0920427830895
 31
0.0
  0
LINE
  5
10B4
330
2
100
AcDbEntity
  8
0
100
AcDbLine
 10
37.65148891950582
 20
460.8690966601617
 30
0.0
 11
37.65148891950605
 21
376.9760979865556
 31
0.0
  0
LINE
  5
10B5
330
2
100
AcDbEntity
  8
0
100
AcDbLine
 10
95.15145391950557
 20
466.1502467250691
 30
0.0
 11
95.15145391950602
 21
353.8034447250692
 31
0.0
  0
LINE
  5
10B7
330
2
100
AcDbEntity
  8
0
100
AcDbLine
 10
38.65144991950581
 20
415.4768457250692
 30
0.0
 11
42.6514499195058
 21
415.4768457250692
 31
0.0
  0
ARC
  5
10B8
330
2
100
AcDbEntity
  8
0
100
AcDbCircle
 10
39.74064891950581
 20
413.7268457250692
 30
0.0
 40
1.0
100
AcDbArc
 50
90.0
 51
147.6076050000002
  0
ARC
  5
10B9
330
2
100
AcDbEntity
  8
0
100
AcDbCircle
 10
39.74064891950581
 20
406.2268457250691
 30
0.0
 40
1.0
100
AcDbArc
 50
212.3923949999997
 51
270.0
  0
LINE
  5
10BA
330
2
100
AcDbEntity
  8
0
100
AcDbLine
 10
38.65144991950581
 20
404.4819413977121
 30
0.0
 11
42.6514499195058
 21
404.4819413977121
 31
0.0
  0
LINE
  5
10BB
330
2
100
AcDbEntity
  8
0
100
AcDbLine
 10
37.65144991950581
 20
376.9760979865555
 30
0.0
 11
39.15148891950582
 21
376.9760979865553
 31
0.0
  0
LINE
  5
10BC
330
2
100
AcDbEntity
  8
0
100
AcDbLine
 10
35.15147712212876
 20
368.3320643981581
 30
0.0
 11
46.15148891950582
 21
368.3320643981581
 31
0.0
  0
LINE
  5
10BD
330
2
100
AcDbEntity
  8
0
100
AcDbLine
 10
35.15147712212899
 20
375.9760979865556
 30
0.0
 11
39.15148891950582
 21
375.9760979865554
 31
0.0
  0
SPLINE
  5
10BF
330
2
100
AcDbEntity
  8
HOJO
100
AcDbSpline
210
0.0
220
0.0
230
1.0
 70
     8
 71
     3
 72
    10
 73
     6
 74
     4
 42
0.0000000001
 43
0.0000000001
 44
0.0000000001
 40
0.0
 40
0.0
 40
0.0
 40
0.0
 40
2.063057496465506
 40
5.25746680811681
 40
6.97640530992899
 40
6.97640530992899
 40
6.97640530992899
 40
6.97640530992899
 10
37.65148891950582
 20
349.2601178081168
 30
0.0
 10
38.23414537261213
 20
349.8345580284569
 30
0.0
 10
39.71897891117789
 20
351.2984534346003
 30
0.0
 10
41.64238701914241
 20
347.9077776402791
 30
0.0
 10
43.13077517971378
 20
349.0339909085418
 30
0.0
 10
43.65148891950582
 20
349.4279974844174
 30
0.0
 11
37.65148891950582
 21
349.2601178081168
 31
0.0
 11
39.39401655666631
 21
350.3645650306922
 31
0.0
 11
42.10572041912053
 21
348.6761003397035
 31
0.0
 11
43.65148891950582
 21
349.4279974844174
 31
0.0
  0
ELLIPSE
  5
10C0
330
2
100
AcDbEntity
  8
0
100
AcDbEllipse
 10
40.65148891950582
 20
364.9534612188173
 30
0.0
 11
-3.0
 21
0.0
 31
0.0
210
0.0
220
0.0
230
1.0
 40
0.5083333333333448
 41
3.141592653589793
 42
6.283185307179586
  0
ELLIPSE
  5
10C1
330
2
100
AcDbEntity
  8
0
100
AcDbEllipse
 10
40.65150812209651
 20
181.6027070485317
 30
0.0
 11
-3.799999999999954
 21
0.0
 31
0.0
210
0.0
220
0.0
230
1.0
 40
0.4671183654701858
 41
6.43876547018897
 42
10.03879389346605
  0
ARC
  5
10C2
330
2
100
AcDbEntity
  8
0
100
AcDbCircle
 10
48.65150950040504
 20
245.5733547772262
 30
0.0
 40
9.000047806854716
100
AcDbArc
 50
90.00012915873288
 51
179.999688182736
  0
ARC
  5
10C3
330
2
100
AcDbEntity
  8
0
100
AcDbCircle
 10
48.65150950040504
 20
245.5733547772262
 30
0.0
 40
11.00004780685471
100
AcDbArc
 50
90.00012915873288
 51
179.999688182736
  0
ARC
  5
10C4
330
2
100
AcDbEntity
  8
HOJO
100
AcDbCircle
 10
38.90151561269624
 20
231.4992475208682
 30
0.0
 40
1.600781999999999
100
AcDbArc
 50
67.16467300000603
 51
141.3436203206141
  0
ARC
  5
10C5
330
2
100
AcDbEntity
  8
HOJO
100
AcDbCircle
 10
38.90151561269624
 20
233.4992475208682
 30
0.0
 40
1.600781999999999
100
AcDbArc
 50
67.16467300000603
 51
141.3435584038756
  0
ARC
  5
10C6
330
2
100
AcDbEntity
  8
0
100
AcDbCircle
 10
48.65147407073061
 20
252.335580648426
 30
0.0
 40
11.0
100
AcDbArc
 50
90.0
 51
179.9999690439245
  0
LINE
  5
10C7
330
2
100
AcDbEntity
  8
0
100
AcDbLine
 10
35.15151891947346
 20
176.7965722597535
 30
0.0
 11
46.15151991947357
 21
176.7965722597535
 31
0.0
  0
LINE
  5
10C8
330
2
100
AcDbEntity
  8
0
100
AcDbLine
 10
37.65151991947357
 20
167.2926082597535
 30
0.0
 11
39.15151991947357
 21
167.2926082597535
 31
0.0
  0
LINE
  5
10C9
330
2
100
AcDbEntity
  8
0
100
AcDbLine
 10
35.15151891947346
 20
168.3683682597534
 30
0.0
 11
39.15151991947357
 21
168.3683682597534
 31
0.0
  0
ARC
  5
10CB
330
2
100
AcDbEntity
  8
0
100
AcDbCircle
 10
39.74072191947346
 20
137.3708112597535
 30
0.0
 40
1.0
100
AcDbArc
 50
90.0
 51
147.6076050000002
  0
LINE
  5
10CC
330
2
100
AcDbEntity
  8
0
100
AcDbLine
 10
42.65151991947357
 20
138.3117122597535
 30
0.0
 11
38.65151991947357
 21
138.3117122597535
 31
0.0
  0
ARC
  5
10CD
330
2
100
AcDbEntity
  8
0
100
AcDbCircle
 10
39.74072191947346
 20
129.8708112597535
 30
0.0
 40
1.0
100
AcDbArc
 50
212.3923949999997
 51
270.0
  0
LINE
  5
10CE
330
2
100
AcDbEntity
  8
0
100
AcDbLine
 10
42.65151991947357
 20
128.7987122597533
 30
0.0
 11
38.65151991947357
 21
128.7987122597533
 31
0.0
  0
LINE
  5
10CF
330
2
100
AcDbEntity
  8
CENTER
100
AcDbLine
 10
35.15151991947357
 20
133.6208112597535
 30
0.0
 11
45.15151991947357
 21
133.6208112597535
 31
0.0
  0
ARC
  5
10D0
330
2
100
AcDbEntity
  8
0
100
AcDbCircle
 10
39.65151991947357
 20
108.1931132597533
 30
0.0
 40
2.0
100
AcDbArc
 50
180.0
 51
270.0
  0
LINE
  5
10D1
330
2
100
AcDbEntity
  8
0
100
AcDbLine
 10
37.65151991947357
 20
167.2926082597535
 30
0.0
 11
37.65151991947357
 21
108.1931132597533
 31
0.0
  0
LINE
  5
10D2
330
2
100
AcDbEntity
  8
0
100
AcDbLine
 10
36.15151891947346
 20
118.5729122597534
 30
0.0
 11
36.15151891947346
 21
159.0729122597534
 31
0.0
  0
LINE
  5
10D3
330
2
100
AcDbEntity
  8
0
100
AcDbLine
 10
37.65151991947357
 20
117.5729122597534
 30
0.0
 11
36.15151891947346
 21
118.5729122597534
 31
0.0
  0
ARC
  5
10D4
330
2
100
AcDbEntity
  8
0
100
AcDbCircle
 10
45.65151991947357
 20
133.6208112597535
 30
0.0
 40
8.0
100
AcDbArc
 50
147.6076050000002
 51
212.3923949999997
  0
ARC
  5
10D5
330
2
100
AcDbEntity
  8
0
100
AcDbCircle
 10
38.65151991947357
 20
129.7987122597533
 30
0.0
 40
1.0
100
AcDbArc
 50
180.0
 51
270.0
  0
ARC
  5
10D6
330
2
100
AcDbEntity
  8
0
100
AcDbCircle
 10
38.65151991947357
 20
139.3117122597535
 30
0.0
 40
1.0
100
AcDbArc
 50
180.0
 51
270.0
  0
LINE
  5
10D7
330
2
100
AcDbEntity
  8
0
100
AcDbLine
 10
37.65146700760692
 20
232.4991882673318
 30
0.0
 11
37.65144250127411
 21
180.513248589073
 31
0.0
  0
LINE
  5
10D8
330
2
100
AcDbEntity
  8
0
100
AcDbLine
 10
35.15151891947346
 20
200.2773912597534
 30
0.0
 11
35.15150391947361
 21
155.9485382597534
 31
0.0
  0
LINE
  5
10D9
330
2
100
AcDbEntity
  8
0
100
AcDbLine
 10
36.15151891947346
 20
160.5016382597535
 30
0.0
 11
36.15151891947346
 21
159.0729122597534
 31
0.0
  0
ARC
  5
10DA
330
2
100
AcDbEntity
  8
0
100
AcDbCircle
 10
36.15151891947346
 20
155.9485382597534
 30
0.0
 40
1.0
100
AcDbArc
 50
180.0
 51
270.0
  0
LINE
  5
10DB
330
2
100
AcDbEntity
  8
0
100
AcDbLine
 10
36.15151891947346
 20
160.5016382597535
 30
0.0
 11
37.65151991947357
 21
161.0658932597532
 31
0.0
  0
ELLIPSE
  5
10DC
330
2
100
AcDbEntity
  8
0
100
AcDbEllipse
 10
40.65150812209651
 20
182.1027070485317
 30
0.0
 11
-3.25
 21
0.0
 31
0.0
210
0.0
220
0.0
230
1.0
 40
0.5461691657962994
 41
5.888445830483655
 42
5.984282078621657
  0
ELLIPSE
  5
10DD
330
2
100
AcDbEntity
  8
0
100
AcDbEllipse
 10
40.65150812209651
 20
181.6027070485317
 30
0.0
 11
-3.799999999999954
 21
0.0
 31
0.0
210
0.0
220
0.0
230
1.0
 40
0.4671183654701858
 41
5.669169374492924
 42
6.43876547018897
  0
LINE
  5
10DE
330
2
100
AcDbEntity
  8
0
100
AcDbLine
 10
35.15151891947346
 20
195.8491532597534
 30
0.0
 11
37.65148191947344
 21
195.8491532597534
 31
0.0
  0
ARC
  5
10DF
330
2
100
AcDbEntity
  8
0
100
AcDbCircle
 10
36.15151891947346
 20
200.2773532597532
 30
0.0
 40
1.0
100
AcDbArc
 50
90.0
 51
180.0
  0
LINE
  5
10E0
330
2
100
AcDbEntity
  8
0
100
AcDbLine
 10
36.15151891947346
 20
201.2773532597532
 30
0.0
 11
37.65148191947344
 21
201.2773532597532
 31
0.0
  0
LINE
  5
10E1
330
2
100
AcDbEntity
  8
0
100
AcDbLine
 10
37.65147407073198
 20
252.3355865915657
 30
0.0
 11
37.65146443398418
 21
234.499185049979
 31
0.0
  0
LINE
  5
10E2
330
2
100
AcDbEntity
  8
0
100
AcDbLine
 10
35.15147712212876
 20
374.9760979865556
 30
0.0
 11
35.15147712212876
 21
398.4601852266738
 31
0.0
  0
LINE
  5
10E3
330
2
100
AcDbEntity
  8
0
100
AcDbLine
 10
35.15147712212876
 20
374.9760979865556
 30
0.0
 11
35.15147712212876
 21
357.5296287350218
 31
0.0
  0
LINE
  5
10E4
330
2
100
AcDbEntity
  8
0
100
AcDbLine
 10
37.65148891950582
 20
349.2601178081168
 30
0.0
 11
37.65148891950582
 21
364.9534612188173
 31
0.0
  0
LINE
  5
10E5
330
2
100
AcDbEntity
  8
0
100
AcDbLine
 10
35.65147712212876
 20
357.0296287350219
 30
0.0
 11
37.65148891950582
 21
357.0296287350219
 31
0.0
  0
ARC
  5
10E6
330
2
100
AcDbEntity
  8
0
100
AcDbCircle
 10
35.65147712212876
 20
357.5296287350218
 30
0.0
 40
0.5
100
AcDbArc
 50
180.0
 51
270.0
  0
ARC
  5
10E7
330
2
100
AcDbEntity
  8
0
100
AcDbCircle
 10
45.65144991950581
 20
409.9768457250692
 30
0.0
 40
8.0
100
AcDbArc
 50
147.6076050000002
 51
212.3923949999997
  0
LINE
  5
10E8
330
2
100
AcDbEntity
  8
0
100
AcDbLine
 10
36.15148791950571
 20
387.0920427830895
 30
0.0
 11
36.15148791950571
 21
409.9768457250692
 31
0.0
  0
LINE
  5
10E9
330
2
100
AcDbEntity
  8
0
100
AcDbLine
 10
37.65148891950582
 20
386.0920427830896
 30
0.0
 11
36.15148791950571
 21
387.0920427830895
 31
0.0
  0
ARC
  5
10EA
330
2
100
AcDbEntity
  8
0
100
AcDbCircle
 10
38.65144991950581
 20
403.4819413977121
 30
0.0
 40
1.0
100
AcDbArc
 50
90.0
 51
180.0
  0
ARC
  5
10EB
330
2
100
AcDbEntity
  8
0
100
AcDbCircle
 10
36.15147712212877
 20
398.4601852266738
 30
0.0
 40
1.0
100
AcDbArc
 50
90.00572011404214
 51
180.0
  0
LINE
  5
10EC
330
2
100
AcDbEntity
  8
0
100
AcDbLine
 10
36.15148791950571
 20
411.4055717250692
 30
0.0
 11
36.15148791950571
 21
409.9768457250692
 31
0.0
  0
ARC
  5
10ED
330
2
100
AcDbEntity
  8
0
100
AcDbCircle
 10
38.65144991950581
 20
416.4768457250692
 30
0.0
 40
1.0
100
AcDbArc
 50
180.0
 51
270.0
  0
LINE
  5
10EF
330
2
100
AcDbEntity
  8
0
100
AcDbLine
 10
95.15148491947355
 20
216.2355942597535
 30
0.0
 11
95.15148491947355
 21
134.0790122597534
 31
0.0
  0
ARC
  5
10F0
330
2
100
AcDbEntity
  8
0
100
AcDbCircle
 10
94.15148491947354
 20
151.8933162597534
 30
0.0
 40
1.0
100
AcDbArc
 50
0.0
 51
89.49999999999542
  0
LINE
  5
10F1
330
2
100
AcDbEntity
  8
0
100
AcDbLine
 10
43.78339991947348
 20
108.2080132597532
 30
0.0
 11
93.47528391947355
 21
107.7743132597534
 31
0.0
  0
LINE
  5
10F2
330
2
100
AcDbEntity
  8
0
100
AcDbLine
 10
44.65151991947357
 20
121.0029312597533
 30
0.0
 11
94.16026291947344
 21
121.4350342597534
 31
0.0
  0
LINE
  5
10F3
330
2
100
AcDbEntity
  8
0
100
AcDbLine
 10
94.16026291947344
 20
119.4042112597533
 30
0.0
 11
44.65151991947357
 21
119.8362142597534
 31
0.0
  0
LINE
  5
10F4
330
2
100
AcDbEntity
  8
0
100
AcDbLine
 10
44.65151991947357
 20
114.6889132597533
 30
0.0
 11
94.16026291947344
 21
115.1210312597534
 31
0.0
  0
LINE
  5
10F5
330
2
100
AcDbEntity
  8
0
100
AcDbLine
 10
94.16026291947344
 20
113.1494312597533
 30
0.0
 11
44.65151991947357
 21
113.5814112597534
 31
0.0
  0
LINE
  5
10F6
330
2
100
AcDbEntity
  8
0
100
AcDbLine
 10
43.78339991947348
 20
111.4332102597534
 30
0.0
 11
93.47528391947355
 21
110.9995132597535
 31
0.0
  0
LINE
  5
10F7
330
2
100
AcDbEntity
  8
0
100
AcDbLine
 10
43.78339991947348
 20
116.3629132597534
 30
0.0
 11
93.47528391947355
 21
115.9292312597534
 31
0.0
  0
LINE
  5
10F8
330
2
100
AcDbEntity
  8
0
100
AcDbLine
 10
43.78339991947348
 20
122.5900132597533
 30
0.0
 11
93.47528391947355
 21
122.1564312597534
 31
0.0
  0
LINE
  5
10F9
330
2
100
AcDbEntity
  8
0
100
AcDbLine
 10
44.65151991947357
 20
145.8708122597534
 30
0.0
 11
94.16026291947344
 21
146.3028122597534
 31
0.0
  0
LINE
  5
10FA
330
2
100
AcDbEntity
  8
0
100
AcDbLine
 10
94.16026291947344
 20
143.5557122597534
 30
0.0
 11
44.65151991947357
 21
143.9877222597534
 31
0.0
  0
LINE
  5
10FB
330
2
100
AcDbEntity
  8
0
100
AcDbLine
 10
44.43563791947361
 20
138.2451322597533
 30
0.0
 11
93.02938391947362
 21
138.6692122597533
 31
0.0
  0
LINE
  5
10FC
330
2
100
AcDbEntity
  8
0
100
AcDbLine
 10
43.78339991947348
 20
147.0023122597534
 30
0.0
 11
93.47528391947355
 21
146.5687122597535
 31
0.0
  0
LINE
  5
10FD
330
2
100
AcDbEntity
  8
0
100
AcDbLine
 10
94.65588291947359
 20
108.2858102597534
 30
0.0
 11
44.65151991947357
 21
108.7222312597535
 31
0.0
  0
LINE
  5
10FE
330
2
100
AcDbEntity
  8
0
100
AcDbLine
 10
44.66895991947342
 20
106.2179122597534
 30
0.0
 11
95.15148491947355
 21
106.6585142597535
 31
0.0
  0
LINE
  5
10FF
330
2
100
AcDbEntity
  8
0
100
AcDbLine
 10
95.15148491947355
 20
104.9656122597532
 30
0.0
 11
44.63406391947353
 21
105.4064312597534
 31
0.0
  0
LINE
  5
1100
330
2
100
AcDbEntity
  8
0
100
AcDbLine
 10
95.15148491947355
 20
103.2936112597533
 30
0.0
 11
44.63406391947353
 21
103.7345102597535
 31
0.0
  0
LINE
  5
1101
330
2
100
AcDbEntity
  8
0
100
AcDbLine
 10
44.65151991947357
 20
109.7101302597532
 30
0.0
 11
94.65588291947359
 21
110.1465132597534
 31
0.0
  0
LINE
  5
1102
330
2
100
AcDbEntity
  8
0
100
AcDbLine
 10
95.15148491947355
 20
126.5066132597533
 30
0.0
 11
43.64278391947357
 21
126.9561142597534
 31
0.0
  0
LINE
  5
1103
330
2
100
AcDbEntity
  8
0
100
AcDbLine
 10
95.15148491947355
 20
134.0790122597534
 30
0.0
 11
43.66023991947338
 21
133.6296122597535
 31
0.0
  0
ARC
  5
1104
330
2
100
AcDbEntity
  8
0
100
AcDbCircle
 10
44.28172191947339
 20
121.6120132597535
 30
0.0
 40
1.673817999999999
100
AcDbArc
 50
207.4174039999999
 51
231.392395000001
  0
ARC
  5
1105
330
2
100
AcDbEntity
  8
0
100
AcDbCircle
 10
44.65151991947357
 20
105.7344112597534
 30
0.0
 40
2.0
100
AcDbArc
 50
180.0
 51
269.5000000000084
  0
ARC
  5
1106
330
2
100
AcDbEntity
  8
0
100
AcDbCircle
 10
44.55151991947343
 20
110.7465112597533
 30
0.0
 40
2.006931999999999
100
AcDbArc
 50
229.0921019999952
 51
250.2568050000026
  0
ARC
  5
1107
330
2
100
AcDbEntity
  8
0
100
AcDbCircle
 10
44.55151991947343
 20
111.7345102597535
 30
0.0
 40
2.006931999999999
100
AcDbArc
 50
229.0921019999952
 51
250.2568050000026
  0
ARC
  5
1108
330
2
100
AcDbEntity
  8
0
100
AcDbCircle
 10
44.65151991947357
 20
108.2179122597534
 30
0.0
 40
2.0
100
AcDbArc
 50
180.0
 51
270.4999999999915
  0
ARC
  5
1109
330
2
100
AcDbEntity
  8
0
100
AcDbCircle
 10
44.65151991947357
 20
107.4063132597532
 30
0.0
 40
2.0
100
AcDbArc
 50
180.0
 51
269.5000000000084
  0
LINE
  5
110A
330
2
100
AcDbEntity
  8
0
100
AcDbLine
 10
39.65151991947357
 20
106.1931132597533
 30
0.0
 11
42.65151991947357
 21
106.1931132597533
 31
0.0
  0
LINE
  5
110B
330
2
100
AcDbEntity
  8
0
100
AcDbLine
 10
39.65151991947357
 20
106.1931132597533
 30
0.0
 11
40.79198391947364
 21
106.1931132597533
 31
0.0
  0
LINE
  5
110C
330
2
100
AcDbEntity
  8
0
100
AcDbLine
 10
42.65151991947357
 20
106.1931132597533
 30
0.0
 11
42.65151991947357
 21
105.7344112597534
 31
0.0
  0
LINE
  5
110D
330
2
100
AcDbEntity
  8
0
100
AcDbLine
 10
42.65151991947357
 20
107.4063132597532
 30
0.0
 11
42.65151991947357
 21
108.2179122597534
 31
0.0
  0
ARC
  5
110E
330
2
100
AcDbEntity
  8
0
100
AcDbCircle
 10
44.15964391947352
 20
110.4551102597534
 30
0.0
 40
1.508124
100
AcDbArc
 50
180.0
 51
205.5500029999982
  0
ARC
  5
110F
330
2
100
AcDbEntity
  8
0
100
AcDbCircle
 10
44.39761991947341
 20
110.5689102597533
 30
0.0
 40
1.771906
100
AcDbArc
 50
205.5500029999982
 51
229.0921019999952
  0
ARC
  5
1110
330
2
100
AcDbEntity
  8
0
100
AcDbCircle
 10
44.15964391947352
 20
111.4431132597533
 30
0.0
 40
1.508124
100
AcDbArc
 50
180.0
 51
205.5500029999982
  0
ARC
  5
1111
330
2
100
AcDbEntity
  8
0
100
AcDbCircle
 10
44.39761991947341
 20
111.5568102597533
 30
0.0
 40
1.771906
100
AcDbArc
 50
205.5500029999982
 51
229.0921019999952
  0
LINE
  5
1112
330
2
100
AcDbEntity
  8
0
100
AcDbLine
 10
42.65151991947357
 20
110.4551102597534
 30
0.0
 11
42.65151991947357
 21
111.4431132597533
 31
0.0
  0
ARC
  5
1113
330
2
100
AcDbEntity
  8
0
100
AcDbCircle
 10
42.83720391947361
 20
105.8003142597534
 30
0.0
 40
0.185701
100
AcDbArc
 50
180.0
 51
225.3820040000035
  0
ARC
  5
1114
330
2
100
AcDbEntity
  8
0
100
AcDbCircle
 10
42.83720391947361
 20
105.8003142597534
 30
0.0
 40
0.185701
100
AcDbArc
 50
134.6179959999964
 51
180.0
  0
ARC
  5
1115
330
2
100
AcDbEntity
  8
0
100
AcDbCircle
 10
44.65151991947357
 20
111.0251142597533
 30
0.0
 40
2.302912
100
AcDbArc
 50
250.2568050000026
 51
270.0
  0
ARC
  5
1116
330
2
100
AcDbEntity
  8
0
100
AcDbCircle
 10
44.65151991947357
 20
112.0130142597534
 30
0.0
 40
2.302912
100
AcDbArc
 50
250.2568050000026
 51
270.0
  0
ARC
  5
1117
330
2
100
AcDbEntity
  8
0
100
AcDbCircle
 10
44.5345599194735
 20
115.6154312597535
 30
0.0
 40
2.014202
100
AcDbArc
 50
229.9049069999972
 51
250.7743069999972
  0
ARC
  5
1118
330
2
100
AcDbEntity
  8
0
100
AcDbCircle
 10
44.5345599194735
 20
116.7229142597532
 30
0.0
 40
2.014202
100
AcDbArc
 50
229.9049069999972
 51
250.7743069999972
  0
ARC
  5
1119
330
2
100
AcDbEntity
  8
0
100
AcDbCircle
 10
44.50559991947364
 20
121.8924122597534
 30
0.0
 40
2.032614
100
AcDbArc
 50
231.392395000001
 51
251.6983030000062
  0
ARC
  5
111A
330
2
100
AcDbEntity
  8
0
100
AcDbCircle
 10
44.35474391947344
 20
115.4018112597535
 30
0.0
 40
1.735008
100
AcDbArc
 50
206.1963039999984
 51
229.9049069999972
  0
ARC
  5
111B
330
2
100
AcDbEntity
  8
0
100
AcDbCircle
 10
44.07713991947355
 20
115.2653142597535
 30
0.0
 40
1.425637
100
AcDbArc
 50
180.0
 51
206.1963039999984
  0
ARC
  5
111C
330
2
100
AcDbEntity
  8
0
100
AcDbCircle
 10
44.35474391947344
 20
116.5094132597535
 30
0.0
 40
1.735008
100
AcDbArc
 50
206.1963039999984
 51
229.9049069999972
  0
LINE
  5
111D
330
2
100
AcDbEntity
  8
0
100
AcDbLine
 10
42.65151991947357
 20
115.2653142597535
 30
0.0
 11
42.65151991947357
 21
116.3728312597534
 31
0.0
  0
ARC
  5
111E
330
2
100
AcDbEntity
  8
0
100
AcDbCircle
 10
44.07713991947355
 20
116.3728312597534
 30
0.0
 40
1.425637
100
AcDbArc
 50
180.0
 51
206.1963039999984
  0
ARC
  5
111F
330
2
100
AcDbEntity
  8
0
100
AcDbCircle
 10
44.65151991947357
 20
115.9508112597535
 30
0.0
 40
2.369364
100
AcDbArc
 50
250.7743069999972
 51
270.0
  0
ARC
  5
1120
330
2
100
AcDbEntity
  8
0
100
AcDbCircle
 10
44.65151991947357
 20
117.0583132597533
 30
0.0
 40
2.369364
100
AcDbArc
 50
250.7743069999972
 51
270.0
  0
ARC
  5
1121
330
2
100
AcDbEntity
  8
0
100
AcDbCircle
 10
44.65151991947357
 20
122.3335132597533
 30
0.0
 40
2.497222
100
AcDbArc
 50
251.6983030000062
 51
270.0
  0
LINE
  5
1122
330
2
100
AcDbEntity
  8
0
100
AcDbLine
 10
42.65151991947357
 20
133.6208112597535
 30
0.0
 11
42.65151991947357
 21
138.2295132597535
 31
0.0
  0
LINE
  5
1123
330
2
100
AcDbEntity
  8
0
100
AcDbLine
 10
41.35149991947344
 20
138.3708112597535
 30
0.0
 11
41.35149991947344
 21
128.8708112597535
 31
0.0
  0
LINE
  5
1124
330
2
100
AcDbEntity
  8
0
100
AcDbLine
 10
42.65151991947357
 20
138.2208122597533
 30
0.0
 11
42.65151991947357
 21
133.6208112597535
 31
0.0
  0
LINE
  5
1125
330
2
100
AcDbEntity
  8
0
100
AcDbLine
 10
42.65151991947357
 20
133.6208112597535
 30
0.0
 11
42.65151991947357
 21
127.9560132597533
 31
0.0
  0
ARC
  5
1126
330
2
100
AcDbEntity
  8
0
100
AcDbCircle
 10
44.50559991947364
 20
123.0590112597534
 30
0.0
 40
2.032614
100
AcDbArc
 50
231.392395000001
 51
251.6983030000062
  0
ARC
  5
1127
330
2
100
AcDbEntity
  8
0
100
AcDbCircle
 10
43.65151991947357
 20
127.9560132597533
 30
0.0
 40
1.0
100
AcDbArc
 50
180.0
 51
269.5000000000084
  0
ARC
  5
1128
330
2
100
AcDbEntity
  8
0
100
AcDbCircle
 10
43.93717991947357
 20
122.5999322597534
 30
0.0
 40
1.285679
100
AcDbArc
 50
180.0
 51
207.4174039999999
  0
LINE
  5
1129
330
2
100
AcDbEntity
  8
0
100
AcDbLine
 10
42.65151991947357
 20
121.4333132597533
 30
0.0
 11
42.65151991947357
 21
122.5999322597534
 31
0.0
  0
ARC
  5
112A
330
2
100
AcDbEntity
  8
0
100
AcDbCircle
 10
43.93717991947357
 20
121.4333132597533
 30
0.0
 40
1.285679
100
AcDbArc
 50
180.0
 51
207.4174039999999
  0
ARC
  5
112B
330
2
100
AcDbEntity
  8
0
100
AcDbCircle
 10
44.28172191947339
 20
122.7787302597533
 30
0.0
 40
1.673817999999999
100
AcDbArc
 50
207.4174039999999
 51
231.392395000001
  0
ARC
  5
112C
330
2
100
AcDbEntity
  8
0
100
AcDbCircle
 10
44.65151991947357
 20
123.5001122597535
 30
0.0
 40
2.497222
100
AcDbArc
 50
251.6983030000062
 51
270.0
  0
LINE
  5
112D
330
2
100
AcDbEntity
  8
0
100
AcDbLine
 10
42.65151991947357
 20
129.0208322597534
 30
0.0
 11
42.65151991947357
 21
133.6208112597535
 31
0.0
  0
LINE
  5
112E
330
2
100
AcDbEntity
  8
0
100
AcDbLine
 10
41.35149991947344
 20
128.8708112597535
 30
0.0
 11
39.74072191947346
 21
128.8708112597535
 31
0.0
  0
LINE
  5
112F
330
2
100
AcDbEntity
  8
0
100
AcDbLine
 10
41.35149991947344
 20
129.0208322597534
 30
0.0
 11
42.65151991947357
 21
129.0208322597534
 31
0.0
  0
ARC
  5
1130
330
2
100
AcDbEntity
  8
0
100
AcDbCircle
 10
43.65151991947357
 20
134.6296122597535
 30
0.0
 40
1.0
100
AcDbArc
 50
180.0
 51
270.4999999999915
  0
ARC
  5
1131
330
2
100
AcDbEntity
  8
0
100
AcDbCircle
 10
44.3768219194734
 20
146.3187122597535
 30
0.0
 40
2.298955999999999
100
AcDbArc
 50
240.2855990000028
 51
256.6994020000062
  0
ARC
  5
1132
330
2
100
AcDbEntity
  8
0
100
AcDbCircle
 10
43.95898391947355
 20
145.5866122597534
 30
0.0
 40
1.455952
100
AcDbArc
 50
215.9711000000041
 51
240.2855990000028
  0
LINE
  5
1133
330
2
100
AcDbEntity
  8
0
100
AcDbLine
 10
41.35149991947344
 20
138.3708112597535
 30
0.0
 11
39.74072191947346
 21
138.3708112597535
 31
0.0
  0
LINE
  5
1134
330
2
100
AcDbEntity
  8
0
100
AcDbLine
 10
41.35149991947344
 20
138.2208122597533
 30
0.0
 11
42.65151991947357
 21
138.2208122597533
 31
0.0
  0
ARC
  5
1135
330
2
100
AcDbEntity
  8
0
100
AcDbCircle
 10
44.65151991947357
 20
147.4806122597533
 30
0.0
 40
3.492887999999999
100
AcDbArc
 50
256.6994020000062
 51
270.0
  0
ARC
  5
1136
330
2
100
AcDbEntity
  8
0
100
AcDbCircle
 10
44.3768219194734
 20
148.2017122597533
 30
0.0
 40
2.298955999999999
100
AcDbArc
 50
240.2855990000028
 51
256.6994020000062
  0
ARC
  5
1137
330
2
100
AcDbEntity
  8
0
100
AcDbCircle
 10
43.3287799194735
 20
145.1292122597533
 30
0.0
 40
0.6772650000000001
100
AcDbArc
 50
180.0
 51
215.9711000000041
  0
ARC
  5
1138
330
2
100
AcDbEntity
  8
0
100
AcDbCircle
 10
43.95898391947355
 20
147.4696122597534
 30
0.0
 40
1.455952
100
AcDbArc
 50
215.9711000000041
 51
240.2855990000028
  0
ARC
  5
1139
330
2
100
AcDbEntity
  8
0
100
AcDbCircle
 10
43.3287799194735
 20
147.0122122597534
 30
0.0
 40
0.6772650000000001
100
AcDbArc
 50
180.0
 51
215.9711000000041
  0
LINE
  5
113A
330
2
100
AcDbEntity
  8
0
100
AcDbLine
 10
42.65151991947357
 20
145.1292122597533
 30
0.0
 11
42.65151991947357
 21
147.0122122597534
 31
0.0
  0
ARC
  5
113B
330
2
100
AcDbEntity
  8
0
100
AcDbCircle
 10
44.65151991947357
 20
149.3637142597534
 30
0.0
 40
3.492887999999999
100
AcDbArc
 50
256.6994020000062
 51
270.0
  0
LINE
  5
113C
330
2
100
AcDbEntity
  8
0
100
AcDbLine
 10
95.15148491947355
 20
126.5066132597533
 30
0.0
 11
95.15148491947355
 21
102.8995112597534
 31
0.0
  0
LINE
  5
113D
330
2
100
AcDbEntity
  8
0
100
AcDbLine
 10
105.1514809194735
 20
101.8229122597534
 30
0.0
 11
96.14296291947347
 21
101.8996102597532
 31
0.0
  0
ARC
  5
113E
330
2
100
AcDbEntity
  8
0
100
AcDbCircle
 10
96.15148491947355
 20
102.8995112597534
 30
0.0
 40
1.0
100
AcDbArc
 50
180.0
 51
269.5122069999976
  0
ARC
  5
113F
330
2
100
AcDbEntity
  8
0
100
AcDbCircle
 10
94.15148491947354
 20
112.1494312597533
 30
0.0
 40
1.0
100
AcDbArc
 50
0.0
 51
89.49999999999542
  0
ARC
  5
1140
330
2
100
AcDbEntity
  8
0
100
AcDbCircle
 10
94.65148491947354
 20
107.7858102597534
 30
0.0
 40
0.5
100
AcDbArc
 50
0.0
 51
89.49999999999542
  0
ARC
  5
1141
330
2
100
AcDbEntity
  8
0
100
AcDbCircle
 10
94.65148491947354
 20
110.6465132597534
 30
0.0
 40
0.5
100
AcDbArc
 50
270.4999999999915
 51
0.0
  0
ARC
  5
1142
330
2
100
AcDbEntity
  8
0
100
AcDbCircle
 10
94.15148491947354
 20
116.1209122597534
 30
0.0
 40
1.0
100
AcDbArc
 50
270.4999999999915
 51
0.0
  0
ARC
  5
1143
330
2
100
AcDbEntity
  8
0
100
AcDbCircle
 10
94.15148491947354
 20
118.4042112597533
 30
0.0
 40
1.0
100
AcDbArc
 50
0.0
 51
89.49999999999542
  0
ARC
  5
1144
330
2
100
AcDbEntity
  8
0
100
AcDbCircle
 10
94.15148491947354
 20
122.4349122597535
 30
0.0
 40
1.0
100
AcDbArc
 50
270.4999999999915
 51
0.0
  0
ARC
  5
1145
330
2
100
AcDbEntity
  8
0
100
AcDbCircle
 10
94.15148491947354
 20
142.5557122597534
 30
0.0
 40
1.0
100
AcDbArc
 50
0.0
 51
89.49999999999542
  0
ARC
  5
1146
330
2
100
AcDbEntity
  8
0
100
AcDbCircle
 10
94.15148491947354
 20
147.3028122597534
 30
0.0
 40
1.0
100
AcDbArc
 50
270.4999999999915
 51
0.0
  0
LINE
  5
1147
330
2
100
AcDbEntity
  8
0
100
AcDbLine
 10
124.2106722401953
 20
266.5849202116934
 30
0.0
 11
112.7106722401953
 21
266.5849202116934
 31
0.0
  0
LINE
  5
1148
330
2
100
AcDbEntity
  8
0
100
AcDbLine
 10
124.2106722401953
 20
254.0849202116934
 30
0.0
 11
112.7106722401953
 21
254.0849202116934
 31
0.0
  0
LINE
  5
1149
330
2
100
AcDbEntity
  8
0
100
AcDbLine
 10
118.8478189146402
 20
243.6997934967252
 30
0.0
 11
88.95717447738149
 21
243.6997934967252
 31
0.0
  0
LINE
  5
114A
330
2
100
AcDbEntity
  8
0
100
AcDbLine
 10
118.8478189146402
 20
245.6997934967252
 30
0.0
 11
88.95717447738196
 21
245.6997934967252
 31
0.0
  0
LINE
  5
114B
330
2
100
AcDbEntity
  8
0
100
AcDbLine
 10
89.34781891464002
 20
241.6997934967252
 30
0.0
 11
118.728833923085
 21
239.1292877606012
 31
0.0
  0
LINE
  5
114C
330
2
100
AcDbEntity
  8
0
100
AcDbLine
 10
89.43514080045735
 20
243.6997934967252
 30
0.0
 11
118.9031454085803
 21
241.1216771567847
 31
0.0
  0
LINE
  5
114D
330
2
100
AcDbEntity
  8
0
100
AcDbLine
 10
89.43514080045735
 20
245.6997934967252
 30
0.0
 11
118.909873993842
 21
248.2784985115976
 31
0.0
  0
LINE
  5
114E
330
2
100
AcDbEntity
  8
0
100
AcDbLine
 10
89.34781891464025
 20
247.6997934967252
 30
0.0
 11
118.7355625083467
 21
250.2708879077811
 31
0.0
  0
LINE
  5
114F
330
2
100
AcDbEntity
  8
0
100
AcDbLine
 10
43.65150391947361
 20
180.5132066361889
 30
0.0
 11
43.65150391947361
 21
232.4992329995331
 31
0.0
  0
LINE
  5
1150
330
2
100
AcDbEntity
  8
0
100
AcDbLine
 10
39.65146907031032
 20
232.9203839959412
 30
0.0
 11
39.65144215564498
 21
179.8902312394587
 31
0.0
  0
LINE
  5
1151
330
2
100
AcDbEntity
  8
0
100
AcDbLine
 10
41.65146441430249
 20
232.0782452574134
 30
0.0
 11
41.65150503839879
 21
179.8902224409999
 31
0.0
  0
LINE
  5
1152
330
2
100
AcDbEntity
  8
0
100
AcDbLine
 10
105.1514809194735
 20
216.3229122597534
 30
0.0
 11
43.65150391947361
 21
215.7861883611215
 31
0.0
  0
LINE
  5
1153
330
2
100
AcDbEntity
  8
0
100
AcDbLine
 10
94.16026291947344
 20
204.9963932597534
 30
0.0
 11
44.65151991947357
 21
204.5644322597534
 31
0.0
  0
LINE
  5
1154
330
2
100
AcDbEntity
  8
0
100
AcDbLine
 10
44.65151991947357
 20
203.4568312597532
 30
0.0
 11
94.16026291947344
 21
203.0248122597534
 31
0.0
  0
LINE
  5
1155
330
2
100
AcDbEntity
  8
0
100
AcDbLine
 10
94.16026291947344
 20
198.7416132597534
 30
0.0
 11
44.65151991947357
 21
198.3095112597534
 31
0.0
  0
LINE
  5
1156
330
2
100
AcDbEntity
  8
0
100
AcDbLine
 10
44.65151991947357
 20
197.1428322597533
 30
0.0
 11
94.16026291947344
 21
196.7108132597534
 31
0.0
  0
LINE
  5
1157
330
2
100
AcDbEntity
  8
0
100
AcDbLine
 10
43.78339991947348
 20
209.9378112597535
 30
0.0
 11
93.47528391947355
 21
210.3713932597534
 31
0.0
  0
LINE
  5
1158
330
2
100
AcDbEntity
  8
0
100
AcDbLine
 10
43.78339991947348
 20
206.7126142597533
 30
0.0
 11
93.47528391947355
 21
207.1462112597535
 31
0.0
  0
LINE
  5
1159
330
2
100
AcDbEntity
  8
0
100
AcDbLine
 10
43.78339991947348
 20
201.7829112597533
 30
0.0
 11
93.47528391947355
 21
202.2165322597534
 31
0.0
  0
LINE
  5
115A
330
2
100
AcDbEntity
  8
0
100
AcDbLine
 10
94.16026291947344
 20
165.2525242597533
 30
0.0
 11
44.65151991947357
 21
164.8205162597535
 31
0.0
  0
LINE
  5
115B
330
2
100
AcDbEntity
  8
0
100
AcDbLine
 10
44.65151991947357
 20
162.8508202597534
 30
0.0
 11
94.16026291947344
 21
162.4188142597534
 31
0.0
  0
LINE
  5
115C
330
2
100
AcDbEntity
  8
0
100
AcDbLine
 10
44.65151991947357
 20
155.2949122597533
 30
0.0
 11
94.16026291947344
 21
155.7270102597533
 31
0.0
  0
LINE
  5
115D
330
2
100
AcDbEntity
  8
0
100
AcDbLine
 10
94.16026291947344
 20
152.8932082597532
 30
0.0
 11
44.65151991947357
 21
153.3253222597534
 31
0.0
  0
LINE
  5
115E
330
2
100
AcDbEntity
  8
0
100
AcDbLine
 10
43.78339991947348
 20
161.9207222597534
 30
0.0
 11
93.47528391947355
 21
162.3544202597534
 31
0.0
  0
LINE
  5
115F
330
2
100
AcDbEntity
  8
0
100
AcDbLine
 10
43.78339991947348
 20
156.2250122597534
 30
0.0
 11
93.47528391947355
 21
155.7914182597533
 31
0.0
  0
LINE
  5
1160
330
2
100
AcDbEntity
  8
0
100
AcDbLine
 10
94.16026291947344
 20
191.5805112597534
 30
0.0
 11
52.13397891947341
 21
191.2138122597532
 31
0.0
  0
LINE
  5
1161
330
2
100
AcDbEntity
  8
0
100
AcDbLine
 10
52.16898291947348
 20
189.6199132597533
 30
0.0
 11
94.16026291947344
 21
189.2534122597533
 31
0.0
  0
LINE
  5
1162
330
2
100
AcDbEntity
  8
0
100
AcDbLine
 10
94.16026291947344
 20
183.4559322597534
 30
0.0
 11
52.13397891947341
 21
183.0891112597535
 31
0.0
  0
LINE
  5
1163
330
2
100
AcDbEntity
  8
0
100
AcDbLine
 10
52.16898291947348
 20
181.2458112597535
 30
0.0
 11
94.16026291947344
 21
180.8794112597534
 31
0.0
  0
LINE
  5
1164
330
2
100
AcDbEntity
  8
0
100
AcDbLine
 10
94.16026291947344
 20
174.5901222597534
 30
0.0
 11
44.65151991947357
 21
174.1580122597534
 31
0.0
  0
LINE
  5
1165
330
2
100
AcDbEntity
  8
0
100
AcDbLine
 10
44.65151991947357
 20
172.2750122597533
 30
0.0
 11
94.16026291947344
 21
171.8429122597534
 31
0.0
  0
LINE
  5
1166
330
2
100
AcDbEntity
  8
0
100
AcDbLine
 10
51.35146291947364
 20
188.2864112597533
 30
0.0
 11
93.47528391947355
 21
188.6540322597534
 31
0.0
  0
LINE
  5
1167
330
2
100
AcDbEntity
  8
0
100
AcDbLine
 10
51.35146291947364
 20
180.0657122597534
 30
0.0
 11
93.47528391947355
 21
180.4333112597535
 31
0.0
  0
LINE
  5
1168
330
2
100
AcDbEntity
  8
0
100
AcDbLine
 10
43.78339991947348
 20
171.1434222597534
 30
0.0
 11
93.47528391947355
 21
171.5771222597534
 31
0.0
  0
LINE
  5
1169
330
2
100
AcDbEntity
  8
0
100
AcDbLine
 10
46.15150391947361
 20
195.5763912597533
 30
0.0
 11
93.47528391947355
 21
195.9894122597534
 31
0.0
  0
LINE
  5
116A
330
2
100
AcDbEntity
  8
0
100
AcDbLine
 10
94.65588291947359
 20
209.8599342597534
 30
0.0
 11
44.65151991947357
 21
209.4235322597533
 31
0.0
  0
LINE
  5
116B
330
2
100
AcDbEntity
  8
0
100
AcDbLine
 10
44.65151991947357
 20
208.4356132597534
 30
0.0
 11
94.65588291947359
 21
207.9993112597533
 31
0.0
  0
LINE
  5
116C
330
2
100
AcDbEntity
  8
0
100
AcDbLine
 10
95.15148491947355
 20
213.1802122597535
 30
0.0
 11
44.63406391947353
 21
212.7393132597533
 31
0.0
  0
LINE
  5
116D
330
2
100
AcDbEntity
  8
0
100
AcDbLine
 10
44.66895991947342
 20
211.9278312597533
 30
0.0
 11
95.15148491947355
 21
211.4873102597533
 31
0.0
  0
LINE
  5
116E
330
2
100
AcDbEntity
  8
0
100
AcDbLine
 10
46.15150391947361
 20
195.8491532597534
 30
0.0
 11
46.15151991947357
 21
175.4080832597533
 31
0.0
  0
LINE
  5
116F
330
2
100
AcDbEntity
  8
0
100
AcDbLine
 10
39.15151991947357
 20
167.2926082597535
 30
0.0
 11
39.15151991947357
 21
176.7965722597535
 31
0.0
  0
ARC
  5
1170
330
2
100
AcDbEntity
  8
0
100
AcDbCircle
 10
44.33260191947363
 20
155.9311122597535
 30
0.0
 40
2.575074
100
AcDbArc
 50
244.8269959999891
 51
258.9837040000073
  0
ARC
  5
1171
330
2
100
AcDbEntity
  8
0
100
AcDbCircle
 10
44.33260191947363
 20
157.9007172597533
 30
0.0
 40
2.575074
100
AcDbArc
 50
244.8269959999891
 51
258.9837040000073
  0
LINE
  5
1172
330
2
100
AcDbEntity
  8
0
100
AcDbLine
 10
42.65151991947357
 20
154.2652182597533
 30
0.0
 11
42.65151991947357
 21
156.2349162597534
 31
0.0
  0
ARC
  5
1173
330
2
100
AcDbEntity
  8
0
100
AcDbCircle
 10
43.12646391947362
 20
154.2652182597533
 30
0.0
 40
0.4749410000000001
100
AcDbArc
 50
180.0
 51
221.3905940000004
  0
ARC
  5
1174
330
2
100
AcDbEntity
  8
0
100
AcDbCircle
 10
43.84895991947348
 20
154.9020142597535
 30
0.0
 40
1.437988999999999
100
AcDbArc
 50
221.3905940000004
 51
244.8269959999891
  0
ARC
  5
1175
330
2
100
AcDbEntity
  8
0
100
AcDbCircle
 10
43.12646391947362
 20
156.2349162597534
 30
0.0
 40
0.4749410000000001
100
AcDbArc
 50
180.0
 51
221.3905940000004
  0
ARC
  5
1176
330
2
100
AcDbEntity
  8
0
100
AcDbCircle
 10
43.84895991947348
 20
156.8716182597534
 30
0.0
 40
1.437988999999999
100
AcDbArc
 50
221.3905940000004
 51
244.8269959999891
  0
ARC
  5
1177
330
2
100
AcDbEntity
  8
0
100
AcDbCircle
 10
44.65151991947357
 20
157.5692192597533
 30
0.0
 40
4.243937999999999
100
AcDbArc
 50
258.9837040000073
 51
270.0
  0
ARC
  5
1178
330
2
100
AcDbEntity
  8
0
100
AcDbCircle
 10
44.65151991947357
 20
159.5389152597534
 30
0.0
 40
4.243937999999999
100
AcDbArc
 50
258.9837040000073
 51
270.0
  0
ARC
  5
1179
330
2
100
AcDbEntity
  8
0
100
AcDbCircle
 10
44.33260191947363
 20
162.2146202597535
 30
0.0
 40
2.575074
100
AcDbArc
 50
101.0162959999926
 51
115.1729969999954
  0
ARC
  5
117A
330
2
100
AcDbEntity
  8
0
100
AcDbCircle
 10
44.33260191947363
 20
160.2450162597534
 30
0.0
 40
2.575074
100
AcDbArc
 50
101.0162959999926
 51
115.1729969999954
  0
ARC
  5
117B
330
2
100
AcDbEntity
  8
0
100
AcDbCircle
 10
43.12646391947362
 20
163.8805142597532
 30
0.0
 40
0.4749410000000001
100
AcDbArc
 50
138.6094059999995
 51
180.0
  0
ARC
  5
117C
330
2
100
AcDbEntity
  8
0
100
AcDbCircle
 10
43.84895991947348
 20
163.2437182597534
 30
0.0
 40
1.437988999999999
100
AcDbArc
 50
115.1729969999954
 51
138.6094059999995
  0
ARC
  5
117D
330
2
100
AcDbEntity
  8
0
100
AcDbCircle
 10
43.12646391947362
 20
161.9109082597534
 30
0.0
 40
0.4749410000000001
100
AcDbArc
 50
138.6094059999995
 51
180.0
  0
ARC
  5
117E
330
2
100
AcDbEntity
  8
0
100
AcDbCircle
 10
43.84895991947348
 20
161.2741142597533
 30
0.0
 40
1.437988999999999
100
AcDbArc
 50
115.1729969999954
 51
138.6094059999995
  0
LINE
  5
117F
330
2
100
AcDbEntity
  8
0
100
AcDbLine
 10
42.65151991947357
 20
163.8805142597532
 30
0.0
 11
42.65151991947357
 21
161.9109082597534
 31
0.0
  0
ARC
  5
1180
330
2
100
AcDbEntity
  8
0
100
AcDbCircle
 10
44.65151991947357
 20
160.5765132597533
 30
0.0
 40
4.243937999999999
100
AcDbArc
 50
90.0
 51
101.0162959999926
  0
ARC
  5
1181
330
2
100
AcDbEntity
  8
0
100
AcDbCircle
 10
44.65151991947357
 20
158.6069242597535
 30
0.0
 40
4.243937999999999
100
AcDbArc
 50
90.0
 51
101.0162959999926
  0
ARC
  5
1182
330
2
100
AcDbEntity
  8
0
100
AcDbCircle
 10
44.3768219194734
 20
171.8270122597535
 30
0.0
 40
2.298955999999999
100
AcDbArc
 50
103.3005979999937
 51
119.7144009999971
  0
LINE
  5
1183
330
2
100
AcDbEntity
  8
0
100
AcDbLine
 10
39.15151991947357
 20
175.4080832597533
 30
0.0
 11
46.15151991947357
 21
175.4080832597533
 31
0.0
  0
ARC
  5
1184
330
2
100
AcDbEntity
  8
0
100
AcDbCircle
 10
44.3768219194734
 20
169.9440222597534
 30
0.0
 40
2.298955999999999
100
AcDbArc
 50
103.3005979999937
 51
119.7144009999971
  0
ARC
  5
1185
330
2
100
AcDbEntity
  8
0
100
AcDbCircle
 10
43.3287799194735
 20
173.0166222597534
 30
0.0
 40
0.6772650000000001
100
AcDbArc
 50
144.0288999999958
 51
180.0
  0
ARC
  5
1186
330
2
100
AcDbEntity
  8
0
100
AcDbCircle
 10
43.95898391947355
 20
172.5592122597534
 30
0.0
 40
1.455952
100
AcDbArc
 50
119.7144009999971
 51
144.0288999999958
  0
ARC
  5
1187
330
2
100
AcDbEntity
  8
0
100
AcDbCircle
 10
43.3287799194735
 20
171.1335222597534
 30
0.0
 40
0.6772650000000001
100
AcDbArc
 50
144.0288999999958
 51
180.0
  0
ARC
  5
1188
330
2
100
AcDbEntity
  8
0
100
AcDbCircle
 10
43.95898391947355
 20
170.6762122597534
 30
0.0
 40
1.455952
100
AcDbArc
 50
119.7144009999971
 51
144.0288999999958
  0
LINE
  5
1189
330
2
100
AcDbEntity
  8
0
100
AcDbLine
 10
42.65151991947357
 20
173.0166222597534
 30
0.0
 11
42.65151991947357
 21
171.1335222597534
 31
0.0
  0
ARC
  5
118A
330
2
100
AcDbEntity
  8
0
100
AcDbCircle
 10
44.65151991947357
 20
170.6651222597534
 30
0.0
 40
3.492887999999999
100
AcDbArc
 50
90.0
 51
103.3005979999937
  0
ARC
  5
118B
330
2
100
AcDbEntity
  8
0
100
AcDbCircle
 10
44.65151991947357
 20
168.7821102597534
 30
0.0
 40
3.492887999999999
100
AcDbArc
 50
90.0
 51
103.3005979999937
  0
ELLIPSE
  5
118C
330
2
100
AcDbEntity
  8
0
100
AcDbEllipse
 10
40.65150812209651
 20
182.1027070485317
 30
0.0
 11
-3.25
 21
0.0
 31
0.0
210
0.0
220
0.0
230
1.0
 40
0.5461691657962994
 41
3.440495882147722
 42
3.536387135374309
  0
LINE
  5
118D
330
2
100
AcDbEntity
  8
0
100
AcDbLine
 10
50.1514579194735
 20
181.0892122597534
 30
0.0
 11
50.1514579194735
 21
179.2459122597534
 31
0.0
  0
ARC
  5
118E
330
2
100
AcDbEntity
  8
0
100
AcDbCircle
 10
52.1514579194735
 20
179.2459122597534
 30
0.0
 40
2.0
100
AcDbArc
 50
89.50031300000167
 51
180.0
  0
ARC
  5
118F
330
2
100
AcDbEntity
  8
0
100
AcDbCircle
 10
52.1514579194735
 20
181.0892122597534
 30
0.0
 40
2.0
100
AcDbArc
 50
90.50050399998985
 51
180.0
  0
ARC
  5
1190
330
2
100
AcDbEntity
  8
0
100
AcDbCircle
 10
44.50559991947364
 20
195.0867142597533
 30
0.0
 40
2.032614
100
AcDbArc
 50
108.3016969999937
 51
114.8480990000047
  0
ARC
  5
1191
330
2
100
AcDbEntity
  8
0
100
AcDbCircle
 10
44.50559991947364
 20
196.2534312597534
 30
0.0
 40
2.032614
100
AcDbArc
 50
108.3016969999937
 51
114.8480990000047
  0
LINE
  5
1192
330
2
100
AcDbEntity
  8
0
100
AcDbLine
 10
43.65150391947361
 20
195.8491532597534
 30
0.0
 11
46.15150391947361
 21
195.8491532597534
 31
0.0
  0
ARC
  5
1193
330
2
100
AcDbEntity
  8
0
100
AcDbCircle
 10
44.65151991947357
 20
194.6455932597535
 30
0.0
 40
2.497222
100
AcDbArc
 50
90.0
 51
108.3016969999937
  0
ARC
  5
1194
330
2
100
AcDbEntity
  8
0
100
AcDbCircle
 10
44.65151991947357
 20
195.8123342597535
 30
0.0
 40
2.497222
100
AcDbArc
 50
90.0
 51
108.3016969999937
  0
ARC
  5
1195
330
2
100
AcDbEntity
  8
0
100
AcDbCircle
 10
52.1514579194735
 20
187.6200312597534
 30
0.0
 40
2.0
100
AcDbArc
 50
89.50034299999911
 51
180.0
  0
ARC
  5
1196
330
2
100
AcDbEntity
  8
0
100
AcDbCircle
 10
52.1514579194735
 20
189.2138922597535
 30
0.0
 40
2.0
100
AcDbArc
 50
90.50047299999476
 51
180.0
  0
LINE
  5
1197
330
2
100
AcDbEntity
  8
0
100
AcDbLine
 10
50.1514579194735
 20
189.2138922597535
 30
0.0
 11
50.15135991947352
 21
187.6200312597534
 31
0.0
  0
ARC
  5
1198
330
2
100
AcDbEntity
  8
0
100
AcDbCircle
 10
44.5345599194735
 20
201.4228302597532
 30
0.0
 40
2.014202
100
AcDbArc
 50
109.2256999999949
 51
116.0038989999969
  0
ARC
  5
1199
330
2
100
AcDbEntity
  8
0
100
AcDbCircle
 10
44.5345599194735
 20
202.5303132597535
 30
0.0
 40
2.014202
100
AcDbArc
 50
109.2256999999949
 51
116.0038989999969
  0
ARC
  5
119A
330
2
100
AcDbEntity
  8
0
100
AcDbCircle
 10
44.65151991947357
 20
201.0875342597535
 30
0.0
 40
2.369364
100
AcDbArc
 50
90.0
 51
109.2256999999949
  0
ARC
  5
119B
330
2
100
AcDbEntity
  8
0
100
AcDbCircle
 10
44.65151991947357
 20
202.1950132597533
 30
0.0
 40
2.369364
100
AcDbArc
 50
90.0
 51
109.2256999999949
  0
ARC
  5
119C
330
2
100
AcDbEntity
  8
0
100
AcDbCircle
 10
44.55151991947343
 20
206.4113142597532
 30
0.0
 40
2.006931999999999
100
AcDbArc
 50
109.7432020000003
 51
116.6460039999999
  0
ARC
  5
119D
330
2
100
AcDbEntity
  8
0
100
AcDbCircle
 10
44.55151991947343
 20
207.3992142597533
 30
0.0
 40
2.006931999999999
100
AcDbArc
 50
109.7432020000003
 51
116.6460039999999
  0
ARC
  5
119E
330
2
100
AcDbEntity
  8
0
100
AcDbCircle
 10
44.65151991947357
 20
209.9279312597535
 30
0.0
 40
2.0
100
AcDbArc
 50
89.49999999999542
 51
120.0018010000036
  0
ARC
  5
119F
330
2
100
AcDbEntity
  8
0
100
AcDbCircle
 10
44.65151991947357
 20
210.7394122597534
 30
0.0
 40
2.0
100
AcDbArc
 50
90.49999999999155
 51
120.0018999999987
  0
ARC
  5
11A0
330
2
100
AcDbEntity
  8
0
100
AcDbCircle
 10
44.65151991947357
 20
206.1327302597533
 30
0.0
 40
2.302912
100
AcDbArc
 50
90.0
 51
109.7432020000003
  0
ARC
  5
11A1
330
2
100
AcDbEntity
  8
0
100
AcDbCircle
 10
44.65151991947357
 20
207.1207102597534
 30
0.0
 40
2.302912
100
AcDbArc
 50
90.0
 51
109.7432020000003
  0
ARC
  5
11A2
330
2
100
AcDbEntity
  8
0
100
AcDbCircle
 10
94.15148491947354
 20
184.4558122597534
 30
0.0
 40
1.0
100
AcDbArc
 50
270.4999999999915
 51
0.0
  0
ARC
  5
11A3
330
2
100
AcDbEntity
  8
0
100
AcDbCircle
 10
94.15148491947354
 20
156.7269182597534
 30
0.0
 40
1.0
100
AcDbArc
 50
270.4999999999915
 51
0.0
  0
ARC
  5
11A4
330
2
100
AcDbEntity
  8
0
100
AcDbCircle
 10
94.15148491947354
 20
166.2525242597533
 30
0.0
 40
1.0
100
AcDbArc
 50
270.4999999999915
 51
0.0
  0
ARC
  5
11A5
330
2
100
AcDbEntity
  8
0
100
AcDbCircle
 10
94.15148491947354
 20
161.4188142597534
 30
0.0
 40
1.0
100
AcDbArc
 50
0.0
 51
89.49999999999542
  0
ARC
  5
11A6
330
2
100
AcDbEntity
  8
0
100
AcDbCircle
 10
94.15148491947354
 20
170.8430222597533
 30
0.0
 40
1.0
100
AcDbArc
 50
0.0
 51
89.49999999999542
  0
ARC
  5
11A7
330
2
100
AcDbEntity
  8
0
100
AcDbCircle
 10
94.15148491947354
 20
175.5900232597535
 30
0.0
 40
1.0
100
AcDbArc
 50
270.4999999999915
 51
0.0
  0
ARC
  5
11A8
330
2
100
AcDbEntity
  8
0
100
AcDbCircle
 10
94.15148491947354
 20
179.8794112597534
 30
0.0
 40
1.0
100
AcDbArc
 50
0.0
 51
89.49999999999542
  0
ARC
  5
11A9
330
2
100
AcDbEntity
  8
0
100
AcDbCircle
 10
94.15148491947354
 20
192.5805112597534
 30
0.0
 40
1.0
100
AcDbArc
 50
270.4999999999915
 51
0.0
  0
ARC
  5
11AA
330
2
100
AcDbEntity
  8
0
100
AcDbCircle
 10
94.15148491947354
 20
188.2535112597534
 30
0.0
 40
1.0
100
AcDbArc
 50
0.0
 51
89.49999999999542
  0
ARC
  5
11AB
330
2
100
AcDbEntity
  8
0
100
AcDbCircle
 10
94.15148491947354
 20
195.7108132597534
 30
0.0
 40
1.0
100
AcDbArc
 50
0.0
 51
89.49999999999542
  0
ARC
  5
11AC
330
2
100
AcDbEntity
  8
0
100
AcDbCircle
 10
94.15148491947354
 20
199.7415102597534
 30
0.0
 40
1.0
100
AcDbArc
 50
270.4999999999915
 51
0.0
  0
ARC
  5
11AD
330
2
100
AcDbEntity
  8
0
100
AcDbCircle
 10
94.65148491947354
 20
207.4993112597533
 30
0.0
 40
0.5
100
AcDbArc
 50
0.0
 51
89.49999999999542
  0
ARC
  5
11AE
330
2
100
AcDbEntity
  8
0
100
AcDbCircle
 10
94.15148491947354
 20
202.0248122597534
 30
0.0
 40
1.0
100
AcDbArc
 50
0.0
 51
89.49999999999542
  0
ARC
  5
11AF
330
2
100
AcDbEntity
  8
0
100
AcDbCircle
 10
94.15148491947354
 20
205.9963932597534
 30
0.0
 40
1.0
100
AcDbArc
 50
270.4999999999915
 51
0.0
  0
ARC
  5
11B0
330
2
100
AcDbEntity
  8
0
100
AcDbCircle
 10
94.65148491947354
 20
210.3599342597533
 30
0.0
 40
0.5
100
AcDbArc
 50
270.4999999999915
 51
0.0
  0
LINE
  5
11B1
330
2
100
AcDbEntity
  8
0
100
AcDbLine
 10
48.65147407073038
 20
263.335580648426
 30
0.0
 11
87.07213542872556
 21
263.3355806484261
 31
0.0
  0
ARC
  5
11B2
330
2
100
AcDbEntity
  8
0
100
AcDbCircle
 10
88.95717447739059
 20
287.6997934967251
 30
0.0
 40
42.0
100
AcDbArc
 50
250.5608481874013
 51
270.0
  0
ARC
  5
11B3
330
2
100
AcDbEntity
  8
0
100
AcDbCircle
 10
88.95717447739059
 20
287.6997934967251
 30
0.0
 40
40.0
100
AcDbArc
 50
250.5608481874013
 51
270.0
  0
ARC
  5
11B4
330
2
100
AcDbEntity
  8
0
100
AcDbCircle
 10
88.95717447739059
 20
287.6997934967251
 30
0.0
 40
46.0
100
AcDbArc
 50
250.5608481874013
 51
270.0
  0
ARC
  5
11B5
330
2
100
AcDbEntity
  8
0
100
AcDbCircle
 10
88.95717447739059
 20
287.6997934967251
 30
0.0
 40
44.0
100
AcDbArc
 50
250.5608481874013
 51
270.0
  0
LINE
  5
11B6
330
2
100
AcDbEntity
  8
0
100
AcDbLine
 10
48.65148969818767
 20
257.3355806484261
 30
0.0
 11
87.07161202532791
 21
257.3355806484261
 31
0.0
  0
ARC
  5
11B7
330
2
100
AcDbEntity
  8
0
100
AcDbCircle
 10
49.08386649158171
 20
210.573292582494
 30
0.0
 40
46.0
100
AcDbArc
 50
70.56084818740129
 51
90.0
  0
ARC
  5
11B8
330
2
100
AcDbEntity
  8
0
100
AcDbCircle
 10
49.08386649158171
 20
210.573292582494
 30
0.0
 40
42.0
100
AcDbArc
 50
70.56084818740129
 51
90.0
  0
ARC
  5
11B9
330
2
100
AcDbEntity
  8
0
100
AcDbCircle
 10
49.08386649158171
 20
210.573292582494
 30
0.0
 40
40.0
100
AcDbArc
 50
70.56084818740129
 51
90.0
  0
ARC
  5
11BA
330
2
100
AcDbEntity
  8
0
100
AcDbCircle
 10
49.08386649158171
 20
210.573292582494
 30
0.0
 40
44.0
100
AcDbArc
 50
70.56084818740129
 51
90.0
  0
LINE
  5
11BB
330
2
100
AcDbEntity
  8
0
100
AcDbLine
 10
43.65150391947361
 20
234.4992329995332
 30
0.0
 11
43.65150391947361
 21
245.5734268612374
 31
0.0
  0
LINE
  5
11BC
330
2
100
AcDbEntity
  8
0
100
AcDbLine
 10
39.65147041042894
 20
245.5608286216168
 30
0.0
 11
39.65146501003016
 21
234.9203857056048
 31
0.0
  0
LINE
  5
11BD
330
2
100
AcDbEntity
  8
0
100
AcDbLine
 10
41.65146169364504
 20
245.5733564136265
 30
0.0
 11
41.65147064164864
 21
234.0782426352627
 31
0.0
  0
ARC
  5
11BE
330
2
100
AcDbEntity
  8
HOJO
100
AcDbCircle
 10
42.40151561269624
 20
235.4992475208681
 30
0.0
 40
1.600781
100
AcDbArc
 50
247.1647029999928
 51
321.3401944016193
  0
LINE
  5
11BF
330
2
100
AcDbEntity
  8
HOJO
100
AcDbLine
 10
39.52280761269628
 20
232.9745595208682
 30
0.0
 11
41.78040661269631
 21
232.0239515208682
 31
0.0
  0
ARC
  5
11C0
330
2
100
AcDbEntity
  8
HOJO
100
AcDbCircle
 10
42.40151561269624
 20
233.4992475208682
 30
0.0
 40
1.600781
100
AcDbArc
 50
247.1647029999928
 51
321.3410092286216
  0
LINE
  5
11C1
330
2
100
AcDbEntity
  8
HOJO
100
AcDbLine
 10
39.52280761269628
 20
234.9745595208682
 30
0.0
 11
41.78040661269631
 21
234.0239515208682
 31
0.0
  0
ARC
  5
11C2
330
2
100
AcDbEntity
  8
0
100
AcDbCircle
 10
48.65147964225468
 20
245.5734268612374
 30
0.0
 40
4.999975722839786
100
AcDbArc
 50
89.99988476693856
 51
180.0002781972299
  0
ARC
  5
11C3
330
2
100
AcDbEntity
  8
0
100
AcDbCircle
 10
48.65150950040504
 20
245.5733547772262
 30
0.0
 40
7.000047806854717
100
AcDbArc
 50
90.00012915873288
 51
179.999688182736
  0
ARC
  5
11C4
330
2
100
AcDbEntity
  8
0
100
AcDbCircle
 10
48.65148969818767
 20
252.3355806484261
 30
0.0
 40
5.0
100
AcDbArc
 50
90.0
 51
131.9745559601682
  0
LINE
  5
11C5
330
2
100
AcDbEntity
  8
0
100
AcDbLine
 10
48.65132366354271
 20
254.573292582494
 30
0.0
 11
49.08386649158171
 21
254.573292582494
 31
0.0
  0
LINE
  5
11C6
330
2
100
AcDbEntity
  8
0
100
AcDbLine
 10
48.65132366354271
 20
256.573292582494
 30
0.0
 11
49.08386649158149
 21
256.573292582494
 31
0.0
  0
LINE
  5
11C7
330
2
100
AcDbEntity
  8
0
100
AcDbLine
 10
48.65132366354271
 20
252.573292582494
 30
0.0
 11
49.08386649158171
 21
252.573292582494
 31
0.0
  0
LINE
  5
11C8
330
2
100
AcDbEntity
  8
0
100
AcDbLine
 10
48.65132366354271
 20
250.573292582494
 30
0.0
 11
49.08386649158171
 21
250.573292582494
 31
0.0
  0
LINE
  5
11C9
330
2
100
AcDbEntity
  8
0
100
AcDbLine
 10
63.72731222156938
 20
252.0650929429616
 30
0.0
 11
74.97933991694765
 21
248.0939840617335
 31
0.0
  0
LINE
  5
11CA
330
2
100
AcDbEntity
  8
0
100
AcDbLine
 10
62.39608988247971
 20
248.29311109201
 30
0.0
 11
73.64811757785798
 21
244.322002210782
 31
0.0
  0
LINE
  5
11CB
330
2
100
AcDbEntity
  8
0
100
AcDbLine
 10
63.0617010520242
 20
250.1791020174858
 30
0.0
 11
74.3137287474027
 21
246.2079931362578
 31
0.0
  0
LINE
  5
11CC
330
2
100
AcDbEntity
  8
0
100
AcDbLine
 10
64.3929233911141
 20
253.9510838684373
 30
0.0
 11
75.6449510864926
 21
249.9799749872094
 31
0.0
  0
LINE
  5
11CD
330
2
100
AcDbEntity
  8
0
100
AcDbLine
 10
112.7106722401953
 20
266.5849202116934
 30
0.0
 11
112.7106722401953
 21
254.0849202116934
 31
0.0
  0
LINE
  5
11CE
330
2
100
AcDbEntity
  8
0
100
AcDbLine
 10
96.83240525184409
 20
256.1388843276428
 30
0.0
 11
96.83240525184409
 21
264.5309560957443
 31
0.0
  0
LINE
  5
11CF
330
2
100
AcDbEntity
  8
0
100
AcDbLine
 10
87.06578459603599
 20
257.2855806484261
 30
0.0
 11
87.06578459603599
 21
263.3855806484262
 31
0.0
  0
LINE
  5
11D0
330
2
100
AcDbEntity
  8
0
100
AcDbLine
 10
114.7106722401953
 20
266.5849202116934
 30
0.0
 11
114.7106722401953
 21
254.0849202116934
 31
0.0
  0
LINE
  5
11D1
330
2
100
AcDbEntity
  8
0
100
AcDbLine
 10
94.46409330684934
 20
256.3181309037607
 30
0.0
 11
96.59767561631054
 21
255.9419227770403
 31
0.0
  0
LINE
  5
11D2
330
2
100
AcDbEntity
  8
0
100
AcDbLine
 10
89.34781891464002
 20
241.6997934967252
 30
0.0
 11
88.95717447738105
 21
241.6997934967252
 31
0.0
  0
LINE
  5
11D3
330
2
100
AcDbEntity
  8
0
100
AcDbLine
 10
89.34781891464025
 20
247.6997934967252
 30
0.0
 11
88.95717447739059
 21
247.6997934967252
 31
0.0
  0
LINE
  5
11D4
330
2
100
AcDbEntity
  8
0
100
AcDbLine
 10
94.04290016397624
 20
256.1518423013713
 30
0.0
 11
89.9758144919491
 21
257.0855806484261
 31
0.0
  0
LINE
  5
11D5
330
2
100
AcDbEntity
  8
0
100
AcDbLine
 10
87.26578459603604
 20
257.0855806484261
 30
0.0
 11
89.9758144919491
 21
257.0855806484261
 31
0.0
  0
ARC
  5
11D6
330
2
100
AcDbEntity
  8
0
100
AcDbCircle
 10
87.26578459603604
 20
257.2855806484261
 30
0.0
 40
0.2
100
AcDbArc
 50
180.0
 51
270.0
  0
ARC
  5
11D7
330
2
100
AcDbEntity
  8
0
100
AcDbCircle
 10
94.13240525184404
 20
256.5416997615356
 30
0.0
 40
0.4
100
AcDbArc
 50
257.0698677002801
 51
326.0187104207699
  0
ARC
  5
11D8
330
2
100
AcDbEntity
  8
0
100
AcDbCircle
 10
106.4494410847729
 20
275.9349202116934
 30
0.0
 40
20.0
100
AcDbArc
 50
259.9999999999949
 51
270.0
  0
ARC
  5
11D9
330
2
100
AcDbEntity
  8
0
100
AcDbCircle
 10
106.3444546885415
 20
274.7349202116934
 30
0.0
 40
20.0
100
AcDbArc
 50
259.9999999999949
 51
270.0
  0
LINE
  5
11DA
330
2
100
AcDbEntity
  8
0
100
AcDbLine
 10
112.7106722401953
 20
257.2349202116934
 30
0.0
 11
104.855677153001
 21
257.2349202116934
 31
0.0
  0
LINE
  5
11DB
330
2
100
AcDbEntity
  8
0
100
AcDbLine
 10
96.83240525184409
 20
257.322130865764
 30
0.0
 11
102.9764775314341
 21
256.2387651514492
 31
0.0
  0
LINE
  5
11DC
330
2
100
AcDbEntity
  8
0
100
AcDbLine
 10
96.82936680244655
 20
256.1041546921094
 30
0.0
 11
102.8714911352027
 21
255.0387651514493
 31
0.0
  0
LINE
  5
11DD
330
2
100
AcDbEntity
  8
0
100
AcDbLine
 10
103.1125622980479
 20
257.3110262498585
 30
0.0
 11
96.83240525184409
 21
257.8604687965638
 31
0.0
  0
ARC
  5
11DE
330
2
100
AcDbEntity
  8
0
100
AcDbCircle
 10
96.63240525184404
 20
256.1388843276428
 30
0.0
 40
0.2
100
AcDbArc
 50
259.9999999999949
 51
0.0
  0
ARC
  5
11DF
330
2
100
AcDbEntity
  8
0
100
AcDbCircle
 10
104.855677153001
 20
277.2349202116934
 30
0.0
 40
20.0
100
AcDbArc
 50
265.0000000000003
 51
270.0
  0
LINE
  5
11E0
330
2
100
AcDbEntity
  8
0
100
AcDbLine
 10
112.7106722401953
 20
254.7349202116935
 30
0.0
 11
106.3444546885415
 21
254.7349202116934
 31
0.0
  0
LINE
  5
11E1
330
2
100
AcDbEntity
  8
0
100
AcDbLine
 10
112.7106722401953
 20
255.9349202116935
 30
0.0
 11
106.4494410847731
 21
255.9349202116933
 31
0.0
  0
LINE
  5
11E2
330
2
100
AcDbEntity
  8
0
100
AcDbLine
 10
95.46544235692875
 20
264.5282743742622
 30
0.0
 11
96.59767561631054
 21
264.7279176463468
 31
0.0
  0
LINE
  5
11E3
330
2
100
AcDbEntity
  8
0
100
AcDbLine
 10
95.04633061317679
 20
264.6973493025304
 30
0.0
 11
90.00083422922456
 21
263.5855806484261
 31
0.0
  0
LINE
  5
11E4
330
2
100
AcDbEntity
  8
0
100
AcDbLine
 10
87.26578459603604
 20
263.5855806484262
 30
0.0
 11
90.00083422922433
 21
263.5855806484261
 31
0.0
  0
ARC
  5
11E5
330
2
100
AcDbEntity
  8
0
100
AcDbCircle
 10
87.26578459603604
 20
263.3855806484262
 30
0.0
 40
0.2
100
AcDbArc
 50
90.0
 51
180.0
  0
ARC
  5
11E6
330
2
100
AcDbEntity
  8
0
100
AcDbCircle
 10
95.13240525184404
 20
264.3067201221325
 30
0.0
 40
0.4
100
AcDbArc
 50
33.63399402201631
 51
102.4264747477321
  0
ARC
  5
11E7
330
2
100
AcDbEntity
  8
0
100
AcDbCircle
 10
106.344454688541
 20
245.9349202116935
 30
0.0
 40
20.0
100
AcDbArc
 50
90.0
 51
100.000000000005
  0
ARC
  5
11E8
330
2
100
AcDbEntity
  8
0
100
AcDbCircle
 10
106.449441084772
 20
244.7349202116933
 30
0.0
 40
20.0
100
AcDbArc
 50
90.0
 51
100.000000000005
  0
LINE
  5
11E9
330
2
100
AcDbEntity
  8
0
100
AcDbLine
 10
112.7106722401953
 20
263.4349202116934
 30
0.0
 11
104.8556771529978
 21
263.4349202116934
 31
0.0
  0
LINE
  5
11EA
330
2
100
AcDbEntity
  8
0
100
AcDbLine
 10
112.7106722401953
 20
260.9349202116935
 30
0.0
 11
96.83240525184409
 21
260.9349202116935
 31
0.0
  0
LINE
  5
11EB
330
2
100
AcDbEntity
  8
0
100
AcDbLine
 10
112.7106722401953
 20
259.7349202116935
 30
0.0
 11
96.83240525184409
 21
259.7349202116933
 31
0.0
  0
LINE
  5
11EC
330
2
100
AcDbEntity
  8
0
100
AcDbLine
 10
112.7106722401953
 20
262.2349202116934
 30
0.0
 11
104.9080702844879
 21
262.2349202116934
 31
0.0
  0
LINE
  5
11ED
330
2
100
AcDbEntity
  8
0
100
AcDbLine
 10
112.7106722401953
 20
258.4349202116935
 30
0.0
 11
104.9080702844922
 21
258.4349202116933
 31
0.0
  0
LINE
  5
11EE
330
2
100
AcDbEntity
  8
0
100
AcDbLine
 10
96.83240525184409
 20
263.3477095576229
 30
0.0
 11
102.9764775314334
 21
264.4310752719375
 31
0.0
  0
LINE
  5
11EF
330
2
100
AcDbEntity
  8
0
100
AcDbLine
 10
96.82936680244655
 20
264.5656857312776
 30
0.0
 11
102.8714911352025
 21
265.6310752719376
 31
0.0
  0
LINE
  5
11F0
330
2
100
AcDbEntity
  8
0
100
AcDbLine
 10
103.1649554295348
 20
262.1588141735283
 30
0.0
 11
96.83240525184409
 21
261.6047878217713
 31
0.0
  0
LINE
  5
11F1
330
2
100
AcDbEntity
  8
0
100
AcDbLine
 10
103.1649554295387
 20
258.5110262498584
 30
0.0
 11
96.83240525184409
 21
259.0650526016158
 31
0.0
  0
LINE
  5
11F2
330
2
100
AcDbEntity
  8
0
100
AcDbLine
 10
103.1125622980449
 20
263.3588141735283
 30
0.0
 11
96.83240525184409
 21
262.8093716268232
 31
0.0
  0
ARC
  5
11F3
330
2
100
AcDbEntity
  8
0
100
AcDbCircle
 10
96.63240525184404
 20
264.5309560957443
 30
0.0
 40
0.2
100
AcDbArc
 50
0.0
 51
100.000000000005
  0
ARC
  5
11F4
330
2
100
AcDbEntity
  8
0
100
AcDbCircle
 10
104.855677152998
 20
243.4349202116933
 30
0.0
 40
20.0
100
AcDbArc
 50
90.0
 51
94.99999999999975
  0
ARC
  5
11F5
330
2
100
AcDbEntity
  8
0
100
AcDbCircle
 10
104.9080702844881
 20
242.2349202116934
 30
0.0
 40
20.0
100
AcDbArc
 50
90.0
 51
94.99999999999975
  0
ARC
  5
11F6
330
2
100
AcDbEntity
  8
0
100
AcDbCircle
 10
104.908070284492
 20
278.4349202116934
 30
0.0
 40
20.0
100
AcDbArc
 50
265.0000000000003
 51
270.0
  0
LINE
  5
11F7
330
2
100
AcDbEntity
  8
0
100
AcDbLine
 10
112.7106722401953
 20
264.7349202116934
 30
0.0
 11
106.4494410847718
 21
264.7349202116933
 31
0.0
  0
LINE
  5
11F8
330
2
100
AcDbEntity
  8
0
100
AcDbLine
 10
112.7106722401953
 20
265.9349202116934
 30
0.0
 11
106.344454688541
 21
265.9349202116934
 31
0.0
  0
LINE
  5
11F9
330
2
100
AcDbEntity
  8
0
100
AcDbLine
 10
123.2106722401953
 20
257.1349202116934
 30
0.0
 11
123.2106722401953
 21
258.5349202116935
 31
0.0
  0
LINE
  5
11FA
330
2
100
AcDbEntity
  8
0
100
AcDbLine
 10
120.7106722401953
 20
256.9349202116935
 30
0.0
 11
120.7106722401953
 21
258.7349202116934
 31
0.0
  0
LINE
  5
11FB
330
2
100
AcDbEntity
  8
0
100
AcDbLine
 10
124.2106722401953
 20
266.5849202116934
 30
0.0
 11
124.2106722401953
 21
254.0849202116934
 31
0.0
  0
LINE
  5
11FC
330
2
100
AcDbEntity
  8
0
100
AcDbLine
 10
124.2106722401953
 20
266.5849202116934
 30
0.0
 11
124.2106722401953
 21
254.0849202116934
 31
0.0
  0
LINE
  5
11FD
330
2
100
AcDbEntity
  8
0
100
AcDbLine
 10
123.8341962515147
 20
240.0377832143548
 30
0.0
 11
118.8532227610559
 21
240.473561928093
 31
0.0
  0
LINE
  5
11FE
330
2
100
AcDbEntity
  8
0
100
AcDbLine
 10
123.8815826083126
 20
240.3849743884693
 30
0.0
 11
118.8837272710176
 21
240.8222300724251
 31
0.0
  0
LINE
  5
11FF
330
2
100
AcDbEntity
  8
0
100
AcDbLine
 10
123.7426827216296
 20
238.9917787813585
 30
0.0
 11
118.7617092311708
 21
239.4275574950967
 31
0.0
  0
LINE
  5
1200
330
2
100
AcDbEntity
  8
0
100
AcDbLine
 10
123.7731872315913
 20
239.3404469256906
 30
0.0
 11
118.7922137411327
 21
239.7762256394289
 31
0.0
  0
LINE
  5
1201
330
2
100
AcDbEntity
  8
0
100
AcDbLine
 10
123.803691741553
 20
239.6891150700227
 30
0.0
 11
118.8227182510944
 21
240.124893783761
 31
0.0
  0
LINE
  5
1202
330
2
100
AcDbEntity
  8
0
100
AcDbLine
 10
118.728833923085
 20
239.1292877606012
 30
0.0
 11
118.9031454085803
 21
241.1216771567846
 31
0.0
  0
LINE
  5
1203
330
2
100
AcDbEntity
  8
0
100
AcDbLine
 10
118.7355625083467
 20
250.2708879077811
 30
0.0
 11
118.909873993842
 21
248.2784985115976
 31
0.0
  0
LINE
  5
1204
330
2
100
AcDbEntity
  8
0
100
AcDbLine
 10
123.7731872315913
 20
250.0591400677597
 30
0.0
 11
118.7922137411327
 21
249.6233613540214
 31
0.0
  0
LINE
  5
1205
330
2
100
AcDbEntity
  8
0
100
AcDbLine
 10
123.8478189146402
 20
244.6997934967252
 30
0.0
 11
118.8478189146402
 21
244.6997934967252
 31
0.0
  0
LINE
  5
1206
330
2
100
AcDbEntity
  8
0
100
AcDbLine
 10
123.8478189146402
 20
244.3497934967252
 30
0.0
 11
118.8478189146402
 21
244.3497934967252
 31
0.0
  0
LINE
  5
1207
330
2
100
AcDbEntity
  8
0
100
AcDbLine
 10
123.8341962515147
 20
249.3618037790955
 30
0.0
 11
118.8532227610559
 21
248.9260250653572
 31
0.0
  0
LINE
  5
1208
330
2
100
AcDbEntity
  8
0
100
AcDbLine
 10
123.8815826083126
 20
249.0146126049809
 30
0.0
 11
118.8837272710176
 21
248.5773569210251
 31
0.0
  0
LINE
  5
1209
330
2
100
AcDbEntity
  8
0
100
AcDbLine
 10
123.803691741553
 20
249.7104719234276
 30
0.0
 11
118.8227182510944
 21
249.2746932096893
 31
0.0
  0
LINE
  5
120A
330
2
100
AcDbEntity
  8
0
100
AcDbLine
 10
123.8478189146402
 20
245.0497934967251
 30
0.0
 11
118.8478189146402
 21
245.0497934967251
 31
0.0
  0
LINE
  5
120B
330
2
100
AcDbEntity
  8
0
100
AcDbLine
 10
123.8478189146402
 20
245.3997934967251
 30
0.0
 11
118.8478189146402
 21
245.3997934967251
 31
0.0
  0
LINE
  5
120C
330
2
100
AcDbEntity
  8
0
100
AcDbLine
 10
123.8478189146402
 20
243.9997934967252
 30
0.0
 11
118.8478189146402
 21
243.9997934967252
 31
0.0
  0
LINE
  5
120D
330
2
100
AcDbEntity
  8
0
100
AcDbLine
 10
118.8478189146402
 20
243.6997934967252
 30
0.0
 11
118.8478189146402
 21
245.6997934967252
 31
0.0
  0
LINE
  5
120E
330
2
100
AcDbEntity
  8
0
100
AcDbLine
 10
120.6106722401954
 20
254.3349202116934
 30
0.0
 11
117.3106722401952
 21
254.3349202116934
 31
0.0
  0
LINE
  5
120F
330
2
100
AcDbEntity
  8
0
100
AcDbLine
 10
120.6106722401954
 20
256.3349202116934
 30
0.0
 11
117.3106722401952
 21
256.3349202116934
 31
0.0
  0
LINE
  5
1210
330
2
100
AcDbEntity
  8
0
100
AcDbLine
 10
120.6106722401954
 20
256.8349202116934
 30
0.0
 11
117.3106722401952
 21
256.8349202116934
 31
0.0
  0
LINE
  5
1211
330
2
100
AcDbEntity
  8
0
100
AcDbLine
 10
123.7426827216296
 20
250.4078082120918
 30
0.0
 11
118.7617092311708
 21
249.9720294983536
 31
0.0
  0
ARC
  5
1212
330
2
100
AcDbEntity
  8
0
100
AcDbCircle
 10
117.3106722401952
 20
256.4349202116935
 30
0.0
 40
0.1
100
AcDbArc
 50
180.0
 51
270.0
  0
LINE
  5
1213
330
2
100
AcDbEntity
  8
0
100
AcDbLine
 10
117.2106722401953
 20
254.2349202116934
 30
0.0
 11
117.2106722401953
 21
254.0849202116934
 31
0.0
  0
ARC
  5
1214
330
2
100
AcDbEntity
  8
0
100
AcDbCircle
 10
117.3106722401952
 20
254.2349202116934
 30
0.0
 40
0.1
100
AcDbArc
 50
90.0
 51
180.0
  0
LINE
  5
1215
330
2
100
AcDbEntity
  8
0
100
AcDbLine
 10
117.2106722401953
 20
256.5849202116934
 30
0.0
 11
117.2106722401953
 21
256.4349202116935
 31
0.0
  0
LINE
  5
1216
330
2
100
AcDbEntity
  8
0
100
AcDbLine
 10
117.2106722401953
 20
256.5849202116934
 30
0.0
 11
117.2106722401953
 21
256.7349202116934
 31
0.0
  0
ARC
  5
1217
330
2
100
AcDbEntity
  8
0
100
AcDbCircle
 10
117.3106722401952
 20
256.7349202116934
 30
0.0
 40
0.1
100
AcDbArc
 50
90.0
 51
180.0
  0
LINE
  5
1218
330
2
100
AcDbEntity
  8
0
100
AcDbLine
 10
123.2106722401953
 20
256.0349202116935
 30
0.0
 11
123.2106722401953
 21
254.6349202116935
 31
0.0
  0
ARC
  5
1219
330
2
100
AcDbEntity
  8
0
100
AcDbCircle
 10
123.1106722401954
 20
256.0349202116935
 30
0.0
 40
0.1
100
AcDbArc
 50
0.0
 51
90.0
  0
ARC
  5
121A
330
2
100
AcDbEntity
  8
0
100
AcDbCircle
 10
123.1106722401954
 20
254.6349202116935
 30
0.0
 40
0.1
100
AcDbArc
 50
270.0
 51
0.0
  0
ARC
  5
121B
330
2
100
AcDbEntity
  8
0
100
AcDbCircle
 10
123.1106722401954
 20
257.1349202116934
 30
0.0
 40
0.1
100
AcDbArc
 50
270.0
 51
0.0
  0
ARC
  5
121C
330
2
100
AcDbEntity
  8
0
100
AcDbCircle
 10
120.6106722401954
 20
256.2349202116934
 30
0.0
 40
0.1
100
AcDbArc
 50
0.0
 51
90.0
  0
LINE
  5
121D
330
2
100
AcDbEntity
  8
0
100
AcDbLine
 10
122.2106722401953
 20
256.5849202116934
 30
0.0
 11
122.2106722401953
 21
256.2349202116934
 31
0.0
  0
LINE
  5
121E
330
2
100
AcDbEntity
  8
0
100
AcDbLine
 10
120.7106722401953
 20
256.2349202116934
 30
0.0
 11
120.7106722401953
 21
254.4349202116935
 31
0.0
  0
ARC
  5
121F
330
2
100
AcDbEntity
  8
0
100
AcDbCircle
 10
120.6106722401954
 20
254.4349202116935
 30
0.0
 40
0.1
100
AcDbArc
 50
270.0
 51
0.0
  0
ARC
  5
1220
330
2
100
AcDbEntity
  8
0
100
AcDbCircle
 10
122.3106722401952
 20
256.2349202116934
 30
0.0
 40
0.1
100
AcDbArc
 50
180.0
 51
270.0
  0
ARC
  5
1221
330
2
100
AcDbEntity
  8
0
100
AcDbCircle
 10
122.3106722401952
 20
254.4349202116935
 30
0.0
 40
0.1
100
AcDbArc
 50
90.0
 51
180.0
  0
LINE
  5
1222
330
2
100
AcDbEntity
  8
0
100
AcDbLine
 10
122.2106722401953
 20
254.0849202116934
 30
0.0
 11
122.2106722401953
 21
254.4349202116935
 31
0.0
  0
ARC
  5
1223
330
2
100
AcDbEntity
  8
0
100
AcDbCircle
 10
120.6106722401954
 20
256.9349202116935
 30
0.0
 40
0.1
100
AcDbArc
 50
270.0
 51
0.0
  0
ARC
  5
1224
330
2
100
AcDbEntity
  8
0
100
AcDbCircle
 10
122.3106722401952
 20
256.9349202116935
 30
0.0
 40
0.1
100
AcDbArc
 50
90.0
 51
180.0
  0
LINE
  5
1225
330
2
100
AcDbEntity
  8
0
100
AcDbLine
 10
122.2106722401953
 20
256.5849202116934
 30
0.0
 11
122.2106722401953
 21
256.9349202116935
 31
0.0
  0
LINE
  5
1226
330
2
100
AcDbEntity
  8
0
100
AcDbLine
 10
123.1106722401954
 20
256.1349202116935
 30
0.0
 11
122.3106722401952
 21
256.1349202116935
 31
0.0
  0
LINE
  5
1227
330
2
100
AcDbEntity
  8
0
100
AcDbLine
 10
123.1106722401954
 20
254.5349202116935
 30
0.0
 11
122.3106722401952
 21
254.5349202116935
 31
0.0
  0
LINE
  5
1228
330
2
100
AcDbEntity
  8
0
100
AcDbLine
 10
123.1106722401954
 20
257.0349202116935
 30
0.0
 11
122.3106722401952
 21
257.0349202116935
 31
0.0
  0
LINE
  5
1229
330
2
100
AcDbEntity
  8
0
100
AcDbLine
 10
123.2106722401953
 20
264.6349202116934
 30
0.0
 11
123.2106722401953
 21
266.0349202116935
 31
0.0
  0
LINE
  5
122A
330
2
100
AcDbEntity
  8
0
100
AcDbLine
 10
120.7106722401953
 20
264.4349202116935
 30
0.0
 11
120.7106722401953
 21
266.2349202116934
 31
0.0
  0
LINE
  5
122B
330
2
100
AcDbEntity
  8
0
100
AcDbLine
 10
120.6106722401954
 20
263.8349202116935
 30
0.0
 11
117.3106722401952
 21
263.8349202116935
 31
0.0
  0
LINE
  5
122C
330
2
100
AcDbEntity
  8
0
100
AcDbLine
 10
120.6106722401954
 20
264.3349202116934
 30
0.0
 11
117.3106722401952
 21
264.3349202116934
 31
0.0
  0
LINE
  5
122D
330
2
100
AcDbEntity
  8
0
100
AcDbLine
 10
120.6106722401954
 20
261.3349202116935
 30
0.0
 11
117.3106722401952
 21
261.3349202116935
 31
0.0
  0
LINE
  5
122E
330
2
100
AcDbEntity
  8
0
100
AcDbLine
 10
120.6106722401954
 20
261.8349202116935
 30
0.0
 11
117.3106722401952
 21
261.8349202116935
 31
0.0
  0
LINE
  5
122F
330
2
100
AcDbEntity
  8
0
100
AcDbLine
 10
120.6106722401954
 20
258.8349202116934
 30
0.0
 11
117.3106722401952
 21
258.8349202116934
 31
0.0
  0
LINE
  5
1230
330
2
100
AcDbEntity
  8
0
100
AcDbLine
 10
120.6106722401954
 20
259.3349202116935
 30
0.0
 11
117.3106722401952
 21
259.3349202116935
 31
0.0
  0
LINE
  5
1231
330
2
100
AcDbEntity
  8
0
100
AcDbLine
 10
117.2106722401953
 20
264.0849202116934
 30
0.0
 11
117.2106722401953
 21
263.9349202116935
 31
0.0
  0
ARC
  5
1232
330
2
100
AcDbEntity
  8
0
100
AcDbCircle
 10
117.3106722401952
 20
264.2349202116934
 30
0.0
 40
0.1
100
AcDbArc
 50
90.0
 51
180.0
  0
LINE
  5
1233
330
2
100
AcDbEntity
  8
0
100
AcDbLine
 10
117.2106722401953
 20
264.0849202116934
 30
0.0
 11
117.2106722401953
 21
264.2349202116934
 31
0.0
  0
ARC
  5
1234
330
2
100
AcDbEntity
  8
0
100
AcDbCircle
 10
117.3106722401952
 20
263.9349202116935
 30
0.0
 40
0.1
100
AcDbArc
 50
180.0
 51
270.0
  0
LINE
  5
1235
330
2
100
AcDbEntity
  8
0
100
AcDbLine
 10
117.2106722401953
 20
261.7349202116934
 30
0.0
 11
117.2106722401953
 21
261.4349202116935
 31
0.0
  0
ARC
  5
1236
330
2
100
AcDbEntity
  8
0
100
AcDbCircle
 10
117.3106722401952
 20
261.4349202116935
 30
0.0
 40
0.1
100
AcDbArc
 50
180.0
 51
270.0
  0
ARC
  5
1237
330
2
100
AcDbEntity
  8
0
100
AcDbCircle
 10
117.3106722401952
 20
261.7349202116934
 30
0.0
 40
0.1
100
AcDbArc
 50
90.0
 51
180.0
  0
ARC
  5
1238
330
2
100
AcDbEntity
  8
0
100
AcDbCircle
 10
117.3106722401952
 20
258.9349202116935
 30
0.0
 40
0.1
100
AcDbArc
 50
180.0
 51
270.0
  0
LINE
  5
1239
330
2
100
AcDbEntity
  8
0
100
AcDbLine
 10
117.2106722401953
 20
258.9349202116935
 30
0.0
 11
117.2106722401953
 21
259.2349202116934
 31
0.0
  0
ARC
  5
123A
330
2
100
AcDbEntity
  8
0
100
AcDbCircle
 10
117.3106722401952
 20
259.2349202116934
 30
0.0
 40
0.1
100
AcDbArc
 50
90.0
 51
180.0
  0
ARC
  5
123B
330
2
100
AcDbEntity
  8
0
100
AcDbCircle
 10
123.1106722401954
 20
264.6349202116934
 30
0.0
 40
0.1
100
AcDbArc
 50
270.0
 51
0.0
  0
ARC
  5
123C
330
2
100
AcDbEntity
  8
0
100
AcDbCircle
 10
123.1106722401954
 20
263.5349202116935
 30
0.0
 40
0.1
100
AcDbArc
 50
0.0
 51
90.0
  0
ARC
  5
123D
330
2
100
AcDbEntity
  8
0
100
AcDbCircle
 10
120.6106722401954
 20
264.4349202116935
 30
0.0
 40
0.1
100
AcDbArc
 50
270.0
 51
0.0
  0
ARC
  5
123E
330
2
100
AcDbEntity
  8
0
100
AcDbCircle
 10
120.6106722401954
 20
263.7349202116934
 30
0.0
 40
0.1
100
AcDbArc
 50
0.0
 51
90.0
  0
LINE
  5
123F
330
2
100
AcDbEntity
  8
0
100
AcDbLine
 10
122.2106722401953
 20
264.0849202116934
 30
0.0
 11
122.2106722401953
 21
263.7349202116934
 31
0.0
  0
ARC
  5
1240
330
2
100
AcDbEntity
  8
0
100
AcDbCircle
 10
122.3106722401952
 20
264.4349202116935
 30
0.0
 40
0.1
100
AcDbArc
 50
90.0
 51
180.0
  0
LINE
  5
1241
330
2
100
AcDbEntity
  8
0
100
AcDbLine
 10
122.2106722401953
 20
264.0849202116934
 30
0.0
 11
122.2106722401953
 21
264.4349202116935
 31
0.0
  0
ARC
  5
1242
330
2
100
AcDbEntity
  8
0
100
AcDbCircle
 10
122.3106722401952
 20
263.7349202116934
 30
0.0
 40
0.1
100
AcDbArc
 50
180.0
 51
270.0
  0
LINE
  5
1243
330
2
100
AcDbEntity
  8
0
100
AcDbLine
 10
123.1106722401954
 20
264.5349202116935
 30
0.0
 11
122.3106722401952
 21
264.5349202116935
 31
0.0
  0
LINE
  5
1244
330
2
100
AcDbEntity
  8
0
100
AcDbLine
 10
123.1106722401954
 20
263.6349202116935
 30
0.0
 11
122.3106722401952
 21
263.6349202116935
 31
0.0
  0
ARC
  5
1245
330
2
100
AcDbEntity
  8
0
100
AcDbCircle
 10
123.1106722401954
 20
262.1349202116935
 30
0.0
 40
0.1
100
AcDbArc
 50
270.0
 51
0.0
  0
LINE
  5
1246
330
2
100
AcDbEntity
  8
0
100
AcDbLine
 10
123.2106722401953
 20
260.3349202116934
 30
0.0
 11
123.2106722401953
 21
259.6349202116934
 31
0.0
  0
LINE
  5
1247
330
2
100
AcDbEntity
  8
0
100
AcDbLine
 10
123.2106722401953
 20
260.3349202116934
 30
0.0
 11
123.2106722401953
 21
261.0349202116935
 31
0.0
  0
ARC
  5
1248
330
2
100
AcDbEntity
  8
0
100
AcDbCircle
 10
123.1106722401954
 20
258.5349202116935
 30
0.0
 40
0.1
100
AcDbArc
 50
0.0
 51
90.0
  0
ARC
  5
1249
330
2
100
AcDbEntity
  8
0
100
AcDbCircle
 10
123.1106722401954
 20
259.6349202116934
 30
0.0
 40
0.1
100
AcDbArc
 50
270.0
 51
0.0
  0
ARC
  5
124A
330
2
100
AcDbEntity
  8
0
100
AcDbCircle
 10
123.1106722401954
 20
261.0349202116935
 30
0.0
 40
0.1
100
AcDbArc
 50
0.0
 51
90.0
  0
ARC
  5
124B
330
2
100
AcDbEntity
  8
0
100
AcDbCircle
 10
120.6106722401954
 20
261.2349202116934
 30
0.0
 40
0.1
100
AcDbArc
 50
0.0
 51
90.0
  0
ARC
  5
124C
330
2
100
AcDbEntity
  8
0
100
AcDbCircle
 10
120.6106722401954
 20
261.9349202116935
 30
0.0
 40
0.1
100
AcDbArc
 50
270.0
 51
0.0
  0
LINE
  5
124D
330
2
100
AcDbEntity
  8
0
100
AcDbLine
 10
120.7106722401953
 20
259.4349202116934
 30
0.0
 11
120.7106722401953
 21
260.3349202116934
 31
0.0
  0
ARC
  5
124E
330
2
100
AcDbEntity
  8
0
100
AcDbCircle
 10
120.6106722401954
 20
258.7349202116934
 30
0.0
 40
0.1
100
AcDbArc
 50
0.0
 51
90.0
  0
ARC
  5
124F
330
2
100
AcDbEntity
  8
0
100
AcDbCircle
 10
120.6106722401954
 20
259.4349202116934
 30
0.0
 40
0.1
100
AcDbArc
 50
270.0
 51
0.0
  0
LINE
  5
1250
330
2
100
AcDbEntity
  8
0
100
AcDbLine
 10
120.7106722401953
 20
261.2349202116934
 30
0.0
 11
120.7106722401953
 21
260.3349202116934
 31
0.0
  0
LINE
  5
1251
330
2
100
AcDbEntity
  8
0
100
AcDbLine
 10
122.2106722401953
 20
261.5849202116935
 30
0.0
 11
122.2106722401953
 21
261.2349202116934
 31
0.0
  0
ARC
  5
1252
330
2
100
AcDbEntity
  8
0
100
AcDbCircle
 10
122.3106722401952
 20
261.2349202116934
 30
0.0
 40
0.1
100
AcDbArc
 50
180.0
 51
270.0
  0
ARC
  5
1253
330
2
100
AcDbEntity
  8
0
100
AcDbCircle
 10
122.3106722401952
 20
261.9349202116935
 30
0.0
 40
0.1
100
AcDbArc
 50
90.0
 51
180.0
  0
LINE
  5
1254
330
2
100
AcDbEntity
  8
0
100
AcDbLine
 10
122.2106722401953
 20
261.5849202116935
 30
0.0
 11
122.2106722401953
 21
261.9349202116935
 31
0.0
  0
LINE
  5
1255
330
2
100
AcDbEntity
  8
0
100
AcDbLine
 10
122.2106722401953
 20
259.0849202116934
 30
0.0
 11
122.2106722401953
 21
259.4349202116934
 31
0.0
  0
ARC
  5
1256
330
2
100
AcDbEntity
  8
0
100
AcDbCircle
 10
122.3106722401952
 20
259.4349202116934
 30
0.0
 40
0.1
100
AcDbArc
 50
90.0
 51
180.0
  0
LINE
  5
1257
330
2
100
AcDbEntity
  8
0
100
AcDbLine
 10
122.2106722401953
 20
259.0849202116934
 30
0.0
 11
122.2106722401953
 21
258.7349202116934
 31
0.0
  0
ARC
  5
1258
330
2
100
AcDbEntity
  8
0
100
AcDbCircle
 10
122.3106722401952
 20
258.7349202116934
 30
0.0
 40
0.1
100
AcDbArc
 50
180.0
 51
270.0
  0
LINE
  5
1259
330
2
100
AcDbEntity
  8
0
100
AcDbLine
 10
123.1106722401954
 20
261.1349202116935
 30
0.0
 11
122.3106722401952
 21
261.1349202116935
 31
0.0
  0
LINE
  5
125A
330
2
100
AcDbEntity
  8
0
100
AcDbLine
 10
123.1106722401954
 20
262.0349202116935
 30
0.0
 11
122.3106722401952
 21
262.0349202116935
 31
0.0
  0
LINE
  5
125B
330
2
100
AcDbEntity
  8
0
100
AcDbLine
 10
123.1106722401954
 20
259.5349202116935
 30
0.0
 11
122.3106722401952
 21
259.5349202116935
 31
0.0
  0
LINE
  5
125C
330
2
100
AcDbEntity
  8
0
100
AcDbLine
 10
123.1106722401954
 20
258.6349202116935
 30
0.0
 11
122.3106722401952
 21
258.6349202116935
 31
0.0
  0
LINE
  5
125D
330
2
100
AcDbEntity
  8
0
100
AcDbLine
 10
120.7106722401953
 20
263.7349202116934
 30
0.0
 11
120.7106722401953
 21
261.9349202116935
 31
0.0
  0
LINE
  5
125E
330
2
100
AcDbEntity
  8
0
100
AcDbLine
 10
123.2106722401953
 20
263.5349202116935
 30
0.0
 11
123.2106722401953
 21
262.1349202116935
 31
0.0
  0
LINE
  5
125F
330
2
100
AcDbEntity
  8
0
100
AcDbLine
 10
120.6106722401954
 20
266.3349202116934
 30
0.0
 11
117.3106722401952
 21
266.3349202116934
 31
0.0
  0
ARC
  5
1260
330
2
100
AcDbEntity
  8
0
100
AcDbCircle
 10
117.3106722401952
 20
266.4349202116935
 30
0.0
 40
0.1
100
AcDbArc
 50
180.0
 51
270.0
  0
LINE
  5
1261
330
2
100
AcDbEntity
  8
0
100
AcDbLine
 10
117.2106722401953
 20
266.4349202116935
 30
0.0
 11
117.2106722401953
 21
266.5849202116934
 31
0.0
  0
ARC
  5
1262
330
2
100
AcDbEntity
  8
0
100
AcDbCircle
 10
123.1106722401954
 20
266.0349202116935
 30
0.0
 40
0.1
100
AcDbArc
 50
0.0
 51
90.0
  0
ARC
  5
1263
330
2
100
AcDbEntity
  8
0
100
AcDbCircle
 10
120.6106722401954
 20
266.2349202116934
 30
0.0
 40
0.1
100
AcDbArc
 50
0.0
 51
90.0
  0
LINE
  5
1264
330
2
100
AcDbEntity
  8
0
100
AcDbLine
 10
122.2106722401953
 20
266.5849202116934
 30
0.0
 11
122.2106722401953
 21
266.2349202116934
 31
0.0
  0
ARC
  5
1265
330
2
100
AcDbEntity
  8
0
100
AcDbCircle
 10
122.3106722401952
 20
266.2349202116934
 30
0.0
 40
0.1
100
AcDbArc
 50
180.0
 51
270.0
  0
LINE
  5
1266
330
2
100
AcDbEntity
  8
0
100
AcDbLine
 10
123.1106722401954
 20
266.1349202116935
 30
0.0
 11
122.3106722401952
 21
266.1349202116935
 31
0.0
  0
LINE
  5
1267
330
2
100
AcDbEntity
  8
0
100
AcDbLine
 10
42.6514499195058
 20
379.3762067250692
 30
0.0
 11
42.6514499195058
 21
380.8392057250692
 31
0.0
  0
ARC
  5
1268
330
2
100
AcDbEntity
  8
0
100
AcDbCircle
 10
43.75342991950572
 20
380.8392057250692
 30
0.0
 40
1.102084999999999
100
AcDbArc
 50
180.0
 51
209.3200990000072
  0
LINE
  5
1269
330
2
100
AcDbEntity
  8
0
100
AcDbLine
 10
43.78324991950591
 20
380.8293847250691
 30
0.0
 11
93.47505091950585
 21
380.3956057250692
 31
0.0
  0
LINE
  5
126A
330
2
100
AcDbEntity
  8
0
100
AcDbLine
 10
51.35143191950589
 20
362.2710917421357
 30
0.0
 11
93.47523391950574
 21
361.9034467250692
 31
0.0
  0
LINE
  5
126B
330
2
100
AcDbEntity
  8
0
100
AcDbLine
 10
94.65583291950578
 20
359.1897437250691
 30
0.0
 11
51.90598354654264
 21
359.5628499498642
 31
0.0
  0
LINE
  5
126C
330
2
100
AcDbEntity
  8
0
100
AcDbLine
 10
52.16888405852694
 20
360.6796672942901
 30
0.0
 11
94.65583291950578
 21
361.0504467250691
 31
0.0
  0
LINE
  5
126D
330
2
100
AcDbEntity
  8
0
100
AcDbLine
 10
95.1514539195058
 20
355.8695457250692
 30
0.0
 11
44.63402891950579
 21
356.3103647250692
 31
0.0
  0
LINE
  5
126E
330
2
100
AcDbEntity
  8
0
100
AcDbLine
 10
44.6689289195059
 20
357.1218457250691
 30
0.0
 11
95.1514539195058
 21
357.5624477250692
 31
0.0
  0
LINE
  5
126F
330
2
100
AcDbEntity
  8
0
100
AcDbLine
 10
48.15148891950582
 20
359.0738227052925
 30
0.0
 11
93.47523391950574
 21
358.6782467250692
 31
0.0
  0
LINE
  5
1270
330
2
100
AcDbEntity
  8
0
100
AcDbLine
 10
94.1600479195057
 20
377.4692237250692
 30
0.0
 11
44.6514499195058
 21
377.9012267250692
 31
0.0
  0
LINE
  5
1271
330
2
100
AcDbEntity
  8
0
100
AcDbLine
 10
44.6514499195058
 20
379.3641657250692
 30
0.0
 11
94.1600479195057
 21
379.7961857250692
 31
0.0
  0
LINE
  5
1272
330
2
100
AcDbEntity
  8
0
100
AcDbLine
 10
43.78336891950573
 20
373.4939467250691
 30
0.0
 11
93.47523391950574
 21
373.0603647250692
 31
0.0
  0
LINE
  5
1273
330
2
100
AcDbEntity
  8
0
100
AcDbLine
 10
51.35143191950612
 20
367.2007970266333
 30
0.0
 11
93.47523391950574
 21
366.8331647250691
 31
0.0
  0
LINE
  5
1274
330
2
100
AcDbEntity
  8
0
100
AcDbLine
 10
94.1602319195057
 20
364.0533647250691
 30
0.0
 11
52.50075268029366
 21
364.4168573276132
 31
0.0
  0
LINE
  5
1275
330
2
100
AcDbEntity
  8
0
100
AcDbLine
 10
52.54211576407022
 20
365.6617170232066
 30
0.0
 11
94.1602319195057
 21
366.0249647250691
 31
0.0
  0
LINE
  5
1276
330
2
100
AcDbEntity
  8
0
100
AcDbLine
 10
94.1602319195057
 20
370.3081447250691
 30
0.0
 11
44.65148891950582
 21
370.7401477250691
 31
0.0
  0
LINE
  5
1277
330
2
100
AcDbEntity
  8
0
100
AcDbLine
 10
44.65148891950582
 20
371.9068647250692
 30
0.0
 11
94.1602319195057
 21
372.3389677250692
 31
0.0
  0
LINE
  5
1278
330
2
100
AcDbEntity
  8
0
100
AcDbLine
 10
95.1514539195058
 20
354.1975447250691
 30
0.0
 11
44.63402891950579
 21
354.6384437250691
 31
0.0
  0
ARC
  5
1279
330
2
100
AcDbEntity
  8
0
100
AcDbCircle
 10
52.52143091950632
 20
366.7867671171249
 30
0.0
 40
2.37
100
AcDbArc
 50
180.0
 51
269.5000882417261
  0
LINE
  5
127A
330
2
100
AcDbEntity
  8
0
100
AcDbLine
 10
46.15148891950582
 20
370.1343987244933
 30
0.0
 11
46.15148891950582
 21
357.4785110075648
 31
0.0
  0
LINE
  5
127B
330
2
100
AcDbEntity
  8
0
100
AcDbLine
 10
43.65148891950582
 20
349.4279974844174
 30
0.0
 11
43.65148891950582
 21
364.9534612188173
 31
0.0
  0
ARC
  5
127C
330
2
100
AcDbEntity
  8
0
100
AcDbCircle
 10
44.65148891950582
 20
358.3102467250692
 30
0.0
 40
2.0
100
AcDbArc
 50
239.9999999999994
 51
269.4999999999954
  0
ARC
  5
127D
330
2
100
AcDbEntity
  8
0
100
AcDbCircle
 10
44.65148891950582
 20
356.6383447250691
 30
0.0
 40
2.0
100
AcDbArc
 50
239.9999999999994
 51
269.4999999999954
  0
LINE
  5
127E
330
2
100
AcDbEntity
  8
0
100
AcDbLine
 10
43.65148891950582
 20
357.4785110075649
 30
0.0
 11
46.15148891950582
 21
357.4785110075648
 31
0.0
  0
ARC
  5
127F
330
2
100
AcDbEntity
  8
0
100
AcDbCircle
 10
44.65148891950582
 20
359.1218457250691
 30
0.0
 40
2.0
100
AcDbArc
 50
239.9999999999994
 51
270.5000000000045
  0
ARC
  5
1280
330
2
100
AcDbEntity
  8
0
100
AcDbCircle
 10
51.92143091950573
 20
361.3327825414249
 30
0.0
 40
1.77
100
AcDbArc
 50
180.0
 51
269.4999545134775
  0
LINE
  5
1281
330
2
100
AcDbEntity
  8
0
100
AcDbLine
 10
50.15143091950597
 20
362.6795911398247
 30
0.0
 11
50.15143091950574
 21
361.3327825414249
 31
0.0
  0
ARC
  5
1282
330
2
100
AcDbEntity
  8
0
100
AcDbCircle
 10
52.15143091950597
 20
362.6795911398247
 30
0.0
 40
2.0
100
AcDbArc
 50
180.0
 51
270.5000019488311
  0
ARC
  5
1283
330
2
100
AcDbEntity
  8
0
100
AcDbCircle
 10
44.28169091950588
 20
373.6826637250691
 30
0.0
 40
1.673817999999999
100
AcDbArc
 50
207.4174040000028
 51
231.392395000001
  0
LINE
  5
1284
330
2
100
AcDbEntity
  8
0
100
AcDbLine
 10
42.65148891950582
 20
372.3372467250691
 30
0.0
 11
42.65148891950582
 21
373.5038657250691
 31
0.0
  0
LINE
  5
1285
330
2
100
AcDbEntity
  8
0
100
AcDbLine
 10
39.15148891950582
 20
376.9760979865555
 30
0.0
 11
39.15148891950582
 21
368.3320643981581
 31
0.0
  0
ARC
  5
1286
330
2
100
AcDbEntity
  8
0
100
AcDbCircle
 10
44.50556891950589
 20
373.9629447250691
 30
0.0
 40
2.032614
100
AcDbArc
 50
231.392395000001
 51
251.6983030000062
  0
ARC
  5
1287
330
2
100
AcDbEntity
  8
0
100
AcDbCircle
 10
44.50556891950589
 20
372.7963457250691
 30
0.0
 40
2.032614
100
AcDbArc
 50
231.392395000001
 51
251.6983030000062
  0
LINE
  5
1288
330
2
100
AcDbEntity
  8
0
100
AcDbLine
 10
39.15148891950582
 20
370.1343987244933
 30
0.0
 11
46.15148891950582
 21
370.1343987244933
 31
0.0
  0
ARC
  5
1289
330
2
100
AcDbEntity
  8
0
100
AcDbCircle
 10
43.93715091950582
 20
372.3372467250691
 30
0.0
 40
1.285679
100
AcDbArc
 50
180.0
 51
207.4174040000028
  0
ARC
  5
128A
330
2
100
AcDbEntity
  8
0
100
AcDbCircle
 10
44.28169091950588
 20
372.5159467250691
 30
0.0
 40
1.673817999999999
100
AcDbArc
 50
207.4174040000028
 51
231.392395000001
  0
ARC
  5
128B
330
2
100
AcDbEntity
  8
0
100
AcDbCircle
 10
44.65148891950582
 20
374.4040457250692
 30
0.0
 40
2.497222
100
AcDbArc
 50
251.6983030000062
 51
270.0
  0
ARC
  5
128C
330
2
100
AcDbEntity
  8
0
100
AcDbCircle
 10
44.65148891950582
 20
373.2374467250691
 30
0.0
 40
2.497222
100
AcDbArc
 50
251.6983030000062
 51
270.0
  0
ARC
  5
128D
330
2
100
AcDbEntity
  8
0
100
AcDbCircle
 10
44.46724991950566
 20
380.0010057250691
 30
0.0
 40
2.072293999999999
100
AcDbArc
 50
233.5906980000074
 51
253.0127030000071
  0
ARC
  5
128E
330
2
100
AcDbEntity
  8
0
100
AcDbCircle
 10
44.46724991950566
 20
381.4640267250691
 30
0.0
 40
2.072293999999999
100
AcDbArc
 50
233.5906980000074
 51
253.0127030000071
  0
ARC
  5
128F
330
2
100
AcDbEntity
  8
0
100
AcDbCircle
 10
43.75342991950572
 20
379.3762067250692
 30
0.0
 40
1.102084999999999
100
AcDbArc
 50
180.0
 51
209.3200990000072
  0
ARC
  5
1290
330
2
100
AcDbEntity
  8
0
100
AcDbCircle
 10
44.18522891950567
 20
379.6188057250691
 30
0.0
 40
1.597306999999999
100
AcDbArc
 50
209.3200990000072
 51
233.5906980000074
  0
ARC
  5
1291
330
2
100
AcDbEntity
  8
0
100
AcDbCircle
 10
44.18522891950567
 20
381.0815857250691
 30
0.0
 40
1.597306999999999
100
AcDbArc
 50
209.3200990000072
 51
233.5906980000074
  0
ARC
  5
1292
330
2
100
AcDbEntity
  8
0
100
AcDbCircle
 10
43.93715091950582
 20
373.5038657250691
 30
0.0
 40
1.285679
100
AcDbArc
 50
180.0
 51
207.4174040000028
  0
ARC
  5
1293
330
2
100
AcDbEntity
  8
0
100
AcDbCircle
 10
44.6514499195058
 20
380.6040447250692
 30
0.0
 40
2.702782
100
AcDbArc
 50
253.0127030000071
 51
270.0
  0
ARC
  5
1294
330
2
100
AcDbEntity
  8
0
100
AcDbCircle
 10
44.6514499195058
 20
382.0670457250692
 30
0.0
 40
2.702782
100
AcDbArc
 50
253.0127030000071
 51
270.0
  0
LINE
  5
1295
330
2
100
AcDbEntity
  8
0
100
AcDbLine
 10
50.15143091950597
 20
366.7867671171249
 30
0.0
 11
50.15143091950597
 21
368.0316267550752
 31
0.0
  0
ARC
  5
1296
330
2
100
AcDbEntity
  8
0
100
AcDbCircle
 10
52.52143091950609
 20
368.0316267550752
 30
0.0
 40
2.37
100
AcDbArc
 50
180.0
 51
270.5000714515918
  0
LINE
  5
1297
330
2
100
AcDbEntity
  8
0
100
AcDbLine
 10
105.1514499195058
 20
352.7268457250692
 30
0.0
 11
96.14293191950572
 21
352.8035437250691
 31
0.0
  0
ARC
  5
1298
330
2
100
AcDbEntity
  8
0
100
AcDbCircle
 10
96.1514539195058
 20
353.8034447250692
 30
0.0
 40
1.0
100
AcDbArc
 50
180.0
 51
269.5122069999976
  0
ARC
  5
1299
330
2
100
AcDbEntity
  8
0
100
AcDbCircle
 10
94.15145391950579
 20
363.0533647250691
 30
0.0
 40
1.0
100
AcDbArc
 50
0.0
 51
89.49999999999542
  0
ARC
  5
129A
330
2
100
AcDbEntity
  8
0
100
AcDbCircle
 10
94.6514539195058
 20
361.5504467250691
 30
0.0
 40
0.5
100
AcDbArc
 50
270.5000000000045
 51
0.0
  0
ARC
  5
129B
330
2
100
AcDbEntity
  8
0
100
AcDbCircle
 10
94.6514539195058
 20
358.6897437250692
 30
0.0
 40
0.5
100
AcDbArc
 50
0.0
 51
89.49999999999542
  0
ARC
  5
129C
330
2
100
AcDbEntity
  8
0
100
AcDbCircle
 10
94.15145391950579
 20
373.3388457250691
 30
0.0
 40
1.0
100
AcDbArc
 50
270.5000000000045
 51
0.0
  0
ARC
  5
129D
330
2
100
AcDbEntity
  8
0
100
AcDbCircle
 10
94.15145391950579
 20
367.0248457250692
 30
0.0
 40
1.0
100
AcDbArc
 50
270.5000000000045
 51
0.0
  0
ARC
  5
129E
330
2
100
AcDbEntity
  8
0
100
AcDbCircle
 10
94.15145391950579
 20
369.3081447250691
 30
0.0
 40
1.0
100
AcDbArc
 50
0.0
 51
89.49999999999542
  0
ARC
  5
129F
330
2
100
AcDbEntity
  8
0
100
AcDbCircle
 10
94.15144991950581
 20
380.7961857250692
 30
0.0
 40
1.0
100
AcDbArc
 50
270.4999999999915
 51
0.0
  0
ARC
  5
12A0
330
2
100
AcDbEntity
  8
0
100
AcDbCircle
 10
94.15144991950581
 20
376.4692237250692
 30
0.0
 40
1.0
100
AcDbArc
 50
0.0
 51
89.49999999999542
  0
LINE
  5
12A1
330
2
100
AcDbEntity
  8
0
100
AcDbLine
 10
43.78324991950591
 20
422.0472797250692
 30
0.0
 11
93.47505091950585
 21
422.4811177250692
 31
0.0
  0
LINE
  5
12A2
330
2
100
AcDbEntity
  8
0
100
AcDbLine
 10
44.6514499195058
 20
423.1788717250691
 30
0.0
 11
94.1600479195057
 21
422.7468657250691
 31
0.0
  0
LINE
  5
12A3
330
2
100
AcDbEntity
  8
0
100
AcDbLine
 10
94.1600479195057
 20
425.4940577250692
 30
0.0
 11
44.6514499195058
 21
425.0618677250692
 31
0.0
  0
LINE
  5
12A4
330
2
100
AcDbEntity
  8
0
100
AcDbLine
 10
43.78324991950591
 20
430.9037257250691
 30
0.0
 11
93.47505091950585
 21
431.3373247250691
 31
0.0
  0
LINE
  5
12A5
330
2
100
AcDbEntity
  8
0
100
AcDbLine
 10
43.78324991950591
 20
439.1243067250692
 30
0.0
 11
93.47505091950585
 21
439.5580857250691
 31
0.0
  0
LINE
  5
12A6
330
2
100
AcDbEntity
  8
0
100
AcDbLine
 10
44.6514499195058
 20
432.2152457250691
 30
0.0
 11
94.1600479195057
 21
431.7832457250691
 31
0.0
  0
LINE
  5
12A7
330
2
100
AcDbEntity
  8
0
100
AcDbLine
 10
94.1600479195057
 20
434.3599057250692
 30
0.0
 11
44.6514499195058
 21
433.9276457250693
 31
0.0
  0
LINE
  5
12A8
330
2
100
AcDbEntity
  8
0
100
AcDbLine
 10
44.6514499195058
 20
440.5895257250691
 30
0.0
 11
94.1600479195057
 21
440.1575057250692
 31
0.0
  0
LINE
  5
12A9
330
2
100
AcDbEntity
  8
0
100
AcDbLine
 10
94.1601791817087
 20
415.8420565681932
 30
0.0
 11
44.6514499195058
 21
415.4098654223274
 31
0.0
  0
LINE
  5
12AA
330
2
100
AcDbEntity
  8
0
100
AcDbLine
 10
94.1600479195057
 20
442.4844677250692
 30
0.0
 11
44.6514499195058
 21
442.0524647250691
 31
0.0
  0
LINE
  5
12AB
330
2
100
AcDbEntity
  8
0
100
AcDbLine
 10
94.1600479195057
 20
394.4596337250692
 30
0.0
 11
44.6514499195058
 21
394.8918237250692
 31
0.0
  0
LINE
  5
12AC
330
2
100
AcDbEntity
  8
0
100
AcDbLine
 10
44.6514499195058
 20
396.7748197250692
 30
0.0
 11
94.1600479195057
 21
397.2068257250692
 31
0.0
  0
LINE
  5
12AD
330
2
100
AcDbEntity
  8
0
100
AcDbLine
 10
43.78324991950591
 20
397.9064117250692
 30
0.0
 11
93.47505091950585
 21
397.4725737250691
 31
0.0
  0
LINE
  5
12AE
330
2
100
AcDbEntity
  8
0
100
AcDbLine
 10
94.1600479195057
 20
385.5937857250692
 30
0.0
 11
44.6514499195058
 21
386.0260457250691
 31
0.0
  0
LINE
  5
12AF
330
2
100
AcDbEntity
  8
0
100
AcDbLine
 10
44.6514499195058
 20
387.7384457250692
 30
0.0
 11
94.1600479195057
 21
388.1704457250692
 31
0.0
  0
LINE
  5
12B0
330
2
100
AcDbEntity
  8
0
100
AcDbLine
 10
43.78324991950591
 20
389.0499657250692
 30
0.0
 11
93.47505091950585
 21
388.6163667250692
 31
0.0
  0
LINE
  5
12B1
330
2
100
AcDbEntity
  8
0
100
AcDbLine
 10
94.16017918170849
 20
404.1116348819452
 30
0.0
 11
44.6514499195058
 21
404.543826027811
 31
0.0
  0
LINE
  5
12B2
330
2
100
AcDbEntity
  8
0
100
AcDbLine
 10
95.15144991950581
 20
414.0844611756182
 30
0.0
 11
42.6514499195058
 21
413.6261574482534
 31
0.0
  0
LINE
  5
12B3
330
2
100
AcDbEntity
  8
0
100
AcDbLine
 10
95.15144991950581
 20
405.8692302745201
 30
0.0
 11
42.6514499195058
 21
406.3275340018849
 31
0.0
  0
LINE
  5
12B4
330
2
100
AcDbEntity
  8
0
100
AcDbLine
 10
41.35146991950557
 20
414.7268457250691
 30
0.0
 11
41.35146991950557
 21
405.2268457250692
 31
0.0
  0
LINE
  5
12B5
330
2
100
AcDbEntity
  8
0
100
AcDbLine
 10
42.6514499195058
 20
404.4819413977121
 30
0.0
 11
42.6514499195058
 21
415.4768457250692
 31
0.0
  0
ARC
  5
12B6
330
2
100
AcDbEntity
  8
0
100
AcDbCircle
 10
44.6514499195058
 20
400.2676177250692
 30
0.0
 40
3.492887999999999
100
AcDbArc
 50
256.6994019999928
 51
270.0
  0
LINE
  5
12B7
330
2
100
AcDbEntity
  8
0
100
AcDbLine
 10
42.6514499195058
 20
396.0332417250691
 30
0.0
 11
42.6514499195058
 21
397.9161777250691
 31
0.0
  0
LINE
  5
12B8
330
2
100
AcDbEntity
  8
0
100
AcDbLine
 10
42.6514499195058
 20
387.3475657250692
 30
0.0
 11
42.6514499195058
 21
389.0599657250692
 31
0.0
  0
ARC
  5
12B9
330
2
100
AcDbEntity
  8
0
100
AcDbCircle
 10
43.5440489195056
 20
389.0599657250692
 30
0.0
 40
0.8926999999999999
100
AcDbArc
 50
180.0
 51
212.0805969999942
  0
ARC
  5
12BA
330
2
100
AcDbEntity
  8
0
100
AcDbCircle
 10
44.42305091950572
 20
388.2074457250692
 30
0.0
 40
2.150825999999999
100
AcDbArc
 50
236.5428999999958
 51
254.6921010000019
  0
ARC
  5
12BB
330
2
100
AcDbEntity
  8
0
100
AcDbCircle
 10
44.42305091950572
 20
389.9198467250691
 30
0.0
 40
2.150825999999999
100
AcDbArc
 50
236.5428999999958
 51
254.6921010000019
  0
ARC
  5
12BC
330
2
100
AcDbEntity
  8
0
100
AcDbCircle
 10
44.07444991950558
 20
387.6798447250692
 30
0.0
 40
1.518545999999999
100
AcDbArc
 50
212.0805969999942
 51
236.5428999999958
  0
ARC
  5
12BD
330
2
100
AcDbEntity
  8
0
100
AcDbCircle
 10
43.5440489195056
 20
387.3475657250692
 30
0.0
 40
0.8926999999999999
100
AcDbArc
 50
180.0
 51
212.0805969999942
  0
ARC
  5
12BE
330
2
100
AcDbEntity
  8
0
100
AcDbCircle
 10
44.07444991950558
 20
389.3923657250692
 30
0.0
 40
1.518545999999999
100
AcDbArc
 50
212.0805969999942
 51
236.5428999999958
  0
ARC
  5
12BF
330
2
100
AcDbEntity
  8
0
100
AcDbCircle
 10
44.6514499195058
 20
389.0420257250692
 30
0.0
 40
3.016093999999999
100
AcDbArc
 50
254.6921010000019
 51
270.0
  0
ARC
  5
12C0
330
2
100
AcDbEntity
  8
0
100
AcDbCircle
 10
44.6514499195058
 20
390.7544337250691
 30
0.0
 40
3.016093999999999
100
AcDbArc
 50
254.6921010000019
 51
270.0
  0
ARC
  5
12C1
330
2
100
AcDbEntity
  8
0
100
AcDbCircle
 10
44.37685091950595
 20
397.2228177250691
 30
0.0
 40
2.298955999999999
100
AcDbArc
 50
240.2855990000028
 51
256.6994019999928
  0
ARC
  5
12C2
330
2
100
AcDbEntity
  8
0
100
AcDbCircle
 10
43.3286289195056
 20
396.0332417250691
 30
0.0
 40
0.6772650000000001
100
AcDbArc
 50
180.0
 51
215.9710999999995
  0
ARC
  5
12C3
330
2
100
AcDbEntity
  8
0
100
AcDbCircle
 10
43.95884991950595
 20
396.4906397250691
 30
0.0
 40
1.455952
100
AcDbArc
 50
215.9710999999995
 51
240.2855990000028
  0
ARC
  5
12C4
330
2
100
AcDbEntity
  8
0
100
AcDbCircle
 10
44.6514499195058
 20
398.3846217250692
 30
0.0
 40
3.492887999999999
100
AcDbArc
 50
256.6994019999928
 51
270.0
  0
ARC
  5
12C5
330
2
100
AcDbEntity
  8
0
100
AcDbCircle
 10
44.37685091950595
 20
399.1058137250691
 30
0.0
 40
2.298955999999999
100
AcDbArc
 50
240.2855990000028
 51
256.6994019999928
  0
ARC
  5
12C6
330
2
100
AcDbEntity
  8
0
100
AcDbCircle
 10
43.95884991950595
 20
398.3735737250691
 30
0.0
 40
1.455952
100
AcDbArc
 50
215.9710999999995
 51
240.2855990000028
  0
ARC
  5
12C7
330
2
100
AcDbEntity
  8
0
100
AcDbCircle
 10
43.3286289195056
 20
397.9161777250691
 30
0.0
 40
0.6772650000000001
100
AcDbArc
 50
180.0
 51
215.9710999999995
  0
LINE
  5
12C8
330
2
100
AcDbEntity
  8
0
100
AcDbLine
 10
42.6514499195058
 20
405.1692277250691
 30
0.0
 11
42.6514499195058
 21
407.1388337250692
 31
0.0
  0
LINE
  5
12C9
330
2
100
AcDbEntity
  8
0
100
AcDbLine
 10
41.35146991950557
 20
405.3768057250692
 30
0.0
 11
42.6514499195058
 21
405.3768057250692
 31
0.0
  0
LINE
  5
12CA
330
2
100
AcDbEntity
  8
0
100
AcDbLine
 10
41.35146991950557
 20
405.2268457250692
 30
0.0
 11
39.74064891950581
 21
405.2268457250692
 31
0.0
  0
LINE
  5
12CB
330
2
100
AcDbEntity
  8
0
100
AcDbLine
 10
41.35146991950557
 20
414.5766257250691
 30
0.0
 11
42.6514499195058
 21
414.5766257250691
 31
0.0
  0
LINE
  5
12CC
330
2
100
AcDbEntity
  8
0
100
AcDbLine
 10
41.35146991950557
 20
414.7268457250691
 30
0.0
 11
39.74064891950581
 21
414.7268457250691
 31
0.0
  0
ARC
  5
12CD
330
2
100
AcDbEntity
  8
0
100
AcDbCircle
 10
44.37685091950595
 20
420.8478777250692
 30
0.0
 40
2.298955999999999
100
AcDbArc
 50
103.3005980000071
 51
119.7144009999971
  0
ARC
  5
12CE
330
2
100
AcDbEntity
  8
0
100
AcDbCircle
 10
44.37685091950595
 20
422.7308737250693
 30
0.0
 40
2.298955999999999
100
AcDbArc
 50
103.3005980000071
 51
119.7144009999971
  0
ARC
  5
12CF
330
2
100
AcDbEntity
  8
0
100
AcDbCircle
 10
43.95884991950595
 20
423.4630517250692
 30
0.0
 40
1.455952
100
AcDbArc
 50
119.7144009999971
 51
144.0289000000004
  0
ARC
  5
12D0
330
2
100
AcDbEntity
  8
0
100
AcDbCircle
 10
43.3286289195056
 20
423.9204497250693
 30
0.0
 40
0.6772650000000001
100
AcDbArc
 50
144.0289000000004
 51
180.0
  0
ARC
  5
12D1
330
2
100
AcDbEntity
  8
0
100
AcDbCircle
 10
43.3286289195056
 20
422.0375137250693
 30
0.0
 40
0.6772650000000001
100
AcDbArc
 50
144.0289000000004
 51
180.0
  0
ARC
  5
12D2
330
2
100
AcDbEntity
  8
0
100
AcDbCircle
 10
43.95884991950595
 20
421.5801177250693
 30
0.0
 40
1.455952
100
AcDbArc
 50
119.7144009999971
 51
144.0289000000004
  0
LINE
  5
12D3
330
2
100
AcDbEntity
  8
0
100
AcDbLine
 10
42.6514499195058
 20
423.9204497250693
 30
0.0
 11
42.6514499195058
 21
422.0375137250693
 31
0.0
  0
ARC
  5
12D4
330
2
100
AcDbEntity
  8
0
100
AcDbCircle
 10
44.6514499195058
 20
419.6860737250691
 30
0.0
 40
3.492887999999999
100
AcDbArc
 50
90.0
 51
103.3005980000071
  0
ARC
  5
12D5
330
2
100
AcDbEntity
  8
0
100
AcDbCircle
 10
44.6514499195058
 20
421.5690697250692
 30
0.0
 40
3.492887999999999
100
AcDbArc
 50
90.0
 51
103.3005980000071
  0
ARC
  5
12D6
330
2
100
AcDbEntity
  8
0
100
AcDbCircle
 10
44.42305091950572
 20
430.0338447250692
 30
0.0
 40
2.150825999999999
100
AcDbArc
 50
105.307898999998
 51
123.4570999999879
  0
ARC
  5
12D7
330
2
100
AcDbEntity
  8
0
100
AcDbCircle
 10
44.42305091950572
 20
431.7462457250692
 30
0.0
 40
2.150825999999999
100
AcDbArc
 50
105.307898999998
 51
123.4570999999879
  0
LINE
  5
12D8
330
2
100
AcDbEntity
  8
0
100
AcDbLine
 10
42.6514499195058
 20
432.6061257250692
 30
0.0
 11
42.6514499195058
 21
430.8937257250692
 31
0.0
  0
ARC
  5
12D9
330
2
100
AcDbEntity
  8
0
100
AcDbCircle
 10
44.07444991950558
 20
430.5613257250691
 30
0.0
 40
1.518545999999999
100
AcDbArc
 50
123.4570999999879
 51
147.9194030000057
  0
ARC
  5
12DA
330
2
100
AcDbEntity
  8
0
100
AcDbCircle
 10
43.5440489195056
 20
430.8937257250692
 30
0.0
 40
0.8926999999999999
100
AcDbArc
 50
147.9194030000057
 51
180.0
  0
ARC
  5
12DB
330
2
100
AcDbEntity
  8
0
100
AcDbCircle
 10
44.07444991950558
 20
432.2738467250692
 30
0.0
 40
1.518545999999999
100
AcDbArc
 50
123.4570999999879
 51
147.9194030000057
  0
ARC
  5
12DC
330
2
100
AcDbEntity
  8
0
100
AcDbCircle
 10
43.5440489195056
 20
432.6061257250692
 30
0.0
 40
0.8926999999999999
100
AcDbArc
 50
147.9194030000057
 51
180.0
  0
ARC
  5
12DD
330
2
100
AcDbEntity
  8
0
100
AcDbCircle
 10
44.6514499195058
 20
429.1992577250693
 30
0.0
 40
3.016093999999999
100
AcDbArc
 50
90.0
 51
105.307898999998
  0
ARC
  5
12DE
330
2
100
AcDbEntity
  8
0
100
AcDbCircle
 10
44.6514499195058
 20
430.9116657250691
 30
0.0
 40
3.016093999999999
100
AcDbArc
 50
90.0
 51
105.307898999998
  0
ARC
  5
12DF
330
2
100
AcDbEntity
  8
0
100
AcDbCircle
 10
44.46724991950566
 20
439.9526857250692
 30
0.0
 40
2.072293999999999
100
AcDbArc
 50
106.9872969999928
 51
126.4093019999925
  0
ARC
  5
12E0
330
2
100
AcDbEntity
  8
0
100
AcDbCircle
 10
44.46724991950566
 20
438.4896647250692
 30
0.0
 40
2.072293999999999
100
AcDbArc
 50
106.9872969999928
 51
126.4093019999925
  0
ARC
  5
12E1
330
2
100
AcDbEntity
  8
0
100
AcDbCircle
 10
44.18522891950567
 20
440.3348857250692
 30
0.0
 40
1.597306999999999
100
AcDbArc
 50
126.4093019999925
 51
150.6799009999927
  0
ARC
  5
12E2
330
2
100
AcDbEntity
  8
0
100
AcDbCircle
 10
43.75342991950572
 20
440.5774847250691
 30
0.0
 40
1.102084999999999
100
AcDbArc
 50
150.6799009999927
 51
180.0
  0
ARC
  5
12E3
330
2
100
AcDbEntity
  8
0
100
AcDbCircle
 10
44.18522891950567
 20
438.8721057250692
 30
0.0
 40
1.597306999999999
100
AcDbArc
 50
126.4093019999925
 51
150.6799009999927
  0
LINE
  5
12E4
330
2
100
AcDbEntity
  8
0
100
AcDbLine
 10
42.6514499195058
 20
440.5774847250691
 30
0.0
 11
42.6514499195058
 21
439.1144857250691
 31
0.0
  0
ARC
  5
12E5
330
2
100
AcDbEntity
  8
0
100
AcDbCircle
 10
43.75342991950572
 20
439.1144857250691
 30
0.0
 40
1.102084999999999
100
AcDbArc
 50
150.6799009999927
 51
180.0
  0
ARC
  5
12E6
330
2
100
AcDbEntity
  8
0
100
AcDbCircle
 10
44.6514499195058
 20
437.8866457250692
 30
0.0
 40
2.702782
100
AcDbArc
 50
90.0
 51
106.9872969999928
  0
ARC
  5
12E7
330
2
100
AcDbEntity
  8
0
100
AcDbCircle
 10
44.6514499195058
 20
439.3496467250692
 30
0.0
 40
2.702782
100
AcDbArc
 50
90.0
 51
106.9872969999928
  0
ARC
  5
12E8
330
2
100
AcDbEntity
  8
0
100
AcDbCircle
 10
94.15144991950581
 20
389.1704457250692
 30
0.0
 40
1.0
100
AcDbArc
 50
270.4999999999915
 51
0.0
  0
ARC
  5
12E9
330
2
100
AcDbEntity
  8
0
100
AcDbCircle
 10
94.15144991950581
 20
384.5937857250692
 30
0.0
 40
1.0
100
AcDbArc
 50
0.0
 51
89.49999999999542
  0
ARC
  5
12EA
330
2
100
AcDbEntity
  8
0
100
AcDbCircle
 10
94.15144991950581
 20
393.4598167250692
 30
0.0
 40
1.0
100
AcDbArc
 50
0.0
 51
89.49999999999542
  0
ARC
  5
12EB
330
2
100
AcDbEntity
  8
0
100
AcDbCircle
 10
94.15144991950581
 20
398.2068257250692
 30
0.0
 40
1.0
100
AcDbArc
 50
270.4999999999915
 51
0.0
  0
ARC
  5
12EC
330
2
100
AcDbEntity
  8
0
100
AcDbCircle
 10
94.15144991950581
 20
426.4938747250692
 30
0.0
 40
1.0
100
AcDbArc
 50
270.4999999999915
 51
0.0
  0
ARC
  5
12ED
330
2
100
AcDbEntity
  8
0
100
AcDbCircle
 10
94.15144991950581
 20
421.7468657250691
 30
0.0
 40
1.0
100
AcDbArc
 50
0.0
 51
89.49999999999542
  0
ARC
  5
12EE
330
2
100
AcDbEntity
  8
0
100
AcDbCircle
 10
94.15144991950581
 20
430.7832457250691
 30
0.0
 40
1.0
100
AcDbArc
 50
0.0
 51
89.49999999999542
  0
ARC
  5
12EF
330
2
100
AcDbEntity
  8
0
100
AcDbCircle
 10
94.15144991950581
 20
435.3599057250692
 30
0.0
 40
1.0
100
AcDbArc
 50
270.4999999999915
 51
0.0
  0
ARC
  5
12F0
330
2
100
AcDbEntity
  8
0
100
AcDbCircle
 10
94.15144991950581
 20
439.1575057250691
 30
0.0
 40
1.0
100
AcDbArc
 50
0.0
 51
89.49999999999542
  0
ARC
  5
12F1
330
2
100
AcDbEntity
  8
0
100
AcDbCircle
 10
94.15144991950581
 20
443.4844677250691
 30
0.0
 40
1.0
100
AcDbArc
 50
270.4999999999915
 51
0.0
  0
ARC
  5
12F2
330
2
100
AcDbEntity
  8
0
100
AcDbCircle
 10
39.6514499195058
 20
460.8566067250693
 30
0.0
 40
2.0
100
AcDbArc
 50
90.0
 51
180.0
  0
LINE
  5
12F3
330
2
100
AcDbEntity
  8
0
100
AcDbLine
 10
37.65144991950581
 20
451.4768457250692
 30
0.0
 11
37.1514499195058
 21
451.1434637250691
 31
0.0
  0
LINE
  5
12F4
330
2
100
AcDbEntity
  8
0
100
AcDbLine
 10
37.65166291950583
 20
451.4770247250693
 30
0.0
 11
36.15166291950584
 21
450.4770247250692
 31
0.0
  0
LINE
  5
12F6
330
2
100
AcDbEntity
  8
0
100
AcDbLine
 10
44.66885091950587
 20
462.8317037250691
 30
0.0
 11
95.15144991950581
 21
462.3912667250691
 31
0.0
  0
LINE
  5
12F7
330
2
100
AcDbEntity
  8
0
100
AcDbLine
 10
95.15144991950581
 20
464.0840277250691
 30
0.0
 11
44.63404891950574
 21
463.6432277250691
 31
0.0
  0
LINE
  5
12F8
330
2
100
AcDbEntity
  8
0
100
AcDbLine
 10
94.65566891950572
 20
460.7638257250691
 30
0.0
 11
44.6514499195058
 21
460.3276877250692
 31
0.0
  0
LINE
  5
12F9
330
2
100
AcDbEntity
  8
0
100
AcDbLine
 10
43.78324991950591
 20
460.8417067250692
 30
0.0
 11
93.47505091950585
 21
461.2753037250691
 31
0.0
  0
LINE
  5
12FA
330
2
100
AcDbEntity
  8
0
100
AcDbLine
 10
44.65148891950582
 20
448.0468267250691
 30
0.0
 11
94.1602319195057
 21
447.6147237250692
 31
0.0
  0
LINE
  5
12FB
330
2
100
AcDbEntity
  8
0
100
AcDbLine
 10
94.1602319195057
 20
449.6455467250692
 30
0.0
 11
44.65148891950582
 21
449.2135437250692
 31
0.0
  0
LINE
  5
12FC
330
2
100
AcDbEntity
  8
0
100
AcDbLine
 10
43.78336891950573
 20
446.4597447250692
 30
0.0
 11
93.47523391950574
 21
446.8933267250691
 31
0.0
  0
LINE
  5
12FD
330
2
100
AcDbEntity
  8
0
100
AcDbLine
 10
95.1514539195058
 20
465.7561467250692
 30
0.0
 11
44.63402891950579
 21
465.3152477250692
 31
0.0
  0
LINE
  5
12FE
330
2
100
AcDbEntity
  8
0
100
AcDbLine
 10
44.65148891950582
 20
454.3608447250693
 30
0.0
 11
94.1602319195057
 21
453.9287267250691
 31
0.0
  0
LINE
  5
12FF
330
2
100
AcDbEntity
  8
0
100
AcDbLine
 10
94.1602319195057
 20
455.9003267250692
 30
0.0
 11
44.65148891950582
 21
455.4683467250692
 31
0.0
  0
LINE
  5
1300
330
2
100
AcDbEntity
  8
0
100
AcDbLine
 10
44.65148891950582
 20
459.3396277250693
 30
0.0
 11
94.65583291950578
 21
458.9032447250692
 31
0.0
  0
LINE
  5
1301
330
2
100
AcDbEntity
  8
0
100
AcDbLine
 10
43.78336891950573
 20
457.6165477250691
 30
0.0
 11
93.47523391950574
 21
458.050244725069
 31
0.0
  0
LINE
  5
1302
330
2
100
AcDbEntity
  8
0
100
AcDbLine
 10
43.78336891950573
 20
452.6868447250693
 30
0.0
 11
93.47523391950574
 21
453.1205267250692
 31
0.0
  0
LINE
  5
1303
330
2
100
AcDbEntity
  8
0
100
AcDbLine
 10
42.65148891950582
 20
457.6101181925448
 30
0.0
 11
42.65148891950582
 21
463.3153467250694
 31
0.0
  0
ARC
  5
1304
330
2
100
AcDbEntity
  8
0
100
AcDbCircle
 10
44.50556891950589
 20
447.1573457250692
 30
0.0
 40
2.032614
100
AcDbArc
 50
108.3016969999937
 51
128.6076049999989
  0
ARC
  5
1305
330
2
100
AcDbEntity
  8
0
100
AcDbCircle
 10
44.50556891950589
 20
445.9907467250692
 30
0.0
 40
2.032614
100
AcDbArc
 50
108.3016969999937
 51
128.6076049999989
  0
LINE
  5
1306
330
2
100
AcDbEntity
  8
0
100
AcDbLine
 10
42.65148891950582
 20
447.6164447250693
 30
0.0
 11
42.65148891950582
 21
446.4498257250692
 31
0.0
  0
ARC
  5
1307
330
2
100
AcDbEntity
  8
0
100
AcDbCircle
 10
43.93715091950582
 20
447.6164447250693
 30
0.0
 40
1.285679
100
AcDbArc
 50
152.5825959999971
 51
180.0
  0
ARC
  5
1308
330
2
100
AcDbEntity
  8
0
100
AcDbCircle
 10
43.93715091950582
 20
446.4498257250692
 30
0.0
 40
1.285679
100
AcDbArc
 50
152.5825959999971
 51
180.0
  0
ARC
  5
1309
330
2
100
AcDbEntity
  8
0
100
AcDbCircle
 10
44.28169091950588
 20
446.2710277250693
 30
0.0
 40
1.673817999999999
100
AcDbArc
 50
128.6076049999989
 51
152.5825959999971
  0
ARC
  5
130A
330
2
100
AcDbEntity
  8
0
100
AcDbCircle
 10
44.28169091950588
 20
447.4377447250692
 30
0.0
 40
1.673817999999999
100
AcDbArc
 50
128.6076049999989
 51
152.5825959999971
  0
ARC
  5
130B
330
2
100
AcDbEntity
  8
0
100
AcDbCircle
 10
44.65148891950582
 20
446.7162447250692
 30
0.0
 40
2.497222
100
AcDbArc
 50
90.0
 51
108.3016969999937
  0
ARC
  5
130C
330
2
100
AcDbEntity
  8
0
100
AcDbCircle
 10
44.65148891950582
 20
445.5496457250692
 30
0.0
 40
2.497222
100
AcDbArc
 50
90.0
 51
108.3016969999937
  0
ARC
  5
130D
330
2
100
AcDbEntity
  8
0
100
AcDbCircle
 10
44.55144991950589
 20
458.3031477250691
 30
0.0
 40
2.006931999999999
100
AcDbArc
 50
109.7432020000003
 51
130.9078980000093
  0
ARC
  5
130E
330
2
100
AcDbEntity
  8
0
100
AcDbCircle
 10
44.53452891950576
 20
453.4343267250691
 30
0.0
 40
2.014202
100
AcDbArc
 50
109.2256930000027
 51
130.0950930000028
  0
ARC
  5
130F
330
2
100
AcDbEntity
  8
0
100
AcDbCircle
 10
44.53452891950576
 20
452.3268437250693
 30
0.0
 40
2.014202
100
AcDbArc
 50
109.2256930000027
 51
130.0950930000028
  0
ARC
  5
1310
330
2
100
AcDbEntity
  8
0
100
AcDbCircle
 10
44.55148891950591
 20
457.3152477250693
 30
0.0
 40
2.006931999999999
100
AcDbArc
 50
109.7431949999974
 51
130.9078980000093
  0
LINE
  5
1311
330
2
100
AcDbEntity
  8
0
100
AcDbLine
 10
42.6514499195058
 20
458.5945257250692
 30
0.0
 11
42.6514499195058
 21
457.6067247250692
 31
0.0
  0
ARC
  5
1312
330
2
100
AcDbEntity
  8
0
100
AcDbCircle
 10
44.15944891950573
 20
458.5945257250692
 30
0.0
 40
1.508124
100
AcDbArc
 50
154.4499970000047
 51
180.0
  0
ARC
  5
1313
330
2
100
AcDbEntity
  8
0
100
AcDbCircle
 10
44.3974499195059
 20
458.4808667250691
 30
0.0
 40
1.771906
100
AcDbArc
 50
130.9078980000093
 51
154.4499970000047
  0
ARC
  5
1314
330
2
100
AcDbEntity
  8
0
100
AcDbCircle
 10
44.0771089195058
 20
453.784443725069
 30
0.0
 40
1.425637
100
AcDbArc
 50
153.8036960000015
 51
180.0
  0
ARC
  5
1315
330
2
100
AcDbEntity
  8
0
100
AcDbCircle
 10
44.35470891950569
 20
453.6479467250691
 30
0.0
 40
1.735008
100
AcDbArc
 50
130.0950930000028
 51
153.8036960000015
  0
ARC
  5
1316
330
2
100
AcDbEntity
  8
0
100
AcDbCircle
 10
44.35470891950569
 20
452.5403447250693
 30
0.0
 40
1.735008
100
AcDbArc
 50
130.0950930000028
 51
153.8036960000015
  0
ARC
  5
1317
330
2
100
AcDbEntity
  8
0
100
AcDbCircle
 10
44.15960891950578
 20
457.6066447250692
 30
0.0
 40
1.508124
100
AcDbArc
 50
154.4499970000017
 51
180.0
  0
ARC
  5
1318
330
2
100
AcDbEntity
  8
0
100
AcDbCircle
 10
44.39758891950589
 20
457.4929477250692
 30
0.0
 40
1.771906
100
AcDbArc
 50
130.9078980000093
 51
154.4499970000017
  0
ARC
  5
1319
330
2
100
AcDbEntity
  8
0
100
AcDbCircle
 10
44.0771089195058
 20
452.6769267250691
 30
0.0
 40
1.425637
100
AcDbArc
 50
153.8036960000015
 51
180.0
  0
LINE
  5
131A
330
2
100
AcDbEntity
  8
0
100
AcDbLine
 10
42.65148891950582
 20
453.784443725069
 30
0.0
 11
42.65148891950582
 21
452.6769267250691
 31
0.0
  0
ARC
  5
131B
330
2
100
AcDbEntity
  8
0
100
AcDbCircle
 10
44.65148891950582
 20
453.0989467250691
 30
0.0
 40
2.369364
100
AcDbArc
 50
90.0
 51
109.2256930000027
  0
ARC
  5
131C
330
2
100
AcDbEntity
  8
0
100
AcDbCircle
 10
44.65148891950582
 20
451.9914447250693
 30
0.0
 40
2.369364
100
AcDbArc
 50
90.0
 51
109.2256930000027
  0
ARC
  5
131D
330
2
100
AcDbEntity
  8
0
100
AcDbCircle
 10
44.65148891950582
 20
457.0367437250691
 30
0.0
 40
2.302912
100
AcDbArc
 50
90.0
 51
109.7431949999974
  0
ARC
  5
131E
330
2
100
AcDbEntity
  8
0
100
AcDbCircle
 10
44.6514499195058
 20
458.0247047250692
 30
0.0
 40
2.302912
100
AcDbArc
 50
90.0
 51
109.7432020000003
  0
ARC
  5
131F
330
2
100
AcDbEntity
  8
0
100
AcDbCircle
 10
44.6514499195058
 20
461.6434637250692
 30
0.0
 40
2.0
100
AcDbArc
 50
90.49999999999155
 51
180.0
  0
ARC
  5
1320
330
2
100
AcDbEntity
  8
0
100
AcDbCircle
 10
44.6514499195058
 20
460.8318257250693
 30
0.0
 40
2.0
100
AcDbArc
 50
89.49999999999542
 51
180.0
  0
ARC
  5
1321
330
2
100
AcDbEntity
  8
0
100
AcDbCircle
 10
44.65148891950582
 20
463.3153467250694
 30
0.0
 40
2.0
100
AcDbArc
 50
90.50000000000457
 51
180.0
  0
LINE
  5
1322
330
2
100
AcDbEntity
  8
0
100
AcDbLine
 10
42.6514499195058
 20
461.6434637250692
 30
0.0
 11
42.6514499195058
 21
460.8318257250693
 31
0.0
  0
LINE
  5
1323
330
2
100
AcDbEntity
  8
0
100
AcDbLine
 10
42.65148891950582
 20
461.6434447250693
 30
0.0
 11
42.65148891950582
 21
460.8318457250692
 31
0.0
  0
LINE
  5
1324
330
2
100
AcDbEntity
  8
0
100
AcDbLine
 10
39.6514499195058
 20
462.8566067250694
 30
0.0
 11
40.79187091950586
 21
462.8566067250694
 31
0.0
  0
LINE
  5
1325
330
2
100
AcDbEntity
  8
0
100
AcDbLine
 10
39.6514499195058
 20
462.8566067250694
 30
0.0
 11
42.6514499195058
 21
462.8566067250694
 31
0.0
  0
LINE
  5
1326
330
2
100
AcDbEntity
  8
0
100
AcDbLine
 10
105.1514499195058
 20
467.2268457250692
 30
0.0
 11
96.14293191950572
 21
467.1501477250693
 31
0.0
  0
ARC
  5
1327
330
2
100
AcDbEntity
  8
0
100
AcDbCircle
 10
94.15145391950579
 20
450.6455467250693
 30
0.0
 40
1.0
100
AcDbArc
 50
270.5000000000045
 51
0.0
  0
ARC
  5
1328
330
2
100
AcDbEntity
  8
0
100
AcDbCircle
 10
94.15145391950579
 20
446.6148457250692
 30
0.0
 40
1.0
100
AcDbArc
 50
0.0
 51
89.49999999999542
  0
ARC
  5
1329
330
2
100
AcDbEntity
  8
0
100
AcDbCircle
 10
94.15145391950579
 20
456.9003267250692
 30
0.0
 40
1.0
100
AcDbArc
 50
270.5000000000045
 51
0.0
  0
ARC
  5
132A
330
2
100
AcDbEntity
  8
0
100
AcDbCircle
 10
94.15145391950579
 20
452.9288457250692
 30
0.0
 40
1.0
100
AcDbArc
 50
0.0
 51
89.49999999999542
  0
ARC
  5
132B
330
2
100
AcDbEntity
  8
0
100
AcDbCircle
 10
94.6514539195058
 20
458.4032447250691
 30
0.0
 40
0.5
100
AcDbArc
 50
0.0
 51
89.49999999999542
  0
ARC
  5
132C
330
2
100
AcDbEntity
  8
0
100
AcDbCircle
 10
94.6514499195058
 20
461.2638257250692
 30
0.0
 40
0.5
100
AcDbArc
 50
270.4999999999915
 51
0.0
  0
ARC
  5
132D
330
2
100
AcDbEntity
  8
0
100
AcDbCircle
 10
96.1514539195058
 20
466.1502467250691
 30
0.0
 40
1.0
100
AcDbArc
 50
90.48779300000241
 51
180.0
  0
ENDSEC
  0
SECTION
  2
OBJECTS
  0
DICTIONARY
  5
7
330
0
100
AcDbDictionary
  3
ACAD_GROUP
350
75
  3
ACAD_LAYOUT
350
61
  3
ACAD_MLINESTYLE
350
76
  3
ACAD_PLOTSETTINGS
350
77
  3
ACAD_PLOTSTYLENAME
350
6
  3
ACADDIM
350
480
  3
ACDBHEADERROUNDTRIPXREC
350
1D33
  3
ACDBVARIABLEDICTIONARY
350
102
  3
DWGPROPS
350
3D2
  0
DICTIONARY
  5
1D54
330
2
100
AcDbDictionary
280
     1
  3
ACAD_LAYOUTSELFREF
360
1D55
  0
DICTIONARY
  5
1D56
330
1D2D
100
AcDbDictionary
280
     1
  3
ACAD_LAYOUTSELFREF
360
1D57
  0
DICTIONARY
  5
75
102
{ACAD_REACTORS
330
7
102
}
330
7
100
AcDbDictionary
  0
DICTIONARY
  5
61
102
{ACAD_REACTORS
330
7
102
}
330
7
100
AcDbDictionary
  0
DICTIONARY
  5
76
102
{ACAD_REACTORS
330
7
102
}
330
7
100
AcDbDictionary
  3
STANDARD
350
78
  0
DICTIONARY
  5
77
102
{ACAD_REACTORS
330
7
102
}
330
7
100
AcDbDictionary
  0
ACDBDICTIONARYWDFLT
  5
6
102
{ACAD_REACTORS
330
7
102
}
330
7
100
AcDbDictionary
281
     1
  3
Normal
350
5
100
AcDbDictionaryWithDefault
340
5
  0
XRECORD
  5
480
102
{ACAD_REACTORS
330
7
102
}
330
7
100
AcDbXrecord
 90
   990106
  3

 60
     0
 61
     0
 62
     1
 63
     3
 64
     1
 65
     0
 66
     0
 67
     3
 68
     1
 69
     0
 70
     0
 71
     0
 72
     0
 40
0.0
170
     2
340
0
  0
DICTIONARY
  5
1D33
102
{ACAD_REACTORS
330
7
102
}
330
7
100
AcDbDictionary
  3
CEPSNTYPE
350
1D3D
  3
DIMSTYLEDATA
350
1D41
  3
FINGERPRINTGUID
350
1D3E
  3
HYPERLINKBASE
350
1D36
  3
INSUNITS
350
1D3C
  3
LAYOUTDICT
350
1D38
  3
LWETCUNION
350
1D3B
  3
PLOTSETDICT
350
1D39
  3
PLOTSTYLNAMDICT
350
1D3A
  3
PSVPSCALE
350
1D40
  3
PUCSBASE
350
1D44
  3
PUCSORGBACK
350
1D4A
  3
PUCSORGBOTTOM
350
1D46
  3
PUCSORGFRONT
350
1D49
  3
PUCSORGLEFT
350
1D47
  3
PUCSORGRIGHT
350
1D48
  3
PUCSORGTOP
350
1D45
  3
PUCSORTHOREF
350
1D42
  3
PUCSORTHOVIEW
350
1D43
  3
STYLESHEET
350
1D37
  3
TSTACKALIGN
350
1D34
  3
TSTACKSIZE
350
1D35
  3
UCSBASE
350
1D4D
  3
UCSORGBACK
350
1D53
  3
UCSORGBOTTOM
350
1D4F
  3
UCSORGFRONT
350
1D52
  3
UCSORGLEFT
350
1D50
  3
UCSORGRIGHT
350
1D51
  3
UCSORGTOP
350
1D4E
  3
UCSORTHOREF
350
1D4B
  3
UCSORTHOVIEW
350
1D4C
  3
VERSIONGUID
350
1D3F
  0
DICTIONARY
  5
102
102
{ACAD_REACTORS
330
7
102
}
330
7
100
AcDbDictionary
  3
DIMASSOC
350
103
  0
XRECORD
  5
3D2
102
{ACAD_REACTORS
330
7
102
}
330
7
100
AcDbXrecord
  1
DWGPROPS COOKIE
  2

  3

  4

  6

  7

  8

  9

300
=
301
=
302
=
303
=
304
=
305
=
306
=
307
=
308
=
309
=
 40
0.5353330671296296
 41
2452052.431989363
 42
2453406.550756377
  1

 90
        0
  0
XRECORD
  5
1D55
102
{ACAD_REACTORS
330
1D54
102
}
330
1D54
100
AcDbXrecord
340
2
  0
XRECORD
  5
1D57
102
{ACAD_REACTORS
330
1D56
102
}
330
1D56
100
AcDbXrecord
340
1D2D
  0
MLINESTYLE
  5
78
102
{ACAD_REACTORS
330
76
102
}
330
76
100
AcDbMlineStyle
  2
STANDARD
 70
     0
  3

 62
     0
 51
90.0
 52
90.0
 71
     2
 49
0.5
 62
   256
  6
BYLAYER
 49
-0.5
 62
   256
  6
BYLAYER
  0
ACDBPLACEHOLDER
  5
5
102
{ACAD_REACTORS
330
6
102
}
330
6
100
AcDbPlaceHolder
280
     0
  0
XRECORD
  5
1D3D
102
{ACAD_REACTORS
330
1D33
102
}
330
1D33
100
AcDbXrecord
 90
        0
  0
XRECORD
  5
1D41
102
{ACAD_REACTORS
330
1D33
102
}
330
1D33
100
AcDbXrecord
1000
DSTYLE
1002
{
1070
   179
 70
     2
1070
   277
 70
     6
1002
}
  0
XRECORD
  5
1D3E
102
{ACAD_REACTORS
330
1D33
102
}
330
1D33
100
AcDbXrecord
  1
{6385560B-F4B1-4644-A7C2-A3E32AC3D232}
  0
XRECORD
  5
1D36
102
{ACAD_REACTORS
330
1D33
102
}
330
1D33
100
AcDbXrecord
  1

  0
XRECORD
  5
1D3C
102
{ACAD_REACTORS
330
1D33
102
}
330
1D33
100
AcDbXrecord
 90
        0
  0
XRECORD
  5
1D38
102
{ACAD_REACTORS
330
1D33
102
}
330
1D33
100
AcDbXrecord
340
61
  0
XRECORD
  5
1D3B
102
{ACAD_REACTORS
330
1D33
102
}
330
1D33
100
AcDbXrecord
 90
    10781
  0
XRECORD
  5
1D39
102
{ACAD_REACTORS
330
1D33
102
}
330
1D33
100
AcDbXrecord
340
77
  0
XRECORD
  5
1D3A
102
{ACAD_REACTORS
330
1D33
102
}
330
1D33
100
AcDbXrecord
340
6
  0
XRECORD
  5
1D40
102
{ACAD_REACTORS
330
1D33
102
}
330
1D33
100
AcDbXrecord
 40
0.0
  0
XRECORD
  5
1D44
102
{ACAD_REACTORS
330
1D33
102
}
330
1D33
100
AcDbXrecord
340
0
  0
XRECORD
  5
1D4A
102
{ACAD_REACTORS
330
1D33
102
}
330
1D33
100
AcDbXrecord
 10
0.0
 20
0.0
 30
0.0
  0
XRECORD
  5
1D46
102
{ACAD_REACTORS
330
1D33
102
}
330
1D33
100
AcDbXrecord
 10
0.0
 20
0.0
 30
0.0
  0
XRECORD
  5
1D49
102
{ACAD_REACTORS
330
1D33
102
}
330
1D33
100
AcDbXrecord
 10
0.0
 20
0.0
 30
0.0
  0
XRECORD
  5
1D47
102
{ACAD_REACTORS
330
1D33
102
}
330
1D33
100
AcDbXrecord
 10
0.0
 20
0.0
 30
0.0
  0
XRECORD
  5
1D48
102
{ACAD_REACTORS
330
1D33
102
}
330
1D33
100
AcDbXrecord
 10
0.0
 20
0.0
 30
0.0
  0
XRECORD
  5
1D45
102
{ACAD_REACTORS
330
1D33
102
}
330
1D33
100
AcDbXrecord
 10
0.0
 20
0.0
 30
0.0
  0
XRECORD
  5
1D42
102
{ACAD_REACTORS
330
1D33
102
}
330
1D33
100
AcDbXrecord
340
0
  0
XRECORD
  5
1D43
102
{ACAD_REACTORS
330
1D33
102
}
330
1D33
100
AcDbXrecord
 70
     0
  0
XRECORD
  5
1D37
102
{ACAD_REACTORS
330
1D33
102
}
330
1D33
100
AcDbXrecord
  1
Sekkei.ctb
  0
XRECORD
  5
1D34
102
{ACAD_REACTORS
330
1D33
102
}
330
1D33
100
AcDbXrecord
 90
        1
  0
XRECORD
  5
1D35
102
{ACAD_REACTORS
330
1D33
102
}
330
1D33
100
AcDbXrecord
 90
       70
  0
XRECORD
  5
1D4D
102
{ACAD_REACTORS
330
1D33
102
}
330
1D33
100
AcDbXrecord
340
0
  0
XRECORD
  5
1D53
102
{ACAD_REACTORS
330
1D33
102
}
330
1D33
100
AcDbXrecord
 10
0.0
 20
0.0
 30
0.0
  0
XRECORD
  5
1D4F
102
{ACAD_REACTORS
330
1D33
102
}
330
1D33
100
AcDbXrecord
 10
0.0
 20
0.0
 30
0.0
  0
XRECORD
  5
1D52
102
{ACAD_REACTORS
330
1D33
102
}
330
1D33
100
AcDbXrecord
 10
0.0
 20
0.0
 30
0.0
  0
XRECORD
  5
1D50
102
{ACAD_REACTORS
330
1D33
102
}
330
1D33
100
AcDbXrecord
 10
0.0
 20
0.0
 30
0.0
  0
XRECORD
  5
1D51
102
{ACAD_REACTORS
330
1D33
102
}
330
1D33
100
AcDbXrecord
 10
0.0
 20
0.0
 30
0.0
  0
XRECORD
  5
1D4E
102
{ACAD_REACTORS
330
1D33
102
}
330
1D33
100
AcDbXrecord
 10
0.0
 20
0.0
 30
0.0
  0
XRECORD
  5
1D4B
102
{ACAD_REACTORS
330
1D33
102
}
330
1D33
100
AcDbXrecord
340
0
  0
XRECORD
  5
1D4C
102
{ACAD_REACTORS
330
1D33
102
}
330
1D33
100
AcDbXrecord
 70
     0
  0
XRECORD
  5
1D3F
102
{ACAD_REACTORS
330
1D33
102
}
330
1D33
100
AcDbXrecord
  1
{159B7D8D-3347-42D7-B9D7-8EA1A04B7D99}
  0
DICTIONARYVAR
  5
103
102
{ACAD_REACTORS
330
102
102
}
330
102
100
DictionaryVariables
280
     0
  1
1
  0
ENDSEC
  0
EOF
