  0
SECTION
  2
HEADER
  9
$ACADVER
  1
AC1014
  9
$ACADMAINTVER
 70
     9
  9
$DWGCODEPAGE
  3
ANSI_932
  9
$INSBASE
 10
0.0
 20
0.0
 30
0.0
  9
$EXTMIN
 10
43.35219125993899
 20
18.6720019372027
 30
0.0
  9
$EXTMAX
 10
529.9072422072572
 20
460.2449991176825
 30
0.0
  9
$LIMMIN
 10
0.0
 20
0.0
  9
$LIMMAX
 10
297.0
 20
210.0
  9
$ORTHOMODE
 70
     0
  9
$REGENMODE
 70
     1
  9
$FILLMODE
 70
     1
  9
$QTEXTMODE
 70
     0
  9
$MIRRTEXT
 70
     0
  9
$DRAGMODE
 70
     2
  9
$LTSCALE
 40
3.0
  9
$OSMODE
 70
    37
  9
$ATTMODE
 70
     1
  9
$TEXTSIZE
 40
9.0
  9
$TRACEWID
 40
1.0
  9
$TEXTSTYLE
  7
STANDARD
  9
$CLAYER
  8
0
  9
$CELTYPE
  6
BYLAYER
  9
$CECOLOR
 62
   256
  9
$CELTSCALE
 40
1.0
  9
$DELOBJ
 70
     1
  9
$DISPSILH
 70
     0
  9
$DIMSCALE
 40
3.0
  9
$DIMASZ
 40
1.8
  9
$DIMEXO
 40
0.625
  9
$DIMDLI
 40
3.75
  9
$DIMRND
 40
0.0
  9
$DIMDLE
 40
0.0
  9
$DIMEXE
 40
0.8
  9
$DIMTP
 40
0.0
  9
$DIMTM
 40
0.0
  9
$DIMTXT
 40
1.8
  9
$DIMCEN
 40
2.5
  9
$DIMTSZ
 40
0.0
  9
$DIMTOL
 70
     0
  9
$DIMLIM
 70
     0
  9
$DIMTIH
 70
     0
  9
$DIMTOH
 70
     0
  9
$DIMSE1
 70
     0
  9
$DIMSE2
 70
     0
  9
$DIMTAD
 70
     1
  9
$DIMZIN
 70
     8
  9
$DIMBLK
  1

  9
$DIMASO
 70
     1
  9
$DIMSHO
 70
     1
  9
$DIMPOST
  1

  9
$DIMAPOST
  1

  9
$DIMALT
 70
     0
  9
$DIMALTD
 70
     4
  9
$DIMALTF
 40
0.0394
  9
$DIMLFAC
 40
1.0
  9
$DIMTOFL
 70
     1
  9
$DIMTVP
 40
0.0
  9
$DIMTIX
 70
     0
  9
$DIMSOXD
 70
     0
  9
$DIMSAH
 70
     0
  9
$DIMBLK1
  1

  9
$DIMBLK2
  1

  9
$DIMSTYLE
  2
STANDARD
  9
$DIMCLRD
 70
     0
  9
$DIMCLRE
 70
     0
  9
$DIMCLRT
 70
     0
  9
$DIMTFAC
 40
1.0
  9
$DIMGAP
 40
0.75
  9
$DIMJUST
 70
     0
  9
$DIMSD1
 70
     0
  9
$DIMSD2
 70
     0
  9
$DIMTOLJ
 70
     1
  9
$DIMTZIN
 70
     0
  9
$DIMALTZ
 70
     0
  9
$DIMALTTZ
 70
     0
  9
$DIMFIT
 70
     3
  9
$DIMUPT
 70
     0
  9
$DIMUNIT
 70
     8
  9
$DIMDEC
 70
     2
  9
$DIMTDEC
 70
     2
  9
$DIMALTU
 70
     8
  9
$DIMALTTD
 70
     4
  9
$DIMTXSTY
  7
STANDARD
  9
$DIMAUNIT
 70
     0
  9
$LUNITS
 70
     2
  9
$LUPREC
 70
     3
  9
$SKETCHINC
 40
1.0
  9
$FILLETRAD
 40
10.0
  9
$AUNITS
 70
     0
  9
$AUPREC
 70
     2
  9
$MENU
  1
.
  9
$ELEVATION
 40
0.0
  9
$PELEVATION
 40
0.0
  9
$THICKNESS
 40
0.0
  9
$LIMCHECK
 70
     0
  9
$BLIPMODE
 70
     0
  9
$CHAMFERA
 40
0.0
  9
$CHAMFERB
 40
0.0
  9
$CHAMFERC
 40
20.0
  9
$CHAMFERD
 40
0.0
  9
$SKPOLY
 70
     0
  9
$TDCREATE
 40
2453692.465015370
  9
$TDUPDATE
 40
2454474.450457708
  9
$TDINDWG
 40
0.0428333218
  9
$TDUSRTIMER
 40
0.0428331366
  9
$USRTIMER
 70
     1
  9
$ANGBASE
 50
0.0
  9
$ANGDIR
 70
     0
  9
$PDMODE
 70
     0
  9
$PDSIZE
 40
-10.0
  9
$PLINEWID
 40
0.0
  9
$COORDS
 70
     0
  9
$SPLFRAME
 70
     0
  9
$SPLINETYPE
 70
     6
  9
$SPLINESEGS
 70
     8
  9
$ATTDIA
 70
     0
  9
$ATTREQ
 70
     1
  9
$HANDLING
 70
-16383
  9
$HANDSEED
  5
2A83
  9
$SURFTAB1
 70
     6
  9
$SURFTAB2
 70
     6
  9
$SURFTYPE
 70
     6
  9
$SURFU
 70
     6
  9
$SURFV
 70
     6
  9
$UCSNAME
  2

  9
$UCSORG
 10
0.0
 20
0.0
 30
0.0
  9
$UCSXDIR
 10
1.0
 20
0.0
 30
0.0
  9
$UCSYDIR
 10
0.0
 20
1.0
 30
0.0
  9
$PUCSNAME
  2

  9
$PUCSORG
 10
0.0
 20
0.0
 30
0.0
  9
$PUCSXDIR
 10
1.0
 20
0.0
 30
0.0
  9
$PUCSYDIR
 10
0.0
 20
1.0
 30
0.0
  9
$USERI1
 70
     0
  9
$USERI2
 70
     0
  9
$USERI3
 70
     0
  9
$USERI4
 70
     0
  9
$USERI5
 70
     0
  9
$USERR1
 40
0.0
  9
$USERR2
 40
0.0
  9
$USERR3
 40
0.0
  9
$USERR4
 40
0.0
  9
$USERR5
 40
0.0
  9
$WORLDVIEW
 70
     1
  9
$SHADEDGE
 70
     3
  9
$SHADEDIF
 70
    70
  9
$TILEMODE
 70
     1
  9
$MAXACTVP
 70
    48
  9
$PINSBASE
 10
0.0
 20
0.0
 30
0.0
  9
$PLIMCHECK
 70
     0
  9
$PEXTMIN
 10
0.0
 20
0.0
 30
0.0
  9
$PEXTMAX
 10
0.0
 20
0.0
 30
0.0
  9
$PLIMMIN
 10
0.0
 20
0.0
  9
$PLIMMAX
 10
12.0
 20
9.0
  9
$UNITMODE
 70
     0
  9
$VISRETAIN
 70
     1
  9
$PLINEGEN
 70
     0
  9
$PSLTSCALE
 70
     1
  9
$TREEDEPTH
 70
  3020
  9
$PICKSTYLE
 70
     1
  9
$CMLSTYLE
  2
STANDARD
  9
$CMLJUST
 70
     0
  9
$CMLSCALE
 40
1.0
  9
$PROXYGRAPHICS
 70
     1
  9
$MEASUREMENT
 70
     0
  0
ENDSEC
  0
SECTION
  2
CLASSES
  0
CLASS
  1
DICTIONARYVAR
  2
AcDbDictionaryVar
  3
AutoCAD 2000
 90
        0
280
     0
281
     0
  0
CLASS
  1
ACDBDICTIONARYWDFLT
  2
AcDbDictionaryWithDefault
  3
AutoCAD 2000
 90
        0
280
     0
281
     0
  0
CLASS
  1
ACDBPLACEHOLDER
  2
AcDbPlaceHolder
  3
AutoCAD 2000
 90
        0
280
     0
281
     0
  0
CLASS
  1
LAYOUT
  2
AcDbLayout
  3
AutoCAD 2000
 90
        0
280
     0
281
     0
  0
CLASS
  1
MATERIAL
  2
AcDbMaterial
  3
ObjectDBX Classes
 90
     1153
280
     0
281
     0
  0
CLASS
  1
VISUALSTYLE
  2
AcDbVisualStyle
  3
ObjectDBX Classes
 90
     4095
280
     0
281
     0
  0
CLASS
  1
TABLESTYLE
  2
AcDbTableStyle
  3
ObjectDBX Classes
 90
     4095
280
     0
281
     0
  0
CLASS
  1
SCALE
  2
AcDbScale
  3
ObjectDBX Classes
 90
     1153
280
     0
281
     0
  0
CLASS
  1
MLEADERSTYLE
  2
AcDbMLeaderStyle
  3
ACDB_MLEADERSTYLE_CLASS
 90
     4095
280
     0
281
     0
  0
CLASS
  1
SORTENTSTABLE
  2
AcDbSortentsTable
  3
AutoCAD 2000
 90
        0
280
     0
281
     0
  0
CLASS
  1
CELLSTYLEMAP
  2
AcDbCellStyleMap
  3
ObjectDBX Classes
 90
     1152
280
     0
281
     0
  0
CLASS
  1
ACAD_PROXY_OBJECT_WRAPPER
  2
AcDbProxyObjectWrapper
  3
AutoCAD 2000
 90
        0
280
     0
281
     0
  0
CLASS
  1
LONG_TRANSACTION
  2
AcDbLongTransaction
  3
AutoCAD 2000
 90
        0
280
     0
281
     0
  0
CLASS
  1
LWPOLYLINE
  2
AcDbPolyline
  3
AutoCAD 2000
 90
        0
280
     0
281
     1
  0
CLASS
  1
HATCH
  2
AcDbHatch
  3
AutoCAD 2000
 90
        0
280
     0
281
     1
  0
CLASS
  1
XRECORD
  2
AcDbXrecord
  3
AutoCAD 2000
 90
        0
280
     0
281
     0
  0
ENDSEC
  0
SECTION
  2
TABLES
  0
TABLE
  2
VPORT
  5
6E
102
{ACAD_XDICTIONARY
360
29E5
102
}
330
0
100
AcDbSymbolTable
 70
     2
  0
VPORT
  5
2A5D
330
6E
100
AcDbSymbolTableRecord
100
AcDbViewportTableRecord
  2
*ACTIVE
 70
     0
 10
0.0
 20
0.0
 11
1.0
 21
1.0
 12
299.5050024266786
 22
242.8339942438543
 13
0.0
 23
0.0
 14
10.0
 24
10.0
 15
10.0
 25
10.0
 16
0.0
 26
0.0
 36
1.0
 17
0.0
 27
0.0
 37
0.0
 40
451.9595393887773
 41
1.701814058956916
 42
50.0
 43
0.0
 44
0.0
 50
0.0
 51
0.0
 71
     0
 72
   100
 73
     1
 74
     3
 75
     0
 76
     0
 77
     0
 78
     0
  0
ENDTAB
  0
TABLE
  2
LTYPE
  5
69
330
0
100
AcDbSymbolTable
 70
     4
  0
LTYPE
  5
6A
330
69
100
AcDbSymbolTableRecord
100
AcDbLinetypeTableRecord
  2
BYBLOCK
 70
     0
  3

 72
    65
 73
     0
 40
0.0
  0
LTYPE
  5
6B
330
69
100
AcDbSymbolTableRecord
100
AcDbLinetypeTableRecord
  2
BYLAYER
 70
     0
  3

 72
    65
 73
     0
 40
0.0
  0
LTYPE
  5
8
330
69
100
AcDbSymbolTableRecord
100
AcDbLinetypeTableRecord
  2
CONTINUOUS
 70
     0
  3
Solid line
 72
    65
 73
     0
 40
0.0
  0
LTYPE
  5
27C
330
69
100
AcDbSymbolTableRecord
100
AcDbLinetypeTableRecord
  2
SEKKEI_A2_
 70
     0
  3
center(A2)  ____ _ ____ _ ____ _ ____ _ ____ _ 
 72
    65
 73
     4
 40
14.28749999999999
 49
9.525
 74
     0
 49
-1.587499999999999
 74
     0
 49
1.587499999999999
 74
     0
 49
-1.587499999999999
 74
     0
  0
LTYPE
  5
2B4
330
69
100
AcDbSymbolTableRecord
100
AcDbLinetypeTableRecord
  2
HIDDEN2
 70
     0
  3
Hidden (.5x) _ _ _ _ _ _ _ _ _ _ _ _ _ _ _ _ _
 72
    65
 73
     2
 40
4.762499999999999
 49
3.174999999999999
 74
     0
 49
-1.587499999999999
 74
     0
  0
LTYPE
  5
48F
330
69
100
AcDbSymbolTableRecord
100
AcDbLinetypeTableRecord
  2
SEKKEI_H
 70
     0
  3
Hidden-S _ _ _ _ _ _ _ _ _ _ _ _ _ _ _ _ _
 72
    65
 73
     2
 40
2.381249999999999
 49
1.587499999999999
 74
     0
 49
-0.79375
 74
     0
  0
ENDTAB
  0
TABLE
  2
LAYER
  5
66
102
{ACAD_XDICTIONARY
360
24A2
102
}
330
0
100
AcDbSymbolTable
 70
     9
  0
LAYER
  5
5E
102
{ACAD_XDICTIONARY
360
29CA
102
}
330
66
100
AcDbSymbolTableRecord
100
AcDbLayerTableRecord
  2
0
 70
     0
 62
     7
  6
CONTINUOUS
  0
LAYER
  5
3E
102
{ACAD_XDICTIONARY
360
29CC
102
}
330
66
100
AcDbSymbolTableRecord
100
AcDbLayerTableRecord
  2
CENTER
 70
     0
 62
     3
  6
SEKKEI_A2_
  0
LAYER
  5
2B5
102
{ACAD_XDICTIONARY
360
29D2
102
}
330
66
100
AcDbSymbolTableRecord
100
AcDbLayerTableRecord
  2
HIDS
 70
     0
 62
     1
  6
HIDDEN2
  0
LAYER
  5
2BA
102
{ACAD_XDICTIONARY
360
29D4
102
}
330
66
100
AcDbSymbolTableRecord
100
AcDbLayerTableRecord
  2
HOJO
 70
     0
 62
     4
  6
CONTINUOUS
  0
LAYER
  5
3FA
102
{ACAD_XDICTIONARY
360
29D8
102
}
330
66
100
AcDbSymbolTableRecord
100
AcDbLayerTableRecord
  2
TITLE
 70
     0
 62
     4
  6
CONTINUOUS
  0
ENDTAB
  0
TABLE
  2
STYLE
  5
67
330
0
100
AcDbSymbolTable
 70
     2
  0
STYLE
  5
16
330
67
100
AcDbSymbolTableRecord
100
AcDbTextStyleTableRecord
  2
STANDARD
 70
     0
 40
0.0
 41
1.0
 50
0.0
 71
     0
 42
9.0
  3
simplex.shx
  4
extfont.shx
  0
ENDTAB
  0
TABLE
  2
VIEW
  5
6C
330
0
100
AcDbSymbolTable
 70
     0
  0
ENDTAB
  0
TABLE
  2
UCS
  5
6D
330
0
100
AcDbSymbolTable
 70
     0
  0
ENDTAB
  0
TABLE
  2
APPID
  5
70
330
0
100
AcDbSymbolTable
 70
     2
  0
APPID
  5
71
330
70
100
AcDbSymbolTableRecord
100
AcDbRegAppTableRecord
  2
ACAD
 70
     0
  0
APPID
  5
249F
330
70
100
AcDbSymbolTableRecord
100
AcDbRegAppTableRecord
  2
ACAD_MLEADERVER
 70
     0
  0
ENDTAB
  0
TABLE
  2
DIMSTYLE
  5
72
330
0
100
AcDbSymbolTable
 70
     1
  0
DIMSTYLE
105
73
330
72
100
AcDbSymbolTableRecord
100
AcDbDimStyleTableRecord
  2
STANDARD
 70
     0
  3

  4

  5

  6

  7

 40
3.0
 41
1.8
 42
0.625
 43
3.75
 44
0.8
 45
0.0
 46
0.0
 47
0.0
 48
0.0
140
1.8
141
2.5
142
0.0
143
0.0394
144
1.0
145
0.0
146
1.0
147
0.75
 71
     0
 72
     0
 73
     0
 74
     0
 75
     0
 76
     0
 77
     1
 78
     8
170
     0
171
     4
172
     1
173
     0
174
     0
175
     0
176
     0
177
     0
178
     0
270
     8
271
     2
272
     2
273
     8
274
     4
340
16
275
     0
280
     0
281
     0
282
     0
283
     1
284
     0
285
     0
286
     0
287
     3
288
     0
  0
ENDTAB
  0
TABLE
  2
BLOCK_RECORD
  5
1
330
0
100
AcDbSymbolTable
 70
    43
  0
BLOCK_RECORD
  5
2
102
{ACAD_XDICTIONARY
360
2A7F
102
}
330
1
100
AcDbSymbolTableRecord
100
AcDbBlockTableRecord
  2
*MODEL_SPACE
  0
BLOCK_RECORD
  5
2A58
102
{ACAD_XDICTIONARY
360
2A81
102
}
330
1
100
AcDbSymbolTableRecord
100
AcDbBlockTableRecord
  2
*PAPER_SPACE
  0
ENDTAB
  0
ENDSEC
  0
SECTION
  2
BLOCKS
  0
BLOCK
  5
5D
330
2
100
AcDbEntity
  8
0
100
AcDbBlockBegin
  2
*MODEL_SPACE
 70
     0
 10
0.0
 20
0.0
 30
0.0
  3
*MODEL_SPACE
  1

  0
ENDBLK
  5
5F
330
2
100
AcDbEntity
  8
0
100
AcDbBlockEnd
  0
BLOCK
  5
2A5A
330
2A58
100
AcDbEntity
 67
     1
  8
0
100
AcDbBlockBegin
  2
*PAPER_SPACE
 70
     0
 10
0.0
 20
0.0
 30
0.0
  3
*PAPER_SPACE
  1

  0
ENDBLK
  5
2A5B
330
2A58
100
AcDbEntity
 67
     1
  8
0
100
AcDbBlockEnd
  0
ENDSEC
  0
SECTION
  2
ENTITIES
  0
LINE
  5
804
330
2
100
AcDbEntity
  8
0
100
AcDbLine
 10
217.4273022599389
 20
199.1979356786601
 30
0.0
 11
160.172648259939
 21
198.1985536786601
 31
0.0
  0
LINE
  5
805
330
2
100
AcDbEntity
  8
CENTER
100
AcDbLine
 10
284.315440259939
 20
149.1898556786601
 30
0.0
 11
193.937830259939
 21
149.1898556786601
 31
0.0
  0
LINE
  5
806
330
2
100
AcDbEntity
  8
0
100
AcDbLine
 10
162.065592259939
 20
93.8218326786602
 30
0.0
 11
214.8804272599389
 21
94.28275167866019
 31
0.0
  0
LINE
  5
807
330
2
100
AcDbEntity
  8
0
100
AcDbLine
 10
160.172862259939
 20
64.18109667866019
 30
0.0
 11
217.181544259939
 21
63.18601067866018
 31
0.0
  0
LINE
  5
808
330
2
100
AcDbEntity
  8
0
100
AcDbLine
 10
161.830256259939
 20
76.87297667866022
 30
0.0
 11
214.388636259939
 21
75.49705367866017
 31
0.0
  0
LINE
  5
80C
330
2
100
AcDbEntity
  8
0
100
AcDbLine
 10
143.172831259939
 20
194.1898556786602
 30
0.0
 11
143.172831259939
 21
66.18985567866022
 31
0.0
  0
LINE
  5
80F
330
2
100
AcDbEntity
  8
0
100
AcDbLine
 10
159.672724259939
 20
197.6898246786601
 30
0.0
 11
159.672938259939
 21
64.68982467866019
 31
0.0
  0
LINE
  5
811
330
2
100
AcDbEntity
  8
0
100
AcDbLine
 10
153.672831259939
 20
65.17169978513521
 30
0.0
 11
153.672831259939
 21
196.0486736786601
 31
0.0
  0
LINE
  5
837
330
2
100
AcDbEntity
  8
CENTER
100
AcDbLine
 10
43.35219125993899
 20
130.1898556786601
 30
0.0
 11
173.1190491113011
 21
130.1898556786601
 31
0.0
  0
LINE
  5
893
330
2
100
AcDbEntity
  8
0
100
AcDbLine
 10
143.172831259939
 20
66.18985567866022
 30
0.0
 11
152.8867931850887
 21
66.02029784254648
 31
0.0
  0
ARC
  5
894
330
2
100
AcDbEntity
  8
0
100
AcDbCircle
 10
152.8728312599389
 20
65.22041968642139
 30
0.0
 40
0.8
100
AcDbArc
 50
0.0
 51
89.00000000000149
  0
LINE
  5
895
330
2
100
AcDbEntity
  8
0
100
AcDbLine
 10
154.4449190753525
 20
64.37218686469449
 30
0.0
 11
159.672831259939
 21
64.1896726786602
 31
0.0
  0
ARC
  5
896
330
2
100
AcDbEntity
  8
0
100
AcDbCircle
 10
154.472831259939
 20
65.17169978513521
 30
0.0
 40
0.8
100
AcDbArc
 50
180.0
 51
268.0005312244591
  0
LINE
  5
897
330
2
100
AcDbEntity
  8
0
100
AcDbLine
 10
159.672938259939
 20
64.68982467866019
 30
0.0
 11
160.172862259939
 21
64.18109667866019
 31
0.0
  0
LINE
  5
898
330
2
100
AcDbEntity
  8
0
100
AcDbLine
 10
158.801615259939
 20
93.69297567866022
 30
0.0
 11
155.051585259939
 21
93.69297567866022
 31
0.0
  0
LINE
  5
899
330
2
100
AcDbEntity
  8
0
100
AcDbLine
 10
158.801615259939
 20
76.87295767866022
 30
0.0
 11
155.051585259939
 21
76.87295767866022
 31
0.0
  0
LINE
  5
943
330
2
100
AcDbEntity
  8
0
100
AcDbLine
 10
155.6029762599389
 20
198.0474376786601
 30
0.0
 11
159.672831259939
 21
198.1896726786602
 31
0.0
  0
LINE
  5
944
330
2
100
AcDbEntity
  8
0
100
AcDbLine
 10
160.172648259939
 20
198.1985536786601
 30
0.0
 11
159.672724259939
 21
197.6898246786601
 31
0.0
  0
ARC
  5
945
330
2
100
AcDbEntity
  8
0
100
AcDbCircle
 10
155.672846259939
 20
196.0486736786601
 30
0.0
 40
2.0
100
AcDbArc
 50
92.00174699999921
 51
180.0
  0
LINE
  5
946
330
2
100
AcDbEntity
  8
0
100
AcDbLine
 10
143.172831259939
 20
194.1898556786602
 30
0.0
 11
152.6902836663763
 21
194.3559834283657
 31
0.0
  0
ARC
  5
947
330
2
100
AcDbEntity
  8
0
100
AcDbCircle
 10
152.672831259939
 20
195.3558311235221
 30
0.0
 40
1.0
100
AcDbArc
 50
270.9999999999985
 51
0.0
  0
LINE
  5
9A2
330
2
100
AcDbEntity
  8
0
100
AcDbLine
 10
217.6729382599389
 20
199.5293866786602
 30
0.0
 11
217.6729382599389
 21
62.5402886786602
 31
0.0
  0
LINE
  5
9A3
330
2
100
AcDbEntity
  8
0
100
AcDbLine
 10
229.6729232599389
 20
199.6898556786602
 30
0.0
 11
229.6729232599389
 21
60.68985567866019
 31
0.0
  0
LINE
  5
9A4
330
2
100
AcDbEntity
  8
0
100
AcDbLine
 10
234.672923259939
 20
119.6898556786601
 30
0.0
 11
234.6729232599389
 21
178.6898556786602
 31
0.0
  0
LINE
  5
9A7
330
2
100
AcDbEntity
  8
CENTER
100
AcDbLine
 10
234.4932378497227
 20
69.1898556786602
 30
0.0
 11
213.31895512122
 21
69.1898556786602
 31
0.0
  0
LINE
  5
9A8
330
2
100
AcDbEntity
  8
HIDS
  6
SEKKEI_H
100
AcDbLine
 10
217.672923259939
 20
73.58985567866017
 30
0.0
 11
229.6729232599389
 21
73.4898556786602
 31
0.0
  0
LINE
  5
9A9
330
2
100
AcDbEntity
  8
HIDS
  6
SEKKEI_H
100
AcDbLine
 10
217.672923259939
 20
64.78985567866016
 30
0.0
 11
229.6729232599389
 21
64.88985567866021
 31
0.0
  0
LINE
  5
9AA
330
2
100
AcDbEntity
  8
0
100
AcDbLine
 10
229.177439259939
 20
60.20715867866019
 30
0.0
 11
219.603037259939
 21
60.54150167866021
 31
0.0
  0
ARC
  5
9AB
330
2
100
AcDbEntity
  8
0
100
AcDbCircle
 10
217.172816259939
 20
62.68608667866022
 30
0.0
 40
0.5
100
AcDbArc
 50
0.0
 51
89.00000000000149
  0
ARC
  5
9AC
330
2
100
AcDbEntity
  8
0
100
AcDbCircle
 10
219.672831259939
 20
62.5402886786602
 30
0.0
 40
2.0
100
AcDbArc
 50
180.0
 51
267.9999999999996
  0
LINE
  5
9AD
330
2
100
AcDbEntity
  8
0
100
AcDbLine
 10
229.173136259939
 20
60.2029556786602
 30
0.0
 11
229.6729232599389
 21
60.68985567866019
 31
0.0
  0
LINE
  5
9AE
330
2
100
AcDbEntity
  8
0
100
AcDbLine
 10
236.673045259939
 20
160.1898556786601
 30
0.0
 11
276.672831259939
 21
160.1898556786601
 31
0.0
  0
LINE
  5
9AF
330
2
100
AcDbEntity
  8
0
100
AcDbLine
 10
244.673045259939
 20
146.1898556786602
 30
0.0
 11
276.672831259939
 21
146.1898556786602
 31
0.0
  0
LINE
  5
9B0
330
2
100
AcDbEntity
  8
0
100
AcDbLine
 10
244.673045259939
 20
152.1898556786601
 30
0.0
 11
276.672831259939
 21
152.1898556786601
 31
0.0
  0
LINE
  5
9B1
330
2
100
AcDbEntity
  8
0
100
AcDbLine
 10
236.672831259939
 20
138.1898556786602
 30
0.0
 11
276.672831259939
 21
138.1898556786602
 31
0.0
  0
LINE
  5
9B2
330
2
100
AcDbEntity
  8
0
100
AcDbLine
 10
234.172923259939
 20
119.1898556786602
 30
0.0
 11
234.672923259939
 21
119.6898556786601
 31
0.0
  0
LINE
  5
9B3
330
2
100
AcDbEntity
  8
0
100
AcDbLine
 10
234.172923259939
 20
119.1898556786602
 30
0.0
 11
229.6729232599389
 21
119.1898556786602
 31
0.0
  0
LINE
  5
9B4
330
2
100
AcDbEntity
  8
0
100
AcDbLine
 10
236.673045259939
 20
161.1898556786601
 30
0.0
 11
236.673045259939
 21
137.1898556786601
 31
0.0
  0
LINE
  5
9B5
330
2
100
AcDbEntity
  8
0
100
AcDbLine
 10
234.673045259939
 20
137.1898556786601
 30
0.0
 11
236.673045259939
 21
137.1898556786601
 31
0.0
  0
ARC
  5
9B6
330
2
100
AcDbEntity
  8
0
100
AcDbCircle
 10
244.673045259939
 20
149.1898556786601
 30
0.0
 40
3.0
100
AcDbArc
 50
90.0
 51
270.0
  0
LINE
  5
9B7
330
2
100
AcDbEntity
  8
0
100
AcDbLine
 10
234.672831259939
 20
161.1898556786601
 30
0.0
 11
236.673045259939
 21
161.1898556786601
 31
0.0
  0
LINE
  5
9B8
330
2
100
AcDbEntity
  8
0
100
AcDbLine
 10
276.672831259939
 20
160.1898556786601
 30
0.0
 11
276.672831259939
 21
138.1898556786602
 31
0.0
  0
LINE
  5
9B9
330
2
100
AcDbEntity
  8
HIDS
  6
SEKKEI_H
100
AcDbLine
 10
229.6729232599389
 20
186.8898556786602
 30
0.0
 11
217.672923259939
 21
186.8898556786601
 31
0.0
  0
LINE
  5
9BA
330
2
100
AcDbEntity
  8
CENTER
100
AcDbLine
 10
234.4932378497227
 20
191.1898556786601
 30
0.0
 11
213.31895512122
 21
191.1898556786601
 31
0.0
  0
LINE
  5
9BB
330
2
100
AcDbEntity
  8
HIDS
  6
SEKKEI_H
100
AcDbLine
 10
229.6729232599389
 20
195.4898556786601
 30
0.0
 11
217.672923259939
 21
195.4898556786601
 31
0.0
  0
LINE
  5
9BC
330
2
100
AcDbEntity
  8
0
100
AcDbLine
 10
217.914210259939
 20
199.7792336786602
 30
0.0
 11
229.173228259939
 21
200.1724076786601
 31
0.0
  0
ARC
  5
9BD
330
2
100
AcDbEntity
  8
0
100
AcDbCircle
 10
217.9229382599389
 20
199.5293866786602
 30
0.0
 40
0.25
100
AcDbArc
 50
92.0000000000004
 51
180.0
  0
ARC
  5
9BE
330
2
100
AcDbEntity
  8
0
100
AcDbCircle
 10
217.4229382599389
 20
199.4478966786601
 30
0.0
 40
0.25
100
AcDbArc
 50
270.9999999999985
 51
0.0
  0
LINE
  5
9BF
330
2
100
AcDbEntity
  8
0
100
AcDbLine
 10
234.1729232599389
 20
179.1898556786601
 30
0.0
 11
229.6729232599389
 21
179.1898556786601
 31
0.0
  0
LINE
  5
9C0
330
2
100
AcDbEntity
  8
0
100
AcDbLine
 10
234.1729232599389
 20
179.1898556786601
 30
0.0
 11
234.6729232599389
 21
178.6898556786602
 31
0.0
  0
LINE
  5
9C1
330
2
100
AcDbEntity
  8
0
100
AcDbLine
 10
229.173228259939
 20
200.1724076786601
 30
0.0
 11
229.6729232599389
 21
199.6898556786602
 31
0.0
  0
ARC
  5
9C5
330
2
100
AcDbEntity
  8
0
100
AcDbCircle
 10
494.8704347979395
 20
176.8829896786601
 30
0.0
 40
3.0
100
AcDbArc
 50
124.548369999999
 51
222.58725
  0
LINE
  5
9C6
330
2
100
AcDbEntity
  8
0
100
AcDbLine
 10
507.6048707979394
 20
175.9264016786601
 30
0.0
 11
489.8058587979395
 21
193.7253896786601
 31
0.0
  0
ARC
  5
9C7
330
2
100
AcDbEntity
  8
0
100
AcDbCircle
 10
393.2682307979395
 20
176.8829896786601
 30
0.0
 40
3.0
100
AcDbArc
 50
317.4127540000009
 51
55.45162600000233
  0
LINE
  5
9C8
330
2
100
AcDbEntity
  8
0
100
AcDbLine
 10
398.3328057979395
 20
193.7253896786601
 30
0.0
 11
380.5337947979394
 21
175.9264016786601
 31
0.0
  0
LINE
  5
9C9
330
2
100
AcDbEntity
  8
CENTER
100
AcDbLine
 10
444.0693477979395
 20
221.6543802092857
 30
0.0
 11
444.0693477979395
 21
50.06611310571987
 31
0.0
  0
LINE
  5
9CA
330
2
100
AcDbEntity
  8
0
100
AcDbLine
 10
374.0693477979394
 20
69.1898556786602
 30
0.0
 11
374.0693477979394
 21
191.1898556786601
 31
0.0
  0
LINE
  5
9CB
330
2
100
AcDbEntity
  8
0
100
AcDbLine
 10
514.0693477979395
 20
191.1898556786601
 30
0.0
 11
514.0693477979395
 21
69.1898556786602
 31
0.0
  0
CIRCLE
  5
9CC
330
2
100
AcDbEntity
  8
0
100
AcDbCircle
 10
444.0693477979395
 20
149.1898556786601
 30
0.0
 40
30.0
  0
LINE
  5
9CD
330
2
100
AcDbEntity
  8
CENTER
100
AcDbLine
 10
383.0693477979394
 20
208.1574346786601
 30
0.0
 11
383.0693477979394
 21
52.22227667866019
 31
0.0
  0
LINE
  5
9CE
330
2
100
AcDbEntity
  8
CENTER
100
AcDbLine
 10
505.0693477979394
 20
209.4011821786601
 30
0.0
 11
505.0693477979394
 21
50.97852917866021
 31
0.0
  0
LINE
  5
9D2
330
2
100
AcDbEntity
  8
CENTER
100
AcDbLine
 10
365.4488187979394
 20
69.1898556786602
 30
0.0
 11
522.6898767979395
 21
69.1898556786602
 31
0.0
  0
LINE
  5
9D3
330
2
100
AcDbEntity
  8
CENTER
100
AcDbLine
 10
406.3308974394537
 20
149.1898556786601
 30
0.0
 11
481.8077981564251
 21
149.1898556786601
 31
0.0
  0
LINE
  5
9D4
330
2
100
AcDbEntity
  8
CENTER
100
AcDbLine
 10
358.2314533886217
 20
130.1898556786601
 30
0.0
 11
529.9072422072572
 21
130.1898556786601
 31
0.0
  0
ARC
  5
9D5
330
2
100
AcDbEntity
  8
0
100
AcDbCircle
 10
444.0693477979395
 20
149.1898556786601
 30
0.0
 40
75.5
100
AcDbArc
 50
237.0580440000015
 51
302.9419559999983
  0
LINE
  5
9D6
330
2
100
AcDbEntity
  8
0
100
AcDbLine
 10
401.8683287979394
 20
65.18985567866019
 30
0.0
 11
486.2703367979394
 21
65.18985567866019
 31
0.0
  0
LINE
  5
9D7
330
2
100
AcDbEntity
  8
0
100
AcDbLine
 10
505.0693477979394
 20
60.18985567866019
 30
0.0
 11
383.0693477979394
 21
60.18985567866019
 31
0.0
  0
ARC
  5
9D8
330
2
100
AcDbEntity
  8
0
100
AcDbCircle
 10
384.0693477979394
 20
95.52189467866019
 30
0.0
 40
5.0
100
AcDbArc
 50
41.81155000000025
 51
180.0
  0
ARC
  5
9D9
330
2
100
AcDbEntity
  8
0
100
AcDbCircle
 10
444.0693477979395
 20
149.1898556786601
 30
0.0
 40
75.5
100
AcDbArc
 50
221.8115540000022
 51
228.2909089999997
  0
LINE
  5
9DA
330
2
100
AcDbEntity
  8
0
100
AcDbLine
 10
379.0693477979394
 20
172.3908676786601
 30
0.0
 11
379.0693477979394
 21
87.98884367866021
 31
0.0
  0
CIRCLE
  5
9DC
330
2
100
AcDbEntity
  8
0
100
AcDbCircle
 10
383.0693477979394
 20
69.1898556786602
 30
0.0
 40
4.299999999999999
  0
ARC
  5
9DD
330
2
100
AcDbEntity
  8
0
100
AcDbCircle
 10
383.0693477979394
 20
69.1898556786602
 30
0.0
 40
9.0
100
AcDbArc
 50
180.0
 51
270.0
  0
LINE
  5
9DE
330
2
100
AcDbEntity
  8
0
100
AcDbLine
 10
380.5337947979394
 20
84.45330967866022
 30
0.0
 11
398.3328057979395
 21
66.65432167866021
 31
0.0
  0
ARC
  5
9DF
330
2
100
AcDbEntity
  8
0
100
AcDbCircle
 10
384.0693477979394
 20
87.98884367866021
 30
0.0
 40
5.0
100
AcDbArc
 50
180.0
 51
225.0
  0
ARC
  5
9E0
330
2
100
AcDbEntity
  8
0
100
AcDbCircle
 10
394.6922117979394
 20
74.53755367866023
 30
0.0
 40
3.0
100
AcDbArc
 50
142.6744839999992
 51
225.0
  0
ARC
  5
9E1
330
2
100
AcDbEntity
  8
0
100
AcDbCircle
 10
401.8683287979394
 20
70.18985567866019
 30
0.0
 40
5.0
100
AcDbArc
 50
225.0
 51
270.0
  0
LINE
  5
9E2
330
2
100
AcDbEntity
  8
0
100
AcDbLine
 10
398.9962887979394
 20
85.12996067866021
 30
0.0
 11
392.3065917979394
 21
76.35658467866022
 31
0.0
  0
ARC
  5
9E3
330
2
100
AcDbEntity
  8
0
100
AcDbCircle
 10
391.8394587979395
 20
90.58704167866023
 30
0.0
 40
3.0
100
AcDbArc
 50
322.6744729999984
 51
48.29090899999973
  0
ARC
  5
9E4
330
2
100
AcDbEntity
  8
0
100
AcDbCircle
 10
386.1302307979394
 20
83.09953167866018
 30
0.0
 40
3.0
100
AcDbArc
 50
225.0
 51
322.674477000002
  0
LINE
  5
9E5
330
2
100
AcDbEntity
  8
0
100
AcDbLine
 10
394.2250787979394
 20
88.76801467866021
 30
0.0
 11
388.5158197979394
 21
81.28050467866017
 31
0.0
  0
ARC
  5
9E6
330
2
100
AcDbEntity
  8
0
100
AcDbCircle
 10
401.3819087979394
 20
83.31093367866021
 30
0.0
 40
3.0
100
AcDbArc
 50
57.05804800000093
 51
142.6744839999992
  0
ARC
  5
9E7
330
2
100
AcDbEntity
  8
0
100
AcDbCircle
 10
384.0693477979394
 20
168.1503616786601
 30
0.0
 40
5.0
100
AcDbArc
 50
180.0
 51
327.6794740000006
  0
ARC
  5
9E8
330
2
100
AcDbEntity
  8
0
100
AcDbCircle
 10
384.0693477979394
 20
172.3908676786601
 30
0.0
 40
5.0
100
AcDbArc
 50
134.9999999999999
 51
180.0
  0
ARC
  5
9E9
330
2
100
AcDbEntity
  8
0
100
AcDbCircle
 10
384.0693477979394
 20
172.3908676786601
 30
0.0
 40
5.0
100
AcDbArc
 50
134.9999999999999
 51
180.0
  0
ARC
  5
9EA
330
2
100
AcDbEntity
  8
0
100
AcDbCircle
 10
444.0693477979395
 20
130.1898556786601
 30
0.0
 40
66.0
100
AcDbArc
 50
137.4127499999999
 51
147.679489
  0
CIRCLE
  5
9EB
330
2
100
AcDbEntity
  8
0
100
AcDbCircle
 10
444.0693477979395
 20
149.1898556786601
 30
0.0
 40
20.0
  0
ARC
  5
9EC
330
2
100
AcDbEntity
  8
0
100
AcDbCircle
 10
444.0693477979395
 20
149.1898556786601
 30
0.0
 40
11.0
100
AcDbArc
 50
195.8265990000011
 51
164.1734009999988
  0
LINE
  5
9ED
330
2
100
AcDbEntity
  8
0
100
AcDbLine
 10
430.5693477979395
 20
152.1898556786601
 30
0.0
 11
436.5693477979394
 21
152.1898556786601
 31
0.0
  0
LINE
  5
9EE
330
2
100
AcDbEntity
  8
0
100
AcDbLine
 10
430.5693477979395
 20
146.1898556786602
 30
0.0
 11
436.5693477979394
 21
146.1898556786602
 31
0.0
  0
LINE
  5
9EF
330
2
100
AcDbEntity
  8
0
100
AcDbLine
 10
430.5693477979395
 20
152.1898556786601
 30
0.0
 11
430.5693477979395
 21
146.1898556786602
 31
0.0
  0
LINE
  5
9F0
330
2
100
AcDbEntity
  8
0
100
AcDbLine
 10
436.5693477979394
 20
152.1898556786601
 30
0.0
 11
436.5693477979394
 21
146.1898556786602
 31
0.0
  0
ARC
  5
9F1
330
2
100
AcDbEntity
  8
0
100
AcDbCircle
 10
504.0693477979394
 20
95.52189467866019
 30
0.0
 40
5.0
100
AcDbArc
 50
0.0
 51
138.1884459999977
  0
ARC
  5
9F2
330
2
100
AcDbEntity
  8
0
100
AcDbCircle
 10
444.0693477979395
 20
149.1898556786601
 30
0.0
 40
75.5
100
AcDbArc
 50
311.7090759999986
 51
318.1884459999977
  0
LINE
  5
9F3
330
2
100
AcDbEntity
  8
0
100
AcDbLine
 10
509.0693477979394
 20
172.3908676786601
 30
0.0
 11
509.0693477979394
 21
87.98884367866021
 31
0.0
  0
LINE
  5
9F4
330
2
100
AcDbEntity
  8
0
100
AcDbLine
 10
493.9135857979395
 20
88.76801467866021
 30
0.0
 11
499.6228147979394
 21
81.28050467866017
 31
0.0
  0
LINE
  5
9F5
330
2
100
AcDbEntity
  8
0
100
AcDbLine
 10
489.8058587979395
 20
66.65432167866021
 30
0.0
 11
507.6048707979394
 21
84.45330967866022
 31
0.0
  0
ARC
  5
9F6
330
2
100
AcDbEntity
  8
0
100
AcDbCircle
 10
493.4464837979395
 20
74.53755367866023
 30
0.0
 40
3.0
100
AcDbArc
 50
314.9999999999999
 51
37.32551999999982
  0
ARC
  5
9F7
330
2
100
AcDbEntity
  8
0
100
AcDbCircle
 10
486.2703367979394
 20
70.18985567866019
 30
0.0
 40
5.0
100
AcDbArc
 50
270.0
 51
314.9999999999999
  0
ARC
  5
9F8
330
2
100
AcDbEntity
  8
0
100
AcDbCircle
 10
496.2992067979395
 20
90.58704167866023
 30
0.0
 40
3.0
100
AcDbArc
 50
131.7090910000002
 51
217.3255310000015
  0
ARC
  5
9F9
330
2
100
AcDbEntity
  8
0
100
AcDbCircle
 10
486.7567867979394
 20
83.31093367866021
 30
0.0
 40
3.0
100
AcDbArc
 50
37.32551600000078
 51
122.9419479999984
  0
LINE
  5
9FA
330
2
100
AcDbEntity
  8
0
100
AcDbLine
 10
489.1424067979394
 20
85.12996067866021
 30
0.0
 11
495.8321047979395
 21
76.35658467866022
 31
0.0
  0
ARC
  5
9FB
330
2
100
AcDbEntity
  8
0
100
AcDbCircle
 10
505.0693477979394
 20
69.1898556786602
 30
0.0
 40
9.0
100
AcDbArc
 50
270.0
 51
0.0
  0
CIRCLE
  5
9FC
330
2
100
AcDbEntity
  8
0
100
AcDbCircle
 10
505.0693477979394
 20
69.1898556786602
 30
0.0
 40
4.299999999999999
  0
ARC
  5
9FD
330
2
100
AcDbEntity
  8
0
100
AcDbCircle
 10
504.0693477979394
 20
87.98884367866021
 30
0.0
 40
5.0
100
AcDbArc
 50
314.9999999999999
 51
0.0
  0
ARC
  5
9FE
330
2
100
AcDbEntity
  8
0
100
AcDbCircle
 10
502.0084347979394
 20
83.09953167866018
 30
0.0
 40
3.0
100
AcDbArc
 50
217.3255310000015
 51
314.9999999999999
  0
ARC
  5
9FF
330
2
100
AcDbEntity
  8
0
100
AcDbCircle
 10
444.0693477979395
 20
130.1898556786601
 30
0.0
 40
66.0
100
AcDbArc
 50
32.32051799999893
 51
42.58724599999905
  0
ARC
  5
A00
330
2
100
AcDbEntity
  8
0
100
AcDbCircle
 10
504.0693477979394
 20
172.3908676786601
 30
0.0
 40
5.0
100
AcDbArc
 50
0.0
 51
45.00000000000007
  0
ARC
  5
A01
330
2
100
AcDbEntity
  8
0
100
AcDbCircle
 10
504.0693477979394
 20
168.1503616786601
 30
0.0
 40
5.0
100
AcDbArc
 50
212.3205109999998
 51
0.0
  0
LINE
  5
A02
330
2
100
AcDbEntity
  8
0
100
AcDbLine
 10
486.2703367979394
 20
195.1898556786602
 30
0.0
 11
401.8683287979394
 21
195.1898556786602
 31
0.0
  0
LINE
  5
A03
330
2
100
AcDbEntity
  8
0
100
AcDbLine
 10
505.0693477979394
 20
200.1898556786601
 30
0.0
 11
383.0693477979394
 21
200.1898556786601
 31
0.0
  0
LINE
  5
A04
330
2
100
AcDbEntity
  8
CENTER
100
AcDbLine
 10
365.4488187979394
 20
191.1898556786601
 30
0.0
 11
522.6898767979395
 21
191.1898556786601
 31
0.0
  0
ARC
  5
A05
330
2
100
AcDbEntity
  8
0
100
AcDbCircle
 10
406.1088377979393
 20
190.1898556786601
 30
0.0
 40
5.0
100
AcDbArc
 50
302.3205179999984
 51
90.0
  0
CIRCLE
  5
A06
330
2
100
AcDbEntity
  8
0
100
AcDbCircle
 10
383.0693477979394
 20
191.1898556786601
 30
0.0
 40
4.4
  0
ARC
  5
A07
330
2
100
AcDbEntity
  8
0
100
AcDbCircle
 10
383.0693477979394
 20
191.1898556786601
 30
0.0
 40
9.0
100
AcDbArc
 50
90.0
 51
180.0
  0
LINE
  5
A08
330
2
100
AcDbEntity
  8
0
100
AcDbLine
 10
395.7327697979394
 20
186.1130996786602
 30
0.0
 11
400.0915037979394
 21
183.1120166786602
 31
0.0
  0
LINE
  5
A09
330
2
100
AcDbEntity
  8
0
100
AcDbLine
 10
392.0301027979394
 20
181.3778136786601
 30
0.0
 11
394.0292477979395
 21
180.0013486786601
 31
0.0
  0
LINE
  5
A0A
330
2
100
AcDbEntity
  8
0
100
AcDbLine
 10
390.5069397979394
 20
182.4265426786602
 30
0.0
 11
394.9695557979395
 21
179.3539336786602
 31
0.0
  0
ARC
  5
A0B
330
2
100
AcDbEntity
  8
0
100
AcDbCircle
 10
388.8056457979394
 20
179.9555986786601
 30
0.0
 40
3.0
100
AcDbArc
 50
55.45162600000233
 51
134.9999999999999
  0
ARC
  5
A0C
330
2
100
AcDbEntity
  8
0
100
AcDbCircle
 10
397.4340937979394
 20
188.5840396786601
 30
0.0
 40
3.0
100
AcDbArc
 50
134.9999999999999
 51
235.4516140000006
  0
ARC
  5
A0D
330
2
100
AcDbEntity
  8
0
100
AcDbCircle
 10
444.0693477979395
 20
130.1898556786601
 30
0.0
 40
66.0
100
AcDbArc
 50
122.3205179999984
 51
127.1657790000002
  0
ARC
  5
A0E
330
2
100
AcDbEntity
  8
0
100
AcDbCircle
 10
444.0693477979395
 20
130.1898556786601
 30
0.0
 40
66.0
100
AcDbArc
 50
122.3205179999984
 51
126.5731809999992
  0
ARC
  5
A0F
330
2
100
AcDbEntity
  8
0
100
AcDbCircle
 10
402.3848387979395
 20
185.1753296786602
 30
0.0
 40
3.0
100
AcDbArc
 50
235.4516140000006
 51
307.1657710000011
  0
LINE
  5
A10
330
2
100
AcDbEntity
  8
0
100
AcDbLine
 10
397.5597957979394
 20
184.8551466786602
 30
0.0
 11
400.6835137979395
 21
182.7043856786602
 31
0.0
  0
ARC
  5
A11
330
2
100
AcDbEntity
  8
0
100
AcDbCircle
 10
401.8683287979394
 20
190.1898556786601
 30
0.0
 40
5.0
100
AcDbArc
 50
90.0
 51
134.9999999999999
  0
ARC
  5
A12
330
2
100
AcDbEntity
  8
0
100
AcDbCircle
 10
401.8683287979394
 20
190.1898556786601
 30
0.0
 40
5.0
100
AcDbArc
 50
90.0
 51
134.9999999999999
  0
ARC
  5
A13
330
2
100
AcDbEntity
  8
HOJO
100
AcDbCircle
 10
447.319265527629
 20
217.2140738974393
 30
0.0
 40
1.600781999999999
100
AcDbArc
 50
38.65980499999723
 51
112.8353270000013
  0
LINE
  5
A14
330
2
100
AcDbEntity
  8
HOJO
100
AcDbLine
 10
446.6979575276289
 20
218.6893848974392
 30
0.0
 11
445.569265527629
 21
218.2141198974393
 31
0.0
  0
LINE
  5
A15
330
2
100
AcDbEntity
  8
0
100
AcDbLine
 10
440.569265527629
 20
217.7930567558854
 30
0.0
 11
440.569265527629
 21
200.1634392768467
 31
0.0
  0
ARC
  5
A16
330
2
100
AcDbEntity
  8
HOJO
100
AcDbCircle
 10
437.819265527629
 20
217.2140738974393
 30
0.0
 40
1.600781999999999
100
AcDbArc
 50
67.16467299999867
 51
141.3401950000027
  0
LINE
  5
A17
330
2
100
AcDbEntity
  8
HOJO
100
AcDbLine
 10
438.4405735276289
 20
218.6893848974392
 30
0.0
 11
440.698172527629
 21
217.7387778974393
 31
0.0
  0
LINE
  5
A18
330
2
100
AcDbEntity
  8
0
100
AcDbLine
 10
436.569265527629
 20
218.2140738974393
 30
0.0
 11
436.569265527629
 21
200.1898545143283
 31
0.0
  0
LINE
  5
A19
330
2
100
AcDbEntity
  8
HOJO
100
AcDbLine
 10
451.5692655276289
 20
218.2141198974393
 30
0.0
 11
450.4403585276289
 21
217.7387778974393
 31
0.0
  0
ARC
  5
A1A
330
2
100
AcDbEntity
  8
HOJO
100
AcDbCircle
 10
449.819265527629
 20
219.2140738974393
 30
0.0
 40
1.600781
100
AcDbArc
 50
218.6598209999981
 51
292.8352969999997
  0
LINE
  5
A1B
330
2
100
AcDbEntity
  8
0
100
AcDbLine
 10
451.5692655276289
 20
218.2141198974393
 30
0.0
 11
451.5692655276289
 21
200.1898568429665
 31
0.0
  0
LINE
  5
A1C
330
2
100
AcDbEntity
  8
0
100
AcDbLine
 10
438.5692655276289
 20
218.6351965690231
 30
0.0
 11
438.5692655276289
 21
200.1804207407814
 31
0.0
  0
LINE
  5
A1D
330
2
100
AcDbEntity
  8
0
100
AcDbLine
 10
445.569265527629
 20
218.2141198974393
 30
0.0
 11
445.569265527629
 21
200.2408019603387
 31
0.0
  0
LINE
  5
A1E
330
2
100
AcDbEntity
  8
0
100
AcDbLine
 10
442.5692655276289
 20
218.2140738974393
 30
0.0
 11
442.5692655276289
 21
200.2408014946558
 31
0.0
  0
ARC
  5
A1F
330
2
100
AcDbEntity
  8
HOJO
100
AcDbCircle
 10
441.3192655276289
 20
219.2140738974393
 30
0.0
 40
1.600781
100
AcDbArc
 50
247.1647030000002
 51
321.3401790000018
  0
ARC
  5
A20
330
2
100
AcDbEntity
  8
0
100
AcDbCircle
 10
499.3330197979394
 20
179.9555986786601
 30
0.0
 40
3.0
100
AcDbArc
 50
45.00000000000007
 51
124.548369999999
  0
ARC
  5
A21
330
2
100
AcDbEntity
  8
0
100
AcDbCircle
 10
444.0693477979395
 20
130.1898556786601
 30
0.0
 40
66.0
100
AcDbArc
 50
52.8342250000013
 51
57.67948200000156
  0
ARC
  5
A22
330
2
100
AcDbEntity
  8
0
100
AcDbCircle
 10
482.0298577979395
 20
190.1898556786601
 30
0.0
 40
5.0
100
AcDbArc
 50
90.0
 51
237.6794890000003
  0
ARC
  5
A23
330
2
100
AcDbEntity
  8
0
100
AcDbCircle
 10
486.2703367979394
 20
190.1898556786601
 30
0.0
 40
5.0
100
AcDbArc
 50
45.00000000000007
 51
90.0
  0
LINE
  5
A24
330
2
100
AcDbEntity
  8
0
100
AcDbLine
 10
490.5788697979394
 20
184.8551466786602
 30
0.0
 11
487.4551507979394
 21
182.7043856786602
 31
0.0
  0
LINE
  5
A25
330
2
100
AcDbEntity
  8
0
100
AcDbLine
 10
492.4058957979394
 20
186.1130996786602
 30
0.0
 11
488.0471917979393
 21
183.1120166786602
 31
0.0
  0
ARC
  5
A26
330
2
100
AcDbEntity
  8
0
100
AcDbCircle
 10
485.7538567979394
 20
185.1753296786602
 30
0.0
 40
3.0
100
AcDbArc
 50
232.8342209999997
 51
304.5483779999997
  0
LINE
  5
A27
330
2
100
AcDbEntity
  8
0
100
AcDbLine
 10
497.6317257979395
 20
182.4265426786602
 30
0.0
 11
493.1691407979394
 21
179.3539336786602
 31
0.0
  0
ARC
  5
A28
330
2
100
AcDbEntity
  8
0
100
AcDbCircle
 10
490.7046017979395
 20
188.5840396786601
 30
0.0
 40
3.0
100
AcDbArc
 50
304.5483779999997
 51
45.00000000000007
  0
ARC
  5
A29
330
2
100
AcDbEntity
  8
0
100
AcDbCircle
 10
505.0693477979394
 20
191.1898556786601
 30
0.0
 40
9.0
100
AcDbArc
 50
0.0
 51
90.0
  0
CIRCLE
  5
A2A
330
2
100
AcDbEntity
  8
0
100
AcDbCircle
 10
505.0693477979394
 20
191.1898556786601
 30
0.0
 40
4.4
  0
TEXT
  5
C75
330
2
100
AcDbEntity
  8
TITLE
100
AcDbText
 10
55.96023337554652
 20
21.77960671712458
 30
0.0
 40
9.0
  1
VGKC22-5～30N400
100
AcDbText
  0
LINE
  5
153A
330
2
100
AcDbEntity
  8
0
100
AcDbLine
 10
241.6730142599391
 20
379.6794471176824
 30
0.0
 11
276.672831259939
 21
379.6794471176824
 31
0.0
  0
LINE
  5
153B
330
2
100
AcDbEntity
  8
0
100
AcDbLine
 10
241.6730142599391
 20
376.7624551176825
 30
0.0
 11
276.672831259939
 21
376.7624551176825
 31
0.0
  0
LINE
  5
153C
330
2
100
AcDbEntity
  8
0
100
AcDbLine
 10
236.6730142599391
 20
401.2624551176825
 30
0.0
 11
276.672831259939
 21
401.2624551176825
 31
0.0
  0
LINE
  5
153D
330
2
100
AcDbEntity
  8
CENTER
100
AcDbLine
 10
43.35219125993899
 20
390.2624551176825
 30
0.0
 11
284.315440259939
 21
390.2624551176825
 31
0.0
  0
LINE
  5
156E
330
2
100
AcDbEntity
  8
0
100
AcDbLine
 10
143.1729232599391
 20
326.2624551176825
 30
0.0
 11
143.1729232599391
 21
454.2624551176825
 31
0.0
  0
LINE
  5
156F
330
2
100
AcDbEntity
  8
0
100
AcDbLine
 10
234.6729232599392
 20
360.7624551176825
 30
0.0
 11
234.6729232599392
 21
419.7624551176825
 31
0.0
  0
LINE
  5
1570
330
2
100
AcDbEntity
  8
0
100
AcDbLine
 10
153.6726482599391
 20
454.4813881176826
 30
0.0
 11
153.6726482599391
 21
326.0434911176826
 31
0.0
  0
LINE
  5
1571
330
2
100
AcDbEntity
  8
0
100
AcDbLine
 10
217.6729232599392
 20
321.1643411176826
 30
0.0
 11
217.6728922599392
 21
459.3605381176826
 31
0.0
  0
LINE
  5
1572
330
2
100
AcDbEntity
  8
0
100
AcDbLine
 10
229.6729232599392
 20
320.7624551176825
 30
0.0
 11
229.6729232599392
 21
459.7624551176825
 31
0.0
  0
LINE
  5
1573
330
2
100
AcDbEntity
  8
0
100
AcDbLine
 10
159.6729232599391
 20
456.2624551176825
 30
0.0
 11
159.6729232599391
 21
324.2623941176828
 31
0.0
  0
LINE
  5
1574
330
2
100
AcDbEntity
  8
0
100
AcDbLine
 10
143.1729232599391
 20
326.2624551176825
 30
0.0
 11
153.2591042599391
 21
326.2624551176825
 31
0.0
  0
LINE
  5
1575
330
2
100
AcDbEntity
  8
0
100
AcDbLine
 10
160.1728462599391
 20
324.2536661176825
 30
0.0
 11
217.4272872599391
 21
323.2543371176827
 31
0.0
  0
LINE
  5
1576
330
2
100
AcDbEntity
  8
0
100
AcDbLine
 10
159.6729232599391
 20
324.2624551176825
 30
0.0
 11
155.6324102599391
 21
324.3682591176828
 31
0.0
  0
ARC
  5
1577
330
2
100
AcDbEntity
  8
0
100
AcDbCircle
 10
153.2591042599391
 20
325.7624551176825
 30
0.0
 40
0.5
100
AcDbArc
 50
14.00742299999897
 51
90.0
  0
ARC
  5
1578
330
2
100
AcDbEntity
  8
0
100
AcDbCircle
 10
155.6847632599391
 20
326.3675571176825
 30
0.0
 40
2.0
100
AcDbArc
 50
194.0074160000002
 51
268.4999999999972
  0
LINE
  5
1579
330
2
100
AcDbEntity
  8
0
100
AcDbLine
 10
159.6729232599391
 20
324.7623941176827
 30
0.0
 11
160.1728462599391
 21
324.2536661176825
 31
0.0
  0
LINE
  5
157A
330
2
100
AcDbEntity
  8
HIDS
  6
SEKKEI_H
100
AcDbLine
 10
229.6729232599392
 20
324.9624361176827
 30
0.0
 11
217.6729232599392
 21
324.9624361176827
 31
0.0
  0
LINE
  5
157B
330
2
100
AcDbEntity
  8
CENTER
100
AcDbLine
 10
232.222605259939
 20
329.2624551176825
 30
0.0
 11
213.0688582599392
 21
329.2624551176825
 31
0.0
  0
LINE
  5
157C
330
2
100
AcDbEntity
  8
0
100
AcDbLine
 10
218.1554972599391
 20
320.6646461176826
 30
0.0
 11
229.1732282599392
 21
320.2798801176825
 31
0.0
  0
ARC
  5
157D
330
2
100
AcDbEntity
  8
0
100
AcDbCircle
 10
218.1729232599392
 20
321.1643411176826
 30
0.0
 40
0.5
100
AcDbArc
 50
180.0
 51
268.0000000000029
  0
ARC
  5
157E
330
2
100
AcDbEntity
  8
0
100
AcDbCircle
 10
217.4229232599392
 20
323.0043681176825
 30
0.0
 40
0.25
100
AcDbArc
 50
0.0
 51
88.99999999999824
  0
LINE
  5
157F
330
2
100
AcDbEntity
  8
0
100
AcDbLine
 10
229.6729232599392
 20
320.7624551176825
 30
0.0
 11
229.1732282599392
 21
320.2798801176825
 31
0.0
  0
LINE
  5
1580
330
2
100
AcDbEntity
  8
HIDS
  6
SEKKEI_H
100
AcDbLine
 10
229.6729232599392
 20
333.5624431176827
 30
0.0
 11
217.6729232599392
 21
333.5624431176827
 31
0.0
  0
LINE
  5
1581
330
2
100
AcDbEntity
  8
0
100
AcDbLine
 10
234.1729232599392
 20
360.2624551176825
 30
0.0
 11
229.6729232599392
 21
360.2624551176825
 31
0.0
  0
LINE
  5
1582
330
2
100
AcDbEntity
  8
0
100
AcDbLine
 10
234.6729232599392
 20
360.7624551176825
 30
0.0
 11
234.1729232599392
 21
360.2624551176825
 31
0.0
  0
LINE
  5
1583
330
2
100
AcDbEntity
  8
0
100
AcDbLine
 10
143.1729232599391
 20
454.2624551176825
 30
0.0
 11
153.2591042599391
 21
454.2624551176825
 31
0.0
  0
LINE
  5
1584
330
2
100
AcDbEntity
  8
0
100
AcDbLine
 10
236.6730142599391
 20
402.2624551176825
 30
0.0
 11
236.6730142599391
 21
378.2624551176825
 31
0.0
  0
LINE
  5
1585
330
2
100
AcDbEntity
  8
0
100
AcDbLine
 10
241.6730142599391
 20
379.6794471176824
 30
0.0
 11
241.6730142599391
 21
376.7624551176825
 31
0.0
  0
LINE
  5
1586
330
2
100
AcDbEntity
  8
0
100
AcDbLine
 10
236.672831259939
 20
379.2624551176825
 30
0.0
 11
241.6730142599391
 21
379.2624551176825
 31
0.0
  0
LINE
  5
1587
330
2
100
AcDbEntity
  8
0
100
AcDbLine
 10
234.6730142599391
 20
378.2624551176825
 30
0.0
 11
236.6730142599391
 21
378.2624551176825
 31
0.0
  0
LINE
  5
1588
330
2
100
AcDbEntity
  8
0
100
AcDbLine
 10
234.672831259939
 20
402.2624551176825
 30
0.0
 11
236.6730142599391
 21
402.2624551176825
 31
0.0
  0
LINE
  5
1589
330
2
100
AcDbEntity
  8
0
100
AcDbLine
 10
234.1729232599392
 20
420.2624551176825
 30
0.0
 11
229.6729232599392
 21
420.2624551176825
 31
0.0
  0
LINE
  5
158A
330
2
100
AcDbEntity
  8
0
100
AcDbLine
 10
234.1729232599392
 20
420.2624551176825
 30
0.0
 11
234.6729232599392
 21
419.7624551176825
 31
0.0
  0
LINE
  5
158B
330
2
100
AcDbEntity
  8
0
100
AcDbLine
 10
160.1728462599391
 20
456.2711831176827
 30
0.0
 11
217.427256259939
 21
457.2705421176826
 31
0.0
  0
LINE
  5
158C
330
2
100
AcDbEntity
  8
0
100
AcDbLine
 10
159.6729232599391
 20
456.2624551176825
 30
0.0
 11
155.6324102599391
 21
456.1566501176826
 31
0.0
  0
ARC
  5
158D
330
2
100
AcDbEntity
  8
0
100
AcDbCircle
 10
155.6847632599391
 20
454.1573221176824
 30
0.0
 40
2.0
100
AcDbArc
 50
91.50000000000273
 51
165.9925839999997
  0
ARC
  5
158E
330
2
100
AcDbEntity
  8
0
100
AcDbCircle
 10
153.2591042599391
 20
454.7624551176824
 30
0.0
 40
0.5
100
AcDbArc
 50
270.0
 51
345.9925839999997
  0
LINE
  5
158F
330
2
100
AcDbEntity
  8
0
100
AcDbLine
 10
159.6729232599391
 20
455.7624551176825
 30
0.0
 11
160.1728462599391
 21
456.2711831176827
 31
0.0
  0
LINE
  5
1590
330
2
100
AcDbEntity
  8
HIDS
  6
SEKKEI_H
100
AcDbLine
 10
229.6729232599392
 20
446.9624361176827
 30
0.0
 11
217.6729232599392
 21
446.9624361176827
 31
0.0
  0
LINE
  5
1591
330
2
100
AcDbEntity
  8
HIDS
  6
SEKKEI_H
100
AcDbLine
 10
229.6729232599392
 20
455.5624431176827
 30
0.0
 11
217.6729232599392
 21
455.5624431176827
 31
0.0
  0
LINE
  5
1592
330
2
100
AcDbEntity
  8
CENTER
100
AcDbLine
 10
232.222605259939
 20
451.2624551176825
 30
0.0
 11
213.0688582599392
 21
451.2624551176825
 31
0.0
  0
LINE
  5
1593
330
2
100
AcDbEntity
  8
0
100
AcDbLine
 10
218.1554662599391
 20
459.8602331176826
 30
0.0
 11
229.1732282599392
 21
460.2449991176825
 31
0.0
  0
ARC
  5
1594
330
2
100
AcDbEntity
  8
0
100
AcDbCircle
 10
217.4228922599392
 20
457.5205111176826
 30
0.0
 40
0.25
100
AcDbArc
 50
270.9999919999966
 51
0.0
  0
ARC
  5
1595
330
2
100
AcDbEntity
  8
0
100
AcDbCircle
 10
218.1728922599392
 20
459.3605381176826
 30
0.0
 40
0.5
100
AcDbArc
 50
91.9999919999979
 51
180.0
  0
LINE
  5
1596
330
2
100
AcDbEntity
  8
0
100
AcDbLine
 10
229.1732282599392
 20
460.2449991176825
 30
0.0
 11
229.6729232599392
 21
459.7624551176825
 31
0.0
  0
LINE
  5
15F0
330
2
100
AcDbEntity
  8
0
100
AcDbLine
 10
276.672831259939
 20
401.2624551176825
 30
0.0
 11
276.672831259939
 21
376.7624551176825
 31
0.0
  0
MTEXT
  5
2445
330
2
100
AcDbEntity
  8
TITLE
100
AcDbMText
 10
192.928138669007
 20
33.7568019372027
 30
0.0
 40
5.6568
 41
23.355513
 71
     1
 72
     5
  1
L2\PL4
1001
ACAD
1000
MTEXTBEGIN
1070
    73
1070
     1
1070
    44
1040
1.0
1070
    74
1070
     0
1000
MTEXTEND
1000
MTEXTBEGIN
1070
    73
1070
     1
1070
    44
1040
1.0
1070
    74
1070
     0
1000
MTEXTEND
  0
LINE
  5
259F
330
2
100
AcDbEntity
  8
0
100
AcDbLine
 10
54.67283125993936
 20
340.2624551176825
 30
0.0
 11
56.17292325993912
 21
340.2624551176825
 31
0.0
  0
LINE
  5
25A0
330
2
100
AcDbEntity
  8
0
100
AcDbLine
 10
54.67252667344928
 20
440.2799048660337
 30
0.0
 11
56.17292325993912
 21
440.3322998693766
 31
0.0
  0
LINE
  5
25A1
330
2
100
AcDbEntity
  8
0
100
AcDbLine
 10
143.1729232599391
 20
453.7624931176821
 30
0.0
 11
134.155444259939
 21
453.6048551176825
 31
0.0
  0
LINE
  5
25A2
330
2
100
AcDbEntity
  8
CENTER
100
AcDbLine
 10
123.1110412599391
 20
431.2724951176821
 30
0.0
 11
147.3705012599389
 21
431.2724951176821
 31
0.0
  0
LINE
  5
25A3
330
2
100
AcDbEntity
  8
0
100
AcDbLine
 10
143.1729232599391
 20
326.7623561176822
 30
0.0
 11
134.155444259939
 21
326.9197351176824
 31
0.0
  0
LINE
  5
25A4
330
2
100
AcDbEntity
  8
CENTER
100
AcDbLine
 10
123.7897442599392
 20
349.2523541176822
 30
0.0
 11
147.3705012599389
 21
349.2523541176822
 31
0.0
  0
LINE
  5
25A5
330
2
100
AcDbEntity
  8
0
100
AcDbLine
 10
133.1729232599391
 20
452.6050761176823
 30
0.0
 11
133.1729232599391
 21
327.9195941176824
 31
0.0
  0
LINE
  5
25A6
330
2
100
AcDbEntity
  8
0
100
AcDbLine
 10
53.67292325993912
 20
408.2624551176825
 30
0.0
 11
53.67292325993912
 21
372.2624551176825
 31
0.0
  0
ARC
  5
25A7
330
2
100
AcDbEntity
  8
0
100
AcDbCircle
 10
63.67292325994412
 20
400.1047109962594
 30
0.0
 40
1.0
100
AcDbArc
 50
0.0
 51
87.9999999999964
  0
LINE
  5
25A8
330
2
100
AcDbEntity
  8
0
100
AcDbLine
 10
59.17292325994413
 20
401.2624551176825
 30
0.0
 11
59.17292325994413
 21
397.7124551176823
 31
0.0
  0
LINE
  5
25A9
330
2
100
AcDbEntity
  8
0
100
AcDbLine
 10
132.1816432599393
 20
386.9982331176827
 30
0.0
 11
69.60436034119448
 21
386.4521461876435
 31
0.0
  0
LINE
  5
25AA
330
2
100
AcDbEntity
  8
0
100
AcDbLine
 10
132.1816432599393
 20
384.0268451176827
 30
0.0
 11
69.76930640869568
 21
384.5715050848873
 31
0.0
  0
LINE
  5
25AB
330
2
100
AcDbEntity
  8
0
100
AcDbLine
 10
132.1816432599393
 20
383.2124371176826
 30
0.0
 11
70.55439899048451
 21
383.7502641921794
 31
0.0
  0
LINE
  5
25AC
330
2
100
AcDbEntity
  8
0
100
AcDbLine
 10
132.1816432599393
 20
388.0840491176825
 30
0.0
 11
70.5543982685067
 21
387.5461985923914
 31
0.0
  0
LINE
  5
25AD
330
2
100
AcDbEntity
  8
0
100
AcDbLine
 10
132.1816432599389
 20
397.3124731176824
 30
0.0
 11
70.55439899048406
 21
396.7746460431856
 31
0.0
  0
LINE
  5
25AE
330
2
100
AcDbEntity
  8
0
100
AcDbLine
 10
132.1816432599389
 20
392.4408611176825
 30
0.0
 11
70.5543982685067
 21
392.9787116429736
 31
0.0
  0
LINE
  5
25AF
330
2
100
AcDbEntity
  8
0
100
AcDbLine
 10
132.1816432599389
 20
393.5266771176823
 30
0.0
 11
70.14300629058789
 21
394.0680634998682
 31
0.0
  0
LINE
  5
25B0
330
2
100
AcDbEntity
  8
0
100
AcDbLine
 10
132.1816432599389
 20
396.4980651176827
 30
0.0
 11
70.79884682296825
 21
395.9623897435337
 31
0.0
  0
LINE
  5
25B1
330
2
100
AcDbEntity
  8
0
100
AcDbLine
 10
132.1816432599389
 20
374.1982611176824
 30
0.0
 11
62.50122325993925
 21
374.8062631176824
 31
0.0
  0
LINE
  5
25B2
330
2
100
AcDbEntity
  8
0
100
AcDbLine
 10
132.1816432599389
 20
378.9210551176822
 30
0.0
 11
63.29422325993892
 21
378.3198591176822
 31
0.0
  0
LINE
  5
25B3
330
2
100
AcDbEntity
  8
0
100
AcDbLine
 10
132.1816432599389
 20
374.7164651176824
 30
0.0
 11
61.98576725993916
 21
375.3290751176821
 31
0.0
  0
LINE
  5
25B4
330
2
100
AcDbEntity
  8
0
100
AcDbLine
 10
132.1816432599389
 20
377.5968671176822
 30
0.0
 11
61.98576725993916
 21
376.9844711176822
 31
0.0
  0
LINE
  5
25B5
330
2
100
AcDbEntity
  8
0
100
AcDbLine
 10
132.1816432599389
 20
334.4840971176825
 30
0.0
 11
61.35630325993907
 21
335.1021541176821
 31
0.0
  0
LINE
  5
25B6
330
2
100
AcDbEntity
  8
0
100
AcDbLine
 10
132.474925259939
 20
336.0943761176824
 30
0.0
 11
61.35630325993907
 21
335.4737361176824
 31
0.0
  0
LINE
  5
25B7
330
2
100
AcDbEntity
  8
0
100
AcDbLine
 10
132.1816432599389
 20
337.9989551176825
 30
0.0
 11
61.48020525993889
 21
337.3819541176824
 31
0.0
  0
LINE
  5
25B8
330
2
100
AcDbEntity
  8
0
100
AcDbLine
 10
132.1816432599389
 20
336.1410331176823
 30
0.0
 11
61.48020525993889
 21
336.7580341176824
 31
0.0
  0
LINE
  5
25B9
330
2
100
AcDbEntity
  8
0
100
AcDbLine
 10
132.1816432599389
 20
339.4327161176822
 30
0.0
 11
61.57934125993915
 21
340.0488361176824
 31
0.0
  0
LINE
  5
25BA
330
2
100
AcDbEntity
  8
0
100
AcDbLine
 10
132.1816432599389
 20
341.4938351176822
 30
0.0
 11
61.57934125993915
 21
340.8776931176824
 31
0.0
  0
LINE
  5
25BB
330
2
100
AcDbEntity
  8
0
100
AcDbLine
 10
114.0267442599392
 20
339.5911331176823
 30
0.0
 11
63.21492325993904
 21
339.1477171176823
 31
0.0
  0
LINE
  5
25BC
330
2
100
AcDbEntity
  8
0
100
AcDbLine
 10
132.1816432599389
 20
344.1272351176824
 30
0.0
 11
61.71811925993916
 21
344.7421531176821
 31
0.0
  0
LINE
  5
25BD
330
2
100
AcDbEntity
  8
0
100
AcDbLine
 10
128.6828412599388
 20
346.4397351176824
 30
0.0
 11
61.71811925993916
 21
345.8553541176822
 31
0.0
  0
LINE
  5
25BE
330
2
100
AcDbEntity
  8
0
100
AcDbLine
 10
132.1816432599389
 20
357.5204541176824
 30
0.0
 11
61.89652525993915
 21
358.1338541176821
 31
0.0
  0
LINE
  5
25BF
330
2
100
AcDbEntity
  8
0
100
AcDbLine
 10
132.1816432599389
 20
360.2224351176821
 30
0.0
 11
61.89652525993915
 21
359.6090361176823
 31
0.0
  0
LINE
  5
25C0
330
2
100
AcDbEntity
  8
0
100
AcDbLine
 10
132.1816432599389
 20
365.7384361176821
 30
0.0
 11
61.96592325993925
 21
366.3512341176822
 31
0.0
  0
LINE
  5
25C1
330
2
100
AcDbEntity
  8
0
100
AcDbLine
 10
132.1816432599389
 20
368.5804561176821
 30
0.0
 11
61.96592325993925
 21
367.9676551176823
 31
0.0
  0
LINE
  5
25C2
330
2
100
AcDbEntity
  8
0
100
AcDbLine
 10
132.1816432599389
 20
343.3078541176821
 30
0.0
 11
63.37352325993925
 21
342.7073751176824
 31
0.0
  0
LINE
  5
25C3
330
2
100
AcDbEntity
  8
0
100
AcDbLine
 10
128.2341412599389
 20
348.2581141176822
 30
0.0
 11
63.52224325993893
 21
347.6933941176823
 31
0.0
  0
LINE
  5
25C4
330
2
100
AcDbEntity
  8
0
100
AcDbLine
 10
132.1816432599389
 20
361.896635117682
 30
0.0
 11
63.55198125993911
 21
361.2978551176822
 31
0.0
  0
LINE
  5
25C5
330
2
100
AcDbEntity
  8
0
100
AcDbLine
 10
132.1816432599389
 20
370.1028561176824
 30
0.0
 11
63.47268125993924
 21
369.5030351176821
 31
0.0
  0
LINE
  5
25C6
330
2
100
AcDbEntity
  8
0
100
AcDbLine
 10
56.17292325993912
 20
371.2624551176825
 30
0.0
 11
56.17292325993912
 21
339.9169161176821
 31
0.0
  0
LINE
  5
25C7
330
2
100
AcDbEntity
  8
0
100
AcDbLine
 10
61.33522325993908
 20
337.8892361176824
 30
0.0
 11
58.15544525993892
 21
337.9169961176823
 31
0.0
  0
ARC
  5
25C8
330
2
100
AcDbEntity
  8
0
100
AcDbCircle
 10
58.17292325993912
 20
339.9169161176821
 30
0.0
 40
2.0
100
AcDbArc
 50
180.0
 51
269.5000000000084
  0
ARC
  5
25C9
330
2
100
AcDbEntity
  8
0
100
AcDbCircle
 10
61.7229032599389
 20
345.3053551176824
 30
0.0
 40
0.55
100
AcDbArc
 50
90.49999999999155
 51
180.0
  0
ARC
  5
25CA
330
2
100
AcDbEntity
  8
0
100
AcDbCircle
 10
63.54292525993924
 20
345.3234561176821
 30
0.0
 40
2.37
100
AcDbArc
 50
90.49999999999155
 51
180.0
  0
ARC
  5
25CB
330
2
100
AcDbEntity
  8
0
100
AcDbCircle
 10
61.58290325993903
 20
340.4677161176821
 30
0.0
 40
0.41
100
AcDbArc
 50
90.49999999999155
 51
180.0
  0
ARC
  5
25CC
330
2
100
AcDbEntity
  8
0
100
AcDbCircle
 10
63.39292525993915
 20
340.4874531176822
 30
0.0
 40
2.22
100
AcDbArc
 50
90.49999999999155
 51
180.0
  0
ARC
  5
25CD
330
2
100
AcDbEntity
  8
0
100
AcDbCircle
 10
63.23290525993889
 20
337.0877951176824
 30
0.0
 40
2.06
100
AcDbArc
 50
90.49999999999155
 51
180.0
  0
ARC
  5
25CE
330
2
100
AcDbEntity
  8
0
100
AcDbCircle
 10
61.48290525993889
 20
337.0680351176822
 30
0.0
 40
0.31
100
AcDbArc
 50
180.0
 51
269.5000000000084
  0
ARC
  5
25CF
330
2
100
AcDbEntity
  8
0
100
AcDbCircle
 10
61.48290525993889
 20
337.0719761176822
 30
0.0
 40
0.31
100
AcDbArc
 50
90.49999999999155
 51
180.0
  0
LINE
  5
25D0
330
2
100
AcDbEntity
  8
0
100
AcDbLine
 10
61.17292325993912
 20
337.0877951176824
 30
0.0
 11
61.17292325993912
 21
337.0680351176822
 31
0.0
  0
LINE
  5
25D1
330
2
100
AcDbEntity
  8
0
100
AcDbLine
 10
61.17292325993912
 20
337.0719761176822
 30
0.0
 11
61.17292325993912
 21
337.0680351176822
 31
0.0
  0
ARC
  5
25D2
330
2
100
AcDbEntity
  8
0
100
AcDbCircle
 10
61.58290325993903
 20
340.4588171176821
 30
0.0
 40
0.41
100
AcDbArc
 50
180.0
 51
269.5000000000084
  0
LINE
  5
25D3
330
2
100
AcDbEntity
  8
0
100
AcDbLine
 10
61.17292325993912
 20
340.4874531176822
 30
0.0
 11
61.17292325993912
 21
340.4588171176821
 31
0.0
  0
LINE
  5
25D4
330
2
100
AcDbEntity
  8
0
100
AcDbLine
 10
61.17292325993912
 20
340.4677161176821
 30
0.0
 11
61.17292325993912
 21
340.4588171176821
 31
0.0
  0
ARC
  5
25D5
330
2
100
AcDbEntity
  8
0
100
AcDbCircle
 10
61.7229032599389
 20
345.2921561176824
 30
0.0
 40
0.55
100
AcDbArc
 50
180.0
 51
269.5000000000084
  0
LINE
  5
25D6
330
2
100
AcDbEntity
  8
0
100
AcDbLine
 10
61.17292325993912
 20
345.3234561176821
 30
0.0
 11
61.17292325993912
 21
345.2921561176824
 31
0.0
  0
LINE
  5
25D7
330
2
100
AcDbEntity
  8
0
100
AcDbLine
 10
61.17292325993912
 20
345.3053551176824
 30
0.0
 11
61.17292325993912
 21
345.2921561176824
 31
0.0
  0
ARC
  5
25D8
330
2
100
AcDbEntity
  8
0
100
AcDbCircle
 10
61.35790525993889
 20
335.2871741176825
 30
0.0
 40
0.185
100
AcDbArc
 50
180.0
 51
269.5000000000084
  0
ARC
  5
25D9
330
2
100
AcDbEntity
  8
0
100
AcDbCircle
 10
61.35790525993889
 20
335.2887341176822
 30
0.0
 40
0.185
100
AcDbArc
 50
90.49999999999155
 51
180.0
  0
LINE
  5
25DA
330
2
100
AcDbEntity
  8
0
100
AcDbLine
 10
61.17292325993912
 20
335.3069151176821
 30
0.0
 11
61.17292325993912
 21
335.2871741176825
 31
0.0
  0
ARC
  5
25DB
330
2
100
AcDbEntity
  8
0
100
AcDbCircle
 10
62.98790325993923
 20
335.3069151176821
 30
0.0
 40
1.814999999999999
100
AcDbArc
 50
127.1051030000108
 51
180.0
  0
ARC
  5
25DC
330
2
100
AcDbEntity
  8
0
100
AcDbCircle
 10
63.31292325993899
 20
376.1800571176824
 30
0.0
 40
2.14
100
AcDbArc
 50
90.49999999999155
 51
180.0
  0
LINE
  5
25DD
330
2
100
AcDbEntity
  8
0
100
AcDbLine
 10
57.67292325993913
 20
379.2362725202899
 30
0.0
 11
57.67292325993913
 21
371.2624551176825
 31
0.0
  0
LINE
  5
25DE
330
2
100
AcDbEntity
  8
0
100
AcDbLine
 10
57.67292325993913
 20
371.2624551176825
 30
0.0
 11
54.67292325993958
 21
371.2624551176825
 31
0.0
  0
ARC
  5
25DF
330
2
100
AcDbEntity
  8
0
100
AcDbCircle
 10
54.67292325993913
 20
372.2624551176825
 30
0.0
 40
1.0
100
AcDbArc
 50
180.0
 51
270.0
  0
ARC
  5
25E0
330
2
100
AcDbEntity
  8
0
100
AcDbCircle
 10
63.49292325993883
 20
367.1832351176824
 30
0.0
 40
2.319999999999999
100
AcDbArc
 50
90.49999999999155
 51
180.0
  0
ARC
  5
25E1
330
2
100
AcDbEntity
  8
0
100
AcDbCircle
 10
61.9729032599389
 20
367.1676351176822
 30
0.0
 40
0.8
100
AcDbArc
 50
90.49999999999155
 51
180.0
  0
ARC
  5
25E2
330
2
100
AcDbEntity
  8
0
100
AcDbCircle
 10
61.9729032599389
 20
367.1512551176822
 30
0.0
 40
0.8
100
AcDbArc
 50
180.0
 51
269.5000000000084
  0
LINE
  5
25E3
330
2
100
AcDbEntity
  8
0
100
AcDbLine
 10
61.17292325993912
 20
367.1832351176824
 30
0.0
 11
61.17292325993912
 21
367.1676351176822
 31
0.0
  0
LINE
  5
25E4
330
2
100
AcDbEntity
  8
0
100
AcDbLine
 10
61.17292325993912
 20
367.1676351176822
 30
0.0
 11
61.17292325993912
 21
367.1512551176822
 31
0.0
  0
ARC
  5
25E5
330
2
100
AcDbEntity
  8
0
100
AcDbCircle
 10
61.90292725993913
 20
358.8638551176825
 30
0.0
 40
0.73
100
AcDbArc
 50
180.0
 51
269.5000000000084
  0
LINE
  5
25E6
330
2
100
AcDbEntity
  8
0
100
AcDbLine
 10
61.17292325993912
 20
358.8978351176822
 30
0.0
 11
61.17292325993912
 21
358.8792341176824
 31
0.0
  0
LINE
  5
25E7
330
2
100
AcDbEntity
  8
0
100
AcDbLine
 10
61.17292325993912
 20
358.8792341176824
 30
0.0
 11
61.17292325993912
 21
358.8638551176825
 31
0.0
  0
ARC
  5
25E8
330
2
100
AcDbEntity
  8
0
100
AcDbCircle
 10
63.57290125993904
 20
358.8978351176822
 30
0.0
 40
2.399999999999999
100
AcDbArc
 50
90.49999999999155
 51
180.0
  0
ARC
  5
25E9
330
2
100
AcDbEntity
  8
0
100
AcDbCircle
 10
61.90292725993913
 20
358.8792341176824
 30
0.0
 40
0.73
100
AcDbArc
 50
90.49999999999155
 51
180.0
  0
ARC
  5
25EA
330
2
100
AcDbEntity
  8
0
100
AcDbCircle
 10
61.99292325993884
 20
376.1490671176823
 30
0.0
 40
0.8199999999999999
100
AcDbArc
 50
180.0
 51
269.5000000000084
  0
ARC
  5
25EB
330
2
100
AcDbEntity
  8
0
100
AcDbCircle
 10
61.99292325993884
 20
376.1644631176821
 30
0.0
 40
0.8199999999999999
100
AcDbArc
 50
90.49999999999155
 51
180.0
  0
ARC
  5
25EC
330
2
100
AcDbEntity
  8
0
100
AcDbCircle
 10
62.51291925993928
 20
376.1462751176825
 30
0.0
 40
1.34
100
AcDbArc
 50
180.0
 51
269.5000000000084
  0
LINE
  5
25ED
330
2
100
AcDbEntity
  8
0
100
AcDbLine
 10
61.17292325993912
 20
376.1800571176824
 30
0.0
 11
61.17292325993912
 21
376.1462751176825
 31
0.0
  0
LINE
  5
25EE
330
2
100
AcDbEntity
  8
0
100
AcDbLine
 10
61.17292325993912
 20
376.1644631176821
 30
0.0
 11
61.17292325993912
 21
376.1490671176823
 31
0.0
  0
ARC
  5
25EF
330
2
100
AcDbEntity
  8
0
100
AcDbCircle
 10
59.17292325994413
 20
394.7124551176823
 30
0.0
 40
3.0
100
AcDbArc
 50
90.0
 51
270.0
  0
ARC
  5
25F0
330
2
100
AcDbEntity
  8
0
100
AcDbCircle
 10
59.17292325994458
 20
384.3624551176824
 30
0.0
 40
1.0
100
AcDbArc
 50
90.0
 51
270.0
  0
LINE
  5
25F1
330
2
100
AcDbEntity
  8
0
100
AcDbLine
 10
59.17292325994458
 20
379.2624551176825
 30
0.0
 11
54.67292325994458
 21
379.1839073255053
 31
0.0
  0
LINE
  5
25F2
330
2
100
AcDbEntity
  8
0
100
AcDbLine
 10
57.3729232599453
 20
389.4624551176823
 30
0.0
 11
60.9729232599434
 21
389.4624551176823
 31
0.0
  0
ARC
  5
25F3
330
2
100
AcDbEntity
  8
0
100
AcDbCircle
 10
59.17292325994458
 20
384.3624551176824
 30
0.0
 40
2.0
100
AcDbArc
 50
235.2729312954403
 51
304.7270687045578
  0
LINE
  5
25F4
330
2
100
AcDbEntity
  8
0
100
AcDbLine
 10
57.3729232599444
 20
386.4624551176823
 30
0.0
 11
68.19587927113753
 21
386.4624551176823
 31
0.0
  0
LINE
  5
25F5
330
2
100
AcDbEntity
  8
0
100
AcDbLine
 10
57.3729232599444
 20
388.4624551176823
 30
0.0
 11
68.10161967767772
 21
388.4624551176823
 31
0.0
  0
ARC
  5
25F6
330
2
100
AcDbEntity
  8
0
100
AcDbCircle
 10
57.3729232599444
 20
387.4624551176823
 30
0.0
 40
2.0
100
AcDbArc
 50
89.99999999997395
 51
204.6092450239372
  0
LINE
  5
25F7
330
2
100
AcDbEntity
  8
0
100
AcDbLine
 10
55.55458540441851
 20
386.6296001224029
 30
0.0
 11
55.93015204397033
 21
385.9790996210715
 31
0.0
  0
ARC
  5
25F8
330
2
100
AcDbEntity
  8
0
100
AcDbCircle
 10
59.17292325994458
 20
385.7624551176825
 30
0.0
 40
3.25
100
AcDbArc
 50
176.177837868673
 51
249.4781325999769
  0
ARC
  5
25F9
330
2
100
AcDbEntity
  8
0
100
AcDbCircle
 10
57.3729232599444
 20
387.4624551176823
 30
0.0
 40
1.0
100
AcDbArc
 50
90.0
 51
270.0
  0
LINE
  5
25FA
330
2
100
AcDbEntity
  8
0
100
AcDbLine
 10
59.17292325994413
 20
391.7124551176823
 30
0.0
 11
59.17292325994458
 21
389.4624551176823
 31
0.0
  0
LINE
  5
25FB
330
2
100
AcDbEntity
  8
0
100
AcDbLine
 10
64.67292325994367
 20
391.7124551176823
 30
0.0
 11
64.67292325994458
 21
388.4624551176823
 31
0.0
  0
ARC
  5
25FC
330
2
100
AcDbEntity
  8
0
100
AcDbCircle
 10
60.9729232599443
 20
387.4624551176823
 30
0.0
 40
2.0
100
AcDbArc
 50
29.99999999999609
 51
90.00000000002605
  0
ARC
  5
25FD
330
2
100
AcDbEntity
  8
0
100
AcDbCircle
 10
63.67292325994458
 20
380.4202081246942
 30
0.0
 40
1.0
100
AcDbArc
 50
272.0000000000035
 51
0.0
  0
LINE
  5
25FE
330
2
100
AcDbEntity
  8
0
100
AcDbLine
 10
59.17292325994458
 20
385.3624551176824
 30
0.0
 11
69.90161967767789
 21
385.3624551176824
 31
0.0
  0
LINE
  5
25FF
330
2
100
AcDbEntity
  8
0
100
AcDbLine
 10
59.17292325994458
 20
383.3624551176824
 30
0.0
 11
69.99587927113771
 21
383.3624551176824
 31
0.0
  0
LINE
  5
2600
330
2
100
AcDbEntity
  8
0
100
AcDbLine
 10
59.17292325994458
 20
382.3624551176824
 30
0.0
 11
59.17292325994458
 21
379.2624551176825
 31
0.0
  0
LINE
  5
2601
330
2
100
AcDbEntity
  8
0
100
AcDbLine
 10
59.17292325994458
 20
379.2624551176825
 30
0.0
 11
63.70782275664715
 21
379.4208172976748
 31
0.0
  0
ARC
  5
2602
330
2
100
AcDbEntity
  8
0
100
AcDbCircle
 10
59.17292325994458
 20
385.7624551176825
 30
0.0
 40
3.25
100
AcDbArc
 50
352.930285957695
 51
3.822162131326958
  0
LINE
  5
2603
330
2
100
AcDbEntity
  8
0
100
AcDbLine
 10
62.69475990200089
 20
386.4624551176823
 30
0.0
 11
62.41569447591882
 21
385.9790996210715
 31
0.0
  0
LINE
  5
2604
330
2
100
AcDbEntity
  8
0
100
AcDbLine
 10
62.69475990200089
 20
386.4624551176823
 30
0.0
 11
62.41569447591882
 21
385.9790996210715
 31
0.0
  0
ARC
  5
2605
330
2
100
AcDbEntity
  8
0
100
AcDbCircle
 10
59.17292325994458
 20
385.7624551176825
 30
0.0
 40
3.25
100
AcDbArc
 50
290.521867400023
 51
312.3994733644338
  0
ARC
  5
2606
330
2
100
AcDbEntity
  8
0
100
AcDbCircle
 10
70.57096273855586
 20
385.6482313954359
 30
0.0
 40
1.898039478616692
100
AcDbArc
 50
260.5613775252245
 51
269.4999867419111
  0
ARC
  5
2607
330
2
100
AcDbEntity
  8
0
100
AcDbCircle
 10
69.61255986195419
 20
385.5125453619177
 30
0.0
 40
0.9396366020142174
100
AcDbArc
 50
90.49998466970505
 51
189.1913538948804
  0
ARC
  5
2608
330
2
100
AcDbEntity
  8
0
100
AcDbCircle
 10
70.57096273855586
 20
385.6482313954359
 30
0.0
 40
1.898039478616692
100
AcDbArc
 50
90.50003505310135
 51
188.6596083652989
  0
SPLINE
  5
2609
330
2
100
AcDbEntity
  8
HOJO
100
AcDbSpline
210
0.0
220
0.0
230
1.0
 70
     8
 71
     3
 72
    10
 73
     6
 74
     4
 42
0.0000000001
 43
0.0000000001
 44
0.0000000001
 40
0.0
 40
0.0
 40
0.0
 40
0.0
 40
0.6971907634055975
 40
1.694952319108457
 40
2.335350738679081
 40
2.335350738679081
 40
2.335350738679081
 40
2.335350738679081
 10
69.99587927113771
 20
383.3624551176824
 30
0.0
 10
70.1630934132459
 20
383.583440129806
 30
0.0
 10
70.56961055723329
 20
384.1206805501433
 30
0.0
 10
69.39330144645007
 20
384.6311275958163
 30
0.0
 10
69.75875470100939
 20
385.1569124419927
 30
0.0
 10
69.90161967767789
 20
385.3624551176824
 30
0.0
 11
69.99587927113771
 21
383.3624551176824
 31
0.0
 11
70.28429172026699
 21
383.997193819642
 31
0.0
 11
69.65497385277422
 21
384.7714593707889
 31
0.0
 11
69.90161967767789
 21
385.3624551176824
 31
0.0
  0
SPLINE
  5
260A
330
2
100
AcDbEntity
  8
HOJO
100
AcDbSpline
210
0.0
220
0.0
230
1.0
 70
     8
 71
     3
 72
    10
 73
     6
 74
     4
 42
0.0000000001
 43
0.0000000001
 44
0.0000000001
 40
0.0
 40
0.0
 40
0.0
 40
0.0
 40
0.6971907634055975
 40
1.694952319108457
 40
2.335350738679081
 40
2.335350738679081
 40
2.335350738679081
 40
2.335350738679081
 10
68.19587927113753
 20
386.4624551176823
 30
0.0
 10
68.36309341324572
 20
386.683440129806
 30
0.0
 10
68.7696105572331
 20
387.2206805501432
 30
0.0
 10
67.59330144644988
 20
387.7311275958161
 30
0.0
 10
67.95875470100921
 20
388.2569124419927
 30
0.0
 10
68.10161967767772
 20
388.4624551176823
 30
0.0
 11
68.19587927113753
 21
386.4624551176823
 31
0.0
 11
68.48429172026681
 21
387.0971938196419
 31
0.0
 11
67.85497385277404
 21
387.8714593707888
 31
0.0
 11
68.10161967767772
 21
388.4624551176823
 31
0.0
  0
LINE
  5
260B
330
2
100
AcDbEntity
  8
0
100
AcDbLine
 10
64.67292325994458
 20
386.4624551176823
 30
0.0
 11
64.67292325994458
 21
385.3624551176824
 31
0.0
  0
LINE
  5
260C
330
2
100
AcDbEntity
  8
0
100
AcDbLine
 10
64.67292325994458
 20
383.3624551176824
 30
0.0
 11
64.67292325994458
 21
380.4202081246942
 31
0.0
  0
LINE
  5
260D
330
2
100
AcDbEntity
  8
0
100
AcDbLine
 10
59.17292325994413
 20
397.7124551176823
 30
0.0
 11
70.22051235532081
 21
397.7124551176823
 31
0.0
  0
LINE
  5
260E
330
2
100
AcDbEntity
  8
0
100
AcDbLine
 10
59.17292325994413
 20
391.7124551176823
 30
0.0
 11
70.29830269918147
 21
391.7124551176823
 31
0.0
  0
ARC
  5
260F
330
2
100
AcDbEntity
  8
0
100
AcDbCircle
 10
70.57096273855586
 20
394.8766788399291
 30
0.0
 40
1.898039478616692
100
AcDbArc
 50
246.5592971331421
 51
269.4999649468986
  0
SPLINE
  5
2610
330
2
100
AcDbEntity
  8
HOJO
100
AcDbSpline
210
0.0
220
0.0
230
1.0
 70
     8
 71
     3
 72
    12
 73
     8
 74
     6
 42
0.0000000001
 43
0.0000000001
 44
0.0000000001
 40
0.0
 40
0.0
 40
0.0
 40
0.0
 40
1.684659730310068
 40
2.786160565551293
 40
4.550934817628394
 40
5.718899366606923
 40
6.335570522766976
 40
6.335570522766976
 40
6.335570522766976
 40
6.335570522766976
 10
70.29830269918147
 20
391.7124551176823
 30
0.0
 10
70.02139109090787
 20
392.2634149313657
 30
0.0
 10
69.56342311717747
 20
393.174615263676
 30
0.0
 10
70.44604773511506
 20
394.5116164956983
 30
0.0
 10
71.00812557296237
 20
395.8374359621682
 30
0.0
 10
70.51071608148411
 20
396.9716291707775
 30
0.0
 10
70.29503855195954
 20
397.5222062159055
 30
0.0
 10
70.22051235532081
 20
397.7124551176823
 30
0.0
 11
70.29830269918147
 21
391.7124551176823
 31
0.0
 11
69.83256081529998
 21
393.3314557058622
 31
0.0
 11
70.29429065166642
 21
394.3315105284825
 31
0.0
 11
70.79449822695505
 21
396.0239113505156
 31
0.0
 11
70.44820059712219
 21
397.1393570637813
 31
0.0
 11
70.22051235532081
 21
397.7124551176823
 31
0.0
  0
LINE
  5
2611
330
2
100
AcDbEntity
  8
0
100
AcDbLine
 10
64.67292325994413
 20
400.1047109962594
 30
0.0
 11
64.67292325994458
 21
397.7124551176823
 31
0.0
  0
ARC
  5
2612
330
2
100
AcDbEntity
  8
0
100
AcDbCircle
 10
132.1729232599391
 20
356.5205351176821
 30
0.0
 40
1.0
100
AcDbArc
 50
0.0
 51
89.49999999998238
  0
ARC
  5
2613
330
2
100
AcDbEntity
  8
0
100
AcDbCircle
 10
134.1729232599391
 20
327.9195941176824
 30
0.0
 40
1.0
100
AcDbArc
 50
180.0
 51
268.9999999999982
  0
ARC
  5
2614
330
2
100
AcDbEntity
  8
0
100
AcDbCircle
 10
132.1729232599391
 20
333.4841161176821
 30
0.0
 40
1.0
100
AcDbArc
 50
0.0
 51
89.49999999998238
  0
LINE
  5
2615
330
2
100
AcDbEntity
  8
0
100
AcDbLine
 10
131.8721422599392
 20
344.5023541176822
 30
0.0
 11
130.2613252599389
 21
344.5023541176822
 31
0.0
  0
LINE
  5
2616
330
2
100
AcDbEntity
  8
0
100
AcDbLine
 10
131.8721422599392
 20
354.0023541176822
 30
0.0
 11
130.2613252599389
 21
354.0023541176822
 31
0.0
  0
ARC
  5
2617
330
2
100
AcDbEntity
  8
0
100
AcDbCircle
 10
136.1721222599389
 20
349.2523541176822
 30
0.0
 40
8.0
100
AcDbArc
 50
147.6076050000083
 51
212.3923949999916
  0
ARC
  5
2618
330
2
100
AcDbEntity
  8
0
100
AcDbCircle
 10
130.2613252599389
 20
345.5023541176822
 30
0.0
 40
1.0
100
AcDbArc
 50
212.3923949999916
 51
270.0
  0
ARC
  5
2619
330
2
100
AcDbEntity
  8
0
100
AcDbCircle
 10
130.2613252599389
 20
353.0023541176822
 30
0.0
 40
1.0
100
AcDbArc
 50
90.0
 51
147.6076050000083
  0
LINE
  5
261A
330
2
100
AcDbEntity
  8
0
100
AcDbLine
 10
131.8721422599392
 20
354.0023541176822
 30
0.0
 11
131.8721422599392
 21
344.5023541176822
 31
0.0
  0
LINE
  5
261B
330
2
100
AcDbEntity
  8
0
100
AcDbLine
 10
133.1721222599389
 20
344.6523551176821
 30
0.0
 11
133.1721222599389
 21
349.2523541176822
 31
0.0
  0
ARC
  5
261C
330
2
100
AcDbEntity
  8
0
100
AcDbCircle
 10
132.1729232599391
 20
338.9989171176823
 30
0.0
 40
1.0
100
AcDbArc
 50
270.4999999999915
 51
343.5553890000034
  0
ARC
  5
261D
330
2
100
AcDbEntity
  8
0
100
AcDbCircle
 10
132.1729232599391
 20
338.4327351176823
 30
0.0
 40
1.0
100
AcDbArc
 50
0.0
 51
89.49999999998238
  0
ARC
  5
261E
330
2
100
AcDbEntity
  8
0
100
AcDbCircle
 10
132.1729232599391
 20
342.4938161176821
 30
0.0
 40
1.0
100
AcDbArc
 50
270.4999999999915
 51
0.0
  0
ARC
  5
261F
330
2
100
AcDbEntity
  8
0
100
AcDbCircle
 10
132.1729232599391
 20
344.3078161176824
 30
0.0
 40
1.0
100
AcDbArc
 50
270.4999999999915
 51
323.8237000000115
  0
ARC
  5
2620
330
2
100
AcDbEntity
  8
0
100
AcDbCircle
 10
132.1729232599391
 20
343.1272541176824
 30
0.0
 40
1.0
100
AcDbArc
 50
0.0
 51
89.49999999998238
  0
LINE
  5
2621
330
2
100
AcDbEntity
  8
0
100
AcDbLine
 10
131.8721422599392
 20
344.6523551176821
 30
0.0
 11
133.1721222599389
 21
344.6523551176821
 31
0.0
  0
ARC
  5
2622
330
2
100
AcDbEntity
  8
0
100
AcDbCircle
 10
132.1729232599391
 20
335.1410751176824
 30
0.0
 40
1.0
100
AcDbArc
 50
0.0
 51
89.49999999998238
  0
LINE
  5
2623
330
2
100
AcDbEntity
  8
0
100
AcDbLine
 10
131.8721422599392
 20
353.8523371176822
 30
0.0
 11
133.1721222599389
 21
353.8523371176822
 31
0.0
  0
ARC
  5
2624
330
2
100
AcDbEntity
  8
0
100
AcDbCircle
 10
132.1729232599391
 20
361.2224351176821
 30
0.0
 40
1.0
100
AcDbArc
 50
270.4999999999915
 51
0.0
  0
ARC
  5
2625
330
2
100
AcDbEntity
  8
0
100
AcDbCircle
 10
132.1729232599391
 20
362.8966351176821
 30
0.0
 40
1.0
100
AcDbArc
 50
270.4999999999915
 51
0.0
  0
ARC
  5
2626
330
2
100
AcDbEntity
  8
0
100
AcDbCircle
 10
132.1729232599391
 20
364.7384361176821
 30
0.0
 40
1.0
100
AcDbArc
 50
0.0
 51
89.49999999998238
  0
ARC
  5
2627
330
2
100
AcDbEntity
  8
0
100
AcDbCircle
 10
132.1729232599391
 20
378.5968671176822
 30
0.0
 40
1.0
100
AcDbArc
 50
270.4999999999915
 51
0.0
  0
ARC
  5
2628
330
2
100
AcDbEntity
  8
0
100
AcDbCircle
 10
132.1729232599391
 20
373.1982611176825
 30
0.0
 40
1.0
100
AcDbArc
 50
0.0
 51
89.49999999998238
  0
ARC
  5
2629
330
2
100
AcDbEntity
  8
0
100
AcDbCircle
 10
132.1729232599391
 20
373.7164651176824
 30
0.0
 40
1.0
100
AcDbArc
 50
0.0
 51
89.49999999998238
  0
ARC
  5
262A
330
2
100
AcDbEntity
  8
0
100
AcDbCircle
 10
132.1729232599391
 20
369.5804561176821
 30
0.0
 40
1.0
100
AcDbArc
 50
270.4999999999915
 51
0.0
  0
ARC
  5
262B
330
2
100
AcDbEntity
  8
0
100
AcDbCircle
 10
132.1729232599391
 20
371.1026651176823
 30
0.0
 40
1.0
100
AcDbArc
 50
270.4999999999915
 51
0.0
  0
ARC
  5
262C
330
2
100
AcDbEntity
  8
0
100
AcDbCircle
 10
132.1729232599391
 20
389.0838361176827
 30
0.0
 40
1.0
100
AcDbArc
 50
270.4999999999915
 51
0.0
  0
ARC
  5
262D
330
2
100
AcDbEntity
  8
0
100
AcDbCircle
 10
132.1729232599391
 20
387.9982331176827
 30
0.0
 40
1.0
100
AcDbArc
 50
270.4999999999915
 51
0.0
  0
ARC
  5
262E
330
2
100
AcDbEntity
  8
0
100
AcDbCircle
 10
132.1729232599391
 20
383.0270431176825
 30
0.0
 40
1.0
100
AcDbArc
 50
0.0
 51
89.49999999998238
  0
ARC
  5
262F
330
2
100
AcDbEntity
  8
0
100
AcDbCircle
 10
132.1729232599391
 20
379.9210551176822
 30
0.0
 40
1.0
100
AcDbArc
 50
270.4999999999915
 51
0.0
  0
ARC
  5
2630
330
2
100
AcDbEntity
  8
0
100
AcDbCircle
 10
132.1729232599391
 20
382.2126511176822
 30
0.0
 40
1.0
100
AcDbArc
 50
0.0
 51
89.49999999998238
  0
ARC
  5
2631
330
2
100
AcDbEntity
  8
0
100
AcDbCircle
 10
132.1729232599391
 20
397.4978671176825
 30
0.0
 40
1.0
100
AcDbArc
 50
270.4999999999915
 51
0.0
  0
ARC
  5
2632
330
2
100
AcDbEntity
  8
0
100
AcDbCircle
 10
132.1729232599391
 20
398.3122591176822
 30
0.0
 40
1.0
100
AcDbArc
 50
270.4999999999915
 51
0.0
  0
ARC
  5
2633
330
2
100
AcDbEntity
  8
0
100
AcDbCircle
 10
132.1729232599391
 20
392.5266771176822
 30
0.0
 40
1.0
100
AcDbArc
 50
0.0
 51
89.49999999998238
  0
ARC
  5
2634
330
2
100
AcDbEntity
  8
0
100
AcDbCircle
 10
132.1729232599391
 20
391.4410741176823
 30
0.0
 40
1.0
100
AcDbArc
 50
0.0
 51
89.49999999998238
  0
LINE
  5
2635
330
2
100
AcDbEntity
  8
0
100
AcDbLine
 10
70.65545925993911
 20
445.5036351176825
 30
0.0
 11
132.1816432599389
 21
446.040676117682
 31
0.0
  0
LINE
  5
2636
330
2
100
AcDbEntity
  8
0
100
AcDbLine
 10
132.1816432599389
 20
444.3836361176825
 30
0.0
 11
61.48020525993889
 21
443.7666361176822
 31
0.0
  0
LINE
  5
2637
330
2
100
AcDbEntity
  8
0
100
AcDbLine
 10
132.1816432599389
 20
442.5256771176821
 30
0.0
 11
61.48020525993889
 21
443.1426741176822
 31
0.0
  0
LINE
  5
2638
330
2
100
AcDbEntity
  8
0
100
AcDbLine
 10
132.1816432599389
 20
441.0920751176824
 30
0.0
 11
61.57934125993915
 21
440.4758571176824
 31
0.0
  0
LINE
  5
2639
330
2
100
AcDbEntity
  8
0
100
AcDbLine
 10
114.0267442599392
 20
440.9336971176823
 30
0.0
 11
63.21492325993904
 21
441.3770751176823
 31
0.0
  0
LINE
  5
263A
330
2
100
AcDbEntity
  8
0
100
AcDbLine
 10
132.1816432599389
 20
402.9276611176822
 30
0.0
 11
61.98576725993916
 21
403.5402571176821
 31
0.0
  0
LINE
  5
263B
330
2
100
AcDbEntity
  8
0
100
AcDbLine
 10
132.1816432599389
 20
401.6036731176821
 30
0.0
 11
63.29422325993892
 21
402.2048691176821
 31
0.0
  0
LINE
  5
263C
330
2
100
AcDbEntity
  8
0
100
AcDbLine
 10
128.6828412599388
 20
434.0850561176823
 30
0.0
 11
61.71811925993916
 21
434.6692731176824
 31
0.0
  0
LINE
  5
263D
330
2
100
AcDbEntity
  8
0
100
AcDbLine
 10
132.1816432599389
 20
436.3974951176821
 30
0.0
 11
61.71811925993916
 21
435.7824361176824
 31
0.0
  0
LINE
  5
263E
330
2
100
AcDbEntity
  8
0
100
AcDbLine
 10
132.1816432599389
 20
420.3022561176823
 30
0.0
 11
61.89652525993915
 21
420.9154761176821
 31
0.0
  0
LINE
  5
263F
330
2
100
AcDbEntity
  8
0
100
AcDbLine
 10
132.1816432599389
 20
423.0042531176825
 30
0.0
 11
61.89652525993915
 21
422.3908541176822
 31
0.0
  0
LINE
  5
2640
330
2
100
AcDbEntity
  8
0
100
AcDbLine
 10
132.1816432599389
 20
411.9442751176823
 30
0.0
 11
61.96592325993925
 21
412.5570551176822
 31
0.0
  0
LINE
  5
2641
330
2
100
AcDbEntity
  8
0
100
AcDbLine
 10
132.1816432599389
 20
414.7862551176825
 30
0.0
 11
61.96592325993925
 21
414.1734541176822
 31
0.0
  0
LINE
  5
2642
330
2
100
AcDbEntity
  8
0
100
AcDbLine
 10
128.2341412599389
 20
432.2666361176823
 30
0.0
 11
63.52224325993893
 21
432.8312761176824
 31
0.0
  0
LINE
  5
2643
330
2
100
AcDbEntity
  8
0
100
AcDbLine
 10
132.1816432599389
 20
418.6280751176821
 30
0.0
 11
63.55198125993911
 21
419.2268751176823
 31
0.0
  0
LINE
  5
2644
330
2
100
AcDbEntity
  8
0
100
AcDbLine
 10
132.1816432599389
 20
410.4218751176825
 30
0.0
 11
63.47268125993924
 21
411.0216751176824
 31
0.0
  0
LINE
  5
2645
330
2
100
AcDbEntity
  8
0
100
AcDbLine
 10
132.1816432599389
 20
405.8082611176821
 30
0.0
 11
61.98576725993916
 21
405.1956531176822
 31
0.0
  0
LINE
  5
2646
330
2
100
AcDbEntity
  8
0
100
AcDbLine
 10
132.1816432599389
 20
406.3264501176824
 30
0.0
 11
62.50122325993925
 21
405.7184791176821
 31
0.0
  0
LINE
  5
2647
330
2
100
AcDbEntity
  8
0
100
AcDbLine
 10
132.1816432599389
 20
437.2168541176822
 30
0.0
 11
63.37352325993925
 21
437.8172951176822
 31
0.0
  0
LINE
  5
2648
330
2
100
AcDbEntity
  8
0
100
AcDbLine
 10
132.1816432599389
 20
439.0308531176822
 30
0.0
 11
61.57934125993915
 21
439.6470761176821
 31
0.0
  0
LINE
  5
2649
330
2
100
AcDbEntity
  8
0
100
AcDbLine
 10
132.1816432599389
 20
446.0408131176825
 30
0.0
 11
61.35630325993907
 21
445.4227561176824
 31
0.0
  0
ARC
  5
264A
330
2
100
AcDbEntity
  8
0
100
AcDbCircle
 10
62.98790325993923
 20
445.2179951176824
 30
0.0
 40
1.814999999999999
100
AcDbArc
 50
180.0
 51
232.8948969999891
  0
ARC
  5
264B
330
2
100
AcDbEntity
  8
0
100
AcDbCircle
 10
61.90292725993913
 20
421.6608541176822
 30
0.0
 40
0.73
100
AcDbArc
 50
90.49999999999155
 51
180.0
  0
LINE
  5
264C
330
2
100
AcDbEntity
  8
0
100
AcDbLine
 10
56.17292325993912
 20
440.6076741176823
 30
0.0
 11
56.17292325993912
 21
409.2624551176824
 31
0.0
  0
LINE
  5
264D
330
2
100
AcDbEntity
  8
0
100
AcDbLine
 10
59.17292325994413
 20
401.2624551176825
 30
0.0
 11
54.67292325994413
 21
401.3410029098593
 31
0.0
  0
LINE
  5
264E
330
2
100
AcDbEntity
  8
0
100
AcDbLine
 10
57.67292325993913
 20
409.2624551176824
 30
0.0
 11
54.67292325993913
 21
409.2624551176824
 31
0.0
  0
ARC
  5
264F
330
2
100
AcDbEntity
  8
0
100
AcDbCircle
 10
54.67292325993913
 20
408.2624551176825
 30
0.0
 40
1.0
100
AcDbArc
 50
90.0
 51
180.0
  0
LINE
  5
2650
330
2
100
AcDbEntity
  8
0
100
AcDbLine
 10
57.67292325993913
 20
401.2886377150746
 30
0.0
 11
57.67292325993913
 21
409.2624551176824
 31
0.0
  0
ARC
  5
2651
330
2
100
AcDbEntity
  8
0
100
AcDbCircle
 10
63.49292325993883
 20
413.3414551176822
 30
0.0
 40
2.319999999999999
100
AcDbArc
 50
180.0
 51
269.5000000000084
  0
ARC
  5
2652
330
2
100
AcDbEntity
  8
0
100
AcDbCircle
 10
61.99292325993884
 20
404.3756751176822
 30
0.0
 40
0.8199999999999999
100
AcDbArc
 50
90.49999999999155
 51
180.0
  0
ARC
  5
2653
330
2
100
AcDbEntity
  8
0
100
AcDbCircle
 10
62.51291925993928
 20
404.3784531176823
 30
0.0
 40
1.34
100
AcDbArc
 50
90.49999999999155
 51
180.0
  0
ARC
  5
2654
330
2
100
AcDbEntity
  8
0
100
AcDbCircle
 10
61.99292325993884
 20
404.3602791176824
 30
0.0
 40
0.8199999999999999
100
AcDbArc
 50
180.0
 51
269.5000000000084
  0
ARC
  5
2655
330
2
100
AcDbEntity
  8
0
100
AcDbCircle
 10
63.31292325993899
 20
404.344669117682
 30
0.0
 40
2.14
100
AcDbArc
 50
180.0
 51
269.5000000000084
  0
LINE
  5
2656
330
2
100
AcDbEntity
  8
0
100
AcDbLine
 10
61.17292325993912
 20
404.3602791176824
 30
0.0
 11
61.17292325993912
 21
404.3756751176822
 31
0.0
  0
LINE
  5
2657
330
2
100
AcDbEntity
  8
0
100
AcDbLine
 10
61.17292325993912
 20
404.344669117682
 30
0.0
 11
61.17292325993912
 21
404.3784531176823
 31
0.0
  0
LINE
  5
2658
330
2
100
AcDbEntity
  8
0
100
AcDbLine
 10
59.17343200487721
 20
401.2624462375067
 30
0.0
 11
63.70782275664669
 21
401.1041018232783
 31
0.0
  0
ARC
  5
2659
330
2
100
AcDbEntity
  8
0
100
AcDbCircle
 10
63.57290125993904
 20
421.6268561176823
 30
0.0
 40
2.399999999999999
100
AcDbArc
 50
180.0
 51
269.5000000000084
  0
ARC
  5
265A
330
2
100
AcDbEntity
  8
0
100
AcDbCircle
 10
61.90292725993913
 20
421.6454541176824
 30
0.0
 40
0.73
100
AcDbArc
 50
180.0
 51
269.5000000000084
  0
LINE
  5
265B
330
2
100
AcDbEntity
  8
0
100
AcDbLine
 10
61.17292325993912
 20
421.6454541176824
 30
0.0
 11
61.17292325993912
 21
421.6608541176822
 31
0.0
  0
LINE
  5
265C
330
2
100
AcDbEntity
  8
0
100
AcDbLine
 10
61.17292325993912
 20
421.6268561176823
 30
0.0
 11
61.17292325993912
 21
421.6454541176824
 31
0.0
  0
ARC
  5
265D
330
2
100
AcDbEntity
  8
0
100
AcDbCircle
 10
61.9729032599389
 20
413.3570561176822
 30
0.0
 40
0.8
100
AcDbArc
 50
180.0
 51
269.5000000000084
  0
LINE
  5
265E
330
2
100
AcDbEntity
  8
0
100
AcDbLine
 10
61.17292325993912
 20
413.3570561176822
 30
0.0
 11
61.17292325993912
 21
413.3734741176824
 31
0.0
  0
LINE
  5
265F
330
2
100
AcDbEntity
  8
0
100
AcDbLine
 10
61.17292325993912
 20
413.3414551176822
 30
0.0
 11
61.17292325993912
 21
413.3570561176822
 31
0.0
  0
ARC
  5
2660
330
2
100
AcDbEntity
  8
0
100
AcDbCircle
 10
61.9729032599389
 20
413.3734741176824
 30
0.0
 40
0.8
100
AcDbArc
 50
90.49999999999155
 51
180.0
  0
LINE
  5
2661
330
2
100
AcDbEntity
  8
0
100
AcDbLine
 10
61.33522325993908
 20
442.6354751176825
 30
0.0
 11
58.15544525993892
 21
442.6076741176823
 31
0.0
  0
ARC
  5
2662
330
2
100
AcDbEntity
  8
0
100
AcDbCircle
 10
58.17292325993912
 20
440.6076741176823
 30
0.0
 40
2.0
100
AcDbArc
 50
90.49999999999155
 51
180.0
  0
ARC
  5
2663
330
2
100
AcDbEntity
  8
0
100
AcDbCircle
 10
63.54292525993924
 20
435.2012751176824
 30
0.0
 40
2.37
100
AcDbArc
 50
180.0
 51
269.5000000000084
  0
ARC
  5
2664
330
2
100
AcDbEntity
  8
0
100
AcDbCircle
 10
61.48290525993889
 20
443.4526751176824
 30
0.0
 40
0.31
100
AcDbArc
 50
180.0
 51
269.5000000000084
  0
ARC
  5
2665
330
2
100
AcDbEntity
  8
0
100
AcDbCircle
 10
61.48290525993889
 20
443.4566761176823
 30
0.0
 40
0.31
100
AcDbArc
 50
90.49999999999155
 51
180.0
  0
ARC
  5
2666
330
2
100
AcDbEntity
  8
0
100
AcDbCircle
 10
61.7229032599389
 20
435.2192761176822
 30
0.0
 40
0.55
100
AcDbArc
 50
180.0
 51
269.5000000000084
  0
ARC
  5
2667
330
2
100
AcDbEntity
  8
0
100
AcDbCircle
 10
61.7229032599389
 20
435.2324561176821
 30
0.0
 40
0.55
100
AcDbArc
 50
90.49999999999155
 51
180.0
  0
LINE
  5
2668
330
2
100
AcDbEntity
  8
0
100
AcDbLine
 10
61.17292325993912
 20
435.2192761176822
 30
0.0
 11
61.17292325993912
 21
435.2324561176821
 31
0.0
  0
LINE
  5
2669
330
2
100
AcDbEntity
  8
0
100
AcDbLine
 10
61.17292325993912
 20
435.2012751176824
 30
0.0
 11
61.17292325993912
 21
435.2324561176821
 31
0.0
  0
ARC
  5
266A
330
2
100
AcDbEntity
  8
0
100
AcDbCircle
 10
61.58290325993903
 20
440.0570341176823
 30
0.0
 40
0.41
100
AcDbArc
 50
180.0
 51
269.5000000000084
  0
LINE
  5
266B
330
2
100
AcDbEntity
  8
0
100
AcDbLine
 10
61.17292325993912
 20
440.0372731176823
 30
0.0
 11
61.17292325993912
 21
440.0658531176825
 31
0.0
  0
ARC
  5
266C
330
2
100
AcDbEntity
  8
0
100
AcDbCircle
 10
61.58290325993903
 20
440.0658531176825
 30
0.0
 40
0.41
100
AcDbArc
 50
90.49999999999155
 51
180.0
  0
LINE
  5
266D
330
2
100
AcDbEntity
  8
0
100
AcDbLine
 10
61.17292325993912
 20
440.0570341176823
 30
0.0
 11
61.17292325993912
 21
440.0658531176825
 31
0.0
  0
ARC
  5
266E
330
2
100
AcDbEntity
  8
0
100
AcDbCircle
 10
63.39292525993915
 20
440.0372731176823
 30
0.0
 40
2.22
100
AcDbArc
 50
180.0
 51
269.5000000000084
  0
ARC
  5
266F
330
2
100
AcDbEntity
  8
0
100
AcDbCircle
 10
63.23290525993889
 20
443.4368551176824
 30
0.0
 40
2.06
100
AcDbArc
 50
180.0
 51
269.5000000000084
  0
ARC
  5
2670
330
2
100
AcDbEntity
  8
0
100
AcDbCircle
 10
63.67294525993884
 20
443.7624931176822
 30
0.0
 40
1.0
100
AcDbArc
 50
0.0
 51
1.824028999993621
  0
LINE
  5
2671
330
2
100
AcDbEntity
  8
0
100
AcDbLine
 10
64.67294525993884
 20
440.5028341176823
 30
0.0
 11
64.67294525993884
 21
440.4856571176821
 31
0.0
  0
ARC
  5
2672
330
2
100
AcDbEntity
  8
0
100
AcDbCircle
 10
61.35790525993889
 20
445.2377361176825
 30
0.0
 40
0.185
100
AcDbArc
 50
90.49999999999155
 51
180.0
  0
ARC
  5
2673
330
2
100
AcDbEntity
  8
0
100
AcDbCircle
 10
61.35790525993889
 20
445.2361761176823
 30
0.0
 40
0.185
100
AcDbArc
 50
180.0
 51
269.5000000000084
  0
LINE
  5
2674
330
2
100
AcDbEntity
  8
0
100
AcDbLine
 10
61.17292325993912
 20
445.2179951176824
 30
0.0
 11
61.17292325993912
 21
445.2377361176825
 31
0.0
  0
ARC
  5
2675
330
2
100
AcDbEntity
  8
0
100
AcDbCircle
 10
132.1729232599391
 20
445.3836361176825
 30
0.0
 40
1.0
100
AcDbArc
 50
270.4999999999915
 51
0.0
  0
ARC
  5
2676
330
2
100
AcDbEntity
  8
0
100
AcDbCircle
 10
132.1729232599391
 20
410.9442751176823
 30
0.0
 40
1.0
100
AcDbArc
 50
0.0
 51
89.49999999998238
  0
ARC
  5
2677
330
2
100
AcDbEntity
  8
0
100
AcDbCircle
 10
132.1729232599391
 20
409.4220621176821
 30
0.0
 40
1.0
100
AcDbArc
 50
0.0
 51
89.49999999998238
  0
ARC
  5
2678
330
2
100
AcDbEntity
  8
0
100
AcDbCircle
 10
132.1729232599391
 20
400.6036731176821
 30
0.0
 40
1.0
100
AcDbArc
 50
0.0
 51
89.49999999998238
  0
ARC
  5
2679
330
2
100
AcDbEntity
  8
0
100
AcDbCircle
 10
132.1729232599391
 20
401.9278611176821
 30
0.0
 40
1.0
100
AcDbArc
 50
0.0
 51
89.49999999998238
  0
ARC
  5
267A
330
2
100
AcDbEntity
  8
0
100
AcDbCircle
 10
132.1729232599391
 20
407.3264501176825
 30
0.0
 40
1.0
100
AcDbArc
 50
270.4999999999915
 51
0.0
  0
ARC
  5
267B
330
2
100
AcDbEntity
  8
0
100
AcDbCircle
 10
132.1729232599391
 20
406.8082621176825
 30
0.0
 40
1.0
100
AcDbArc
 50
270.4999999999915
 51
0.0
  0
ARC
  5
267C
330
2
100
AcDbEntity
  8
0
100
AcDbCircle
 10
132.1729232599391
 20
419.3022561176824
 30
0.0
 40
1.0
100
AcDbArc
 50
0.0
 51
89.49999999998238
  0
ARC
  5
267D
330
2
100
AcDbEntity
  8
0
100
AcDbCircle
 10
132.1729232599391
 20
415.7862551176824
 30
0.0
 40
1.0
100
AcDbArc
 50
270.4999999999915
 51
0.0
  0
ARC
  5
267E
330
2
100
AcDbEntity
  8
0
100
AcDbCircle
 10
132.1729232599391
 20
417.6280751176821
 30
0.0
 40
1.0
100
AcDbArc
 50
0.0
 51
89.49999999998238
  0
LINE
  5
267F
330
2
100
AcDbEntity
  8
0
100
AcDbLine
 10
131.8721422599392
 20
426.5224761176821
 30
0.0
 11
130.2613252599389
 21
426.5224761176821
 31
0.0
  0
LINE
  5
2680
330
2
100
AcDbEntity
  8
0
100
AcDbLine
 10
131.8721422599392
 20
436.0224951176822
 30
0.0
 11
130.2613252599389
 21
436.0224951176822
 31
0.0
  0
ARC
  5
2681
330
2
100
AcDbEntity
  8
0
100
AcDbCircle
 10
136.1721222599389
 20
431.2724951176821
 30
0.0
 40
8.0
100
AcDbArc
 50
147.6076050000083
 51
212.3923949999916
  0
ARC
  5
2682
330
2
100
AcDbEntity
  8
0
100
AcDbCircle
 10
130.2613252599389
 20
427.5224761176821
 30
0.0
 40
1.0
100
AcDbArc
 50
212.3923949999916
 51
270.0
  0
ARC
  5
2683
330
2
100
AcDbEntity
  8
0
100
AcDbCircle
 10
130.2613252599389
 20
435.0224951176821
 30
0.0
 40
1.0
100
AcDbArc
 50
90.0
 51
147.6076050000083
  0
LINE
  5
2684
330
2
100
AcDbEntity
  8
0
100
AcDbLine
 10
133.1721222599389
 20
435.8722951176821
 30
0.0
 11
133.1721222599389
 21
431.2724951176821
 31
0.0
  0
LINE
  5
2685
330
2
100
AcDbEntity
  8
0
100
AcDbLine
 10
131.8721422599392
 20
436.0224951176822
 30
0.0
 11
131.8721422599392
 21
426.5224761176821
 31
0.0
  0
LINE
  5
2686
330
2
100
AcDbEntity
  8
0
100
AcDbLine
 10
131.8721422599392
 20
426.6724741176824
 30
0.0
 11
133.1721222599389
 21
426.6724741176824
 31
0.0
  0
ARC
  5
2687
330
2
100
AcDbEntity
  8
0
100
AcDbCircle
 10
132.1729232599391
 20
424.0040741176824
 30
0.0
 40
1.0
100
AcDbArc
 50
270.4999999999915
 51
0.0
  0
ARC
  5
2688
330
2
100
AcDbEntity
  8
0
100
AcDbCircle
 10
132.1729232599391
 20
441.5258561176822
 30
0.0
 40
1.0
100
AcDbArc
 50
16.44459900000745
 51
89.49999999998238
  0
ARC
  5
2689
330
2
100
AcDbEntity
  8
0
100
AcDbCircle
 10
132.1729232599391
 20
436.2168541176822
 30
0.0
 40
1.0
100
AcDbArc
 50
36.17633799998822
 51
89.49999999998238
  0
ARC
  5
268A
330
2
100
AcDbEntity
  8
0
100
AcDbCircle
 10
132.1729232599391
 20
437.3974951176822
 30
0.0
 40
1.0
100
AcDbArc
 50
270.4999999999915
 51
0.0
  0
LINE
  5
268B
330
2
100
AcDbEntity
  8
0
100
AcDbLine
 10
131.8721422599392
 20
435.8722951176821
 30
0.0
 11
133.1721222599389
 21
435.8722951176821
 31
0.0
  0
ARC
  5
268C
330
2
100
AcDbEntity
  8
0
100
AcDbCircle
 10
132.1729232599391
 20
438.0308531176821
 30
0.0
 40
1.0
100
AcDbArc
 50
0.0
 51
89.49999999998238
  0
ARC
  5
268D
330
2
100
AcDbEntity
  8
0
100
AcDbCircle
 10
132.1729232599391
 20
442.0918541176822
 30
0.0
 40
1.0
100
AcDbArc
 50
270.4999999999915
 51
0.0
  0
ARC
  5
268E
330
2
100
AcDbEntity
  8
0
100
AcDbCircle
 10
132.1729232599391
 20
447.0404741176824
 30
0.0
 40
1.0
100
AcDbArc
 50
270.4999999999915
 51
0.0
  0
ARC
  5
268F
330
2
100
AcDbEntity
  8
0
100
AcDbCircle
 10
134.1729232599391
 20
452.6050761176823
 30
0.0
 40
1.0
100
AcDbArc
 50
91.00000000000177
 51
180.0
  0
LINE
  5
2690
330
2
100
AcDbEntity
  8
0
100
AcDbLine
 10
54.17283125993981
 20
439.7624551176825
 30
0.0
 11
54.17283125993981
 21
409.1284273987265
 31
0.0
  0
LINE
  5
2691
330
2
100
AcDbEntity
  8
0
100
AcDbLine
 10
54.67252667344928
 20
440.2799048660337
 30
0.0
 11
54.17283125993981
 21
439.7624551176825
 31
0.0
  0
LINE
  5
2692
330
2
100
AcDbEntity
  8
0
100
AcDbLine
 10
54.17283125993936
 20
371.3964828366387
 30
0.0
 11
54.17283125993936
 21
340.7624551176825
 31
0.0
  0
LINE
  5
2693
330
2
100
AcDbEntity
  8
0
100
AcDbLine
 10
54.67283125993936
 20
340.2624551176825
 30
0.0
 11
54.17283125993936
 21
340.7624551176825
 31
0.0
  0
LINE
  5
2832
330
2
100
AcDbEntity
  8
0
100
AcDbLine
 10
54.67252667344848
 20
176.5873054270113
 30
0.0
 11
56.17283125993947
 21
176.6396972176438
 31
0.0
  0
LINE
  5
2833
330
2
100
AcDbEntity
  8
0
100
AcDbLine
 10
54.67252667344848
 20
80.17240593030891
 30
0.0
 11
56.17283125993947
 21
80.1200141396767
 31
0.0
  0
LINE
  5
2834
330
2
100
AcDbEntity
  8
0
100
AcDbLine
 10
133.172831259939
 20
192.5324766786599
 30
0.0
 11
133.172831259939
 21
67.84699467866011
 31
0.0
  0
LINE
  5
2835
330
2
100
AcDbEntity
  8
0
100
AcDbLine
 10
56.17283125993902
 20
180.53507467866
 30
0.0
 11
56.17283125993902
 21
79.84431667866028
 31
0.0
  0
LINE
  5
2836
330
2
100
AcDbEntity
  8
CENTER
100
AcDbLine
 10
123.7896522599386
 20
89.17975467865989
 30
0.0
 11
147.3704092599383
 21
89.17975467865989
 31
0.0
  0
LINE
  5
2837
330
2
100
AcDbEntity
  8
0
100
AcDbLine
 10
143.172831259939
 20
66.68975667866033
 30
0.0
 11
134.1553788535012
 21
66.8471469835037
 31
0.0
  0
LINE
  5
2838
330
2
100
AcDbEntity
  8
0
100
AcDbLine
 10
132.1815512599388
 20
142.8550616786598
 30
0.0
 11
61.98567525993905
 21
143.4676576786598
 31
0.0
  0
LINE
  5
2839
330
2
100
AcDbEntity
  8
0
100
AcDbLine
 10
132.1815512599388
 20
141.5310736786602
 30
0.0
 11
63.2941312599388
 21
142.1322696786603
 31
0.0
  0
LINE
  5
283A
330
2
100
AcDbEntity
  8
0
100
AcDbLine
 10
132.1815512599388
 20
133.4540776786599
 30
0.0
 11
62.03029125993873
 21
134.0662596786598
 31
0.0
  0
LINE
  5
283B
330
2
100
AcDbEntity
  8
0
100
AcDbLine
 10
132.1815512599388
 20
136.4254656786599
 30
0.0
 11
62.03029125993873
 21
135.8132696786598
 31
0.0
  0
LINE
  5
283C
330
2
100
AcDbEntity
  8
0
100
AcDbLine
 10
132.1815512599388
 20
137.2398736786601
 30
0.0
 11
62.83319325993864
 21
136.6346636786599
 31
0.0
  0
LINE
  5
283D
330
2
100
AcDbEntity
  8
0
100
AcDbLine
 10
132.1815512599388
 20
132.3682616786601
 30
0.0
 11
63.11075125993887
 21
132.97107567866
 31
0.0
  0
LINE
  5
283E
330
2
100
AcDbEntity
  8
0
100
AcDbLine
 10
132.1815512599388
 20
128.0112676786599
 30
0.0
 11
63.11075125993887
 21
127.4084676786598
 31
0.0
  0
LINE
  5
283F
330
2
100
AcDbEntity
  8
0
100
AcDbLine
 10
132.1815512599388
 20
123.1396536786598
 30
0.0
 11
62.83319325993864
 21
123.74486367866
 31
0.0
  0
LINE
  5
2840
330
2
100
AcDbEntity
  8
0
100
AcDbLine
 10
132.1815512599388
 20
123.9540776786599
 30
0.0
 11
62.03029125993873
 21
124.5662596786598
 31
0.0
  0
LINE
  5
2841
330
2
100
AcDbEntity
  8
0
100
AcDbLine
 10
132.1815512599388
 20
126.9254656786599
 30
0.0
 11
62.03029125993873
 21
126.3132696786598
 31
0.0
  0
LINE
  5
2842
330
2
100
AcDbEntity
  8
0
100
AcDbLine
 10
132.1815512599388
 20
74.41149767866017
 30
0.0
 11
61.3562112599385
 21
75.0295546786603
 31
0.0
  0
LINE
  5
2843
330
2
100
AcDbEntity
  8
0
100
AcDbLine
 10
132.4748332599384
 20
76.02177667866016
 30
0.0
 11
61.3562112599385
 21
75.40113667866006
 31
0.0
  0
LINE
  5
2844
330
2
100
AcDbEntity
  8
0
100
AcDbLine
 10
132.1815512599388
 20
77.92635567866017
 30
0.0
 11
61.48011325993877
 21
77.3093546786601
 31
0.0
  0
LINE
  5
2845
330
2
100
AcDbEntity
  8
0
100
AcDbLine
 10
132.1815512599388
 20
76.06843367866003
 30
0.0
 11
61.48011325993877
 21
76.6854346786601
 31
0.0
  0
LINE
  5
2846
330
2
100
AcDbEntity
  8
0
100
AcDbLine
 10
132.1815512599388
 20
79.36011667865995
 30
0.0
 11
61.57924925993859
 21
79.97623667866008
 31
0.0
  0
LINE
  5
2847
330
2
100
AcDbEntity
  8
0
100
AcDbLine
 10
132.1815512599388
 20
81.42123567866036
 30
0.0
 11
61.57924925993859
 21
80.80509367866005
 31
0.0
  0
LINE
  5
2848
330
2
100
AcDbEntity
  8
0
100
AcDbLine
 10
132.1815512599388
 20
84.05463567866007
 30
0.0
 11
61.71802725993905
 21
84.66955367866029
 31
0.0
  0
LINE
  5
2849
330
2
100
AcDbEntity
  8
0
100
AcDbLine
 10
132.1815512599388
 20
83.23525467865982
 30
0.0
 11
63.37343125993868
 21
82.6347756786601
 31
0.0
  0
LINE
  5
284A
330
2
100
AcDbEntity
  8
0
100
AcDbLine
 10
128.2340527541106
 20
88.18551470915252
 30
0.0
 11
63.52215125993883
 21
87.62079467866005
 31
0.0
  0
LINE
  5
284B
330
2
100
AcDbEntity
  8
0
100
AcDbLine
 10
128.6827596099407
 20
86.36713576898154
 30
0.0
 11
61.71802725993905
 21
85.78275467865996
 31
0.0
  0
LINE
  5
284C
330
2
100
AcDbEntity
  8
0
100
AcDbLine
 10
132.1815512599388
 20
97.44785467866012
 30
0.0
 11
61.89643325993904
 21
98.06125467865985
 31
0.0
  0
LINE
  5
284D
330
2
100
AcDbEntity
  8
0
100
AcDbLine
 10
132.1815512599388
 20
100.1498356786598
 30
0.0
 11
61.89643325993904
 21
99.53643667865998
 31
0.0
  0
LINE
  5
284E
330
2
100
AcDbEntity
  8
0
100
AcDbLine
 10
132.1815512599388
 20
105.6658366786597
 30
0.0
 11
61.96583125993868
 21
106.2786346786599
 31
0.0
  0
LINE
  5
284F
330
2
100
AcDbEntity
  8
0
100
AcDbLine
 10
132.1815512599388
 20
108.5078566786598
 30
0.0
 11
61.96583125993868
 21
107.89505567866
 31
0.0
  0
LINE
  5
2850
330
2
100
AcDbEntity
  8
0
100
AcDbLine
 10
132.1815512599388
 20
101.8240356786602
 30
0.0
 11
63.55188925993854
 21
101.2252556786599
 31
0.0
  0
LINE
  5
2851
330
2
100
AcDbEntity
  8
0
100
AcDbLine
 10
132.1815512599388
 20
110.0302566786601
 30
0.0
 11
63.47258925993867
 21
109.4304356786598
 31
0.0
  0
LINE
  5
2852
330
2
100
AcDbEntity
  8
0
100
AcDbLine
 10
132.1815512599388
 20
114.1256616786601
 30
0.0
 11
62.50113125993869
 21
114.73366367866
 31
0.0
  0
LINE
  5
2853
330
2
100
AcDbEntity
  8
0
100
AcDbLine
 10
132.1815512599388
 20
118.8484556786599
 30
0.0
 11
63.2941312599388
 21
118.2472596786603
 31
0.0
  0
LINE
  5
2854
330
2
100
AcDbEntity
  8
0
100
AcDbLine
 10
132.1815512599388
 20
114.6438656786601
 30
0.0
 11
61.98567525993905
 21
115.2564756786597
 31
0.0
  0
LINE
  5
2855
330
2
100
AcDbEntity
  8
0
100
AcDbLine
 10
132.1815512599388
 20
117.5242676786603
 30
0.0
 11
61.98567525993905
 21
116.9118716786599
 31
0.0
  0
LINE
  5
2856
330
2
100
AcDbEntity
  8
0
100
AcDbLine
 10
114.0266522599387
 20
79.51853367866005
 30
0.0
 11
63.21483125993893
 21
79.07511767865997
 31
0.0
  0
LINE
  5
2857
330
2
100
AcDbEntity
  8
0
100
AcDbLine
 10
132.1815512599388
 20
145.7356616786602
 30
0.0
 11
61.98567525993905
 21
145.1230536786599
 31
0.0
  0
LINE
  5
2858
330
2
100
AcDbEntity
  8
0
100
AcDbLine
 10
132.1815512599388
 20
146.2538506786601
 30
0.0
 11
62.50113125993869
 21
145.6458796786602
 31
0.0
  0
ARC
  5
2859
330
2
100
AcDbEntity
  8
0
100
AcDbCircle
 10
63.39283325993903
 20
80.41485367865988
 30
0.0
 40
2.22
100
AcDbArc
 50
90.49999999999155
 51
180.0
  0
LINE
  5
285A
330
2
100
AcDbEntity
  8
0
100
AcDbLine
 10
61.33513125993897
 20
77.81663667866013
 30
0.0
 11
58.15535325993881
 21
77.84439667866007
 31
0.0
  0
ARC
  5
285B
330
2
100
AcDbEntity
  8
0
100
AcDbCircle
 10
58.17283125993902
 20
79.84431667866028
 30
0.0
 40
2.0
100
AcDbArc
 50
180.0
 51
269.5000000000084
  0
ARC
  5
285C
330
2
100
AcDbEntity
  8
0
100
AcDbCircle
 10
63.23281325993878
 20
77.01519567866006
 30
0.0
 40
2.06
100
AcDbArc
 50
90.49999999999155
 51
180.0
  0
LINE
  5
285D
330
2
100
AcDbEntity
  8
0
100
AcDbLine
 10
61.17283125993902
 20
75.23431567866026
 30
0.0
 11
61.17283125993902
 21
75.2145746786602
 31
0.0
  0
LINE
  5
285E
330
2
100
AcDbEntity
  8
0
100
AcDbLine
 10
61.17283125993902
 20
77.01519567866006
 30
0.0
 11
61.17283125993902
 21
76.99543567866038
 31
0.0
  0
LINE
  5
285F
330
2
100
AcDbEntity
  8
0
100
AcDbLine
 10
61.17283125993902
 20
76.99937667866032
 30
0.0
 11
61.17283125993902
 21
76.99543567866038
 31
0.0
  0
ARC
  5
2860
330
2
100
AcDbEntity
  8
0
100
AcDbCircle
 10
62.98781125993866
 20
75.23431567866026
 30
0.0
 40
1.814999999999999
100
AcDbArc
 50
127.1051030000098
 51
180.0
  0
ARC
  5
2861
330
2
100
AcDbEntity
  8
0
100
AcDbCircle
 10
61.35781325993878
 20
75.2145746786602
 30
0.0
 40
0.185
100
AcDbArc
 50
180.0
 51
269.5000000000084
  0
ARC
  5
2862
330
2
100
AcDbEntity
  8
0
100
AcDbCircle
 10
61.35781325993878
 20
75.21613467865989
 30
0.0
 40
0.185
100
AcDbArc
 50
90.49999999999155
 51
180.0
  0
ARC
  5
2863
330
2
100
AcDbEntity
  8
0
100
AcDbCircle
 10
61.48281325993877
 20
76.99543567866038
 30
0.0
 40
0.31
100
AcDbArc
 50
180.0
 51
269.5000000000084
  0
ARC
  5
2864
330
2
100
AcDbEntity
  8
0
100
AcDbCircle
 10
61.48281325993877
 20
76.99937667866032
 30
0.0
 40
0.31
100
AcDbArc
 50
90.49999999999155
 51
180.0
  0
LINE
  5
2865
330
2
100
AcDbEntity
  8
0
100
AcDbLine
 10
61.17283125993902
 20
80.41485367865988
 30
0.0
 11
61.17283125993902
 21
80.38621767865988
 31
0.0
  0
LINE
  5
2866
330
2
100
AcDbEntity
  8
0
100
AcDbLine
 10
61.17283125993902
 20
80.39511667866026
 30
0.0
 11
61.17283125993902
 21
80.38621767865988
 31
0.0
  0
ARC
  5
2867
330
2
100
AcDbEntity
  8
0
100
AcDbCircle
 10
61.58281125993892
 20
80.38621767865988
 30
0.0
 40
0.41
100
AcDbArc
 50
180.0
 51
269.5000000000084
  0
ARC
  5
2868
330
2
100
AcDbEntity
  8
0
100
AcDbCircle
 10
61.58281125993892
 20
80.39511667866026
 30
0.0
 40
0.41
100
AcDbArc
 50
90.49999999999155
 51
180.0
  0
ARC
  5
2869
330
2
100
AcDbEntity
  8
0
100
AcDbCircle
 10
63.54283325993868
 20
85.25085667866022
 30
0.0
 40
2.37
100
AcDbArc
 50
90.49999999999155
 51
180.0
  0
LINE
  5
286A
330
2
100
AcDbEntity
  8
0
100
AcDbLine
 10
61.17283125993902
 20
85.25085667866022
 30
0.0
 11
61.17283125993902
 21
85.21955667866013
 31
0.0
  0
LINE
  5
286B
330
2
100
AcDbEntity
  8
0
100
AcDbLine
 10
61.17283125993902
 20
85.23275567866011
 30
0.0
 11
61.17283125993902
 21
85.21955667866013
 31
0.0
  0
ARC
  5
286C
330
2
100
AcDbEntity
  8
0
100
AcDbCircle
 10
61.7228112599388
 20
85.23275567866011
 30
0.0
 40
0.55
100
AcDbArc
 50
90.49999999999155
 51
180.0
  0
ARC
  5
286D
330
2
100
AcDbEntity
  8
0
100
AcDbCircle
 10
61.7228112599388
 20
85.21955667866013
 30
0.0
 40
0.55
100
AcDbArc
 50
180.0
 51
269.5000000000084
  0
ARC
  5
286E
330
2
100
AcDbEntity
  8
0
100
AcDbCircle
 10
63.57280925993894
 20
98.82523567865991
 30
0.0
 40
2.399999999999999
100
AcDbArc
 50
90.49999999999155
 51
180.0
  0
ARC
  5
286F
330
2
100
AcDbEntity
  8
0
100
AcDbCircle
 10
61.90283525993902
 20
98.80663467866014
 30
0.0
 40
0.73
100
AcDbArc
 50
90.49999999999155
 51
180.0
  0
LINE
  5
2870
330
2
100
AcDbEntity
  8
0
100
AcDbLine
 10
61.17283125993902
 20
98.82523567865991
 30
0.0
 11
61.17283125993902
 21
98.80663467866014
 31
0.0
  0
LINE
  5
2871
330
2
100
AcDbEntity
  8
0
100
AcDbLine
 10
61.17283125993902
 20
98.80663467866014
 30
0.0
 11
61.17283125993902
 21
98.79125567866021
 31
0.0
  0
ARC
  5
2872
330
2
100
AcDbEntity
  8
0
100
AcDbCircle
 10
61.90283525993902
 20
98.79125567866021
 30
0.0
 40
0.73
100
AcDbArc
 50
180.0
 51
269.5000000000084
  0
ARC
  5
2873
330
2
100
AcDbEntity
  8
0
100
AcDbCircle
 10
63.12780925993877
 20
125.4534656786601
 30
0.0
 40
1.955
100
AcDbArc
 50
90.49999999999155
 51
180.0
  0
ARC
  5
2874
330
2
100
AcDbEntity
  8
0
100
AcDbCircle
 10
62.03782925993903
 20
125.4482636786598
 30
0.0
 40
0.865
100
AcDbArc
 50
90.49999999999155
 51
180.0
  0
ARC
  5
2875
330
2
100
AcDbEntity
  8
0
100
AcDbCircle
 10
62.51282725993871
 20
116.0736756786602
 30
0.0
 40
1.34
100
AcDbArc
 50
180.0
 51
269.5000000000084
  0
ARC
  5
2876
330
2
100
AcDbEntity
  8
0
100
AcDbCircle
 10
63.49283125993872
 20
107.1106356786601
 30
0.0
 40
2.319999999999999
100
AcDbArc
 50
90.49999999999155
 51
180.0
  0
LINE
  5
2877
330
2
100
AcDbEntity
  8
0
100
AcDbLine
 10
61.17283125993902
 20
107.1106356786601
 30
0.0
 11
61.17283125993902
 21
107.0950356786599
 31
0.0
  0
LINE
  5
2878
330
2
100
AcDbEntity
  8
0
100
AcDbLine
 10
61.17283125993902
 20
107.0950356786599
 30
0.0
 11
61.17283125993902
 21
107.0786556786599
 31
0.0
  0
ARC
  5
2879
330
2
100
AcDbEntity
  8
0
100
AcDbCircle
 10
61.97281125993879
 20
107.0786556786599
 30
0.0
 40
0.8
100
AcDbArc
 50
180.0
 51
269.5000000000084
  0
ARC
  5
287A
330
2
100
AcDbEntity
  8
0
100
AcDbCircle
 10
61.97281125993879
 20
107.0950356786599
 30
0.0
 40
0.8
100
AcDbArc
 50
90.49999999999155
 51
180.0
  0
ARC
  5
287B
330
2
100
AcDbEntity
  8
0
100
AcDbCircle
 10
63.31283125993889
 20
116.1074576786601
 30
0.0
 40
2.14
100
AcDbArc
 50
90.49999999999155
 51
180.0
  0
LINE
  5
287C
330
2
100
AcDbEntity
  8
0
100
AcDbLine
 10
61.17283125993902
 20
116.1074576786601
 30
0.0
 11
61.17283125993902
 21
116.0736756786602
 31
0.0
  0
LINE
  5
287D
330
2
100
AcDbEntity
  8
0
100
AcDbLine
 10
61.17283125993902
 20
116.0918636786602
 30
0.0
 11
61.17283125993902
 21
116.0764676786599
 31
0.0
  0
ARC
  5
287E
330
2
100
AcDbEntity
  8
0
100
AcDbCircle
 10
61.99283125993872
 20
116.0918636786602
 30
0.0
 40
0.8199999999999999
100
AcDbArc
 50
90.49999999999155
 51
180.0
  0
ARC
  5
287F
330
2
100
AcDbEntity
  8
0
100
AcDbCircle
 10
62.84781125993879
 20
125.4198656786599
 30
0.0
 40
1.675
100
AcDbArc
 50
180.0
 51
269.5000000000084
  0
LINE
  5
2880
330
2
100
AcDbEntity
  8
0
100
AcDbLine
 10
61.17283125993902
 20
125.4534656786601
 30
0.0
 11
61.17283125993902
 21
125.4198656786599
 31
0.0
  0
LINE
  5
2881
330
2
100
AcDbEntity
  8
0
100
AcDbLine
 10
61.17283125993902
 20
125.4482636786598
 30
0.0
 11
61.17283125993902
 21
125.4312656786598
 31
0.0
  0
ARC
  5
2882
330
2
100
AcDbEntity
  8
0
100
AcDbCircle
 10
62.03782925993903
 20
125.4312656786598
 30
0.0
 40
0.865
100
AcDbArc
 50
180.0
 51
269.5000000000084
  0
ARC
  5
2883
330
2
100
AcDbEntity
  8
0
100
AcDbCircle
 10
61.99283125993872
 20
116.0764676786599
 30
0.0
 40
0.8199999999999999
100
AcDbArc
 50
180.0
 51
269.5000000000084
  0
ARC
  5
2884
330
2
100
AcDbEntity
  8
0
100
AcDbCircle
 10
62.84781125993879
 20
134.9596616786599
 30
0.0
 40
1.675
100
AcDbArc
 50
90.49999999999155
 51
180.0
  0
ARC
  5
2885
330
2
100
AcDbEntity
  8
0
100
AcDbCircle
 10
63.12780925993877
 20
134.9260616786597
 30
0.0
 40
1.955
100
AcDbArc
 50
180.0
 51
269.5000000000084
  0
LINE
  5
2886
330
2
100
AcDbEntity
  8
0
100
AcDbLine
 10
61.17283125993902
 20
134.9312656786598
 30
0.0
 11
61.17283125993902
 21
134.9482636786598
 31
0.0
  0
LINE
  5
2887
330
2
100
AcDbEntity
  8
0
100
AcDbLine
 10
61.17283125993902
 20
134.9260616786597
 30
0.0
 11
61.17283125993902
 21
134.9596616786599
 31
0.0
  0
ARC
  5
2888
330
2
100
AcDbEntity
  8
0
100
AcDbCircle
 10
62.03782925993903
 20
134.9312656786598
 30
0.0
 40
0.865
100
AcDbArc
 50
180.0
 51
269.5000000000084
  0
ARC
  5
2889
330
2
100
AcDbEntity
  8
0
100
AcDbCircle
 10
62.03782925993903
 20
134.9482636786598
 30
0.0
 40
0.865
100
AcDbArc
 50
90.49999999999155
 51
180.0
  0
ARC
  5
288A
330
2
100
AcDbEntity
  8
0
100
AcDbCircle
 10
63.31283125993889
 20
144.2720696786602
 30
0.0
 40
2.14
100
AcDbArc
 50
180.0
 51
269.5000000000084
  0
LINE
  5
288B
330
2
100
AcDbEntity
  8
0
100
AcDbLine
 10
61.17283125993902
 20
144.2876796786601
 30
0.0
 11
61.17283125993902
 21
144.3030756786603
 31
0.0
  0
LINE
  5
288C
330
2
100
AcDbEntity
  8
0
100
AcDbLine
 10
61.17283125993902
 20
144.2720696786602
 30
0.0
 11
61.17283125993902
 21
144.3058536786599
 31
0.0
  0
ARC
  5
288D
330
2
100
AcDbEntity
  8
0
100
AcDbCircle
 10
61.99283125993872
 20
144.2876796786601
 30
0.0
 40
0.8199999999999999
100
AcDbArc
 50
180.0
 51
269.5000000000084
  0
ARC
  5
288E
330
2
100
AcDbEntity
  8
0
100
AcDbCircle
 10
62.51282725993871
 20
144.3058536786599
 30
0.0
 40
1.34
100
AcDbArc
 50
90.49999999999155
 51
180.0
  0
ARC
  5
288F
330
2
100
AcDbEntity
  8
0
100
AcDbCircle
 10
61.99283125993872
 20
144.3030756786603
 30
0.0
 40
0.8199999999999999
100
AcDbArc
 50
90.49999999999155
 51
180.0
  0
ARC
  5
2890
330
2
100
AcDbEntity
  8
0
100
AcDbCircle
 10
132.172831259939
 20
82.4212166786603
 30
0.0
 40
1.0
100
AcDbArc
 50
270.4999999999915
 51
0.0
  0
ARC
  5
2891
330
2
100
AcDbEntity
  8
0
100
AcDbCircle
 10
134.172831259939
 20
67.84699467866011
 30
0.0
 40
1.0
100
AcDbArc
 50
180.0
 51
268.9999999999982
  0
ARC
  5
2892
330
2
100
AcDbEntity
  8
0
100
AcDbCircle
 10
132.172831259939
 20
78.36013567866001
 30
0.0
 40
1.0
100
AcDbArc
 50
0.0
 51
89.50000000000846
  0
ARC
  5
2893
330
2
100
AcDbEntity
  8
0
100
AcDbCircle
 10
132.172831259939
 20
78.92631767866004
 30
0.0
 40
1.0
100
AcDbArc
 50
270.4999999999915
 51
343.5553890000034
  0
ARC
  5
2894
330
2
100
AcDbEntity
  8
0
100
AcDbCircle
 10
132.172831259939
 20
75.06847567866015
 30
0.0
 40
1.0
100
AcDbArc
 50
0.0
 51
89.50000000000846
  0
ARC
  5
2895
330
2
100
AcDbEntity
  8
0
100
AcDbCircle
 10
132.172831259939
 20
73.41151667865978
 30
0.0
 40
1.0
100
AcDbArc
 50
0.0
 51
89.50000000000846
  0
LINE
  5
2896
330
2
100
AcDbEntity
  8
0
100
AcDbLine
 10
131.8720502599391
 20
84.4297546786599
 30
0.0
 11
130.2612332599384
 21
84.4297546786599
 31
0.0
  0
LINE
  5
2897
330
2
100
AcDbEntity
  8
0
100
AcDbLine
 10
131.8720502599391
 20
93.92975467865989
 30
0.0
 11
130.2612332599384
 21
93.92975467865989
 31
0.0
  0
ARC
  5
2898
330
2
100
AcDbEntity
  8
0
100
AcDbCircle
 10
136.1720302599388
 20
89.17975467865989
 30
0.0
 40
8.0
100
AcDbArc
 50
147.6076050000069
 51
212.392394999993
  0
ARC
  5
2899
330
2
100
AcDbEntity
  8
0
100
AcDbCircle
 10
130.2612332599384
 20
85.42975467865989
 30
0.0
 40
1.0
100
AcDbArc
 50
212.392394999993
 51
270.0
  0
ARC
  5
289A
330
2
100
AcDbEntity
  8
0
100
AcDbCircle
 10
130.2612332599384
 20
92.92975467865989
 30
0.0
 40
1.0
100
AcDbArc
 50
90.0
 51
147.6076050000069
  0
LINE
  5
289B
330
2
100
AcDbEntity
  8
0
100
AcDbLine
 10
131.8720502599391
 20
93.92975467865989
 30
0.0
 11
131.8720502599391
 21
84.4297546786599
 31
0.0
  0
LINE
  5
289C
330
2
100
AcDbEntity
  8
0
100
AcDbLine
 10
131.8720502599391
 20
84.57975567865986
 30
0.0
 11
133.1720302599388
 21
84.57975567865986
 31
0.0
  0
ARC
  5
289D
330
2
100
AcDbEntity
  8
0
100
AcDbCircle
 10
132.172831259939
 20
84.23521667866015
 30
0.0
 40
1.0
100
AcDbArc
 50
270.4999999999915
 51
323.8237000000101
  0
ARC
  5
289E
330
2
100
AcDbEntity
  8
0
100
AcDbCircle
 10
132.172831259939
 20
83.05465467866014
 30
0.0
 40
1.0
100
AcDbArc
 50
0.0
 51
89.50000000000846
  0
LINE
  5
289F
330
2
100
AcDbEntity
  8
0
100
AcDbLine
 10
131.8720502599391
 20
93.77973767865995
 30
0.0
 11
133.1720302599388
 21
93.77973767865995
 31
0.0
  0
ARC
  5
28A0
330
2
100
AcDbEntity
  8
0
100
AcDbCircle
 10
132.172831259939
 20
96.44793567865981
 30
0.0
 40
1.0
100
AcDbArc
 50
0.0
 51
89.50000000000846
  0
ARC
  5
28A1
330
2
100
AcDbEntity
  8
0
100
AcDbCircle
 10
132.172831259939
 20
101.1498356786598
 30
0.0
 40
1.0
100
AcDbArc
 50
270.4999999999915
 51
0.0
  0
ARC
  5
28A2
330
2
100
AcDbEntity
  8
0
100
AcDbCircle
 10
132.172831259939
 20
102.8240356786602
 30
0.0
 40
1.0
100
AcDbArc
 50
270.4999999999915
 51
0.0
  0
ARC
  5
28A3
330
2
100
AcDbEntity
  8
0
100
AcDbCircle
 10
132.172831259939
 20
113.6438656786601
 30
0.0
 40
1.0
100
AcDbArc
 50
0.0
 51
89.50000000000846
  0
ARC
  5
28A4
330
2
100
AcDbEntity
  8
0
100
AcDbCircle
 10
132.172831259939
 20
113.1256616786601
 30
0.0
 40
1.0
100
AcDbArc
 50
0.0
 51
89.50000000000846
  0
ARC
  5
28A5
330
2
100
AcDbEntity
  8
0
100
AcDbCircle
 10
132.172831259939
 20
109.5078566786598
 30
0.0
 40
1.0
100
AcDbArc
 50
270.4999999999915
 51
0.0
  0
ARC
  5
28A6
330
2
100
AcDbEntity
  8
0
100
AcDbCircle
 10
132.172831259939
 20
111.03006567866
 30
0.0
 40
1.0
100
AcDbArc
 50
270.4999999999915
 51
0.0
  0
ARC
  5
28A7
330
2
100
AcDbEntity
  8
0
100
AcDbCircle
 10
132.172831259939
 20
104.6658366786597
 30
0.0
 40
1.0
100
AcDbArc
 50
0.0
 51
89.50000000000846
  0
ARC
  5
28A8
330
2
100
AcDbEntity
  8
0
100
AcDbCircle
 10
132.172831259939
 20
119.8484556786599
 30
0.0
 40
1.0
100
AcDbArc
 50
270.4999999999915
 51
0.0
  0
ARC
  5
28A9
330
2
100
AcDbEntity
  8
0
100
AcDbCircle
 10
132.172831259939
 20
118.5242676786603
 30
0.0
 40
1.0
100
AcDbArc
 50
270.4999999999915
 51
0.0
  0
ARC
  5
28AA
330
2
100
AcDbEntity
  8
0
100
AcDbCircle
 10
132.172831259939
 20
122.1398676786599
 30
0.0
 40
1.0
100
AcDbArc
 50
0.0
 51
89.50000000000846
  0
ARC
  5
28AB
330
2
100
AcDbEntity
  8
0
100
AcDbCircle
 10
132.172831259939
 20
122.9542596786602
 30
0.0
 40
1.0
100
AcDbArc
 50
0.0
 51
89.50000000000846
  0
ARC
  5
28AC
330
2
100
AcDbEntity
  8
0
100
AcDbCircle
 10
132.172831259939
 20
137.4252676786601
 30
0.0
 40
1.0
100
AcDbArc
 50
270.4999999999915
 51
0.0
  0
ARC
  5
28AD
330
2
100
AcDbEntity
  8
0
100
AcDbCircle
 10
132.172831259939
 20
132.4540776786599
 30
0.0
 40
1.0
100
AcDbArc
 50
0.0
 51
89.50000000000846
  0
ARC
  5
28AE
330
2
100
AcDbEntity
  8
0
100
AcDbCircle
 10
132.172831259939
 20
129.0110686786603
 30
0.0
 40
1.0
100
AcDbArc
 50
270.4999999999915
 51
0.0
  0
ARC
  5
28AF
330
2
100
AcDbEntity
  8
0
100
AcDbCircle
 10
132.172831259939
 20
127.9254656786599
 30
0.0
 40
1.0
100
AcDbArc
 50
270.4999999999915
 51
0.0
  0
ARC
  5
28B0
330
2
100
AcDbEntity
  8
0
100
AcDbCircle
 10
132.172831259939
 20
131.3684746786599
 30
0.0
 40
1.0
100
AcDbArc
 50
0.0
 51
89.50000000000846
  0
ARC
  5
28B1
330
2
100
AcDbEntity
  8
0
100
AcDbCircle
 10
132.172831259939
 20
138.2396596786599
 30
0.0
 40
1.0
100
AcDbArc
 50
270.4999999999915
 51
0.0
  0
ARC
  5
28B2
330
2
100
AcDbEntity
  8
0
100
AcDbCircle
 10
132.172831259939
 20
141.8552616786602
 30
0.0
 40
1.0
100
AcDbArc
 50
0.0
 51
89.50000000000846
  0
ARC
  5
28B3
330
2
100
AcDbEntity
  8
0
100
AcDbCircle
 10
132.172831259939
 20
140.5310736786602
 30
0.0
 40
1.0
100
AcDbArc
 50
0.0
 51
89.50000000000846
  0
ARC
  5
28B4
330
2
100
AcDbEntity
  8
0
100
AcDbCircle
 10
132.172831259939
 20
146.7356626786601
 30
0.0
 40
1.0
100
AcDbArc
 50
270.4999999999915
 51
0.0
  0
ARC
  5
28B5
330
2
100
AcDbEntity
  8
0
100
AcDbCircle
 10
132.172831259939
 20
147.2538506786601
 30
0.0
 40
1.0
100
AcDbArc
 50
270.4999999999915
 51
0.0
  0
LINE
  5
28B6
330
2
100
AcDbEntity
  8
CENTER
100
AcDbLine
 10
123.110949259939
 20
171.1998956786598
 30
0.0
 11
147.3704092599383
 21
171.1998956786598
 31
0.0
  0
LINE
  5
28B7
330
2
100
AcDbEntity
  8
0
100
AcDbLine
 10
143.172831259939
 20
193.6898936786603
 30
0.0
 11
134.1553522599389
 21
193.5322556786601
 31
0.0
  0
LINE
  5
28B8
330
2
100
AcDbEntity
  8
0
100
AcDbLine
 10
132.1815512599388
 20
176.3248956786603
 30
0.0
 11
61.71802725993905
 21
175.7098366786601
 31
0.0
  0
LINE
  5
28B9
330
2
100
AcDbEntity
  8
0
100
AcDbLine
 10
132.1815512599388
 20
177.1442546786599
 30
0.0
 11
63.37343125993868
 21
177.7446956786599
 31
0.0
  0
LINE
  5
28BA
330
2
100
AcDbEntity
  8
0
100
AcDbLine
 10
132.1815512599388
 20
160.22965667866
 30
0.0
 11
61.89643325993904
 21
160.8428766786602
 31
0.0
  0
LINE
  5
28BB
330
2
100
AcDbEntity
  8
0
100
AcDbLine
 10
132.1815512599388
 20
162.9316536786602
 30
0.0
 11
61.89643325993904
 21
162.3182546786603
 31
0.0
  0
LINE
  5
28BC
330
2
100
AcDbEntity
  8
0
100
AcDbLine
 10
132.1815512599388
 20
151.8716756786599
 30
0.0
 11
61.96583125993868
 21
152.4844556786603
 31
0.0
  0
LINE
  5
28BD
330
2
100
AcDbEntity
  8
0
100
AcDbLine
 10
132.1815512599388
 20
154.7136556786601
 30
0.0
 11
61.96583125993868
 21
154.1008546786599
 31
0.0
  0
LINE
  5
28BE
330
2
100
AcDbEntity
  8
0
100
AcDbLine
 10
132.1815512599388
 20
158.5554756786602
 30
0.0
 11
63.55188925993854
 21
159.1542756786599
 31
0.0
  0
LINE
  5
28BF
330
2
100
AcDbEntity
  8
0
100
AcDbLine
 10
132.1815512599388
 20
150.3492756786601
 30
0.0
 11
63.47258925993867
 21
150.9490756786601
 31
0.0
  0
LINE
  5
28C0
330
2
100
AcDbEntity
  8
0
100
AcDbLine
 10
128.2340403684194
 20
172.1940367562426
 30
0.0
 11
63.52215125993883
 21
172.75867667866
 31
0.0
  0
LINE
  5
28C1
330
2
100
AcDbEntity
  8
0
100
AcDbLine
 10
128.6827378992576
 20
174.0124567777735
 30
0.0
 11
61.71802725993905
 21
174.5966736786601
 31
0.0
  0
LINE
  5
28C2
330
2
100
AcDbEntity
  8
0
100
AcDbLine
 10
132.1815512599388
 20
184.3110366786601
 30
0.0
 11
61.48011325993877
 21
183.6940366786599
 31
0.0
  0
LINE
  5
28C3
330
2
100
AcDbEntity
  8
0
100
AcDbLine
 10
132.1815512599388
 20
182.4530776786597
 30
0.0
 11
61.48011325993877
 21
183.0700746786598
 31
0.0
  0
LINE
  5
28C4
330
2
100
AcDbEntity
  8
0
100
AcDbLine
 10
132.1815512599388
 20
181.0194756786601
 30
0.0
 11
61.57924925993859
 21
180.40325767866
 31
0.0
  0
LINE
  5
28C5
330
2
100
AcDbEntity
  8
0
100
AcDbLine
 10
70.65536725993855
 20
185.4310356786601
 30
0.0
 11
132.1815512599388
 21
185.9680766786602
 31
0.0
  0
LINE
  5
28C6
330
2
100
AcDbEntity
  8
0
100
AcDbLine
 10
132.1815512599388
 20
178.9582536786603
 30
0.0
 11
61.57924925993859
 21
179.5744766786603
 31
0.0
  0
LINE
  5
28C7
330
2
100
AcDbEntity
  8
0
100
AcDbLine
 10
114.0266522599387
 20
180.86109767866
 30
0.0
 11
63.21483125993893
 21
181.30447567866
 31
0.0
  0
ARC
  5
28C8
330
2
100
AcDbEntity
  8
0
100
AcDbCircle
 10
107.4785460391418
 20
253.6405101460788
 30
0.0
 40
46.0
100
AcDbArc
 50
250.5608481874146
 51
270.0
  0
ARC
  5
28C9
330
2
100
AcDbEntity
  8
0
100
AcDbCircle
 10
107.4785460391418
 20
253.6405101460788
 30
0.0
 40
44.0
100
AcDbArc
 50
250.5608481874146
 51
270.0
  0
ARC
  5
28CA
330
2
100
AcDbEntity
  8
0
100
AcDbCircle
 10
107.4785460391418
 20
253.6405101460788
 30
0.0
 40
42.0
100
AcDbArc
 50
250.5608481874146
 51
270.0
  0
ARC
  5
28CB
330
2
100
AcDbEntity
  8
0
100
AcDbCircle
 10
107.4785460391418
 20
253.6405101460788
 30
0.0
 40
40.0
100
AcDbArc
 50
250.5608481874146
 51
270.0
  0
LINE
  5
28CC
330
2
100
AcDbEntity
  8
0
100
AcDbLine
 10
67.17288125993866
 20
229.2762972977795
 30
0.0
 11
105.5935069904768
 21
229.2762972977795
 31
0.0
  0
LINE
  5
28CD
330
2
100
AcDbEntity
  8
0
100
AcDbLine
 10
67.17286125993917
 20
223.2762972977795
 30
0.0
 11
105.5929835870789
 21
223.2762972977795
 31
0.0
  0
LINE
  5
28CE
330
2
100
AcDbEntity
  8
0
100
AcDbLine
 10
58.17283125993856
 20
209.9352486479662
 30
0.0
 11
58.17283125993902
 21
184.6898936786603
 31
0.0
  0
LINE
  5
28CF
330
2
100
AcDbEntity
  8
0
100
AcDbLine
 10
60.17283125993856
 20
209.0999215535282
 30
0.0
 11
60.17283125993902
 21
184.6898936786603
 31
0.0
  0
LINE
  5
28D0
330
2
100
AcDbEntity
  8
0
100
AcDbLine
 10
56.17283125993902
 20
209.5140831430655
 30
0.0
 11
56.17283125993902
 21
184.6898936786603
 31
0.0
  0
LINE
  5
28D1
330
2
100
AcDbEntity
  8
0
100
AcDbLine
 10
62.17283125993901
 20
209.5140817345702
 30
0.0
 11
62.17283125993901
 21
184.6898936786603
 31
0.0
  0
ARC
  5
28D2
330
2
100
AcDbEntity
  8
0
100
AcDbCircle
 10
70.67283125993902
 20
183.4311546786599
 30
0.0
 40
2.0
100
AcDbArc
 50
90.50070200000861
 51
170.6273039999844
  0
LINE
  5
28D3
330
2
100
AcDbEntity
  8
0
100
AcDbLine
 10
53.67283125993902
 20
183.6898936786603
 30
0.0
 11
53.67277025993883
 21
152.1898746786602
 31
0.0
  0
ARC
  5
28D4
330
2
100
AcDbEntity
  8
0
100
AcDbCircle
 10
54.67285425993861
 20
152.1898746786602
 30
0.0
 40
1.0
100
AcDbArc
 50
180.0
 51
239.9984783206102
  0
ARC
  5
28D5
330
2
100
AcDbEntity
  8
0
100
AcDbCircle
 10
63.49283125993872
 20
153.2688556786599
 30
0.0
 40
2.319999999999999
100
AcDbArc
 50
180.0
 51
269.5000000000084
  0
LINE
  5
28D6
330
2
100
AcDbEntity
  8
0
100
AcDbLine
 10
61.17283125993902
 20
153.2844566786599
 30
0.0
 11
61.17283125993902
 21
153.3008746786601
 31
0.0
  0
LINE
  5
28D7
330
2
100
AcDbEntity
  8
0
100
AcDbLine
 10
61.17283125993902
 20
153.2688556786599
 30
0.0
 11
61.17283125993902
 21
153.2844566786599
 31
0.0
  0
ARC
  5
28D8
330
2
100
AcDbEntity
  8
0
100
AcDbCircle
 10
61.97281125993879
 20
153.2844566786599
 30
0.0
 40
0.8
100
AcDbArc
 50
180.0
 51
269.5000000000084
  0
ARC
  5
28D9
330
2
100
AcDbEntity
  8
0
100
AcDbCircle
 10
61.97281125993879
 20
153.3008746786601
 30
0.0
 40
0.8
100
AcDbArc
 50
90.49999999999155
 51
180.0
  0
ARC
  5
28DA
330
2
100
AcDbEntity
  8
0
100
AcDbCircle
 10
63.57280925993894
 20
161.55425667866
 30
0.0
 40
2.399999999999999
100
AcDbArc
 50
180.0
 51
269.5000000000084
  0
ARC
  5
28DB
330
2
100
AcDbEntity
  8
0
100
AcDbCircle
 10
61.90283525993902
 20
161.5728546786601
 30
0.0
 40
0.73
100
AcDbArc
 50
180.0
 51
269.5000000000084
  0
LINE
  5
28DC
330
2
100
AcDbEntity
  8
0
100
AcDbLine
 10
61.17283125993902
 20
161.5728546786601
 30
0.0
 11
61.17283125993902
 21
161.5882546786598
 31
0.0
  0
LINE
  5
28DD
330
2
100
AcDbEntity
  8
0
100
AcDbLine
 10
61.17283125993902
 20
161.55425667866
 30
0.0
 11
61.17283125993902
 21
161.5728546786601
 31
0.0
  0
ARC
  5
28DE
330
2
100
AcDbEntity
  8
0
100
AcDbCircle
 10
61.90283525993902
 20
161.5882546786598
 30
0.0
 40
0.73
100
AcDbArc
 50
90.49999999999155
 51
180.0
  0
LINE
  5
28DF
330
2
100
AcDbEntity
  8
0
100
AcDbLine
 10
61.33513125993897
 20
182.5628756786601
 30
0.0
 11
58.15535325993881
 21
182.53507467866
 31
0.0
  0
LINE
  5
28E0
330
2
100
AcDbEntity
  8
0
100
AcDbLine
 10
63.67283125993902
 20
184.68981767866
 30
0.0
 11
54.67283125993901
 21
184.6898936786603
 31
0.0
  0
ARC
  5
28E1
330
2
100
AcDbEntity
  8
0
100
AcDbCircle
 10
54.67285425993861
 20
183.6898936786603
 30
0.0
 40
1.0
100
AcDbArc
 50
90.0
 51
180.0
  0
ARC
  5
28E2
330
2
100
AcDbEntity
  8
0
100
AcDbCircle
 10
58.17283125993902
 20
180.53507467866
 30
0.0
 40
2.0
100
AcDbArc
 50
90.49999999999155
 51
180.0
  0
LINE
  5
28E3
330
2
100
AcDbEntity
  8
0
100
AcDbLine
 10
64.67285325993874
 20
180.43023467866
 30
0.0
 11
64.67285325993874
 21
180.4130576786603
 31
0.0
  0
ARC
  5
28E4
330
2
100
AcDbEntity
  8
0
100
AcDbCircle
 10
61.58281125993892
 20
179.9932536786602
 30
0.0
 40
0.41
100
AcDbArc
 50
90.49999999999155
 51
180.0
  0
ARC
  5
28E5
330
2
100
AcDbEntity
  8
0
100
AcDbCircle
 10
63.39283325993903
 20
179.96467367866
 30
0.0
 40
2.22
100
AcDbArc
 50
180.0
 51
269.5000000000084
  0
LINE
  5
28E6
330
2
100
AcDbEntity
  8
0
100
AcDbLine
 10
61.17283125993902
 20
179.96467367866
 30
0.0
 11
61.17283125993902
 21
179.9932536786602
 31
0.0
  0
LINE
  5
28E7
330
2
100
AcDbEntity
  8
0
100
AcDbLine
 10
61.17283125993902
 20
179.98443467866
 30
0.0
 11
61.17283125993902
 21
179.9932536786602
 31
0.0
  0
ARC
  5
28E8
330
2
100
AcDbEntity
  8
0
100
AcDbCircle
 10
61.58281125993892
 20
179.98443467866
 30
0.0
 40
0.41
100
AcDbArc
 50
180.0
 51
269.5000000000084
  0
ARC
  5
28E9
330
2
100
AcDbEntity
  8
0
100
AcDbCircle
 10
63.54283325993868
 20
175.12867567866
 30
0.0
 40
2.37
100
AcDbArc
 50
180.0
 51
269.5000000000084
  0
LINE
  5
28EA
330
2
100
AcDbEntity
  8
0
100
AcDbLine
 10
61.17283125993902
 20
175.1466766786599
 30
0.0
 11
61.17283125993902
 21
175.1598566786598
 31
0.0
  0
LINE
  5
28EB
330
2
100
AcDbEntity
  8
0
100
AcDbLine
 10
61.17283125993902
 20
175.12867567866
 30
0.0
 11
61.17283125993902
 21
175.1598566786598
 31
0.0
  0
ARC
  5
28EC
330
2
100
AcDbEntity
  8
0
100
AcDbCircle
 10
61.7228112599388
 20
175.1466766786599
 30
0.0
 40
0.55
100
AcDbArc
 50
180.0
 51
269.5000000000084
  0
ARC
  5
28ED
330
2
100
AcDbEntity
  8
0
100
AcDbCircle
 10
61.7228112599388
 20
175.1598566786598
 30
0.0
 40
0.55
100
AcDbArc
 50
90.49999999999155
 51
180.0
  0
ARC
  5
28EE
330
2
100
AcDbEntity
  8
0
100
AcDbCircle
 10
63.67283125993902
 20
183.6898936786603
 30
0.0
 40
1.0
100
AcDbArc
 50
0.0
 51
90.0
  0
ARC
  5
28EF
330
2
100
AcDbEntity
  8
0
100
AcDbCircle
 10
63.23281325993878
 20
183.36425567866
 30
0.0
 40
2.06
100
AcDbArc
 50
180.0
 51
269.5000000000084
  0
ARC
  5
28F0
330
2
100
AcDbEntity
  8
0
100
AcDbCircle
 10
61.48281325993877
 20
183.3800756786601
 30
0.0
 40
0.31
100
AcDbArc
 50
180.0
 51
269.5000000000084
  0
ARC
  5
28F1
330
2
100
AcDbEntity
  8
0
100
AcDbCircle
 10
61.48281325993877
 20
183.3840766786599
 30
0.0
 40
0.31
100
AcDbArc
 50
90.49999999999155
 51
180.0
  0
ARC
  5
28F2
330
2
100
AcDbEntity
  8
0
100
AcDbCircle
 10
63.67285325993873
 20
183.6898936786603
 30
0.0
 40
1.0
100
AcDbArc
 50
0.0
 51
1.824028999993621
  0
ARC
  5
28F3
330
2
100
AcDbEntity
  8
0
100
AcDbCircle
 10
67.60523805333298
 20
176.5140092318476
 30
0.0
 40
40.0
100
AcDbArc
 50
70.56084818741466
 51
90.0
  0
ARC
  5
28F4
330
2
100
AcDbEntity
  8
0
100
AcDbCircle
 10
67.60523805333298
 20
176.5140092318476
 30
0.0
 40
42.0
100
AcDbArc
 50
70.56084818741466
 51
90.0
  0
ARC
  5
28F5
330
2
100
AcDbEntity
  8
0
100
AcDbCircle
 10
67.60523805333298
 20
176.5140092318476
 30
0.0
 40
46.0
100
AcDbArc
 50
70.56084818741466
 51
90.0
  0
ARC
  5
28F6
330
2
100
AcDbEntity
  8
0
100
AcDbCircle
 10
67.60523805333298
 20
176.5140092318476
 30
0.0
 40
44.0
100
AcDbArc
 50
70.56084818741466
 51
90.0
  0
ARC
  5
28F7
330
2
100
AcDbEntity
  8
0
100
AcDbCircle
 10
67.17288247312365
 20
211.5140680202618
 30
0.0
 40
9.000051213203853
100
AcDbArc
 50
90.00024308268166
 51
177.3436678381762
  0
ARC
  5
28F8
330
2
100
AcDbEntity
  8
0
100
AcDbCircle
 10
67.17288247312365
 20
211.5140680202618
 30
0.0
 40
11.00005121320385
100
AcDbArc
 50
90.00024308268166
 51
179.9998428472075
  0
ARC
  5
28F9
330
2
100
AcDbEntity
  8
0
100
AcDbCircle
 10
67.17288247312365
 20
211.5140680202618
 30
0.0
 40
7.000051213203854
100
AcDbArc
 50
90.00024308268166
 51
179.9998428472075
  0
ARC
  5
28FA
330
2
100
AcDbEntity
  8
0
100
AcDbCircle
 10
67.17288247312365
 20
211.5140680202618
 30
0.0
 40
5.000051213203854
100
AcDbArc
 50
90.00024308268166
 51
179.9998428472075
  0
LINE
  5
28FB
330
2
100
AcDbEntity
  8
0
100
AcDbLine
 10
56.17288125993866
 20
218.2762972977795
 30
0.0
 11
56.17283125993902
 21
211.5140831430655
 31
0.0
  0
LINE
  5
28FC
330
2
100
AcDbEntity
  8
HOJO
100
AcDbLine
 10
58.04415325993898
 20
211.9894311384011
 30
0.0
 11
60.301752259939
 21
211.0388231384014
 31
0.0
  0
LINE
  5
28FD
330
2
100
AcDbEntity
  8
HOJO
100
AcDbLine
 10
58.04415325993898
 20
209.9894311384011
 30
0.0
 11
60.301752259939
 21
209.0388231384014
 31
0.0
  0
ARC
  5
28FE
330
2
100
AcDbEntity
  8
HOJO
100
AcDbCircle
 10
57.42286125993917
 20
210.5141191384011
 30
0.0
 40
1.600781999999999
100
AcDbArc
 50
67.16467300001993
 51
141.3418685642233
  0
ARC
  5
28FF
330
2
100
AcDbEntity
  8
HOJO
100
AcDbCircle
 10
57.42286125993917
 20
208.514119138401
 30
0.0
 40
1.600781999999999
100
AcDbArc
 50
67.16467300001993
 51
141.3418685641862
  0
LINE
  5
2900
330
2
100
AcDbEntity
  8
HOJO
100
AcDbLine
 10
56.17283125993902
 20
209.5141551337371
 30
0.0
 11
56.17283125993902
 21
209.2753228144007
 31
0.0
  0
LINE
  5
2901
330
2
100
AcDbEntity
  8
0
100
AcDbLine
 10
60.17283125993902
 20
211.5140680202618
 30
0.0
 11
60.17283125993856
 21
211.0931079489316
 31
0.0
  0
ARC
  5
2902
330
2
100
AcDbEntity
  8
HOJO
100
AcDbCircle
 10
60.92286125993917
 20
212.5141191384011
 30
0.0
 40
1.600781
100
AcDbArc
 50
247.1647030000082
 51
321.3401944016112
  0
ARC
  5
2903
330
2
100
AcDbEntity
  8
HOJO
100
AcDbCircle
 10
60.92286125993917
 20
210.5141191384011
 30
0.0
 40
1.600781
100
AcDbArc
 50
247.1647030000082
 51
321.3401944016112
  0
ARC
  5
2904
330
2
100
AcDbEntity
  8
0
100
AcDbCircle
 10
67.17288125993866
 20
218.2762972977795
 30
0.0
 40
11.0
100
AcDbArc
 50
90.0
 51
180.0
  0
ARC
  5
2905
330
2
100
AcDbEntity
  8
0
100
AcDbCircle
 10
67.17286125993917
 20
218.2762972977795
 30
0.0
 40
5.0
100
AcDbArc
 50
90.0
 51
131.974563421098
  0
ARC
  5
2906
330
2
100
AcDbEntity
  8
0
100
AcDbCircle
 10
67.17286125993917
 20
211.5141192334205
 30
0.0
 40
9.0
100
AcDbArc
 50
90.0
 51
123.3057915968492
  0
LINE
  5
2907
330
2
100
AcDbEntity
  8
0
100
AcDbLine
 10
67.17269522529398
 20
216.5140092318476
 30
0.0
 11
67.60523805333298
 21
216.5140092318476
 31
0.0
  0
LINE
  5
2908
330
2
100
AcDbEntity
  8
0
100
AcDbLine
 10
67.17269522529398
 20
222.5140092318476
 30
0.0
 11
67.60523805333298
 21
222.5140092318476
 31
0.0
  0
LINE
  5
2909
330
2
100
AcDbEntity
  8
0
100
AcDbLine
 10
67.17269522529398
 20
220.5140092318476
 30
0.0
 11
67.60523805333298
 21
220.5140092318476
 31
0.0
  0
LINE
  5
290A
330
2
100
AcDbEntity
  8
0
100
AcDbLine
 10
67.17269522529398
 20
218.5140092318476
 30
0.0
 11
67.60523805333298
 21
218.5140092318476
 31
0.0
  0
LINE
  5
290B
330
2
100
AcDbEntity
  8
0
100
AcDbLine
 10
80.91746144423098
 20
214.2338277413634
 30
0.0
 11
92.16948913960925
 21
210.2627188601356
 31
0.0
  0
LINE
  5
290C
330
2
100
AcDbEntity
  8
0
100
AcDbLine
 10
81.58307261377524
 20
216.119818666839
 30
0.0
 11
92.83510030915397
 21
212.1487097856113
 31
0.0
  0
LINE
  5
290D
330
2
100
AcDbEntity
  8
0
100
AcDbLine
 10
82.24868378332041
 20
218.0058095923151
 30
0.0
 11
93.50071147869869
 21
214.0347007110869
 31
0.0
  0
LINE
  5
290E
330
2
100
AcDbEntity
  8
0
100
AcDbLine
 10
82.91429495286513
 20
219.8918005177908
 30
0.0
 11
94.16632264824386
 21
215.920691636563
 31
0.0
  0
LINE
  5
290F
330
2
100
AcDbEntity
  8
0
100
AcDbLine
 10
131.8720502599391
 20
175.9498956786598
 30
0.0
 11
131.8720502599391
 21
166.4498766786597
 31
0.0
  0
ARC
  5
2910
330
2
100
AcDbEntity
  8
0
100
AcDbCircle
 10
136.1720302599388
 20
171.1998956786598
 30
0.0
 40
8.0
100
AcDbArc
 50
147.6076050000069
 51
212.392394999993
  0
LINE
  5
2911
330
2
100
AcDbEntity
  8
0
100
AcDbLine
 10
131.8720502599391
 20
166.4498766786597
 30
0.0
 11
130.2612332599384
 21
166.4498766786597
 31
0.0
  0
ARC
  5
2912
330
2
100
AcDbEntity
  8
0
100
AcDbCircle
 10
130.2612332599384
 20
167.4498766786598
 30
0.0
 40
1.0
100
AcDbArc
 50
212.392394999993
 51
270.0
  0
ARC
  5
2913
330
2
100
AcDbEntity
  8
0
100
AcDbCircle
 10
132.172831259939
 20
157.5554756786602
 30
0.0
 40
1.0
100
AcDbArc
 50
0.0
 51
89.50000000000846
  0
ARC
  5
2914
330
2
100
AcDbEntity
  8
0
100
AcDbCircle
 10
132.172831259939
 20
155.7136556786601
 30
0.0
 40
1.0
100
AcDbArc
 50
270.4999999999915
 51
0.0
  0
ARC
  5
2915
330
2
100
AcDbEntity
  8
0
100
AcDbCircle
 10
132.172831259939
 20
150.8716756786599
 30
0.0
 40
1.0
100
AcDbArc
 50
0.0
 51
89.50000000000846
  0
ARC
  5
2916
330
2
100
AcDbEntity
  8
0
100
AcDbCircle
 10
132.172831259939
 20
149.3494626786597
 30
0.0
 40
1.0
100
AcDbArc
 50
0.0
 51
89.50000000000846
  0
LINE
  5
2917
330
2
100
AcDbEntity
  8
0
100
AcDbLine
 10
131.8720502599391
 20
166.5998746786601
 30
0.0
 11
133.1720302599388
 21
166.5998746786601
 31
0.0
  0
ARC
  5
2918
330
2
100
AcDbEntity
  8
0
100
AcDbCircle
 10
132.172831259939
 20
159.22965667866
 30
0.0
 40
1.0
100
AcDbArc
 50
0.0
 51
89.50000000000846
  0
ARC
  5
2919
330
2
100
AcDbEntity
  8
0
100
AcDbCircle
 10
132.172831259939
 20
163.93147467866
 30
0.0
 40
1.0
100
AcDbArc
 50
270.4999999999915
 51
0.0
  0
LINE
  5
291A
330
2
100
AcDbEntity
  8
0
100
AcDbLine
 10
131.8720502599391
 20
175.9498956786598
 30
0.0
 11
130.2612332599384
 21
175.9498956786598
 31
0.0
  0
ARC
  5
291B
330
2
100
AcDbEntity
  8
0
100
AcDbCircle
 10
130.2612332599384
 20
174.9498956786598
 30
0.0
 40
1.0
100
AcDbArc
 50
90.0
 51
147.6076050000069
  0
LINE
  5
291C
330
2
100
AcDbEntity
  8
0
100
AcDbLine
 10
131.8720502599391
 20
175.7996956786598
 30
0.0
 11
133.1720302599388
 21
175.7996956786598
 31
0.0
  0
ARC
  5
291D
330
2
100
AcDbEntity
  8
0
100
AcDbCircle
 10
132.172831259939
 20
177.9582536786603
 30
0.0
 40
1.0
100
AcDbArc
 50
0.0
 51
89.50000000000846
  0
ARC
  5
291E
330
2
100
AcDbEntity
  8
0
100
AcDbCircle
 10
132.172831259939
 20
176.1442546786599
 30
0.0
 40
1.0
100
AcDbArc
 50
36.17633799998952
 51
89.50000000000846
  0
ARC
  5
291F
330
2
100
AcDbEntity
  8
0
100
AcDbCircle
 10
132.172831259939
 20
177.3248956786603
 30
0.0
 40
1.0
100
AcDbArc
 50
270.4999999999915
 51
0.0
  0
ARC
  5
2920
330
2
100
AcDbEntity
  8
0
100
AcDbCircle
 10
132.172831259939
 20
182.0192546786599
 30
0.0
 40
1.0
100
AcDbArc
 50
270.4999999999915
 51
0.0
  0
ARC
  5
2921
330
2
100
AcDbEntity
  8
0
100
AcDbCircle
 10
132.172831259939
 20
185.3110366786601
 30
0.0
 40
1.0
100
AcDbArc
 50
270.4999999999915
 51
0.0
  0
ARC
  5
2922
330
2
100
AcDbEntity
  8
0
100
AcDbCircle
 10
132.172831259939
 20
186.96787467866
 30
0.0
 40
1.0
100
AcDbArc
 50
270.4999999999915
 51
0.0
  0
ARC
  5
2923
330
2
100
AcDbEntity
  8
0
100
AcDbCircle
 10
132.172831259939
 20
181.4532566786603
 30
0.0
 40
1.0
100
AcDbArc
 50
16.44459900000745
 51
89.50000000000846
  0
LINE
  5
2924
330
2
100
AcDbEntity
  8
0
100
AcDbLine
 10
115.3507383641973
 20
230.5064023806309
 30
0.0
 11
121.3928626969537
 21
231.5717919212913
 31
0.0
  0
LINE
  5
2925
330
2
100
AcDbEntity
  8
0
100
AcDbLine
 10
121.6339338597991
 20
223.251742899212
 30
0.0
 11
115.3537768135948
 21
223.8011854459175
 31
0.0
  0
LINE
  5
2926
330
2
100
AcDbEntity
  8
0
100
AcDbLine
 10
115.3537768135948
 20
223.2628475151174
 30
0.0
 11
121.4978490931854
 21
222.1794818008026
 31
0.0
  0
LINE
  5
2927
330
2
100
AcDbEntity
  8
0
100
AcDbLine
 10
121.6863269912902
 20
224.4517428992118
 30
0.0
 11
115.3537768135948
 21
225.0057692509691
 31
0.0
  0
LINE
  5
2928
330
2
100
AcDbEntity
  8
0
100
AcDbLine
 10
121.6339338597964
 20
229.2995308228821
 30
0.0
 11
115.3537768135948
 21
228.7500882761766
 31
0.0
  0
LINE
  5
2929
330
2
100
AcDbEntity
  8
0
100
AcDbLine
 10
115.3537768135948
 20
229.2884262069766
 30
0.0
 11
121.4978490931845
 21
230.371791921291
 31
0.0
  0
LINE
  5
292A
330
2
100
AcDbEntity
  8
0
100
AcDbLine
 10
121.6863269912861
 20
228.0995308228818
 30
0.0
 11
115.3537768135948
 21
227.5455044711249
 31
0.0
  0
LINE
  5
292B
330
2
100
AcDbEntity
  8
0
100
AcDbLine
 10
115.3507383641973
 20
222.0448713414627
 30
0.0
 11
121.3928626969537
 21
220.9794818008028
 31
0.0
  0
LINE
  5
292C
330
2
100
AcDbEntity
  8
0
100
AcDbLine
 10
131.2320438019465
 20
225.6756368610469
 30
0.0
 11
115.3537768135948
 21
225.6756368610469
 31
0.0
  0
LINE
  5
292D
330
2
100
AcDbEntity
  8
0
100
AcDbLine
 10
131.2320438019465
 20
226.8756368610467
 30
0.0
 11
115.3537768135948
 21
226.8756368610467
 31
0.0
  0
LINE
  5
292E
330
2
100
AcDbEntity
  8
0
100
AcDbLine
 10
107.9565123622084
 20
211.6405101460788
 30
0.0
 11
137.4312455555929
 21
214.2192151609512
 31
0.0
  0
LINE
  5
292F
330
2
100
AcDbEntity
  8
0
100
AcDbLine
 10
107.9565123622084
 20
209.6405101460788
 30
0.0
 11
137.4245169703318
 21
207.0623938061382
 31
0.0
  0
LINE
  5
2930
330
2
100
AcDbEntity
  8
0
100
AcDbLine
 10
107.869190476391
 20
213.6405101460788
 30
0.0
 11
137.2569340700976
 21
216.2116045571348
 31
0.0
  0
LINE
  5
2931
330
2
100
AcDbEntity
  8
0
100
AcDbLine
 10
107.869190476391
 20
207.6405101460788
 30
0.0
 11
137.2502054848365
 21
205.0700044099546
 31
0.0
  0
LINE
  5
2932
330
2
100
AcDbEntity
  8
0
100
AcDbLine
 10
137.369190476391
 20
211.6405101460788
 30
0.0
 11
107.4785460391332
 21
211.6405101460788
 31
0.0
  0
LINE
  5
2933
330
2
100
AcDbEntity
  8
0
100
AcDbLine
 10
137.369190476391
 20
209.6405101460788
 30
0.0
 11
107.4785460391327
 21
209.6405101460788
 31
0.0
  0
LINE
  5
2934
330
2
100
AcDbEntity
  8
0
100
AcDbLine
 10
107.869190476391
 20
207.6405101460788
 30
0.0
 11
107.4785460391323
 21
207.6405101460788
 31
0.0
  0
LINE
  5
2935
330
2
100
AcDbEntity
  8
0
100
AcDbLine
 10
105.7871561577868
 20
223.0262972977795
 30
0.0
 11
108.4971860536999
 21
223.0262972977795
 31
0.0
  0
LINE
  5
2936
330
2
100
AcDbEntity
  8
0
100
AcDbLine
 10
105.7871561577868
 20
229.5262972977799
 30
0.0
 11
108.5222057909756
 21
229.5262972977799
 31
0.0
  0
LINE
  5
2937
330
2
100
AcDbEntity
  8
0
100
AcDbLine
 10
105.587156157787
 20
223.2262972977798
 30
0.0
 11
105.587156157787
 21
229.3262972977797
 31
0.0
  0
ARC
  5
2938
330
2
100
AcDbEntity
  8
0
100
AcDbCircle
 10
105.7871561577868
 20
223.2262972977798
 30
0.0
 40
0.2
100
AcDbArc
 50
180.0
 51
270.0
  0
ARC
  5
2939
330
2
100
AcDbEntity
  8
0
100
AcDbCircle
 10
105.7871561577868
 20
229.3262972977797
 30
0.0
 40
0.2
100
AcDbArc
 50
90.0
 51
180.0
  0
LINE
  5
293A
330
2
100
AcDbEntity
  8
0
100
AcDbLine
 10
115.3537768135948
 20
222.0796009769962
 30
0.0
 11
115.3537768135948
 21
230.4716727450979
 31
0.0
  0
ARC
  5
293B
330
2
100
AcDbEntity
  8
0
100
AcDbCircle
 10
112.653776813595
 20
222.4824164108892
 30
0.0
 40
0.4
100
AcDbArc
 50
257.0698677002805
 51
326.0187104207559
  0
LINE
  5
293C
330
2
100
AcDbEntity
  8
0
100
AcDbLine
 10
112.564271725727
 20
222.0925589507248
 30
0.0
 11
108.4971860537003
 21
223.0262972977795
 31
0.0
  0
LINE
  5
293D
330
2
100
AcDbEntity
  8
0
100
AcDbLine
 10
107.869190476391
 20
213.6405101460788
 30
0.0
 11
107.4785460391418
 21
213.6405101460788
 31
0.0
  0
LINE
  5
293E
330
2
100
AcDbEntity
  8
0
100
AcDbLine
 10
112.9854648686006
 20
222.2588475531139
 30
0.0
 11
115.119047178062
 21
221.8826394263939
 31
0.0
  0
ARC
  5
293F
330
2
100
AcDbEntity
  8
0
100
AcDbCircle
 10
115.153776813595
 20
222.0796009769962
 30
0.0
 40
0.2
100
AcDbArc
 50
259.9999999999949
 51
0.0
  0
LINE
  5
2940
330
2
100
AcDbEntity
  8
0
100
AcDbLine
 10
113.567702174928
 20
230.6380659518838
 30
0.0
 11
108.5222057909756
 21
229.5262972977795
 31
0.0
  0
LINE
  5
2941
330
2
100
AcDbEntity
  8
0
100
AcDbLine
 10
113.9868139186802
 20
230.4689910236158
 30
0.0
 11
115.119047178062
 21
230.6686342957001
 31
0.0
  0
ARC
  5
2942
330
2
100
AcDbEntity
  8
0
100
AcDbCircle
 10
113.653776813595
 20
230.247436771486
 30
0.0
 40
0.4
100
AcDbArc
 50
33.6339940220023
 51
102.4264747477459
  0
ARC
  5
2943
330
2
100
AcDbEntity
  8
0
100
AcDbCircle
 10
115.153776813595
 20
230.4716727450979
 30
0.0
 40
0.2
100
AcDbArc
 50
0.0
 51
100.000000000005
  0
ARC
  5
2944
330
2
100
AcDbEntity
  8
0
100
AcDbCircle
 10
134.172831259939
 20
192.5324766786599
 30
0.0
 40
1.0
100
AcDbArc
 50
91.00000000000177
 51
180.0
  0
LINE
  5
2945
330
2
100
AcDbEntity
  8
0
100
AcDbLine
 10
142.3250633033041
 20
205.629831719376
 30
0.0
 11
137.3440898128457
 21
206.0656104331143
 31
0.0
  0
LINE
  5
2946
330
2
100
AcDbEntity
  8
0
100
AcDbLine
 10
142.2945587933428
 20
205.2811635750442
 30
0.0
 11
137.3135853028835
 21
205.7169422887824
 31
0.0
  0
LINE
  5
2947
330
2
100
AcDbEntity
  8
0
100
AcDbLine
 10
142.2640542833806
 20
204.9324954307118
 30
0.0
 11
137.2830807929223
 21
205.3682741444501
 31
0.0
  0
LINE
  5
2948
330
2
100
AcDbEntity
  8
0
100
AcDbLine
 10
142.4029541700639
 20
206.3256910378228
 30
0.0
 11
137.4050988327691
 21
206.7629467217786
 31
0.0
  0
LINE
  5
2949
330
2
100
AcDbEntity
  8
0
100
AcDbLine
 10
142.3555678132657
 20
205.9784998637084
 30
0.0
 11
137.3745943228069
 21
206.4142785774467
 31
0.0
  0
LINE
  5
294A
330
2
100
AcDbEntity
  8
0
100
AcDbLine
 10
137.2502054848365
 20
205.0700044099546
 30
0.0
 11
137.4245169703318
 21
207.0623938061382
 31
0.0
  0
LINE
  5
294B
330
2
100
AcDbEntity
  8
0
100
AcDbLine
 10
142.369190476391
 20
211.3405101460786
 30
0.0
 11
137.369190476391
 21
211.3405101460786
 31
0.0
  0
LINE
  5
294C
330
2
100
AcDbEntity
  8
0
100
AcDbLine
 10
142.369190476391
 20
210.9905101460787
 30
0.0
 11
137.369190476391
 21
210.9905101460787
 31
0.0
  0
LINE
  5
294D
330
2
100
AcDbEntity
  8
0
100
AcDbLine
 10
142.369190476391
 20
210.6405101460788
 30
0.0
 11
137.369190476391
 21
210.6405101460788
 31
0.0
  0
LINE
  5
294E
330
2
100
AcDbEntity
  8
0
100
AcDbLine
 10
142.369190476391
 20
209.9405101460785
 30
0.0
 11
137.369190476391
 21
209.9405101460785
 31
0.0
  0
LINE
  5
294F
330
2
100
AcDbEntity
  8
0
100
AcDbLine
 10
142.369190476391
 20
210.2905101460784
 30
0.0
 11
137.369190476391
 21
210.2905101460784
 31
0.0
  0
LINE
  5
2950
330
2
100
AcDbEntity
  8
0
100
AcDbLine
 10
137.369190476391
 20
209.6405101460788
 30
0.0
 11
137.369190476391
 21
211.6405101460788
 31
0.0
  0
LINE
  5
2951
330
2
100
AcDbEntity
  8
0
100
AcDbLine
 10
131.2320438019465
 20
224.3756368610467
 30
0.0
 11
123.4294418462433
 21
224.3756368610467
 31
0.0
  0
LINE
  5
2952
330
2
100
AcDbEntity
  8
0
100
AcDbLine
 10
131.2320438019465
 20
223.1756368610469
 30
0.0
 11
123.3770487147522
 21
223.1756368610469
 31
0.0
  0
LINE
  5
2953
330
2
100
AcDbEntity
  8
0
100
AcDbLine
 10
131.2320438019465
 20
221.8756368610467
 30
0.0
 11
124.9708126465244
 21
221.8756368610467
 31
0.0
  0
LINE
  5
2954
330
2
100
AcDbEntity
  8
0
100
AcDbLine
 10
131.2320438019465
 20
220.6756368610469
 30
0.0
 11
124.8658262502923
 21
220.6756368610469
 31
0.0
  0
LINE
  5
2955
330
2
100
AcDbEntity
  8
0
100
AcDbLine
 10
131.2320438019465
 20
231.8756368610467
 30
0.0
 11
124.8658262502923
 21
231.8756368610467
 31
0.0
  0
LINE
  5
2956
330
2
100
AcDbEntity
  8
0
100
AcDbLine
 10
131.2320438019465
 20
230.6756368610469
 30
0.0
 11
124.970812646523
 21
230.6756368610469
 31
0.0
  0
LINE
  5
2957
330
2
100
AcDbEntity
  8
0
100
AcDbLine
 10
131.2320438019465
 20
229.3756368610467
 30
0.0
 11
123.3770487147491
 21
229.3756368610467
 31
0.0
  0
LINE
  5
2958
330
2
100
AcDbEntity
  8
0
100
AcDbLine
 10
131.2320438019465
 20
228.1756368610469
 30
0.0
 11
123.4294418462392
 21
228.1756368610469
 31
0.0
  0
ARC
  5
2959
330
2
100
AcDbEntity
  8
0
100
AcDbCircle
 10
124.9708126465239
 20
241.8756368610467
 30
0.0
 40
20.0
100
AcDbArc
 50
259.9999999999949
 51
270.0
  0
ARC
  5
295A
330
2
100
AcDbEntity
  8
0
100
AcDbCircle
 10
123.3770487147522
 20
243.1756368610469
 30
0.0
 40
20.0
100
AcDbArc
 50
265.0000000000003
 51
270.0
  0
ARC
  5
295B
330
2
100
AcDbEntity
  8
0
100
AcDbCircle
 10
124.8658262502923
 20
240.6756368610469
 30
0.0
 40
20.0
100
AcDbArc
 50
259.9999999999949
 51
270.0
  0
ARC
  5
295C
330
2
100
AcDbEntity
  8
0
100
AcDbCircle
 10
124.970812646523
 20
210.6756368610469
 30
0.0
 40
20.0
100
AcDbArc
 50
90.0
 51
100.000000000005
  0
ARC
  5
295D
330
2
100
AcDbEntity
  8
0
100
AcDbCircle
 10
123.4294418462433
 20
244.3756368610467
 30
0.0
 40
20.0
100
AcDbArc
 50
265.0000000000003
 51
270.0
  0
ARC
  5
295E
330
2
100
AcDbEntity
  8
0
100
AcDbCircle
 10
123.4294418462396
 20
208.1756368610469
 30
0.0
 40
20.0
100
AcDbArc
 50
90.0
 51
94.99999999999975
  0
ARC
  5
295F
330
2
100
AcDbEntity
  8
0
100
AcDbCircle
 10
123.3770487147495
 20
209.3756368610467
 30
0.0
 40
20.0
100
AcDbArc
 50
90.0
 51
94.99999999999975
  0
ARC
  5
2960
330
2
100
AcDbEntity
  8
0
100
AcDbCircle
 10
124.8658262502923
 20
211.8756368610467
 30
0.0
 40
20.0
100
AcDbArc
 50
90.0
 51
100.000000000005
  0
LINE
  5
2961
330
2
100
AcDbEntity
  8
0
100
AcDbLine
 10
141.7320438019465
 20
223.075636861047
 30
0.0
 11
141.7320438019465
 21
224.4756368610471
 31
0.0
  0
LINE
  5
2962
330
2
100
AcDbEntity
  8
0
100
AcDbLine
 10
139.2320438019465
 20
222.8756368610467
 30
0.0
 11
139.2320438019465
 21
224.6756368610469
 31
0.0
  0
LINE
  5
2963
330
2
100
AcDbEntity
  8
0
100
AcDbLine
 10
133.2320438019465
 20
232.5256368610468
 30
0.0
 11
133.2320438019465
 21
220.0256368610468
 31
0.0
  0
LINE
  5
2964
330
2
100
AcDbEntity
  8
0
100
AcDbLine
 10
131.2320438019465
 20
232.5256368610468
 30
0.0
 11
131.2320438019465
 21
220.0256368610468
 31
0.0
  0
LINE
  5
2965
330
2
100
AcDbEntity
  8
0
100
AcDbLine
 10
142.7320438019465
 20
232.5256368610468
 30
0.0
 11
142.7320438019465
 21
220.0256368610468
 31
0.0
  0
LINE
  5
2966
330
2
100
AcDbEntity
  8
0
100
AcDbLine
 10
142.7320438019465
 20
232.5256368610468
 30
0.0
 11
142.7320438019465
 21
220.0256368610468
 31
0.0
  0
LINE
  5
2967
330
2
100
AcDbEntity
  8
0
100
AcDbLine
 10
142.7320438019465
 20
220.0256368610468
 30
0.0
 11
131.2320438019465
 21
220.0256368610468
 31
0.0
  0
LINE
  5
2968
330
2
100
AcDbEntity
  8
0
100
AcDbLine
 10
139.1320438019466
 20
222.7756368610468
 30
0.0
 11
135.8320438019464
 21
222.7756368610468
 31
0.0
  0
LINE
  5
2969
330
2
100
AcDbEntity
  8
0
100
AcDbLine
 10
139.1320438019466
 20
222.2756368610468
 30
0.0
 11
135.8320438019464
 21
222.2756368610468
 31
0.0
  0
LINE
  5
296A
330
2
100
AcDbEntity
  8
0
100
AcDbLine
 10
139.1320438019466
 20
220.2756368610468
 30
0.0
 11
135.8320438019464
 21
220.2756368610468
 31
0.0
  0
ARC
  5
296B
330
2
100
AcDbEntity
  8
0
100
AcDbCircle
 10
135.8320438019464
 20
222.6756368610469
 30
0.0
 40
0.1
100
AcDbArc
 50
90.0
 51
180.0
  0
LINE
  5
296C
330
2
100
AcDbEntity
  8
0
100
AcDbLine
 10
135.7320438019465
 20
222.5256368610468
 30
0.0
 11
135.7320438019465
 21
222.6756368610469
 31
0.0
  0
ARC
  5
296D
330
2
100
AcDbEntity
  8
0
100
AcDbCircle
 10
135.8320438019464
 20
222.3756368610467
 30
0.0
 40
0.1
100
AcDbArc
 50
180.0
 51
270.0
  0
LINE
  5
296E
330
2
100
AcDbEntity
  8
0
100
AcDbLine
 10
135.7320438019465
 20
222.5256368610468
 30
0.0
 11
135.7320438019465
 21
222.3756368610467
 31
0.0
  0
ARC
  5
296F
330
2
100
AcDbEntity
  8
0
100
AcDbCircle
 10
135.8320438019464
 20
220.1756368610469
 30
0.0
 40
0.1
100
AcDbArc
 50
90.0
 51
180.0
  0
LINE
  5
2970
330
2
100
AcDbEntity
  8
0
100
AcDbLine
 10
135.7320438019465
 20
220.1756368610469
 30
0.0
 11
135.7320438019465
 21
220.0256368610468
 31
0.0
  0
LINE
  5
2971
330
2
100
AcDbEntity
  8
0
100
AcDbLine
 10
142.2945587933428
 20
215.9998567171134
 30
0.0
 11
137.3135853028835
 21
215.5640780033747
 31
0.0
  0
LINE
  5
2972
330
2
100
AcDbEntity
  8
0
100
AcDbLine
 10
142.3250633033041
 20
215.6511885727811
 30
0.0
 11
137.3440898128457
 21
215.2154098590428
 31
0.0
  0
LINE
  5
2973
330
2
100
AcDbEntity
  8
0
100
AcDbLine
 10
142.4029541700639
 20
214.9553292543343
 30
0.0
 11
137.4050988327691
 21
214.5180735703785
 31
0.0
  0
LINE
  5
2974
330
2
100
AcDbEntity
  8
0
100
AcDbLine
 10
142.3555678132657
 20
215.3025204284487
 30
0.0
 11
137.3745943228069
 21
214.8667417147109
 31
0.0
  0
LINE
  5
2975
330
2
100
AcDbEntity
  8
0
100
AcDbLine
 10
142.2640542833806
 20
216.3485248614453
 30
0.0
 11
137.2830807929223
 21
215.9127461477071
 31
0.0
  0
LINE
  5
2976
330
2
100
AcDbEntity
  8
0
100
AcDbLine
 10
141.6320438019466
 20
222.9756368610471
 30
0.0
 11
140.8320438019464
 21
222.9756368610471
 31
0.0
  0
LINE
  5
2977
330
2
100
AcDbEntity
  8
0
100
AcDbLine
 10
140.7320438019465
 20
222.5256368610468
 30
0.0
 11
140.7320438019465
 21
222.8756368610467
 31
0.0
  0
ARC
  5
2978
330
2
100
AcDbEntity
  8
0
100
AcDbCircle
 10
140.8320438019464
 20
222.8756368610467
 30
0.0
 40
0.1
100
AcDbArc
 50
90.0
 51
180.0
  0
ARC
  5
2979
330
2
100
AcDbEntity
  8
0
100
AcDbCircle
 10
141.6320438019466
 20
223.075636861047
 30
0.0
 40
0.1
100
AcDbArc
 50
270.0
 51
0.0
  0
LINE
  5
297A
330
2
100
AcDbEntity
  8
0
100
AcDbLine
 10
141.6320438019466
 20
222.075636861047
 30
0.0
 11
140.8320438019464
 21
222.075636861047
 31
0.0
  0
ARC
  5
297B
330
2
100
AcDbEntity
  8
0
100
AcDbCircle
 10
140.8320438019464
 20
222.1756368610469
 30
0.0
 40
0.1
100
AcDbArc
 50
180.0
 51
270.0
  0
ARC
  5
297C
330
2
100
AcDbEntity
  8
0
100
AcDbCircle
 10
141.6320438019466
 20
221.9756368610471
 30
0.0
 40
0.1
100
AcDbArc
 50
0.0
 51
90.0
  0
LINE
  5
297D
330
2
100
AcDbEntity
  8
0
100
AcDbLine
 10
140.7320438019465
 20
222.5256368610468
 30
0.0
 11
140.7320438019465
 21
222.1756368610469
 31
0.0
  0
ARC
  5
297E
330
2
100
AcDbEntity
  8
0
100
AcDbCircle
 10
139.1320438019466
 20
222.8756368610467
 30
0.0
 40
0.1
100
AcDbArc
 50
270.0
 51
0.0
  0
ARC
  5
297F
330
2
100
AcDbEntity
  8
0
100
AcDbCircle
 10
139.1320438019466
 20
222.1756368610469
 30
0.0
 40
0.1
100
AcDbArc
 50
0.0
 51
90.0
  0
LINE
  5
2980
330
2
100
AcDbEntity
  8
0
100
AcDbLine
 10
141.6320438019466
 20
220.4756368610471
 30
0.0
 11
140.8320438019464
 21
220.4756368610471
 31
0.0
  0
LINE
  5
2981
330
2
100
AcDbEntity
  8
0
100
AcDbLine
 10
140.7320438019465
 20
220.0256368610468
 30
0.0
 11
140.7320438019465
 21
220.3756368610467
 31
0.0
  0
ARC
  5
2982
330
2
100
AcDbEntity
  8
0
100
AcDbCircle
 10
140.8320438019464
 20
220.3756368610467
 30
0.0
 40
0.1
100
AcDbArc
 50
90.0
 51
180.0
  0
ARC
  5
2983
330
2
100
AcDbEntity
  8
0
100
AcDbCircle
 10
141.6320438019466
 20
220.575636861047
 30
0.0
 40
0.1
100
AcDbArc
 50
270.0
 51
0.0
  0
ARC
  5
2984
330
2
100
AcDbEntity
  8
0
100
AcDbCircle
 10
139.1320438019466
 20
220.3756368610467
 30
0.0
 40
0.1
100
AcDbArc
 50
270.0
 51
0.0
  0
LINE
  5
2985
330
2
100
AcDbEntity
  8
0
100
AcDbLine
 10
141.7320438019465
 20
221.9756368610471
 30
0.0
 11
141.7320438019465
 21
220.575636861047
 31
0.0
  0
LINE
  5
2986
330
2
100
AcDbEntity
  8
0
100
AcDbLine
 10
139.2320438019465
 20
222.1756368610469
 30
0.0
 11
139.2320438019465
 21
220.3756368610467
 31
0.0
  0
LINE
  5
2987
330
2
100
AcDbEntity
  8
0
100
AcDbLine
 10
137.2569340700976
 20
216.2116045571348
 30
0.0
 11
137.4312455555929
 21
214.2192151609512
 31
0.0
  0
LINE
  5
2988
330
2
100
AcDbEntity
  8
0
100
AcDbLine
 10
142.7320438019465
 20
232.5256368610468
 30
0.0
 11
131.2320438019465
 21
232.5256368610468
 31
0.0
  0
LINE
  5
2989
330
2
100
AcDbEntity
  8
0
100
AcDbLine
 10
139.1320438019466
 20
225.2756368610468
 30
0.0
 11
135.8320438019464
 21
225.2756368610468
 31
0.0
  0
LINE
  5
298A
330
2
100
AcDbEntity
  8
0
100
AcDbLine
 10
139.1320438019466
 20
224.7756368610468
 30
0.0
 11
135.8320438019464
 21
224.7756368610468
 31
0.0
  0
LINE
  5
298B
330
2
100
AcDbEntity
  8
0
100
AcDbLine
 10
139.1320438019466
 20
230.2756368610468
 30
0.0
 11
135.8320438019464
 21
230.2756368610468
 31
0.0
  0
LINE
  5
298C
330
2
100
AcDbEntity
  8
0
100
AcDbLine
 10
139.1320438019466
 20
229.7756368610468
 30
0.0
 11
135.8320438019464
 21
229.7756368610468
 31
0.0
  0
LINE
  5
298D
330
2
100
AcDbEntity
  8
0
100
AcDbLine
 10
139.1320438019466
 20
227.7756368610468
 30
0.0
 11
135.8320438019464
 21
227.7756368610468
 31
0.0
  0
LINE
  5
298E
330
2
100
AcDbEntity
  8
0
100
AcDbLine
 10
139.1320438019466
 20
227.2756368610468
 30
0.0
 11
135.8320438019464
 21
227.2756368610468
 31
0.0
  0
LINE
  5
298F
330
2
100
AcDbEntity
  8
0
100
AcDbLine
 10
139.1320438019466
 20
232.2756368610468
 30
0.0
 11
135.8320438019464
 21
232.2756368610468
 31
0.0
  0
ARC
  5
2990
330
2
100
AcDbEntity
  8
0
100
AcDbCircle
 10
135.8320438019464
 20
225.1756368610469
 30
0.0
 40
0.1
100
AcDbArc
 50
90.0
 51
180.0
  0
LINE
  5
2991
330
2
100
AcDbEntity
  8
0
100
AcDbLine
 10
135.7320438019465
 20
224.8756368610467
 30
0.0
 11
135.7320438019465
 21
225.1756368610469
 31
0.0
  0
ARC
  5
2992
330
2
100
AcDbEntity
  8
0
100
AcDbCircle
 10
135.8320438019464
 20
224.8756368610467
 30
0.0
 40
0.1
100
AcDbArc
 50
180.0
 51
270.0
  0
ARC
  5
2993
330
2
100
AcDbEntity
  8
0
100
AcDbCircle
 10
135.8320438019464
 20
229.8756368610467
 30
0.0
 40
0.1
100
AcDbArc
 50
180.0
 51
270.0
  0
LINE
  5
2994
330
2
100
AcDbEntity
  8
0
100
AcDbLine
 10
135.7320438019465
 20
227.6756368610469
 30
0.0
 11
135.7320438019465
 21
227.3756368610467
 31
0.0
  0
ARC
  5
2995
330
2
100
AcDbEntity
  8
0
100
AcDbCircle
 10
135.8320438019464
 20
227.6756368610469
 30
0.0
 40
0.1
100
AcDbArc
 50
90.0
 51
180.0
  0
ARC
  5
2996
330
2
100
AcDbEntity
  8
0
100
AcDbCircle
 10
135.8320438019464
 20
227.3756368610467
 30
0.0
 40
0.1
100
AcDbArc
 50
180.0
 51
270.0
  0
LINE
  5
2997
330
2
100
AcDbEntity
  8
0
100
AcDbLine
 10
135.7320438019465
 20
230.0256368610468
 30
0.0
 11
135.7320438019465
 21
230.1756368610469
 31
0.0
  0
ARC
  5
2998
330
2
100
AcDbEntity
  8
0
100
AcDbCircle
 10
135.8320438019464
 20
230.1756368610469
 30
0.0
 40
0.1
100
AcDbArc
 50
90.0
 51
180.0
  0
LINE
  5
2999
330
2
100
AcDbEntity
  8
0
100
AcDbLine
 10
135.7320438019465
 20
230.0256368610468
 30
0.0
 11
135.7320438019465
 21
229.8756368610467
 31
0.0
  0
ARC
  5
299A
330
2
100
AcDbEntity
  8
0
100
AcDbCircle
 10
135.8320438019464
 20
232.3756368610467
 30
0.0
 40
0.1
100
AcDbArc
 50
180.0
 51
270.0
  0
LINE
  5
299B
330
2
100
AcDbEntity
  8
0
100
AcDbLine
 10
135.7320438019465
 20
232.3756368610467
 30
0.0
 11
135.7320438019465
 21
232.5256368610468
 31
0.0
  0
LINE
  5
299C
330
2
100
AcDbEntity
  8
0
100
AcDbLine
 10
140.7320438019465
 20
225.0256368610468
 30
0.0
 11
140.7320438019465
 21
224.6756368610469
 31
0.0
  0
ARC
  5
299D
330
2
100
AcDbEntity
  8
0
100
AcDbCircle
 10
139.1320438019466
 20
224.6756368610469
 30
0.0
 40
0.1
100
AcDbArc
 50
0.0
 51
90.0
  0
LINE
  5
299E
330
2
100
AcDbEntity
  8
0
100
AcDbLine
 10
141.6320438019466
 20
224.575636861047
 30
0.0
 11
140.8320438019464
 21
224.575636861047
 31
0.0
  0
ARC
  5
299F
330
2
100
AcDbEntity
  8
0
100
AcDbCircle
 10
140.8320438019464
 20
224.6756368610469
 30
0.0
 40
0.1
100
AcDbArc
 50
180.0
 51
270.0
  0
ARC
  5
29A0
330
2
100
AcDbEntity
  8
0
100
AcDbCircle
 10
141.6320438019466
 20
224.4756368610471
 30
0.0
 40
0.1
100
AcDbArc
 50
0.0
 51
90.0
  0
LINE
  5
29A1
330
2
100
AcDbEntity
  8
0
100
AcDbLine
 10
141.7320438019465
 20
230.575636861047
 30
0.0
 11
141.7320438019465
 21
231.9756368610471
 31
0.0
  0
LINE
  5
29A2
330
2
100
AcDbEntity
  8
0
100
AcDbLine
 10
139.2320438019465
 20
230.3756368610467
 30
0.0
 11
139.2320438019465
 21
232.1756368610469
 31
0.0
  0
ARC
  5
29A3
330
2
100
AcDbEntity
  8
0
100
AcDbCircle
 10
141.6320438019466
 20
225.575636861047
 30
0.0
 40
0.1
100
AcDbArc
 50
270.0
 51
0.0
  0
LINE
  5
29A4
330
2
100
AcDbEntity
  8
0
100
AcDbLine
 10
141.6320438019466
 20
225.4756368610471
 30
0.0
 11
140.8320438019464
 21
225.4756368610471
 31
0.0
  0
ARC
  5
29A5
330
2
100
AcDbEntity
  8
0
100
AcDbCircle
 10
140.8320438019464
 20
225.3756368610467
 30
0.0
 40
0.1
100
AcDbArc
 50
90.0
 51
180.0
  0
LINE
  5
29A6
330
2
100
AcDbEntity
  8
0
100
AcDbLine
 10
140.7320438019465
 20
225.0256368610468
 30
0.0
 11
140.7320438019465
 21
225.3756368610467
 31
0.0
  0
ARC
  5
29A7
330
2
100
AcDbEntity
  8
0
100
AcDbCircle
 10
139.1320438019466
 20
225.3756368610467
 30
0.0
 40
0.1
100
AcDbArc
 50
270.0
 51
0.0
  0
ARC
  5
29A8
330
2
100
AcDbEntity
  8
0
100
AcDbCircle
 10
140.8320438019464
 20
229.6756368610469
 30
0.0
 40
0.1
100
AcDbArc
 50
180.0
 51
270.0
  0
LINE
  5
29A9
330
2
100
AcDbEntity
  8
0
100
AcDbLine
 10
139.2320438019465
 20
229.6756368610469
 30
0.0
 11
139.2320438019465
 21
227.8756368610467
 31
0.0
  0
ARC
  5
29AA
330
2
100
AcDbEntity
  8
0
100
AcDbCircle
 10
139.1320438019466
 20
229.6756368610469
 30
0.0
 40
0.1
100
AcDbArc
 50
0.0
 51
90.0
  0
LINE
  5
29AB
330
2
100
AcDbEntity
  8
0
100
AcDbLine
 10
141.6320438019466
 20
227.075636861047
 30
0.0
 11
140.8320438019464
 21
227.075636861047
 31
0.0
  0
LINE
  5
29AC
330
2
100
AcDbEntity
  8
0
100
AcDbLine
 10
141.6320438019466
 20
227.9756368610471
 30
0.0
 11
140.8320438019464
 21
227.9756368610471
 31
0.0
  0
LINE
  5
29AD
330
2
100
AcDbEntity
  8
0
100
AcDbLine
 10
141.6320438019466
 20
229.575636861047
 30
0.0
 11
140.8320438019464
 21
229.575636861047
 31
0.0
  0
LINE
  5
29AE
330
2
100
AcDbEntity
  8
0
100
AcDbLine
 10
140.7320438019465
 20
227.5256368610468
 30
0.0
 11
140.7320438019465
 21
227.1756368610469
 31
0.0
  0
LINE
  5
29AF
330
2
100
AcDbEntity
  8
0
100
AcDbLine
 10
140.7320438019465
 20
227.5256368610468
 30
0.0
 11
140.7320438019465
 21
227.8756368610467
 31
0.0
  0
ARC
  5
29B0
330
2
100
AcDbEntity
  8
0
100
AcDbCircle
 10
140.8320438019464
 20
227.8756368610467
 30
0.0
 40
0.1
100
AcDbArc
 50
90.0
 51
180.0
  0
ARC
  5
29B1
330
2
100
AcDbEntity
  8
0
100
AcDbCircle
 10
140.8320438019464
 20
227.1756368610469
 30
0.0
 40
0.1
100
AcDbArc
 50
180.0
 51
270.0
  0
ARC
  5
29B2
330
2
100
AcDbEntity
  8
0
100
AcDbCircle
 10
141.6320438019466
 20
228.075636861047
 30
0.0
 40
0.1
100
AcDbArc
 50
270.0
 51
0.0
  0
LINE
  5
29B3
330
2
100
AcDbEntity
  8
0
100
AcDbLine
 10
141.7320438019465
 20
229.4756368610471
 30
0.0
 11
141.7320438019465
 21
228.075636861047
 31
0.0
  0
ARC
  5
29B4
330
2
100
AcDbEntity
  8
0
100
AcDbCircle
 10
141.6320438019466
 20
229.4756368610471
 30
0.0
 40
0.1
100
AcDbArc
 50
0.0
 51
90.0
  0
ARC
  5
29B5
330
2
100
AcDbEntity
  8
0
100
AcDbCircle
 10
141.6320438019466
 20
226.9756368610471
 30
0.0
 40
0.1
100
AcDbArc
 50
0.0
 51
90.0
  0
LINE
  5
29B6
330
2
100
AcDbEntity
  8
0
100
AcDbLine
 10
141.7320438019465
 20
226.2756368610468
 30
0.0
 11
141.7320438019465
 21
226.9756368610471
 31
0.0
  0
ARC
  5
29B7
330
2
100
AcDbEntity
  8
0
100
AcDbCircle
 10
139.1320438019466
 20
227.8756368610467
 30
0.0
 40
0.1
100
AcDbArc
 50
270.0
 51
0.0
  0
ARC
  5
29B8
330
2
100
AcDbEntity
  8
0
100
AcDbCircle
 10
139.1320438019466
 20
227.1756368610469
 30
0.0
 40
0.1
100
AcDbArc
 50
0.0
 51
90.0
  0
LINE
  5
29B9
330
2
100
AcDbEntity
  8
0
100
AcDbLine
 10
139.2320438019465
 20
227.1756368610469
 30
0.0
 11
139.2320438019465
 21
226.2756368610468
 31
0.0
  0
LINE
  5
29BA
330
2
100
AcDbEntity
  8
0
100
AcDbLine
 10
141.6320438019466
 20
230.4756368610471
 30
0.0
 11
140.8320438019464
 21
230.4756368610471
 31
0.0
  0
LINE
  5
29BB
330
2
100
AcDbEntity
  8
0
100
AcDbLine
 10
140.7320438019465
 20
230.0256368610468
 30
0.0
 11
140.7320438019465
 21
230.3756368610467
 31
0.0
  0
ARC
  5
29BC
330
2
100
AcDbEntity
  8
0
100
AcDbCircle
 10
140.8320438019464
 20
230.3756368610467
 30
0.0
 40
0.1
100
AcDbArc
 50
90.0
 51
180.0
  0
ARC
  5
29BD
330
2
100
AcDbEntity
  8
0
100
AcDbCircle
 10
141.6320438019466
 20
230.575636861047
 30
0.0
 40
0.1
100
AcDbArc
 50
270.0
 51
0.0
  0
ARC
  5
29BE
330
2
100
AcDbEntity
  8
0
100
AcDbCircle
 10
139.1320438019466
 20
230.3756368610467
 30
0.0
 40
0.1
100
AcDbArc
 50
270.0
 51
0.0
  0
LINE
  5
29BF
330
2
100
AcDbEntity
  8
0
100
AcDbLine
 10
140.7320438019465
 20
230.0256368610468
 30
0.0
 11
140.7320438019465
 21
229.6756368610469
 31
0.0
  0
LINE
  5
29C0
330
2
100
AcDbEntity
  8
0
100
AcDbLine
 10
141.7320438019465
 20
226.2756368610468
 30
0.0
 11
141.7320438019465
 21
225.575636861047
 31
0.0
  0
LINE
  5
29C1
330
2
100
AcDbEntity
  8
0
100
AcDbLine
 10
139.2320438019465
 20
225.3756368610467
 30
0.0
 11
139.2320438019465
 21
226.2756368610468
 31
0.0
  0
LINE
  5
29C2
330
2
100
AcDbEntity
  8
0
100
AcDbLine
 10
141.6320438019466
 20
232.075636861047
 30
0.0
 11
140.8320438019464
 21
232.075636861047
 31
0.0
  0
ARC
  5
29C3
330
2
100
AcDbEntity
  8
0
100
AcDbCircle
 10
140.8320438019464
 20
232.1756368610469
 30
0.0
 40
0.1
100
AcDbArc
 50
180.0
 51
270.0
  0
ARC
  5
29C4
330
2
100
AcDbEntity
  8
0
100
AcDbCircle
 10
141.6320438019466
 20
231.9756368610471
 30
0.0
 40
0.1
100
AcDbArc
 50
0.0
 51
90.0
  0
ARC
  5
29C5
330
2
100
AcDbEntity
  8
0
100
AcDbCircle
 10
139.1320438019466
 20
232.1756368610469
 30
0.0
 40
0.1
100
AcDbArc
 50
0.0
 51
90.0
  0
LINE
  5
29C6
330
2
100
AcDbEntity
  8
0
100
AcDbLine
 10
140.7320438019465
 20
232.5256368610468
 30
0.0
 11
140.7320438019465
 21
232.1756368610469
 31
0.0
  0
LINE
  5
29C7
330
2
100
AcDbEntity
  8
0
100
AcDbLine
 10
54.17283125993901
 20
80.6898556786602
 30
0.0
 11
54.17283125993901
 21
176.06985567866
 31
0.0
  0
LINE
  5
29C8
330
2
100
AcDbEntity
  8
0
100
AcDbLine
 10
54.67252667344848
 20
80.17240593030891
 30
0.0
 11
54.17283125993901
 21
80.6898556786602
 31
0.0
  0
LINE
  5
29C9
330
2
100
AcDbEntity
  8
0
100
AcDbLine
 10
54.67252667344848
 20
176.5873054270113
 30
0.0
 11
54.17283125993901
 21
176.06985567866
 31
0.0
  0
ENDSEC
  0
SECTION
  2
OBJECTS
  0
DICTIONARY
  5
7
330
0
100
AcDbDictionary
  3
ACAD_COLOR
350
2478
  3
ACAD_GROUP
350
75
  3
ACAD_LAYOUT
350
61
  3
ACAD_MATERIAL
350
244E
  3
ACAD_MLEADERSTYLE
350
249D
  3
ACAD_MLINESTYLE
350
76
  3
ACAD_PLOTSETTINGS
350
77
  3
ACAD_PLOTSTYLENAME
350
6
  3
ACAD_SCALELIST
350
247B
  3
ACAD_TABLESTYLE
350
2479
  3
ACAD_VISUALSTYLE
350
2467
  3
ACADDIM
350
480
  3
ACDB_RECOMPOSE_DATA
350
29DC
  3
ACDBHEADERROUNDTRIPXREC
350
2A5E
  3
ACDBVARIABLEDICTIONARY
350
102
  3
DWGPROPS
350
29DD
  0
DICTIONARY
  5
29E5
330
6E
100
AcDbDictionary
280
     1
  3
ACAD_XREC_ROUNDTRIP
360
29E6
  0
DICTIONARY
  5
24A2
330
66
100
AcDbDictionary
280
     1
  3
ACAD_LAYERSTATES
360
24A3
  0
DICTIONARY
  5
29CA
330
5E
100
AcDbDictionary
280
     1
  3
ACAD_XREC_ROUNDTRIP
360
29E0
  3
ADSK_XREC_LAYER_RECONCILED
360
29CB
  0
DICTIONARY
  5
29CC
330
3E
100
AcDbDictionary
280
     1
  3
ACAD_XREC_ROUNDTRIP
360
29DF
  3
ADSK_XREC_LAYER_RECONCILED
360
29CD
  0
DICTIONARY
  5
29D2
330
2B5
100
AcDbDictionary
280
     1
  3
ACAD_XREC_ROUNDTRIP
360
29EC
  3
ADSK_XREC_LAYER_RECONCILED
360
29D3
  0
DICTIONARY
  5
29D4
330
2BA
100
AcDbDictionary
280
     1
  3
ACAD_XREC_ROUNDTRIP
360
29ED
  3
ADSK_XREC_LAYER_RECONCILED
360
29D5
  0
DICTIONARY
  5
29D8
330
3FA
100
AcDbDictionary
280
     1
  3
ACAD_XREC_ROUNDTRIP
360
29EF
  3
ADSK_XREC_LAYER_RECONCILED
360
29D9
  0
DICTIONARY
  5
2A7F
330
2
100
AcDbDictionary
280
     1
  3
ACAD_LAYOUTSELFREF
360
2A80
  0
DICTIONARY
  5
2A81
330
2A58
100
AcDbDictionary
280
     1
  3
ACAD_LAYOUTSELFREF
360
2A82
  0
DICTIONARY
  5
2478
102
{ACAD_REACTORS
330
7
102
}
330
7
100
AcDbDictionary
  0
DICTIONARY
  5
75
102
{ACAD_REACTORS
330
7
102
}
330
7
100
AcDbDictionary
  0
DICTIONARY
  5
61
102
{ACAD_REACTORS
330
7
102
}
330
7
100
AcDbDictionary
  0
DICTIONARY
  5
244E
102
{ACAD_REACTORS
330
7
102
}
330
7
100
AcDbDictionary
  3
BYBLOCK
350
2457
  3
BYLAYER
350
244F
  3
GLOBAL
350
245F
  0
DICTIONARY
  5
249D
102
{ACAD_REACTORS
330
7
102
}
330
7
100
AcDbDictionary
  3
STANDARD
350
249E
  0
DICTIONARY
  5
76
102
{ACAD_REACTORS
330
7
102
}
330
7
100
AcDbDictionary
  3
STANDARD
350
78
  0
DICTIONARY
  5
77
102
{ACAD_REACTORS
330
7
102
}
330
7
100
AcDbDictionary
  0
ACDBDICTIONARYWDFLT
  5
6
102
{ACAD_REACTORS
330
7
102
}
330
7
100
AcDbDictionary
281
     1
  3
Normal
350
5
100
AcDbDictionaryWithDefault
340
5
  0
DICTIONARY
  5
247B
102
{ACAD_REACTORS
330
7
102
}
330
7
100
AcDbDictionary
  3
A0
350
247C
  3
A1
350
247D
  3
A2
350
247E
  3
A3
350
247F
  3
A4
350
2480
  3
A5
350
2481
  3
A6
350
2482
  3
A7
350
2483
  3
A8
350
2484
  3
A9
350
2485
  3
B0
350
2486
  3
B1
350
2487
  3
B2
350
2488
  3
B3
350
2489
  3
B4
350
248A
  3
B5
350
248B
  3
B6
350
248C
  3
B7
350
248D
  3
B8
350
248E
  3
B9
350
248F
  3
C0
350
2490
  3
C1
350
2491
  3
C2
350
2492
  3
C3
350
2493
  3
C4
350
2494
  3
C5
350
2495
  3
C6
350
2496
  3
C7
350
2497
  3
C8
350
2498
  3
C9
350
2499
  3
D0
350
249A
  3
D1
350
249B
  3
D2
350
249C
  0
DICTIONARY
  5
2479
102
{ACAD_REACTORS
330
7
102
}
330
7
100
AcDbDictionary
  3
STANDARD
350
247A
  0
DICTIONARY
  5
2467
102
{ACAD_REACTORS
330
7
102
}
330
7
100
AcDbDictionary
  3
2DWIREFRAME
350
246D
  3
3D_HIDDEN
350
246F
  3
3DWIREFRAME
350
246E
  3
BASIC
350
246C
  3
BRIGHTEN
350
2473
  3
COLORCHANGE
350
2477
  3
CONCEPTUAL
350
2470
  3
DIM
350
2472
  3
FACEPATTERN
350
2476
  3
FLAT
350
2468
  3
FLATWITHEDGES
350
2469
  3
GOURAUD
350
246A
  3
GOURAUDWITHEDGES
350
246B
  3
LINEPATTERN
350
2475
  3
REALISTIC
350
2471
  3
THICKEN
350
2474
  0
XRECORD
  5
480
102
{ACAD_REACTORS
330
7
102
}
330
7
100
AcDbXrecord
 90
   990106
  3

 60
     0
 61
     0
 62
     1
 63
     3
 64
     1
 65
     0
 66
     0
 67
     3
 68
     1
 69
     0
 70
     0
 71
     0
 72
     0
 40
0.0
170
     2
340
0
  0
XRECORD
  5
29DC
102
{ACAD_REACTORS
330
7
102
}
330
7
100
AcDbXrecord
 90
        1
330
247A
  0
DICTIONARY
  5
2A5E
102
{ACAD_REACTORS
330
7
102
}
330
7
100
AcDbDictionary
  3
CEPSNTYPE
350
2A68
  3
DIMSTYLEDATA
350
2A6C
  3
FINGERPRINTGUID
350
2A69
  3
HYPERLINKBASE
350
2A61
  3
INSUNITS
350
2A67
  3
LAYOUTDICT
350
2A63
  3
LWETCUNION
350
2A66
  3
PLOTSETDICT
350
2A64
  3
PLOTSTYLNAMDICT
350
2A65
  3
PSVPSCALE
350
2A6B
  3
PUCSBASE
350
2A6F
  3
PUCSORGBACK
350
2A75
  3
PUCSORGBOTTOM
350
2A71
  3
PUCSORGFRONT
350
2A74
  3
PUCSORGLEFT
350
2A72
  3
PUCSORGRIGHT
350
2A73
  3
PUCSORGTOP
350
2A70
  3
PUCSORTHOREF
350
2A6D
  3
PUCSORTHOVIEW
350
2A6E
  3
STYLESHEET
350
2A62
  3
TSTACKALIGN
350
2A5F
  3
TSTACKSIZE
350
2A60
  3
UCSBASE
350
2A78
  3
UCSORGBACK
350
2A7E
  3
UCSORGBOTTOM
350
2A7A
  3
UCSORGFRONT
350
2A7D
  3
UCSORGLEFT
350
2A7B
  3
UCSORGRIGHT
350
2A7C
  3
UCSORGTOP
350
2A79
  3
UCSORTHOREF
350
2A76
  3
UCSORTHOVIEW
350
2A77
  3
VERSIONGUID
350
2A6A
  0
DICTIONARY
  5
102
102
{ACAD_REACTORS
330
7
102
}
330
7
100
AcDbDictionary
  3
CANNOSCALE
350
29F8
  3
CMLEADERSTYLE
350
29F7
  3
CTABLESTYLE
350
29F6
  3
DIMASSOC
350
103
  3
INDEXCTL
350
29FA
  3
SORTENTS
350
29F9
  0
XRECORD
  5
29DD
102
{ACAD_REACTORS
330
7
102
}
330
7
100
AcDbXrecord
  1
DWGPROPS COOKIE
  2

  3

  4

  6

  7

  8
ymorima
  9

300
=
301
=
302
=
303
=
304
=
305
=
306
=
307
=
308
=
309
=
 40
0.0425246180555556
 41
2453692.46501537
 42
2454474.41200412
  1

 90
        0
  0
XRECORD
  5
29E6
102
{ACAD_REACTORS
330
29E5
102
}
330
29E5
100
AcDbXrecord
102
VTR_0.000_0.000_1.000_1.000_VISUALSTYLE
340
246D
102
VTR_0.000_0.000_1.000_1.000_GRIDDISPLAY
 70
     3
102
VTR_0.000_0.000_1.000_1.000_GRIDMAJOR
 70
     5
102
VTR_0.000_0.000_1.000_1.000_DEFAULTLIGHTING
280
     1
102
VTR_0.000_0.000_1.000_1.000_DEFAULTLIGHTINGTYPE
 70
     1
102
VTR_0.000_0.000_1.000_1.000_BRIGHTNESS
141
0.0
102
VTR_0.000_0.000_1.000_1.000_CONTRAST
142
0.0
  0
DICTIONARY
  5
24A3
102
{ACAD_REACTORS
330
24A2
102
}
330
24A2
100
AcDbDictionary
  0
XRECORD
  5
29E0
102
{ACAD_REACTORS
330
29CA
102
}
330
29CA
100
AcDbXrecord
102
MATERIAL
340
245F
  0
XRECORD
  5
29CB
102
{ACAD_REACTORS
330
29CA
102
}
330
29CA
100
AcDbXrecord
290
     1
  0
XRECORD
  5
29DF
102
{ACAD_REACTORS
330
29CC
102
}
330
29CC
100
AcDbXrecord
102
MATERIAL
340
245F
  0
XRECORD
  5
29CD
102
{ACAD_REACTORS
330
29CC
102
}
330
29CC
100
AcDbXrecord
290
     1
  0
XRECORD
  5
29EC
102
{ACAD_REACTORS
330
29D2
102
}
330
29D2
100
AcDbXrecord
102
MATERIAL
340
245F
  0
XRECORD
  5
29D3
102
{ACAD_REACTORS
330
29D2
102
}
330
29D2
100
AcDbXrecord
290
     1
  0
XRECORD
  5
29ED
102
{ACAD_REACTORS
330
29D4
102
}
330
29D4
100
AcDbXrecord
102
MATERIAL
340
245F
  0
XRECORD
  5
29D5
102
{ACAD_REACTORS
330
29D4
102
}
330
29D4
100
AcDbXrecord
290
     1
  0
XRECORD
  5
29EF
102
{ACAD_REACTORS
330
29D8
102
}
330
29D8
100
AcDbXrecord
102
MATERIAL
340
245F
  0
XRECORD
  5
29D9
102
{ACAD_REACTORS
330
29D8
102
}
330
29D8
100
AcDbXrecord
290
     1
  0
XRECORD
  5
2A80
102
{ACAD_REACTORS
330
2A7F
102
}
330
2A7F
100
AcDbXrecord
340
2
  0
XRECORD
  5
2A82
102
{ACAD_REACTORS
330
2A81
102
}
330
2A81
100
AcDbXrecord
340
2A58
  0
ACAD_PROXY_OBJECT
  5
2457
102
{ACAD_XDICTIONARY
360
2458
102
}
102
{ACAD_REACTORS
330
244E
102
}
330
244E
100
AcDbProxyObject
 90
      499
 91
      511
 93
     1340
310
42109E509B1BD8DAC02004014080404555555555555953FAA155555555555654FEA9AA400014080404555555555555953FAA155555555555654FEA9AA400000000000000E03F4080404555555555555953FAA155555555555654FEA9AA4014080404555555555555953FAA155555555555654FEA9AA4010201011555555555
310
55654FEA8555555555555953FAA6A9005020101155555555555654FEA8555555555555953FAA6A9000
 94
        0
1001
ACAD
1000
AcadProxyRoundTripData
1071
      504
1071
   655383
1070
     0
  0
ACAD_PROXY_OBJECT
  5
244F
102
{ACAD_XDICTIONARY
360
2450
102
}
102
{ACAD_REACTORS
330
244E
102
}
330
244E
100
AcDbProxyObject
 90
      499
 91
      511
 93
     1340
310
42109E53185E595C802004014080404555555555555953FAA155555555555654FEA9AA400014080404555555555555953FAA155555555555654FEA9AA400000000000000E03F4080404555555555555953FAA155555555555654FEA9AA4014080404555555555555953FAA155555555555654FEA9AA4010201011555555555
310
55654FEA8555555555555953FAA6A9005020101155555555555654FEA8555555555555953FAA6A9000
 94
        0
1001
ACAD
1000
AcadProxyRoundTripData
1071
      504
1071
   655383
1070
     0
  0
ACAD_PROXY_OBJECT
  5
245F
102
{ACAD_XDICTIONARY
360
2460
102
}
102
{ACAD_REACTORS
330
244E
102
}
330
244E
100
AcDbProxyObject
 90
      499
 91
      511
 93
     1332
310
41D1DB1BD8985B002004014080404555555555555953FAA155555555555654FEA9AA400014080404555555555555953FAA155555555555654FEA9AA400000000000000E03F4080404555555555555953FAA155555555555654FEA9AA4014080404555555555555953FAA155555555555654FEA9AA401020101155555555555
310
654FEA8555555555555953FAA6A9005020101155555555555654FEA8555555555555953FAA6A9000
 94
        0
1001
ACAD
1000
AcadProxyRoundTripData
1071
      504
1071
   655383
1070
     0
  0
ACAD_PROXY_OBJECT
  5
249E
102
{ACAD_REACTORS
330
249D
102
}
330
249D
100
AcDbProxyObject
 90
      499
 91
      511
 93
      618
310
40901902A4063FBFFFFFE056BD1B81E855B9FC0AD7A3703D0AD73F4254DD185B99185C990000AD7A3703D0AC73F90141901A02B5E8DC0F42B1CFC02B5E8DC0F42B1CFE5764000000000000300FC6
340
6A
340
0
340
16
340
0
 94
        0
1001
ACAD_MLEADERVER
1070
     2
1001
ACAD
1000
AcadProxyRoundTripData
1071
      508
1071
   655383
1070
     0
  0
MLINESTYLE
  5
78
102
{ACAD_REACTORS
330
76
102
}
330
76
100
AcDbMlineStyle
  2
STANDARD
 70
     0
  3

 62
     0
 51
90.0
 52
90.0
 71
     2
 49
0.5
 62
   256
  6
BYLAYER
 49
-0.5
 62
   256
  6
BYLAYER
  0
ACDBPLACEHOLDER
  5
5
102
{ACAD_REACTORS
330
6
102
}
330
6
100
AcDbPlaceHolder
280
     0
  0
ACAD_PROXY_OBJECT
  5
247C
102
{ACAD_REACTORS
330
247B
102
}
330
247B
100
AcDbProxyObject
 90
      499
 91
      511
 93
       49
310
904313A3100598
 94
        0
1001
ACAD
1000
AcadProxyRoundTripData
1071
      507
1071
   655383
1070
     0
  0
ACAD_PROXY_OBJECT
  5
247D
102
{ACAD_REACTORS
330
247B
102
}
330
247B
100
AcDbProxyObject
 90
      499
 91
      511
 93
      113
310
904313A3200400000000000000406B
 94
        0
1001
ACAD
1000
AcadProxyRoundTripData
1071
      507
1071
   655383
1070
     0
  0
ACAD_PROXY_OBJECT
  5
247E
102
{ACAD_REACTORS
330
247B
102
}
330
247B
100
AcDbProxyObject
 90
      499
 91
      511
 93
      113
310
904313A3400400000000000010406B
 94
        0
1001
ACAD
1000
AcadProxyRoundTripData
1071
      507
1071
   655383
1070
     0
  0
ACAD_PROXY_OBJECT
  5
247F
102
{ACAD_REACTORS
330
247B
102
}
330
247B
100
AcDbProxyObject
 90
      499
 91
      511
 93
      113
310
904313A3500400000000000014406B
 94
        0
1001
ACAD
1000
AcadProxyRoundTripData
1071
      507
1071
   655383
1070
     0
  0
ACAD_PROXY_OBJECT
  5
2480
102
{ACAD_REACTORS
330
247B
102
}
330
247B
100
AcDbProxyObject
 90
      499
 91
      511
 93
      113
310
904313A3800400000000000020406B
 94
        0
1001
ACAD
1000
AcadProxyRoundTripData
1071
      507
1071
   655383
1070
     0
  0
ACAD_PROXY_OBJECT
  5
2481
102
{ACAD_REACTORS
330
247B
102
}
330
247B
100
AcDbProxyObject
 90
      499
 91
      511
 93
      121
310
905313A3130004000000000000244051
 94
        0
1001
ACAD
1000
AcadProxyRoundTripData
1071
      507
1071
   655383
1070
     0
  0
ACAD_PROXY_OBJECT
  5
2482
102
{ACAD_REACTORS
330
247B
102
}
330
247B
100
AcDbProxyObject
 90
      499
 91
      511
 93
      121
310
905313A3136004000000000000304051
 94
        0
1001
ACAD
1000
AcadProxyRoundTripData
1071
      507
1071
   655383
1070
     0
  0
ACAD_PROXY_OBJECT
  5
2483
102
{ACAD_REACTORS
330
247B
102
}
330
247B
100
AcDbProxyObject
 90
      499
 91
      511
 93
      121
310
905313A3230004000000000000344051
 94
        0
1001
ACAD
1000
AcadProxyRoundTripData
1071
      507
1071
   655383
1070
     0
  0
ACAD_PROXY_OBJECT
  5
2484
102
{ACAD_REACTORS
330
247B
102
}
330
247B
100
AcDbProxyObject
 90
      499
 91
      511
 93
      121
310
905313A33300040000000000003E4051
 94
        0
1001
ACAD
1000
AcadProxyRoundTripData
1071
      507
1071
   655383
1070
     0
  0
ACAD_PROXY_OBJECT
  5
2485
102
{ACAD_REACTORS
330
247B
102
}
330
247B
100
AcDbProxyObject
 90
      499
 91
      511
 93
      121
310
905313A3430004000000000000444051
 94
        0
1001
ACAD
1000
AcadProxyRoundTripData
1071
      507
1071
   655383
1070
     0
  0
ACAD_PROXY_OBJECT
  5
2486
102
{ACAD_REACTORS
330
247B
102
}
330
247B
100
AcDbProxyObject
 90
      499
 91
      511
 93
      121
310
905313A3530004000000000000494051
 94
        0
1001
ACAD
1000
AcadProxyRoundTripData
1071
      507
1071
   655383
1070
     0
  0
ACAD_PROXY_OBJECT
  5
2487
102
{ACAD_REACTORS
330
247B
102
}
330
247B
100
AcDbProxyObject
 90
      499
 91
      511
 93
      129
310
906313A313030004000000000000594038
 94
        0
1001
ACAD
1000
AcadProxyRoundTripData
1071
      507
1071
   655383
1070
     0
  0
ACAD_PROXY_OBJECT
  5
2488
102
{ACAD_REACTORS
330
247B
102
}
330
247B
100
AcDbProxyObject
 90
      499
 91
      511
 93
      113
310
904323A31000000000000000010159
 94
        0
1001
ACAD
1000
AcadProxyRoundTripData
1071
      507
1071
   655383
1070
     0
  0
ACAD_PROXY_OBJECT
  5
2489
102
{ACAD_REACTORS
330
247B
102
}
330
247B
100
AcDbProxyObject
 90
      499
 91
      511
 93
      113
310
904343A31000000000000000410159
 94
        0
1001
ACAD
1000
AcadProxyRoundTripData
1071
      507
1071
   655383
1070
     0
  0
ACAD_PROXY_OBJECT
  5
248A
102
{ACAD_REACTORS
330
247B
102
}
330
247B
100
AcDbProxyObject
 90
      499
 91
      511
 93
      113
310
904383A31000000000000000810159
 94
        0
1001
ACAD
1000
AcadProxyRoundTripData
1071
      507
1071
   655383
1070
     0
  0
ACAD_PROXY_OBJECT
  5
248B
102
{ACAD_REACTORS
330
247B
102
}
330
247B
100
AcDbProxyObject
 90
      499
 91
      511
 93
      121
310
90531303A31000000000000000910140
 94
        0
1001
ACAD
1000
AcadProxyRoundTripData
1071
      507
1071
   655383
1070
     0
  0
ACAD_PROXY_OBJECT
  5
248C
102
{ACAD_REACTORS
330
247B
102
}
330
247B
100
AcDbProxyObject
 90
      499
 91
      511
 93
      129
310
9063130303A31000000000000001650138
 94
        0
1001
ACAD
1000
AcadProxyRoundTripData
1071
      507
1071
   655383
1070
     0
  0
ACAD_PROXY_OBJECT
  5
248D
102
{ACAD_REACTORS
330
247B
102
}
330
247B
100
AcDbProxyObject
 90
      499
 91
      511
 93
      265
310
90F312F31323822203D2031272D302200000000000000200FC00000000000028402B
 94
        0
1001
ACAD
1000
AcadProxyRoundTripData
1071
      507
1071
   655383
1070
     0
  0
ACAD_PROXY_OBJECT
  5
248E
102
{ACAD_REACTORS
330
247B
102
}
330
247B
100
AcDbProxyObject
 90
      499
 91
      511
 93
      257
310
90E312F363422203D2031272D302200000000000000240FC000000000000284040
 94
        0
1001
ACAD
1000
AcadProxyRoundTripData
1071
      507
1071
   655383
1070
     0
  0
ACAD_PROXY_OBJECT
  5
248F
102
{ACAD_REACTORS
330
247B
102
}
330
247B
100
AcDbProxyObject
 90
      499
 91
      511
 93
      257
310
90E312F333222203D2031272D302200000000000000280FC000000000000284040
 94
        0
1001
ACAD
1000
AcadProxyRoundTripData
1071
      507
1071
   655383
1070
     0
  0
ACAD_PROXY_OBJECT
  5
2490
102
{ACAD_REACTORS
330
247B
102
}
330
247B
100
AcDbProxyObject
 90
      499
 91
      511
 93
      257
310
90E312F313622203D2031272D3022000000000000002C0FC000000000000284040
 94
        0
1001
ACAD
1000
AcadProxyRoundTripData
1071
      507
1071
   655383
1070
     0
  0
ACAD_PROXY_OBJECT
  5
2491
102
{ACAD_REACTORS
330
247B
102
}
330
247B
100
AcDbProxyObject
 90
      499
 91
      511
 93
      257
310
90E332F333222203D2031272D3022000000000000002E0FC000000000000284040
 94
        0
1001
ACAD
1000
AcadProxyRoundTripData
1071
      507
1071
   655383
1070
     0
  0
ACAD_PROXY_OBJECT
  5
2492
102
{ACAD_REACTORS
330
247B
102
}
330
247B
100
AcDbProxyObject
 90
      499
 91
      511
 93
      249
310
90D312F3822203D2031272D302200000000000000300FC000000000000284040
 94
        0
1001
ACAD
1000
AcadProxyRoundTripData
1071
      507
1071
   655383
1070
     0
  0
ACAD_PROXY_OBJECT
  5
2493
102
{ACAD_REACTORS
330
247B
102
}
330
247B
100
AcDbProxyObject
 90
      499
 91
      511
 93
      257
310
90E332F313622203D2031272D302200000000000000320FC000000000000284040
 94
        0
1001
ACAD
1000
AcadProxyRoundTripData
1071
      507
1071
   655383
1070
     0
  0
ACAD_PROXY_OBJECT
  5
2494
102
{ACAD_REACTORS
330
247B
102
}
330
247B
100
AcDbProxyObject
 90
      499
 91
      511
 93
      249
310
90D312F3422203D2031272D302200000000000000340FC000000000000284040
 94
        0
1001
ACAD
1000
AcadProxyRoundTripData
1071
      507
1071
   655383
1070
     0
  0
ACAD_PROXY_OBJECT
  5
2495
102
{ACAD_REACTORS
330
247B
102
}
330
247B
100
AcDbProxyObject
 90
      499
 91
      511
 93
      249
310
90D332F3822203D2031272D302200000000000000360FC000000000000284040
 94
        0
1001
ACAD
1000
AcadProxyRoundTripData
1071
      507
1071
   655383
1070
     0
  0
ACAD_PROXY_OBJECT
  5
2496
102
{ACAD_REACTORS
330
247B
102
}
330
247B
100
AcDbProxyObject
 90
      499
 91
      511
 93
      249
310
90D312F3222203D2031272D302200000000000000380FC000000000000284040
 94
        0
1001
ACAD
1000
AcadProxyRoundTripData
1071
      507
1071
   655383
1070
     0
  0
ACAD_PROXY_OBJECT
  5
2497
102
{ACAD_REACTORS
330
247B
102
}
330
247B
100
AcDbProxyObject
 90
      499
 91
      511
 93
      249
310
90D332F3422203D2031272D3022000000000000003A0FC000000000000284040
 94
        0
1001
ACAD
1000
AcadProxyRoundTripData
1071
      507
1071
   655383
1070
     0
  0
ACAD_PROXY_OBJECT
  5
2498
102
{ACAD_REACTORS
330
247B
102
}
330
247B
100
AcDbProxyObject
 90
      499
 91
      511
 93
      169
310
90B3122203D2031272D3022004000000000000284020
 94
        0
1001
ACAD
1000
AcadProxyRoundTripData
1071
      507
1071
   655383
1070
     0
  0
ACAD_PROXY_OBJECT
  5
2499
102
{ACAD_REACTORS
330
247B
102
}
330
247B
100
AcDbProxyObject
 90
      499
 91
      511
 93
      265
310
90F312D312F3222203D2031272D3022000000000000003E0FC00000000000028402B
 94
        0
1001
ACAD
1000
AcadProxyRoundTripData
1071
      507
1071
   655383
1070
     0
  0
ACAD_PROXY_OBJECT
  5
249A
102
{ACAD_REACTORS
330
247B
102
}
330
247B
100
AcDbProxyObject
 90
      499
 91
      511
 93
      233
310
90B3322203D2031272D30220000000000000002100000000000000284000
 94
        0
1001
ACAD
1000
AcadProxyRoundTripData
1071
      507
1071
   655383
1070
     0
  0
ACAD_PROXY_OBJECT
  5
249B
102
{ACAD_REACTORS
330
247B
102
}
330
247B
100
AcDbProxyObject
 90
      499
 91
      511
 93
      233
310
90B3622203D2031272D30220000000000000006100000000000000284000
 94
        0
1001
ACAD
1000
AcadProxyRoundTripData
1071
      507
1071
   655383
1070
     0
  0
ACAD_PROXY_OBJECT
  5
249C
102
{ACAD_REACTORS
330
247B
102
}
330
247B
100
AcDbProxyObject
 90
      499
 91
      511
 93
      257
310
90E31272D3022203D2031272D3022000000000000000A100000000000000284040
 94
        0
1001
ACAD
1000
AcadProxyRoundTripData
1071
      507
1071
   655383
1070
     0
  0
ACAD_PROXY_OBJECT
  5
247A
102
{ACAD_XDICTIONARY
360
29DA
102
}
102
{ACAD_REACTORS
330
2479
102
}
330
2479
100
AcDbProxyObject
 90
      499
 91
      511
 93
     1849
310
4254DD185B99185C990028B81E85EB51B8AE3F2E07A17AD46E2B8FC02B5E8DC0F42B1CFD028000000C1008070000C3001FDFF8000000C1003FBFF000000182007F7FE00000030400FEFFC00000060801FDFF8000000C1003FBFF00000018200000000000000681FA0B0000001820100E000186003FBFF000000182007F7FE0
310
0000030400FEFFC00000060801FDFF8000000C1003FBFF000000182007F7FE000000304000AD7A3703D0AC73F4160000003040201C00030C007F7FE00000030400FEFFC00000060801FDFF8000000C1003FBFF000000182007F7FE00000030400FEFFC000000608000
340
16
340
16
340
16
 94
        0
1001
ACAD
1000
AcadProxyRoundTripData
1071
      506
1071
   655383
1070
     0
  0
ACAD_PROXY_OBJECT
  5
246D
102
{ACAD_REACTORS
330
2467
102
}
330
2467
100
AcDbProxyObject
 90
      499
 91
      511
 93
      444
310
430C9915DA5C99599C985B59401049028333333333333E3BF0000000000000FB0107901411070040501600405405064090741402480A0340
 94
        0
1001
ACAD
1000
AcDbSavedByObjectVersion
1070
     0
1000
AcadProxyRoundTripData
1071
      505
1071
   655383
1070
     0
  0
ACAD_PROXY_OBJECT
  5
246F
102
{ACAD_REACTORS
330
2467
102
}
330
2467
100
AcDbProxyObject
 90
      499
 91
      511
 93
      508
310
428CD108121A5919195B8010640502408333333333333E3BF0000000000000FB01079024090700405020000000000001110200405405064090740C02480A0340
 94
        0
1001
ACAD
1000
AcDbSavedByObjectVersion
1070
     0
1000
AcadProxyRoundTripData
1071
      505
1071
   655383
1070
     0
  0
ACAD_PROXY_OBJECT
  5
246E
102
{ACAD_REACTORS
330
2467
102
}
330
2467
100
AcDbProxyObject
 90
      499
 91
      511
 93
      444
310
430CD915DA5C99599C985B59401059028333333333333E3BF0000000000000FB0107901411070040501600405405064090741402480A0340
 94
        0
1001
ACAD
1000
AcDbSavedByObjectVersion
1070
     0
1000
AcadProxyRoundTripData
1071
      505
1071
   655383
1070
     0
  0
ACAD_PROXY_OBJECT
  5
246C
102
{ACAD_REACTORS
330
2467
102
}
330
2467
100
AcDbProxyObject
 90
      499
 91
      511
 93
      396
310
4190985CDA58C0107406404333333333333E3BF0000000000000FB0107A41107004050150841D405064090741402480A0356
 94
        0
1001
ACAD
1000
AcDbSavedByObjectVersion
1070
     0
1000
AcadProxyRoundTripData
1071
      505
1071
   655383
1070
     0
  0
ACAD_PROXY_OBJECT
  5
2473
102
{ACAD_REACTORS
330
2467
102
}
330
2467
100
AcDbProxyObject
 90
      499
 91
      511
 93
      436
310
42509C9A59DA1D195B8010C409028333333333333E3BF0000000000000FB010790141107004050150841D405064090741402480A029956
 94
        0
1001
ACAD
1000
AcDbSavedByObjectVersion
1070
     0
1000
AcadProxyRoundTripData
1071
      505
1071
   655383
1070
     0
  0
ACAD_PROXY_OBJECT
  5
2477
102
{ACAD_REACTORS
330
2467
102
}
330
2467
100
AcDbProxyObject
 90
      499
 91
      511
 93
      460
310
4310DBDB1BDC90DA185B99D9401104090240C333333333333E3BF0000000000000FB0108901411070040501508421405064090741402480A0354
 94
        0
1001
ACAD
1000
AcDbSavedByObjectVersion
1070
     0
1000
AcadProxyRoundTripData
1071
      505
1071
   655383
1070
     0
  0
ACAD_PROXY_OBJECT
  5
2470
102
{ACAD_REACTORS
330
2467
102
}
330
2467
100
AcDbProxyObject
 90
      499
 91
      511
 93
      508
310
42D0DBDB98D95C1D1D585B0010940D028333333333333E3BF0000000000000FB0107902409070040501000000000000111010841D405064090740C02480A0340
 94
        0
1001
ACAD
1000
AcDbSavedByObjectVersion
1070
     0
1000
AcadProxyRoundTripData
1071
      505
1071
   655383
1070
     0
  0
ACAD_PROXY_OBJECT
  5
2472
102
{ACAD_REACTORS
330
2467
102
}
330
2467
100
AcDbProxyObject
 90
      499
 91
      511
 93
      420
310
41111A5B4010B409028333333333333E3BF0000000000000FB010790141107004050150841D405064090741402480A02677FFFFFDB
 94
        0
1001
ACAD
1000
AcDbSavedByObjectVersion
1070
     0
1000
AcadProxyRoundTripData
1071
      505
1071
   655383
1070
     0
  0
ACAD_PROXY_OBJECT
  5
2476
102
{ACAD_REACTORS
330
2467
102
}
330
2467
100
AcDbProxyObject
 90
      499
 91
      511
 93
      452
310
43119858D95C185D1D195C9B8010F409028333333333333E3BF0000000000000FB010790141107004050150841D405064090741402480A0350
 94
        0
1001
ACAD
1000
AcDbSavedByObjectVersion
1070
     0
1000
AcadProxyRoundTripData
1071
      505
1071
   655383
1070
     0
  0
ACAD_PROXY_OBJECT
  5
2468
102
{ACAD_REACTORS
330
2467
102
}
330
2467
100
AcDbProxyObject
 90
      499
 91
      511
 93
      396
310
41519B185D00240901404333333333333E3BF0000000000000F9010740A41107004050150841D405064090741402480A1B55
 94
        0
1001
ACAD
1000
AcDbSavedByObjectVersion
1070
     0
1000
AcadProxyRoundTripData
1071
      505
1071
   655383
1070
     0
  0
ACAD_PROXY_OBJECT
  5
2469
102
{ACAD_REACTORS
330
2467
102
}
330
2467
100
AcDbProxyObject
 90
      499
 91
      511
 93
      484
310
43919B185D15DA5D1A115919D95CC010140901404333333333333E3BF0000000000000F9010740901411070040501600405405064090741402480A1B50
 94
        0
1001
ACAD
1000
AcDbSavedByObjectVersion
1070
     0
1000
AcadProxyRoundTripData
1071
      505
1071
   655383
1070
     0
  0
ACAD_PROXY_OBJECT
  5
246A
102
{ACAD_REACTORS
330
2467
102
}
330
2467
100
AcDbProxyObject
 90
      499
 91
      511
 93
      420
310
4211DBDD5C985D590010240902404333333333333E3BF0000000000000F9010740A411070040501641D405064090741402480A1B50
 94
        0
1001
ACAD
1000
AcDbSavedByObjectVersion
1070
     0
1000
AcadProxyRoundTripData
1071
      505
1071
   655383
1070
     0
  0
ACAD_PROXY_OBJECT
  5
246B
102
{ACAD_REACTORS
330
2467
102
}
330
2467
100
AcDbProxyObject
 90
      499
 91
      511
 93
      508
310
4451DBDD5C985D5915DA5D1A115919D95CC010340902404333333333333E3BF0000000000000F9010740901411070040501600405405064090741402480A1B50
 94
        0
1001
ACAD
1000
AcDbSavedByObjectVersion
1070
     0
1000
AcadProxyRoundTripData
1071
      505
1071
   655383
1070
     0
  0
ACAD_PROXY_OBJECT
  5
2475
102
{ACAD_REACTORS
330
2467
102
}
330
2467
100
AcDbProxyObject
 90
      499
 91
      511
 93
      452
310
43131A5B995C185D1D195C9B8010E409028333333333333E3BF0000000000000FB010790141107004050750841D405064090741402483A0350
 94
        0
1001
ACAD
1000
AcDbSavedByObjectVersion
1070
     0
1000
AcadProxyRoundTripData
1071
      505
1071
   655383
1070
     0
  0
ACAD_PROXY_OBJECT
  5
2471
102
{ACAD_REACTORS
330
2467
102
}
330
2467
100
AcDbProxyObject
 90
      499
 91
      511
 93
      428
310
429499585B1A5CDD1A58C0108409028333333333333E3BF0000000000000FB01079019070040501508421405064090741402480A1B45
 94
        0
1001
ACAD
1000
AcDbSavedByObjectVersion
1070
     0
1000
AcadProxyRoundTripData
1071
      505
1071
   655383
1070
     0
  0
ACAD_PROXY_OBJECT
  5
2474
102
{ACAD_REACTORS
330
2467
102
}
330
2467
100
AcDbProxyObject
 90
      499
 91
      511
 93
      420
310
42151A1A58DAD95B8010D409028333333333333E3BF0000000000000FB010790141107004050150C41D405064090741402480A0352
 94
        0
1001
ACAD
1000
AcDbSavedByObjectVersion
1070
     0
1000
AcadProxyRoundTripData
1071
      505
1071
   655383
1070
     0
  0
XRECORD
  5
2A68
102
{ACAD_REACTORS
330
2A5E
102
}
330
2A5E
100
AcDbXrecord
 90
        0
  0
XRECORD
  5
2A6C
102
{ACAD_REACTORS
330
2A5E
102
}
330
2A5E
100
AcDbXrecord
1000
DSTYLE
1002
{
1070
   179
 70
     2
1070
   277
 70
     6
1002
}
  0
XRECORD
  5
2A69
102
{ACAD_REACTORS
330
2A5E
102
}
330
2A5E
100
AcDbXrecord
  1
{6385560B-F4B1-4644-A7C2-A3E32AC3D232}
  0
XRECORD
  5
2A61
102
{ACAD_REACTORS
330
2A5E
102
}
330
2A5E
100
AcDbXrecord
  1

  0
XRECORD
  5
2A67
102
{ACAD_REACTORS
330
2A5E
102
}
330
2A5E
100
AcDbXrecord
 90
        0
  0
XRECORD
  5
2A63
102
{ACAD_REACTORS
330
2A5E
102
}
330
2A5E
100
AcDbXrecord
340
61
  0
XRECORD
  5
2A66
102
{ACAD_REACTORS
330
2A5E
102
}
330
2A5E
100
AcDbXrecord
 90
    10781
  0
XRECORD
  5
2A64
102
{ACAD_REACTORS
330
2A5E
102
}
330
2A5E
100
AcDbXrecord
340
77
  0
XRECORD
  5
2A65
102
{ACAD_REACTORS
330
2A5E
102
}
330
2A5E
100
AcDbXrecord
340
6
  0
XRECORD
  5
2A6B
102
{ACAD_REACTORS
330
2A5E
102
}
330
2A5E
100
AcDbXrecord
 40
0.0
  0
XRECORD
  5
2A6F
102
{ACAD_REACTORS
330
2A5E
102
}
330
2A5E
100
AcDbXrecord
340
0
  0
XRECORD
  5
2A75
102
{ACAD_REACTORS
330
2A5E
102
}
330
2A5E
100
AcDbXrecord
 10
0.0
 20
0.0
 30
0.0
  0
XRECORD
  5
2A71
102
{ACAD_REACTORS
330
2A5E
102
}
330
2A5E
100
AcDbXrecord
 10
0.0
 20
0.0
 30
0.0
  0
XRECORD
  5
2A74
102
{ACAD_REACTORS
330
2A5E
102
}
330
2A5E
100
AcDbXrecord
 10
0.0
 20
0.0
 30
0.0
  0
XRECORD
  5
2A72
102
{ACAD_REACTORS
330
2A5E
102
}
330
2A5E
100
AcDbXrecord
 10
0.0
 20
0.0
 30
0.0
  0
XRECORD
  5
2A73
102
{ACAD_REACTORS
330
2A5E
102
}
330
2A5E
100
AcDbXrecord
 10
0.0
 20
0.0
 30
0.0
  0
XRECORD
  5
2A70
102
{ACAD_REACTORS
330
2A5E
102
}
330
2A5E
100
AcDbXrecord
 10
0.0
 20
0.0
 30
0.0
  0
XRECORD
  5
2A6D
102
{ACAD_REACTORS
330
2A5E
102
}
330
2A5E
100
AcDbXrecord
340
0
  0
XRECORD
  5
2A6E
102
{ACAD_REACTORS
330
2A5E
102
}
330
2A5E
100
AcDbXrecord
 70
     0
  0
XRECORD
  5
2A62
102
{ACAD_REACTORS
330
2A5E
102
}
330
2A5E
100
AcDbXrecord
  1
Sekkei.ctb
  0
XRECORD
  5
2A5F
102
{ACAD_REACTORS
330
2A5E
102
}
330
2A5E
100
AcDbXrecord
 90
        1
  0
XRECORD
  5
2A60
102
{ACAD_REACTORS
330
2A5E
102
}
330
2A5E
100
AcDbXrecord
 90
       70
  0
XRECORD
  5
2A78
102
{ACAD_REACTORS
330
2A5E
102
}
330
2A5E
100
AcDbXrecord
340
0
  0
XRECORD
  5
2A7E
102
{ACAD_REACTORS
330
2A5E
102
}
330
2A5E
100
AcDbXrecord
 10
0.0
 20
0.0
 30
0.0
  0
XRECORD
  5
2A7A
102
{ACAD_REACTORS
330
2A5E
102
}
330
2A5E
100
AcDbXrecord
 10
0.0
 20
0.0
 30
0.0
  0
XRECORD
  5
2A7D
102
{ACAD_REACTORS
330
2A5E
102
}
330
2A5E
100
AcDbXrecord
 10
0.0
 20
0.0
 30
0.0
  0
XRECORD
  5
2A7B
102
{ACAD_REACTORS
330
2A5E
102
}
330
2A5E
100
AcDbXrecord
 10
0.0
 20
0.0
 30
0.0
  0
XRECORD
  5
2A7C
102
{ACAD_REACTORS
330
2A5E
102
}
330
2A5E
100
AcDbXrecord
 10
0.0
 20
0.0
 30
0.0
  0
XRECORD
  5
2A79
102
{ACAD_REACTORS
330
2A5E
102
}
330
2A5E
100
AcDbXrecord
 10
0.0
 20
0.0
 30
0.0
  0
XRECORD
  5
2A76
102
{ACAD_REACTORS
330
2A5E
102
}
330
2A5E
100
AcDbXrecord
340
0
  0
XRECORD
  5
2A77
102
{ACAD_REACTORS
330
2A5E
102
}
330
2A5E
100
AcDbXrecord
 70
     0
  0
XRECORD
  5
2A6A
102
{ACAD_REACTORS
330
2A5E
102
}
330
2A5E
100
AcDbXrecord
  1
{920CD8A9-B4F0-44DA-BA86-1B87A0E8D827}
  0
DICTIONARYVAR
  5
29F8
102
{ACAD_REACTORS
330
102
102
}
330
102
100
DictionaryVariables
280
     0
  1
1:1
  0
DICTIONARYVAR
  5
29F7
102
{ACAD_REACTORS
330
102
102
}
330
102
100
DictionaryVariables
280
     0
  1
STANDARD
  0
DICTIONARYVAR
  5
29F6
102
{ACAD_REACTORS
330
102
102
}
330
102
100
DictionaryVariables
280
     0
  1
STANDARD
  0
DICTIONARYVAR
  5
103
102
{ACAD_REACTORS
330
102
102
}
330
102
100
DictionaryVariables
280
     0
  1
1
  0
DICTIONARYVAR
  5
29FA
102
{ACAD_REACTORS
330
102
102
}
330
102
100
DictionaryVariables
280
     0
  1
0
  0
DICTIONARYVAR
  5
29F9
102
{ACAD_REACTORS
330
102
102
}
330
102
100
DictionaryVariables
280
     0
  1
127
  0
DICTIONARY
  5
2458
330
2457
100
AcDbDictionary
280
     1
  3
ACAD_XREC_ROUNDTRIP
360
29F3
  3
BUMPTILE
360
245A
  3
DIFFUSETILE
360
2459
  3
OPACITYTILE
360
245D
  3
REFLECTIONTILE
360
245C
  3
REFRACTIONTILE
360
245E
  3
SPECULARTILE
360
245B
  0
DICTIONARY
  5
2450
330
244F
100
AcDbDictionary
280
     1
  3
ACAD_XREC_ROUNDTRIP
360
29F2
  3
BUMPTILE
360
2452
  3
DIFFUSETILE
360
2451
  3
OPACITYTILE
360
2455
  3
REFLECTIONTILE
360
2454
  3
REFRACTIONTILE
360
2456
  3
SPECULARTILE
360
2453
  0
DICTIONARY
  5
2460
330
245F
100
AcDbDictionary
280
     1
  3
ACAD_XREC_ROUNDTRIP
360
29F4
  3
BUMPTILE
360
2462
  3
DIFFUSETILE
360
2461
  3
OPACITYTILE
360
2465
  3
REFLECTIONTILE
360
2464
  3
REFRACTIONTILE
360
2466
  3
SPECULARTILE
360
2463
  0
DICTIONARY
  5
29DA
330
247A
100
AcDbDictionary
280
     1
  3
ACAD_ROUNDTRIP_2008_TABLES
360
29DB
  3
ACAD_XREC_ROUNDTRIP
360
29F5
  0
XRECORD
  5
29F3
102
{ACAD_REACTORS
330
2458
102
}
330
2458
100
AcDbXrecord
102
MATERIAL
148
0.0
149
0.0
149
0.0
 93
        0
 94
      127
282
     0
 72
     0
 77
     0
171
     0
175
     0
179
     0
273
     0
  0
XRECORD
  5
245A
102
{ACAD_REACTORS
330
2458
102
}
330
2458
100
AcDbXrecord
270
     1
271
     1
  0
XRECORD
  5
2459
102
{ACAD_REACTORS
330
2458
102
}
330
2458
100
AcDbXrecord
270
     1
271
     1
  0
XRECORD
  5
245D
102
{ACAD_REACTORS
330
2458
102
}
330
2458
100
AcDbXrecord
270
     1
271
     1
  0
XRECORD
  5
245C
102
{ACAD_REACTORS
330
2458
102
}
330
2458
100
AcDbXrecord
270
     1
271
     1
  0
XRECORD
  5
245E
102
{ACAD_REACTORS
330
2458
102
}
330
2458
100
AcDbXrecord
270
     1
271
     1
  0
XRECORD
  5
245B
102
{ACAD_REACTORS
330
2458
102
}
330
2458
100
AcDbXrecord
270
     1
271
     1
  0
XRECORD
  5
29F2
102
{ACAD_REACTORS
330
2450
102
}
330
2450
100
AcDbXrecord
102
MATERIAL
148
0.0
149
0.0
149
0.0
 93
        0
 94
      127
282
     0
 72
     0
 77
     0
171
     0
175
     0
179
     0
273
     0
  0
XRECORD
  5
2452
102
{ACAD_REACTORS
330
2450
102
}
330
2450
100
AcDbXrecord
270
     1
271
     1
  0
XRECORD
  5
2451
102
{ACAD_REACTORS
330
2450
102
}
330
2450
100
AcDbXrecord
270
     1
271
     1
  0
XRECORD
  5
2455
102
{ACAD_REACTORS
330
2450
102
}
330
2450
100
AcDbXrecord
270
     1
271
     1
  0
XRECORD
  5
2454
102
{ACAD_REACTORS
330
2450
102
}
330
2450
100
AcDbXrecord
270
     1
271
     1
  0
XRECORD
  5
2456
102
{ACAD_REACTORS
330
2450
102
}
330
2450
100
AcDbXrecord
270
     1
271
     1
  0
XRECORD
  5
2453
102
{ACAD_REACTORS
330
2450
102
}
330
2450
100
AcDbXrecord
270
     1
271
     1
  0
XRECORD
  5
29F4
102
{ACAD_REACTORS
330
2460
102
}
330
2460
100
AcDbXrecord
102
MATERIAL
148
0.0
149
0.0
149
0.0
 93
        0
 94
      127
282
     0
 72
     0
 77
     0
171
     0
175
     0
179
     0
273
     0
  0
XRECORD
  5
2462
102
{ACAD_REACTORS
330
2460
102
}
330
2460
100
AcDbXrecord
270
     1
271
     1
  0
XRECORD
  5
2461
102
{ACAD_REACTORS
330
2460
102
}
330
2460
100
AcDbXrecord
270
     1
271
     1
  0
XRECORD
  5
2465
102
{ACAD_REACTORS
330
2460
102
}
330
2460
100
AcDbXrecord
270
     1
271
     1
  0
XRECORD
  5
2464
102
{ACAD_REACTORS
330
2460
102
}
330
2460
100
AcDbXrecord
270
     1
271
     1
  0
XRECORD
  5
2466
102
{ACAD_REACTORS
330
2460
102
}
330
2460
100
AcDbXrecord
270
     1
271
     1
  0
XRECORD
  5
2463
102
{ACAD_REACTORS
330
2460
102
}
330
2460
100
AcDbXrecord
270
     1
271
     1
  0
ACAD_PROXY_OBJECT
  5
29DB
102
{ACAD_REACTORS
330
29DA
102
}
330
29DA
100
AcDbProxyObject
 90
      499
 91
      511
 93
     1044
310
40D054060020000020000003200101A000080002A5058000000C100000000000000340FE901405075F5449544C450041501A8000000C800406800020000A9416000000304000AD7A3703D0AC73FA409014217D2115051115480105406A0000003200101A000080002A5028000000C10002B5E8DC0F42B1CFE903409065F444
310
15441004
340
16
340
16
340
16
 94
        0
1001
ACAD
1000
AcadProxyRoundTripData
1071
      510
1071
   655383
1070
     0
  0
XRECORD
  5
29F5
102
{ACAD_REACTORS
330
29DA
102
}
330
29DA
100
AcDbXrecord
102
ACAD_ROUNDTRIP_PRE2007_TABLESTYLE
 90
      512
 91
        0
  1

 92
      512
 93
        0
  2

 94
      512
 95
        0
  3

  0
ENDSEC
  0
EOF
