  0
SECTION
  2
HEADER
  9
$ACADVER
  1
AC1014
  9
$ACADMAINTVER
 70
     9
  9
$DWGCODEPAGE
  3
ANSI_932
  9
$INSBASE
 10
0.0
 20
0.0
 30
0.0
  9
$EXTMIN
 10
34.20422337196055
 20
26.29178525097325
 30
0.0
  9
$EXTMAX
 10
577.5142296772401
 20
502.6178205013628
 30
0.0
  9
$LIMMIN
 10
0.0
 20
0.0
  9
$LIMMAX
 10
297.0
 20
210.0
  9
$ORTHOMODE
 70
     0
  9
$REGENMODE
 70
     1
  9
$FILLMODE
 70
     1
  9
$QTEXTMODE
 70
     0
  9
$MIRRTEXT
 70
     0
  9
$DRAGMODE
 70
     2
  9
$LTSCALE
 40
3.0
  9
$OSMODE
 70
    37
  9
$ATTMODE
 70
     1
  9
$TEXTSIZE
 40
9.0
  9
$TRACEWID
 40
1.0
  9
$TEXTSTYLE
  7
STANDARD
  9
$CLAYER
  8
0
  9
$CELTYPE
  6
BYLAYER
  9
$CECOLOR
 62
   256
  9
$CELTSCALE
 40
1.0
  9
$DELOBJ
 70
     1
  9
$DISPSILH
 70
     0
  9
$DIMSCALE
 40
3.0
  9
$DIMASZ
 40
1.8
  9
$DIMEXO
 40
0.625
  9
$DIMDLI
 40
3.75
  9
$DIMRND
 40
0.0
  9
$DIMDLE
 40
0.0
  9
$DIMEXE
 40
0.8
  9
$DIMTP
 40
0.0
  9
$DIMTM
 40
0.0
  9
$DIMTXT
 40
1.8
  9
$DIMCEN
 40
2.5
  9
$DIMTSZ
 40
0.0
  9
$DIMTOL
 70
     0
  9
$DIMLIM
 70
     0
  9
$DIMTIH
 70
     0
  9
$DIMTOH
 70
     0
  9
$DIMSE1
 70
     0
  9
$DIMSE2
 70
     0
  9
$DIMTAD
 70
     1
  9
$DIMZIN
 70
     8
  9
$DIMBLK
  1

  9
$DIMASO
 70
     1
  9
$DIMSHO
 70
     1
  9
$DIMPOST
  1

  9
$DIMAPOST
  1

  9
$DIMALT
 70
     0
  9
$DIMALTD
 70
     4
  9
$DIMALTF
 40
0.0394
  9
$DIMLFAC
 40
1.0
  9
$DIMTOFL
 70
     1
  9
$DIMTVP
 40
0.0
  9
$DIMTIX
 70
     0
  9
$DIMSOXD
 70
     0
  9
$DIMSAH
 70
     0
  9
$DIMBLK1
  1

  9
$DIMBLK2
  1

  9
$DIMSTYLE
  2
STANDARD
  9
$DIMCLRD
 70
     0
  9
$DIMCLRE
 70
     0
  9
$DIMCLRT
 70
     0
  9
$DIMTFAC
 40
1.0
  9
$DIMGAP
 40
0.75
  9
$DIMJUST
 70
     0
  9
$DIMSD1
 70
     0
  9
$DIMSD2
 70
     0
  9
$DIMTOLJ
 70
     1
  9
$DIMTZIN
 70
     0
  9
$DIMALTZ
 70
     0
  9
$DIMALTTZ
 70
     0
  9
$DIMFIT
 70
     3
  9
$DIMUPT
 70
     0
  9
$DIMUNIT
 70
     8
  9
$DIMDEC
 70
     2
  9
$DIMTDEC
 70
     2
  9
$DIMALTU
 70
     8
  9
$DIMALTTD
 70
     4
  9
$DIMTXSTY
  7
STANDARD
  9
$DIMAUNIT
 70
     0
  9
$LUNITS
 70
     2
  9
$LUPREC
 70
     3
  9
$SKETCHINC
 40
1.0
  9
$FILLETRAD
 40
10.0
  9
$AUNITS
 70
     0
  9
$AUPREC
 70
     2
  9
$MENU
  1
.
  9
$ELEVATION
 40
0.0
  9
$PELEVATION
 40
0.0
  9
$THICKNESS
 40
0.0
  9
$LIMCHECK
 70
     0
  9
$BLIPMODE
 70
     0
  9
$CHAMFERA
 40
0.0
  9
$CHAMFERB
 40
0.0
  9
$CHAMFERC
 40
20.0
  9
$CHAMFERD
 40
0.0
  9
$SKPOLY
 70
     0
  9
$TDCREATE
 40
2453692.455048646
  9
$TDUPDATE
 40
2454474.449810648
  9
$TDINDWG
 40
0.0319178472
  9
$TDUSRTIMER
 40
0.0319178472
  9
$USRTIMER
 70
     1
  9
$ANGBASE
 50
0.0
  9
$ANGDIR
 70
     0
  9
$PDMODE
 70
     0
  9
$PDSIZE
 40
-10.0
  9
$PLINEWID
 40
0.0
  9
$COORDS
 70
     0
  9
$SPLFRAME
 70
     0
  9
$SPLINETYPE
 70
     6
  9
$SPLINESEGS
 70
     8
  9
$ATTDIA
 70
     0
  9
$ATTREQ
 70
     1
  9
$HANDLING
 70
-16383
  9
$HANDSEED
  5
2548
  9
$SURFTAB1
 70
     6
  9
$SURFTAB2
 70
     6
  9
$SURFTYPE
 70
     6
  9
$SURFU
 70
     6
  9
$SURFV
 70
     6
  9
$UCSNAME
  2

  9
$UCSORG
 10
0.0
 20
0.0
 30
0.0
  9
$UCSXDIR
 10
1.0
 20
0.0
 30
0.0
  9
$UCSYDIR
 10
0.0
 20
1.0
 30
0.0
  9
$PUCSNAME
  2

  9
$PUCSORG
 10
0.0
 20
0.0
 30
0.0
  9
$PUCSXDIR
 10
1.0
 20
0.0
 30
0.0
  9
$PUCSYDIR
 10
0.0
 20
1.0
 30
0.0
  9
$USERI1
 70
     0
  9
$USERI2
 70
     0
  9
$USERI3
 70
     0
  9
$USERI4
 70
     0
  9
$USERI5
 70
     0
  9
$USERR1
 40
0.0
  9
$USERR2
 40
0.0
  9
$USERR3
 40
0.0
  9
$USERR4
 40
0.0
  9
$USERR5
 40
0.0
  9
$WORLDVIEW
 70
     1
  9
$SHADEDGE
 70
     3
  9
$SHADEDIF
 70
    70
  9
$TILEMODE
 70
     1
  9
$MAXACTVP
 70
    48
  9
$PINSBASE
 10
0.0
 20
0.0
 30
0.0
  9
$PLIMCHECK
 70
     0
  9
$PEXTMIN
 10
0.0
 20
0.0
 30
0.0
  9
$PEXTMAX
 10
0.0
 20
0.0
 30
0.0
  9
$PLIMMIN
 10
0.0
 20
0.0
  9
$PLIMMAX
 10
12.0
 20
9.0
  9
$UNITMODE
 70
     0
  9
$VISRETAIN
 70
     1
  9
$PLINEGEN
 70
     0
  9
$PSLTSCALE
 70
     1
  9
$TREEDEPTH
 70
  3020
  9
$PICKSTYLE
 70
     1
  9
$CMLSTYLE
  2
STANDARD
  9
$CMLJUST
 70
     0
  9
$CMLSCALE
 40
1.0
  9
$PROXYGRAPHICS
 70
     1
  9
$MEASUREMENT
 70
     0
  0
ENDSEC
  0
SECTION
  2
CLASSES
  0
CLASS
  1
DICTIONARYVAR
  2
AcDbDictionaryVar
  3
AutoCAD 2000
 90
        0
280
     0
281
     0
  0
CLASS
  1
ACDBDICTIONARYWDFLT
  2
AcDbDictionaryWithDefault
  3
AutoCAD 2000
 90
        0
280
     0
281
     0
  0
CLASS
  1
ACDBPLACEHOLDER
  2
AcDbPlaceHolder
  3
AutoCAD 2000
 90
        0
280
     0
281
     0
  0
CLASS
  1
LAYOUT
  2
AcDbLayout
  3
AutoCAD 2000
 90
        0
280
     0
281
     0
  0
CLASS
  1
MATERIAL
  2
AcDbMaterial
  3
ObjectDBX Classes
 90
     1153
280
     0
281
     0
  0
CLASS
  1
VISUALSTYLE
  2
AcDbVisualStyle
  3
ObjectDBX Classes
 90
     4095
280
     0
281
     0
  0
CLASS
  1
TABLESTYLE
  2
AcDbTableStyle
  3
ObjectDBX Classes
 90
     4095
280
     0
281
     0
  0
CLASS
  1
SCALE
  2
AcDbScale
  3
ObjectDBX Classes
 90
     1153
280
     0
281
     0
  0
CLASS
  1
MLEADERSTYLE
  2
AcDbMLeaderStyle
  3
ACDB_MLEADERSTYLE_CLASS
 90
     4095
280
     0
281
     0
  0
CLASS
  1
SORTENTSTABLE
  2
AcDbSortentsTable
  3
AutoCAD 2000
 90
        0
280
     0
281
     0
  0
CLASS
  1
CELLSTYLEMAP
  2
AcDbCellStyleMap
  3
ObjectDBX Classes
 90
     1152
280
     0
281
     0
  0
CLASS
  1
ACAD_PROXY_OBJECT_WRAPPER
  2
AcDbProxyObjectWrapper
  3
AutoCAD 2000
 90
        0
280
     0
281
     0
  0
CLASS
  1
LONG_TRANSACTION
  2
AcDbLongTransaction
  3
AutoCAD 2000
 90
        0
280
     0
281
     0
  0
CLASS
  1
LWPOLYLINE
  2
AcDbPolyline
  3
AutoCAD 2000
 90
        0
280
     0
281
     1
  0
CLASS
  1
HATCH
  2
AcDbHatch
  3
AutoCAD 2000
 90
        0
280
     0
281
     1
  0
CLASS
  1
XRECORD
  2
AcDbXrecord
  3
AutoCAD 2000
 90
        0
280
     0
281
     0
  0
ENDSEC
  0
SECTION
  2
TABLES
  0
TABLE
  2
VPORT
  5
6E
102
{ACAD_XDICTIONARY
360
24AA
102
}
330
0
100
AcDbSymbolTable
 70
     2
  0
VPORT
  5
2522
330
6E
100
AcDbSymbolTableRecord
100
AcDbViewportTableRecord
  2
*ACTIVE
 70
     0
 10
0.0
 20
0.0
 11
1.0
 21
1.0
 12
319.4192133590994
 22
268.2660361978353
 13
0.0
 23
0.0
 14
10.0
 24
10.0
 15
10.0
 25
10.0
 16
0.0
 26
0.0
 36
1.0
 17
0.0
 27
0.0
 37
0.0
 40
487.1768765606937
 41
1.701814058956916
 42
50.0
 43
0.0
 44
0.0
 50
0.0
 51
0.0
 71
     0
 72
   100
 73
     1
 74
     3
 75
     0
 76
     0
 77
     0
 78
     0
  0
ENDTAB
  0
TABLE
  2
LTYPE
  5
69
330
0
100
AcDbSymbolTable
 70
     3
  0
LTYPE
  5
6A
330
69
100
AcDbSymbolTableRecord
100
AcDbLinetypeTableRecord
  2
BYBLOCK
 70
     0
  3

 72
    65
 73
     0
 40
0.0
  0
LTYPE
  5
6B
330
69
100
AcDbSymbolTableRecord
100
AcDbLinetypeTableRecord
  2
BYLAYER
 70
     0
  3

 72
    65
 73
     0
 40
0.0
  0
LTYPE
  5
8
330
69
100
AcDbSymbolTableRecord
100
AcDbLinetypeTableRecord
  2
CONTINUOUS
 70
     0
  3
Solid line
 72
    65
 73
     0
 40
0.0
  0
LTYPE
  5
27C
330
69
100
AcDbSymbolTableRecord
100
AcDbLinetypeTableRecord
  2
SEKKEI_A2_
 70
     0
  3
center(A2)  ____ _ ____ _ ____ _ ____ _ ____ _ 
 72
    65
 73
     4
 40
14.28749999999999
 49
9.525
 74
     0
 49
-1.587499999999999
 74
     0
 49
1.587499999999999
 74
     0
 49
-1.587499999999999
 74
     0
  0
LTYPE
  5
2B4
330
69
100
AcDbSymbolTableRecord
100
AcDbLinetypeTableRecord
  2
HIDDEN2
 70
     0
  3
Hidden (.5x) _ _ _ _ _ _ _ _ _ _ _ _ _ _ _ _ _
 72
    65
 73
     2
 40
4.762499999999999
 49
3.174999999999999
 74
     0
 49
-1.587499999999999
 74
     0
  0
ENDTAB
  0
TABLE
  2
LAYER
  5
66
102
{ACAD_XDICTIONARY
360
1F67
102
}
330
0
100
AcDbSymbolTable
 70
     9
  0
LAYER
  5
5E
102
{ACAD_XDICTIONARY
360
248F
102
}
330
66
100
AcDbSymbolTableRecord
100
AcDbLayerTableRecord
  2
0
 70
     0
 62
     7
  6
CONTINUOUS
  0
LAYER
  5
3E
102
{ACAD_XDICTIONARY
360
2491
102
}
330
66
100
AcDbSymbolTableRecord
100
AcDbLayerTableRecord
  2
CENTER
 70
     0
 62
     3
  6
SEKKEI_A2_
  0
LAYER
  5
2B5
102
{ACAD_XDICTIONARY
360
2497
102
}
330
66
100
AcDbSymbolTableRecord
100
AcDbLayerTableRecord
  2
HIDS
 70
     0
 62
     1
  6
HIDDEN2
  0
LAYER
  5
2BA
102
{ACAD_XDICTIONARY
360
2499
102
}
330
66
100
AcDbSymbolTableRecord
100
AcDbLayerTableRecord
  2
HOJO
 70
     0
 62
     4
  6
CONTINUOUS
  0
LAYER
  5
3FA
102
{ACAD_XDICTIONARY
360
249D
102
}
330
66
100
AcDbSymbolTableRecord
100
AcDbLayerTableRecord
  2
TITLE
 70
     0
 62
     4
  6
CONTINUOUS
  0
ENDTAB
  0
TABLE
  2
STYLE
  5
67
330
0
100
AcDbSymbolTable
 70
     1
  0
STYLE
  5
16
330
67
100
AcDbSymbolTableRecord
100
AcDbTextStyleTableRecord
  2
STANDARD
 70
     0
 40
0.0
 41
1.0
 50
0.0
 71
     0
 42
9.0
  3
simplex.shx
  4
extfont.shx
  0
ENDTAB
  0
TABLE
  2
VIEW
  5
6C
330
0
100
AcDbSymbolTable
 70
     0
  0
ENDTAB
  0
TABLE
  2
UCS
  5
6D
330
0
100
AcDbSymbolTable
 70
     0
  0
ENDTAB
  0
TABLE
  2
APPID
  5
70
330
0
100
AcDbSymbolTable
 70
     2
  0
APPID
  5
71
330
70
100
AcDbSymbolTableRecord
100
AcDbRegAppTableRecord
  2
ACAD
 70
     0
  0
APPID
  5
1F64
330
70
100
AcDbSymbolTableRecord
100
AcDbRegAppTableRecord
  2
ACAD_MLEADERVER
 70
     0
  0
ENDTAB
  0
TABLE
  2
DIMSTYLE
  5
72
330
0
100
AcDbSymbolTable
 70
     1
  0
DIMSTYLE
105
73
330
72
100
AcDbSymbolTableRecord
100
AcDbDimStyleTableRecord
  2
STANDARD
 70
     0
  3

  4

  5

  6

  7

 40
3.0
 41
1.8
 42
0.625
 43
3.75
 44
0.8
 45
0.0
 46
0.0
 47
0.0
 48
0.0
140
1.8
141
2.5
142
0.0
143
0.0394
144
1.0
145
0.0
146
1.0
147
0.75
 71
     0
 72
     0
 73
     0
 74
     0
 75
     0
 76
     0
 77
     1
 78
     8
170
     0
171
     4
172
     1
173
     0
174
     0
175
     0
176
     0
177
     0
178
     0
270
     8
271
     2
272
     2
273
     8
274
     4
340
16
275
     0
280
     0
281
     0
282
     0
283
     1
284
     0
285
     0
286
     0
287
     3
288
     0
  0
ENDTAB
  0
TABLE
  2
BLOCK_RECORD
  5
1
330
0
100
AcDbSymbolTable
 70
    43
  0
BLOCK_RECORD
  5
2
102
{ACAD_XDICTIONARY
360
2544
102
}
330
1
100
AcDbSymbolTableRecord
100
AcDbBlockTableRecord
  2
*MODEL_SPACE
  0
BLOCK_RECORD
  5
251D
102
{ACAD_XDICTIONARY
360
2546
102
}
330
1
100
AcDbSymbolTableRecord
100
AcDbBlockTableRecord
  2
*PAPER_SPACE
  0
ENDTAB
  0
ENDSEC
  0
SECTION
  2
BLOCKS
  0
BLOCK
  5
5D
330
2
100
AcDbEntity
  8
0
100
AcDbBlockBegin
  2
*MODEL_SPACE
 70
     0
 10
0.0
 20
0.0
 30
0.0
  3
*MODEL_SPACE
  1

  0
ENDBLK
  5
5F
330
2
100
AcDbEntity
  8
0
100
AcDbBlockEnd
  0
BLOCK
  5
251F
330
251D
100
AcDbEntity
 67
     1
  8
0
100
AcDbBlockBegin
  2
*PAPER_SPACE
 70
     0
 10
0.0
 20
0.0
 30
0.0
  3
*PAPER_SPACE
  1

  0
ENDBLK
  5
2520
330
251D
100
AcDbEntity
 67
     1
  8
0
100
AcDbBlockEnd
  0
ENDSEC
  0
SECTION
  2
ENTITIES
  0
LINE
  5
7EE
330
2
100
AcDbEntity
  8
0
100
AcDbLine
 10
145.7726126009568
 20
236.6627445013628
 30
0.0
 11
214.7726126009568
 21
237.8671435013628
 31
0.0
  0
LINE
  5
7EF
330
2
100
AcDbEntity
  8
0
100
AcDbLine
 10
147.7378076009568
 20
101.5851655013628
 30
0.0
 11
211.9854116009568
 21
101.0248665013628
 31
0.0
  0
LINE
  5
7F0
330
2
100
AcDbEntity
  8
0
100
AcDbLine
 10
147.7378076009568
 20
115.2311645013629
 30
0.0
 11
211.9854116009568
 21
115.7918645013629
 31
0.0
  0
LINE
  5
7F1
330
2
100
AcDbEntity
  8
0
100
AcDbLine
 10
146.2725366009568
 20
78.65401650136289
 30
0.0
 11
213.7544856009568
 21
77.47611450136287
 31
0.0
  0
LINE
  5
7F6
330
2
100
AcDbEntity
  8
0
100
AcDbLine
 10
132.2726126009568
 20
220.1627445013628
 30
0.0
 11
132.2726126009568
 21
92.16274450136287
 31
0.0
  0
LINE
  5
7F9
330
2
100
AcDbEntity
  8
0
100
AcDbLine
 10
139.2724756009567
 20
234.5444655013628
 30
0.0
 11
139.2724756009567
 21
80.78124450136289
 31
0.0
  0
LINE
  5
828
330
2
100
AcDbEntity
  8
CENTER
100
AcDbLine
 10
34.20422337196055
 20
156.1627445013628
 30
0.0
 11
173.7383034565797
 21
156.1627445013628
 31
0.0
  0
LINE
  5
873
330
2
100
AcDbEntity
  8
0
100
AcDbLine
 10
145.7726126009568
 20
79.16274450136288
 30
0.0
 11
145.7726126009568
 21
236.1627445013628
 31
0.0
  0
LINE
  5
882
330
2
100
AcDbEntity
  8
0
100
AcDbLine
 10
145.7726126009568
 20
79.16274450136288
 30
0.0
 11
146.2725366009568
 21
78.65401650136289
 31
0.0
  0
ARC
  5
883
330
2
100
AcDbEntity
  8
0
100
AcDbCircle
 10
141.2725056009568
 20
80.78124450136289
 30
0.0
 40
2.0
100
AcDbArc
 50
180.0
 51
268.499389999996
  0
LINE
  5
884
330
2
100
AcDbEntity
  8
0
100
AcDbLine
 10
141.2201076009568
 20
78.78204550136288
 30
0.0
 11
145.7724146009568
 21
78.66274450136288
 31
0.0
  0
ARC
  5
885
330
2
100
AcDbEntity
  8
0
100
AcDbCircle
 10
136.2724756009567
 20
89.16274450136288
 30
0.0
 40
3.0
100
AcDbArc
 50
0.0
 51
90.0
  0
LINE
  5
886
330
2
100
AcDbEntity
  8
0
100
AcDbLine
 10
132.2726126009568
 20
92.16274450136287
 30
0.0
 11
136.2724756009567
 21
92.16274450136287
 31
0.0
  0
LINE
  5
887
330
2
100
AcDbEntity
  8
0
100
AcDbLine
 10
144.9056086009568
 20
101.5851655013628
 30
0.0
 11
140.5772086009568
 21
101.5851655013628
 31
0.0
  0
LINE
  5
888
330
2
100
AcDbEntity
  8
0
100
AcDbLine
 10
140.8478536009568
 20
101.5851655013628
 30
0.0
 11
144.9138786009568
 21
101.5851655013628
 31
0.0
  0
LINE
  5
889
330
2
100
AcDbEntity
  8
0
100
AcDbLine
 10
144.9056086009568
 20
115.2311645013629
 30
0.0
 11
140.5772086009568
 21
115.2311645013629
 31
0.0
  0
LINE
  5
88A
330
2
100
AcDbEntity
  8
0
100
AcDbLine
 10
140.8478536009568
 20
115.2311645013629
 30
0.0
 11
144.9138786009568
 21
115.2311645013629
 31
0.0
  0
ARC
  5
917
330
2
100
AcDbEntity
  8
0
100
AcDbCircle
 10
136.2724756009567
 20
223.1627445013628
 30
0.0
 40
3.0
100
AcDbArc
 50
270.0
 51
0.0
  0
LINE
  5
918
330
2
100
AcDbEntity
  8
0
100
AcDbLine
 10
132.2726126009568
 20
220.1627445013628
 30
0.0
 11
136.2724596009568
 21
220.1627445013628
 31
0.0
  0
LINE
  5
925
330
2
100
AcDbEntity
  8
0
100
AcDbLine
 10
146.2725976009568
 20
236.6671085013628
 30
0.0
 11
145.7726126009568
 21
236.1627445013628
 31
0.0
  0
ARC
  5
926
330
2
100
AcDbEntity
  8
0
100
AcDbCircle
 10
141.2724146009568
 20
234.5444655013628
 30
0.0
 40
2.0
100
AcDbArc
 50
91.49841299999549
 51
180.0
  0
LINE
  5
927
330
2
100
AcDbEntity
  8
0
100
AcDbLine
 10
141.2201076009568
 20
236.5436265013629
 30
0.0
 11
145.7725976009568
 21
236.6627445013628
 31
0.0
  0
LINE
  5
992
330
2
100
AcDbEntity
  8
0
100
AcDbLine
 10
229.7726126009568
 20
74.6583805013629
 30
0.0
 11
229.7726126009568
 21
237.6627445013628
 31
0.0
  0
LINE
  5
993
330
2
100
AcDbEntity
  8
0
100
AcDbLine
 10
214.7726126009568
 20
76.38559950136289
 30
0.0
 11
214.7726126009568
 21
237.8675095013629
 31
0.0
  0
LINE
  5
995
330
2
100
AcDbEntity
  8
CENTER
100
AcDbLine
 10
207.7726126009569
 20
85.16280350136289
 30
0.0
 11
236.7726126009568
 21
85.16280350136289
 31
0.0
  0
LINE
  5
997
330
2
100
AcDbEntity
  8
HIDS
100
AcDbLine
 10
229.7726126009568
 20
79.6628035013629
 30
0.0
 11
214.7726126009568
 21
79.1628035013629
 31
0.0
  0
LINE
  5
998
330
2
100
AcDbEntity
  8
0
100
AcDbLine
 10
216.7377006009568
 20
74.38590450136286
 30
0.0
 11
229.2726736009568
 21
74.16710850136286
 31
0.0
  0
ARC
  5
999
330
2
100
AcDbEntity
  8
0
100
AcDbCircle
 10
213.7363576009568
 20
76.43827250136289
 30
0.0
 40
1.038
100
AcDbArc
 50
359.9609249999983
 51
89.00000000000474
  0
ARC
  5
99A
330
2
100
AcDbEntity
  8
0
100
AcDbCircle
 10
216.7726126009568
 20
76.38559950136289
 30
0.0
 40
2.0
100
AcDbArc
 50
180.0
 51
268.9999999999982
  0
LINE
  5
99B
330
2
100
AcDbEntity
  8
0
100
AcDbLine
 10
229.7726126009568
 20
74.6583805013629
 30
0.0
 11
229.2726736009568
 21
74.16710850136286
 31
0.0
  0
LINE
  5
99C
330
2
100
AcDbEntity
  8
HIDS
100
AcDbLine
 10
229.7726126009568
 20
90.6628035013629
 30
0.0
 11
214.7726126009568
 21
91.16280350136291
 31
0.0
  0
LINE
  5
99D
330
2
100
AcDbEntity
  8
0
100
AcDbLine
 10
236.7726126009568
 20
165.6628065013628
 30
0.0
 11
281.7726126009568
 21
165.6628065013628
 31
0.0
  0
LINE
  5
99E
330
2
100
AcDbEntity
  8
0
100
AcDbLine
 10
236.7726126009568
 20
193.6626835013628
 30
0.0
 11
281.7726126009568
 21
193.6626835013628
 31
0.0
  0
LINE
  5
99F
330
2
100
AcDbEntity
  8
CENTER
100
AcDbLine
 10
190.5100086009568
 20
179.6628035013628
 30
0.0
 11
289.7726126009568
 21
179.6628035013628
 31
0.0
  0
LINE
  5
9A0
330
2
100
AcDbEntity
  8
0
100
AcDbLine
 10
234.7726126009568
 20
219.1628035013628
 30
0.0
 11
234.7726126009567
 21
140.1628035013628
 31
0.0
  0
LINE
  5
9A1
330
2
100
AcDbEntity
  8
0
100
AcDbLine
 10
234.2726126009567
 20
139.6628035013628
 30
0.0
 11
234.7726126009567
 21
140.1628035013628
 31
0.0
  0
LINE
  5
9A2
330
2
100
AcDbEntity
  8
0
100
AcDbLine
 10
229.7726126009568
 20
139.6628035013628
 30
0.0
 11
234.2726126009567
 21
139.6628035013628
 31
0.0
  0
LINE
  5
9A3
330
2
100
AcDbEntity
  8
0
100
AcDbLine
 10
236.7726126009568
 20
194.6626835013628
 30
0.0
 11
236.7726126009568
 21
164.6626825013628
 31
0.0
  0
LINE
  5
9A4
330
2
100
AcDbEntity
  8
0
100
AcDbLine
 10
234.7726126009568
 20
164.6628065013628
 30
0.0
 11
236.7726126009568
 21
164.6626825013628
 31
0.0
  0
LINE
  5
9A5
330
2
100
AcDbEntity
  8
0
100
AcDbLine
 10
234.7726126009568
 20
194.6626835013628
 30
0.0
 11
236.7726126009568
 21
194.6626835013628
 31
0.0
  0
LINE
  5
9A6
330
2
100
AcDbEntity
  8
0
100
AcDbLine
 10
245.7726126009568
 20
183.6626855013628
 30
0.0
 11
281.7726126009568
 21
183.6626855013628
 31
0.0
  0
LINE
  5
9A7
330
2
100
AcDbEntity
  8
0
100
AcDbLine
 10
245.7726126009568
 20
175.6626815013629
 30
0.0
 11
281.7726126009568
 21
175.6626815013629
 31
0.0
  0
ARC
  5
9A8
330
2
100
AcDbEntity
  8
0
100
AcDbCircle
 10
245.7726126009568
 20
179.6628035013628
 30
0.0
 40
4.0
100
AcDbArc
 50
90.0
 51
270.0
  0
LINE
  5
9A9
330
2
100
AcDbEntity
  8
0
100
AcDbLine
 10
281.7726126009568
 20
193.6626835013628
 30
0.0
 11
281.7726126009568
 21
165.6628065013628
 31
0.0
  0
LINE
  5
9AA
330
2
100
AcDbEntity
  8
CENTER
100
AcDbLine
 10
207.7726126009568
 20
227.1628035013628
 30
0.0
 11
236.7726126009568
 21
227.1628035013628
 31
0.0
  0
LINE
  5
9AB
330
2
100
AcDbEntity
  8
HIDS
100
AcDbLine
 10
214.7726126009568
 20
221.6628035013628
 30
0.0
 11
229.7726126009568
 21
221.6628035013628
 31
0.0
  0
LINE
  5
9AC
330
2
100
AcDbEntity
  8
0
100
AcDbLine
 10
234.2726126009568
 20
219.6628035013628
 30
0.0
 11
234.7726126009568
 21
219.1628035013628
 31
0.0
  0
LINE
  5
9AD
330
2
100
AcDbEntity
  8
0
100
AcDbLine
 10
229.7726126009568
 20
219.6628035013628
 30
0.0
 11
234.2726126009568
 21
219.6628035013628
 31
0.0
  0
LINE
  5
9AE
330
2
100
AcDbEntity
  8
HIDS
100
AcDbLine
 10
214.7726126009568
 20
232.6628035013628
 30
0.0
 11
229.7726126009568
 21
232.6628035013628
 31
0.0
  0
LINE
  5
9AF
330
2
100
AcDbEntity
  8
0
100
AcDbLine
 10
214.8060296009568
 20
237.9014985013629
 30
0.0
 11
229.2726736009568
 21
238.1540165013628
 31
0.0
  0
ARC
  5
9B0
330
2
100
AcDbEntity
  8
0
100
AcDbCircle
 10
214.8066096009568
 20
237.8675095013629
 30
0.0
 40
0.034
100
AcDbArc
 50
90.99999999999525
 51
180.0
  0
LINE
  5
9B1
330
2
100
AcDbEntity
  8
0
100
AcDbLine
 10
229.2726736009568
 20
238.1540165013628
 30
0.0
 11
229.7726126009568
 21
237.6627445013628
 31
0.0
  0
ARC
  5
9B4
330
2
100
AcDbEntity
  8
0
100
AcDbCircle
 10
483.0815806314442
 20
156.1627445013628
 30
0.0
 40
79.5
100
AcDbArc
 50
34.0651510000012
 51
42.87183399999984
  0
ARC
  5
9B5
330
2
100
AcDbEntity
  8
0
100
AcDbCircle
 10
553.081519631444
 20
205.5353255013628
 30
0.0
 40
5.0
100
AcDbArc
 50
0.0
 51
45.0
  0
ARC
  5
9B6
330
2
100
AcDbEntity
  8
0
100
AcDbCircle
 10
483.081397631444
 20
156.1627445013628
 30
0.0
 40
79.5
100
AcDbArc
 50
137.1281740000011
 51
145.9348450000021
  0
ARC
  5
9B7
330
2
100
AcDbEntity
  8
0
100
AcDbCircle
 10
413.081488631444
 20
205.5353255013628
 30
0.0
 40
5.0
100
AcDbArc
 50
135.0
 51
180.0
  0
LINE
  5
9B9
330
2
100
AcDbEntity
  8
0
100
AcDbLine
 10
401.081488631444
 20
85.16274450136288
 30
0.0
 11
401.081488631444
 21
227.1627445013628
 31
0.0
  0
LINE
  5
9BB
330
2
100
AcDbEntity
  8
0
100
AcDbLine
 10
565.081519631444
 20
85.16274450136288
 30
0.0
 11
565.081519631444
 21
227.1627445013628
 31
0.0
  0
LINE
  5
9BC
330
2
100
AcDbEntity
  8
CENTER
100
AcDbLine
 10
483.0815196314441
 20
269.3754230222251
 30
0.0
 11
483.0815196314441
 21
61.76650118793464
 31
0.0
  0
CIRCLE
  5
9BD
330
2
100
AcDbEntity
  8
0
100
AcDbCircle
 10
483.0815196314441
 20
179.6626835013628
 30
0.0
 40
40.0
  0
LINE
  5
9BF
330
2
100
AcDbEntity
  8
CENTER
100
AcDbLine
 10
435.0604662133252
 20
179.6627386013628
 30
0.0
 11
531.102573049563
 21
179.6627386013628
 31
0.0
  0
ARC
  5
9C0
330
2
100
AcDbEntity
  8
0
100
AcDbCircle
 10
483.0815196314441
 20
179.6626855013628
 30
0.0
 40
14.0
100
AcDbArc
 50
196.6013949999984
 51
163.3983000000009
  0
LINE
  5
9C1
330
2
100
AcDbEntity
  8
0
100
AcDbLine
 10
532.4540776314441
 20
81.16274450136288
 30
0.0
 11
433.7088996314441
 21
81.16274450136288
 31
0.0
  0
LINE
  5
9C3
330
2
100
AcDbEntity
  8
0
100
AcDbLine
 10
554.081519631444
 20
74.16274450136288
 30
0.0
 11
412.081488631444
 21
74.16274450136288
 31
0.0
  0
LINE
  5
9C4
330
2
100
AcDbEntity
  8
CENTER
100
AcDbLine
 10
388.6488095856479
 20
156.1627445013628
 30
0.0
 11
577.5142296772401
 21
156.1627445013628
 31
0.0
  0
CIRCLE
  5
9C5
330
2
100
AcDbEntity
  8
0
100
AcDbCircle
 10
483.0815196314441
 20
179.6627445013628
 30
0.0
 40
23.5
  0
LINE
  5
9C6
330
2
100
AcDbEntity
  8
0
100
AcDbLine
 10
408.081488631444
 20
205.5353255013628
 30
0.0
 11
408.081488631444
 21
106.7901635013628
 31
0.0
  0
CIRCLE
  5
9C8
330
2
100
AcDbEntity
  8
0
100
AcDbCircle
 10
412.081488631444
 20
85.16274450136288
 30
0.0
 40
5.5
  0
ARC
  5
9C9
330
2
100
AcDbEntity
  8
0
100
AcDbCircle
 10
412.081488631444
 20
85.16274450136288
 30
0.0
 40
11.0
100
AcDbArc
 50
180.0
 51
270.0
  0
ARC
  5
9CA
330
2
100
AcDbEntity
  8
0
100
AcDbCircle
 10
433.7088996314441
 20
86.16274450136288
 30
0.0
 40
5.0
100
AcDbArc
 50
225.0
 51
270.0
  0
ARC
  5
9CB
330
2
100
AcDbEntity
  8
0
100
AcDbCircle
 10
413.081488631444
 20
106.7901635013628
 30
0.0
 40
5.0
100
AcDbArc
 50
180.0
 51
225.0
  0
LINE
  5
9CC
330
2
100
AcDbEntity
  8
0
100
AcDbLine
 10
409.5459666314441
 20
103.2546295013629
 30
0.0
 11
430.1733776314441
 21
82.62720650136287
 31
0.0
  0
ARC
  5
9CD
330
2
100
AcDbEntity
  8
0
100
AcDbCircle
 10
413.081488631444
 20
203.4941695013629
 30
0.0
 40
5.0
100
AcDbArc
 50
180.0
 51
325.9348450000021
  0
LINE
  5
9CE
330
2
100
AcDbEntity
  8
0
100
AcDbLine
 10
466.0815196314441
 20
183.6626855013628
 30
0.0
 11
473.081519631444
 21
183.6627445013628
 31
0.0
  0
LINE
  5
9CF
330
2
100
AcDbEntity
  8
0
100
AcDbLine
 10
466.0815196314441
 20
175.6627445013628
 30
0.0
 11
473.081519631444
 21
175.6626815013629
 31
0.0
  0
LINE
  5
9D0
330
2
100
AcDbEntity
  8
0
100
AcDbLine
 10
466.0815196314441
 20
183.6626855013628
 30
0.0
 11
466.0815196314441
 21
175.6627445013628
 31
0.0
  0
LINE
  5
9D1
330
2
100
AcDbEntity
  8
0
100
AcDbLine
 10
473.081519631444
 20
183.6627445013628
 30
0.0
 11
473.081519631444
 21
175.6626815013629
 31
0.0
  0
LINE
  5
9D3
330
2
100
AcDbEntity
  8
0
100
AcDbLine
 10
558.081519631444
 20
205.5353255013628
 30
0.0
 11
558.081519631444
 21
106.7901635013628
 31
0.0
  0
CIRCLE
  5
9D4
330
2
100
AcDbEntity
  8
0
100
AcDbCircle
 10
554.081519631444
 20
85.16274450136288
 30
0.0
 40
5.5
  0
LINE
  5
9D5
330
2
100
AcDbEntity
  8
0
100
AcDbLine
 10
556.6170416314442
 20
103.2546295013629
 30
0.0
 11
535.9896006314441
 21
82.62720650136287
 31
0.0
  0
ARC
  5
9D6
330
2
100
AcDbEntity
  8
0
100
AcDbCircle
 10
532.4540776314441
 20
86.16274450136288
 30
0.0
 40
5.0
100
AcDbArc
 50
270.0
 51
315.0
  0
ARC
  5
9D7
330
2
100
AcDbEntity
  8
0
100
AcDbCircle
 10
554.081519631444
 20
85.16274450136288
 30
0.0
 40
11.0
100
AcDbArc
 50
270.0
 51
0.0
  0
ARC
  5
9D8
330
2
100
AcDbEntity
  8
0
100
AcDbCircle
 10
553.081519631444
 20
106.7901635013628
 30
0.0
 40
5.0
100
AcDbArc
 50
315.0
 51
0.0
  0
ARC
  5
9D9
330
2
100
AcDbEntity
  8
0
100
AcDbCircle
 10
553.081519631444
 20
203.4941695013629
 30
0.0
 40
5.0
100
AcDbArc
 50
214.0651549999978
 51
0.0
  0
LINE
  5
9DA
330
2
100
AcDbEntity
  8
0
100
AcDbLine
 10
532.4540776314441
 20
231.1627445013628
 30
0.0
 11
433.7088996314441
 21
231.1627445013628
 31
0.0
  0
LINE
  5
9DC
330
2
100
AcDbEntity
  8
0
100
AcDbLine
 10
412.081488631444
 20
238.1627445013628
 30
0.0
 11
554.081519631444
 21
238.1627445013628
 31
0.0
  0
ARC
  5
9DD
330
2
100
AcDbEntity
  8
0
100
AcDbCircle
 10
483.081397631444
 20
156.1627445013628
 30
0.0
 40
79.5
100
AcDbArc
 50
124.0650250000018
 51
127.8235020000034
  0
ARC
  5
9DE
330
2
100
AcDbEntity
  8
0
100
AcDbCircle
 10
435.7500986314441
 20
226.1627445013628
 30
0.0
 40
5.0
100
AcDbArc
 50
304.0650289999998
 51
90.0
  0
CIRCLE
  5
9DF
330
2
100
AcDbEntity
  8
0
100
AcDbCircle
 10
412.081488631444
 20
227.1627445013628
 30
0.0
 40
5.5
  0
ARC
  5
9E0
330
2
100
AcDbEntity
  8
0
100
AcDbCircle
 10
412.081488631444
 20
227.1627445013628
 30
0.0
 40
11.0
100
AcDbArc
 50
90.0
 51
180.0
  0
LINE
  5
9E1
330
2
100
AcDbEntity
  8
0
100
AcDbLine
 10
430.1733776314441
 20
229.6982825013628
 30
0.0
 11
409.5459666314441
 21
209.0708635013629
 31
0.0
  0
LINE
  5
9E2
330
2
100
AcDbEntity
  8
0
100
AcDbLine
 10
420.9266426314441
 20
217.0341855013628
 30
0.0
 11
424.2871466314441
 21
214.7859435013628
 31
0.0
  0
ARC
  5
9E3
330
2
100
AcDbEntity
  8
0
100
AcDbCircle
 10
419.2584906314442
 20
214.5407395013628
 30
0.0
 40
3.0
100
AcDbArc
 50
56.21691899999817
 51
135.0
  0
ARC
  5
9E4
330
2
100
AcDbEntity
  8
0
100
AcDbCircle
 10
432.4898446314441
 20
221.3297905013628
 30
0.0
 40
3.0
100
AcDbArc
 50
236.2169189999982
 51
307.8235169999992
  0
LINE
  5
9E5
330
2
100
AcDbEntity
  8
0
100
AcDbLine
 10
426.9617376314441
 20
221.4186955013628
 30
0.0
 11
430.8216626314441
 21
218.8363395013628
 31
0.0
  0
ARC
  5
9E6
330
2
100
AcDbEntity
  8
0
100
AcDbCircle
 10
428.629889631444
 20
223.9121415013629
 30
0.0
 40
3.0
100
AcDbArc
 50
135.0
 51
236.2169189999982
  0
ARC
  5
9E7
330
2
100
AcDbEntity
  8
0
100
AcDbCircle
 10
422.618994631444
 20
212.2925015013628
 30
0.0
 40
3.0
100
AcDbArc
 50
317.1281660000001
 51
56.21691899999817
  0
ARC
  5
9E8
330
2
100
AcDbEntity
  8
0
100
AcDbCircle
 10
433.7088996314441
 20
226.1627445013628
 30
0.0
 40
5.0
100
AcDbArc
 50
90.0
 51
135.0
  0
LINE
  5
9E9
330
2
100
AcDbEntity
  8
0
100
AcDbLine
 10
475.5815196314441
 20
256.1870087201547
 30
0.0
 11
475.5815196314441
 21
238.1627456656819
 31
0.0
  0
LINE
  5
9EA
330
2
100
AcDbEntity
  8
0
100
AcDbLine
 10
477.581519631444
 20
256.6080853917386
 30
0.0
 11
477.581519631444
 21
238.1872755455725
 31
0.0
  0
LINE
  5
9EB
330
2
100
AcDbEntity
  8
0
100
AcDbLine
 10
479.5815196314441
 20
255.7659455786008
 30
0.0
 11
479.5815196314441
 21
238.2042570095072
 31
0.0
  0
LINE
  5
9EC
330
2
100
AcDbEntity
  8
0
100
AcDbLine
 10
481.581519631444
 20
256.1870087201547
 30
0.0
 11
481.581519631444
 21
238.2136907830541
 31
0.0
  0
LINE
  5
9ED
330
2
100
AcDbEntity
  8
0
100
AcDbLine
 10
484.5815196314441
 20
256.1869627201547
 30
0.0
 11
484.5815196314441
 21
238.2136903173712
 31
0.0
  0
LINE
  5
9EE
330
2
100
AcDbEntity
  8
0
100
AcDbLine
 10
490.5815196314441
 20
256.1869627201547
 30
0.0
 11
490.5815196314441
 21
238.1627433370437
 31
0.0
  0
LINE
  5
9EF
330
2
100
AcDbEntity
  8
0
100
AcDbLine
 10
475.5815196314441
 20
238.1627433370437
 30
0.0
 11
490.5815196314441
 21
238.1627456656819
 31
0.0
  0
ARC
  5
9F0
330
2
100
AcDbEntity
  8
HOJO
100
AcDbCircle
 10
480.3315196314441
 20
257.1869627201547
 30
0.0
 40
1.600781
100
AcDbArc
 50
247.1647030000003
 51
321.3401790000018
  0
LINE
  5
9F1
330
2
100
AcDbEntity
  8
HOJO
100
AcDbLine
 10
477.452827631444
 20
256.6622737201547
 30
0.0
 11
479.7104266314441
 21
255.7116667201547
 31
0.0
  0
ARC
  5
9F2
330
2
100
AcDbEntity
  8
HOJO
100
AcDbCircle
 10
476.8315196314441
 20
255.1869627201547
 30
0.0
 40
1.600781999999999
100
AcDbArc
 50
67.16467299999867
 51
141.3401950000027
  0
ARC
  5
9F3
330
2
100
AcDbEntity
  8
HOJO
100
AcDbCircle
 10
488.8315196314441
 20
255.1869627201547
 30
0.0
 40
1.600781999999999
100
AcDbArc
 50
67.16467299999867
 51
141.3401950000027
  0
LINE
  5
9F4
330
2
100
AcDbEntity
  8
HOJO
100
AcDbLine
 10
489.452827631444
 20
256.6622737201547
 30
0.0
 11
490.5815196314441
 21
256.1870087201547
 31
0.0
  0
LINE
  5
9F5
330
2
100
AcDbEntity
  8
HOJO
100
AcDbLine
 10
484.5815196314441
 20
256.1870087201547
 30
0.0
 11
485.7104266314441
 21
255.7116667201547
 31
0.0
  0
ARC
  5
9F6
330
2
100
AcDbEntity
  8
HOJO
100
AcDbCircle
 10
486.3315196314441
 20
257.1869627201547
 30
0.0
 40
1.600781
100
AcDbArc
 50
247.1647030000003
 51
321.3401790000018
  0
LINE
  5
9F7
330
2
100
AcDbEntity
  8
0
100
AcDbLine
 10
556.6170416314442
 20
209.0708635013629
 30
0.0
 11
535.9896006314441
 21
229.6982825013628
 31
0.0
  0
CIRCLE
  5
9F8
330
2
100
AcDbEntity
  8
0
100
AcDbCircle
 10
554.081519631444
 20
227.1627445013628
 30
0.0
 40
5.5
  0
ARC
  5
9F9
330
2
100
AcDbEntity
  8
0
100
AcDbCircle
 10
530.4128796314442
 20
226.1627445013628
 30
0.0
 40
5.0
100
AcDbArc
 50
90.0
 51
235.9349669999975
  0
LINE
  5
9FA
330
2
100
AcDbEntity
  8
0
100
AcDbLine
 10
539.2012706314442
 20
221.4186955013628
 30
0.0
 11
535.341284631444
 21
218.8363395013628
 31
0.0
  0
ARC
  5
9FB
330
2
100
AcDbEntity
  8
0
100
AcDbCircle
 10
533.6731336314442
 20
221.3297905013628
 30
0.0
 40
3.0
100
AcDbArc
 50
232.1764980000007
 51
303.7830810000018
  0
ARC
  5
9FC
330
2
100
AcDbEntity
  8
0
100
AcDbCircle
 10
483.0815806314442
 20
156.1627445013628
 30
0.0
 40
79.5
100
AcDbArc
 50
52.1764950000024
 51
55.93497100000011
  0
LINE
  5
9FD
330
2
100
AcDbEntity
  8
0
100
AcDbLine
 10
545.2363656314441
 20
217.0341855013628
 30
0.0
 11
541.8758306314441
 21
214.7859435013628
 31
0.0
  0
ARC
  5
9FE
330
2
100
AcDbEntity
  8
0
100
AcDbCircle
 10
546.9045176314441
 20
214.5407395013628
 30
0.0
 40
3.0
100
AcDbArc
 50
45.0
 51
123.7830810000018
  0
ARC
  5
9FF
330
2
100
AcDbEntity
  8
0
100
AcDbCircle
 10
537.533118631444
 20
223.9121415013629
 30
0.0
 40
3.0
100
AcDbArc
 50
303.7830810000018
 51
45.0
  0
ARC
  5
A00
330
2
100
AcDbEntity
  8
0
100
AcDbCircle
 10
543.5439826314441
 20
212.2925015013628
 30
0.0
 40
3.0
100
AcDbArc
 50
123.7830810000018
 51
222.8718409999988
  0
ARC
  5
A01
330
2
100
AcDbEntity
  8
0
100
AcDbCircle
 10
532.4540776314441
 20
226.1627445013628
 30
0.0
 40
5.0
100
AcDbArc
 50
45.0
 51
90.0
  0
ARC
  5
A02
330
2
100
AcDbEntity
  8
0
100
AcDbCircle
 10
554.081519631444
 20
227.1627445013628
 30
0.0
 40
11.0
100
AcDbArc
 50
0.0
 51
90.0
  0
TEXT
  5
C90
330
2
100
AcDbEntity
  8
TITLE
100
AcDbText
 10
45.91115460584297
 20
29.40019489648943
 30
0.0
 40
9.0
  1
VGKC28-40～100N400
100
AcDbText
  0
LINE
  5
1012
330
2
100
AcDbEntity
  8
0
100
AcDbLine
 10
241.7726126009568
 20
403.6264265013628
 30
0.0
 11
281.7726126009567
 21
403.6264265013628
 31
0.0
  0
LINE
  5
1013
330
2
100
AcDbEntity
  8
0
100
AcDbLine
 10
241.7726126009568
 20
407.2104415013629
 30
0.0
 11
281.7726126009567
 21
407.2104415013629
 31
0.0
  0
LINE
  5
1014
330
2
100
AcDbEntity
  8
0
100
AcDbLine
 10
236.7726126009567
 20
434.6264265013629
 30
0.0
 11
281.7726126009567
 21
434.6264265013629
 31
0.0
  0
LINE
  5
1015
330
2
100
AcDbEntity
  8
CENTER
100
AcDbLine
 10
34.20422337196055
 20
420.6265485013629
 30
0.0
 11
289.7726126009568
 21
420.6265485013629
 31
0.0
  0
LINE
  5
1044
330
2
100
AcDbEntity
  8
0
100
AcDbLine
 10
234.7726126009567
 20
381.1265485013629
 30
0.0
 11
234.7726126009567
 21
420.6264875013628
 31
0.0
  0
LINE
  5
1045
330
2
100
AcDbEntity
  8
0
100
AcDbLine
 10
132.2727046009567
 20
356.6265485013629
 30
0.0
 11
132.2727046009567
 21
484.6265485013629
 31
0.0
  0
LINE
  5
1046
330
2
100
AcDbEntity
  8
0
100
AcDbLine
 10
139.2725516009568
 20
343.7451705013629
 30
0.0
 11
139.2722926009566
 21
497.5082625013627
 31
0.0
  0
LINE
  5
1047
330
2
100
AcDbEntity
  8
0
100
AcDbLine
 10
214.7726126009568
 20
501.8733745013627
 30
0.0
 11
214.7726126009568
 21
339.3797225013628
 31
0.0
  0
LINE
  5
1048
330
2
100
AcDbEntity
  8
0
100
AcDbLine
 10
229.7726126009568
 20
339.1265485013629
 30
0.0
 11
229.7726126009568
 21
502.1265485013629
 31
0.0
  0
LINE
  5
1049
330
2
100
AcDbEntity
  8
0
100
AcDbLine
 10
145.7726276009568
 20
341.6265485013629
 30
0.0
 11
145.7726276009568
 21
420.6265485013629
 31
0.0
  0
LINE
  5
104A
330
2
100
AcDbEntity
  8
0
100
AcDbLine
 10
141.2201376009568
 20
341.7458725013629
 30
0.0
 11
145.7725056009567
 21
341.6265485013629
 31
0.0
  0
ARC
  5
104D
330
2
100
AcDbEntity
  8
0
100
AcDbCircle
 10
136.2725366009567
 20
353.6265485013629
 30
0.0
 40
3.0
100
AcDbArc
 50
0.0
 51
90.0
  0
ARC
  5
104E
330
2
100
AcDbEntity
  8
0
100
AcDbCircle
 10
141.2725216009569
 20
343.7451705013629
 30
0.0
 40
2.0
100
AcDbArc
 50
180.0
 51
268.4991149999973
  0
LINE
  5
104F
330
2
100
AcDbEntity
  8
0
100
AcDbLine
 10
132.2727046009567
 20
356.6265485013629
 30
0.0
 11
136.2725366009567
 21
356.6265485013629
 31
0.0
  0
LINE
  5
1056
330
2
100
AcDbEntity
  8
0
100
AcDbLine
 10
146.2725516009568
 20
341.6178205013629
 30
0.0
 11
214.7726126009568
 21
340.4221115013628
 31
0.0
  0
LINE
  5
1057
330
2
100
AcDbEntity
  8
0
100
AcDbLine
 10
145.7726276009568
 20
342.1265485013629
 30
0.0
 11
146.2725516009568
 21
341.6178205013629
 31
0.0
  0
LINE
  5
1058
330
2
100
AcDbEntity
  8
HIDS
100
AcDbLine
 10
214.7726126009568
 20
344.1265485013629
 30
0.0
 11
229.7726126009568
 21
344.1265485013629
 31
0.0
  0
LINE
  5
1059
330
2
100
AcDbEntity
  8
CENTER
100
AcDbLine
 10
208.6601246009568
 20
349.6265485013629
 30
0.0
 11
235.9413746009568
 21
349.6265485013629
 31
0.0
  0
LINE
  5
105A
330
2
100
AcDbEntity
  8
0
100
AcDbLine
 10
215.2638846009567
 20
338.8798135013629
 30
0.0
 11
229.2727046009567
 21
338.6352765013629
 31
0.0
  0
ARC
  5
105B
330
2
100
AcDbEntity
  8
0
100
AcDbCircle
 10
215.2726126009568
 20
339.3797225013628
 30
0.0
 40
0.5
100
AcDbArc
 50
180.0
 51
268.9999999999982
  0
LINE
  5
105C
330
2
100
AcDbEntity
  8
0
100
AcDbLine
 10
229.7726126009568
 20
339.1265485013629
 30
0.0
 11
229.2727046009567
 21
338.6352765013629
 31
0.0
  0
LINE
  5
105D
330
2
100
AcDbEntity
  8
HIDS
100
AcDbLine
 10
214.7726126009568
 20
355.1265485013629
 30
0.0
 11
229.7726126009568
 21
355.1265485013629
 31
0.0
  0
LINE
  5
105E
330
2
100
AcDbEntity
  8
0
100
AcDbLine
 10
234.2726126009567
 20
380.6265485013629
 30
0.0
 11
229.7726126009568
 21
380.6265485013629
 31
0.0
  0
LINE
  5
105F
330
2
100
AcDbEntity
  8
0
100
AcDbLine
 10
234.7726126009567
 20
381.1265485013629
 30
0.0
 11
234.2726126009567
 21
380.6265485013629
 31
0.0
  0
LINE
  5
1060
330
2
100
AcDbEntity
  8
0
100
AcDbLine
 10
141.2201986009567
 20
499.507468501363
 30
0.0
 11
145.7727046009567
 21
499.6265485013629
 31
0.0
  0
ARC
  5
1061
330
2
100
AcDbEntity
  8
0
100
AcDbCircle
 10
136.2723076009567
 20
487.6265485013629
 30
0.0
 40
3.0
100
AcDbArc
 50
270.0
 51
0.0
  0
LINE
  5
1062
330
2
100
AcDbEntity
  8
0
100
AcDbLine
 10
132.2727046009567
 20
484.6265485013629
 30
0.0
 11
136.2723076009567
 21
484.6265485013629
 31
0.0
  0
ARC
  5
1063
330
2
100
AcDbEntity
  8
0
100
AcDbCircle
 10
141.2725056009567
 20
497.5082625013627
 30
0.0
 40
2.0
100
AcDbArc
 50
91.49841300000201
 51
180.0
  0
LINE
  5
1064
330
2
100
AcDbEntity
  8
0
100
AcDbLine
 10
145.7726276009568
 20
499.6265485013629
 30
0.0
 11
145.7726276009568
 21
420.6265485013629
 31
0.0
  0
LINE
  5
1065
330
2
100
AcDbEntity
  8
0
100
AcDbLine
 10
234.7726126009567
 20
460.1265485013629
 30
0.0
 11
234.7726126009567
 21
420.6264875013628
 31
0.0
  0
LINE
  5
1066
330
2
100
AcDbEntity
  8
0
100
AcDbLine
 10
236.7726126009567
 20
435.6264265013629
 30
0.0
 11
236.7726126009567
 21
405.6264265013629
 31
0.0
  0
LINE
  5
1067
330
2
100
AcDbEntity
  8
0
100
AcDbLine
 10
236.7726126009567
 20
406.6265485013629
 30
0.0
 11
241.7726126009568
 21
406.6265485013629
 31
0.0
  0
LINE
  5
1068
330
2
100
AcDbEntity
  8
0
100
AcDbLine
 10
234.7726126009567
 20
405.6265485013629
 30
0.0
 11
236.7726126009567
 21
405.6264265013629
 31
0.0
  0
LINE
  5
1069
330
2
100
AcDbEntity
  8
0
100
AcDbLine
 10
241.7726126009568
 20
407.2104415013629
 30
0.0
 11
241.7726126009568
 21
403.6264265013628
 31
0.0
  0
LINE
  5
106A
330
2
100
AcDbEntity
  8
0
100
AcDbLine
 10
234.7726126009567
 20
435.6264265013629
 30
0.0
 11
236.7726126009567
 21
435.6264265013629
 31
0.0
  0
LINE
  5
106B
330
2
100
AcDbEntity
  8
0
100
AcDbLine
 10
234.2726126009567
 20
460.6265485013629
 30
0.0
 11
229.7726126009568
 21
460.6265485013629
 31
0.0
  0
LINE
  5
106C
330
2
100
AcDbEntity
  8
0
100
AcDbLine
 10
234.2726126009567
 20
460.6265485013629
 30
0.0
 11
234.7726126009567
 21
460.1265485013629
 31
0.0
  0
LINE
  5
106D
330
2
100
AcDbEntity
  8
0
100
AcDbLine
 10
214.7726126009568
 20
500.8310165013628
 30
0.0
 11
146.2725516009568
 21
499.635276501363
 31
0.0
  0
LINE
  5
106E
330
2
100
AcDbEntity
  8
0
100
AcDbLine
 10
145.7726276009568
 20
499.1265485013629
 30
0.0
 11
146.2725516009568
 21
499.635276501363
 31
0.0
  0
LINE
  5
106F
330
2
100
AcDbEntity
  8
HIDS
100
AcDbLine
 10
214.7726126009568
 20
486.1265485013629
 30
0.0
 11
229.7726126009568
 21
486.1265485013629
 31
0.0
  0
LINE
  5
1070
330
2
100
AcDbEntity
  8
HIDS
100
AcDbLine
 10
214.7726126009568
 20
497.1265485013629
 30
0.0
 11
229.7726126009568
 21
497.1265485013629
 31
0.0
  0
LINE
  5
1071
330
2
100
AcDbEntity
  8
CENTER
100
AcDbLine
 10
210.1757496009568
 20
491.6265485013629
 30
0.0
 11
235.3351436009568
 21
491.6265485013629
 31
0.0
  0
LINE
  5
1072
330
2
100
AcDbEntity
  8
0
100
AcDbLine
 10
215.2638846009567
 20
502.373313501363
 30
0.0
 11
229.2727046009567
 21
502.6178205013628
 31
0.0
  0
ARC
  5
1073
330
2
100
AcDbEntity
  8
0
100
AcDbCircle
 10
215.2726126009568
 20
501.8733745013627
 30
0.0
 40
0.5
100
AcDbArc
 50
91.0000080000003
 51
180.0
  0
LINE
  5
1074
330
2
100
AcDbEntity
  8
0
100
AcDbLine
 10
229.2727046009567
 20
502.6178205013628
 30
0.0
 11
229.7726126009568
 21
502.1265485013629
 31
0.0
  0
LINE
  5
10B3
330
2
100
AcDbEntity
  8
0
100
AcDbLine
 10
281.7726126009567
 20
434.6264265013629
 30
0.0
 11
281.7726126009567
 21
403.6264265013628
 31
0.0
  0
LINE
  5
1DFD
330
2
100
AcDbEntity
  8
CENTER
100
AcDbLine
 10
404.0815196314441
 20
227.1627445013628
 30
0.0
 11
562.081519631444
 21
227.1627445013628
 31
0.0
  0
LINE
  5
1DFE
330
2
100
AcDbEntity
  8
CENTER
100
AcDbLine
 10
554.081519631444
 20
235.1627445013628
 30
0.0
 11
554.081519631444
 21
77.16274450136285
 31
0.0
  0
LINE
  5
1DFF
330
2
100
AcDbEntity
  8
CENTER
100
AcDbLine
 10
412.0815196314441
 20
235.1627445013628
 30
0.0
 11
412.0815196314441
 21
77.16274450136285
 31
0.0
  0
LINE
  5
1E00
330
2
100
AcDbEntity
  8
CENTER
100
AcDbLine
 10
404.0815196314441
 20
85.16274450136284
 30
0.0
 11
562.081519631444
 21
85.16274450136284
 31
0.0
  0
MTEXT
  5
1F09
330
2
100
AcDbEntity
  8
TITLE
100
AcDbMText
 10
197.0076720046956
 20
41.37658525097324
 30
0.0
 40
5.6568
 41
23.355513
 71
     1
 72
     5
  1
L2\PL4
1001
ACAD
1000
MTEXTBEGIN
1070
    73
1070
     1
1070
    44
1040
1.0
1070
    74
1070
     0
1000
MTEXTEND
1000
MTEXTBEGIN
1070
    73
1070
     1
1070
    44
1040
1.0
1070
    74
1070
     0
1000
MTEXTEND
  0
LINE
  5
2064
330
2
100
AcDbEntity
  8
0
100
AcDbLine
 10
43.77261260095702
 20
370.6265485013629
 30
0.0
 11
45.27270460095678
 21
370.6265485013629
 31
0.0
  0
LINE
  5
2065
330
2
100
AcDbEntity
  8
0
100
AcDbLine
 10
43.77230801446694
 20
470.6439982497141
 30
0.0
 11
45.27270460095678
 21
470.696393253057
 31
0.0
  0
LINE
  5
2066
330
2
100
AcDbEntity
  8
0
100
AcDbLine
 10
132.2727046009567
 20
484.1265865013625
 30
0.0
 11
123.2552256009566
 21
483.9689485013629
 31
0.0
  0
LINE
  5
2067
330
2
100
AcDbEntity
  8
CENTER
100
AcDbLine
 10
112.2108226009568
 20
461.6365885013625
 30
0.0
 11
136.4702826009565
 21
461.6365885013625
 31
0.0
  0
LINE
  5
2068
330
2
100
AcDbEntity
  8
0
100
AcDbLine
 10
132.2727046009567
 20
357.1264495013626
 30
0.0
 11
123.2552256009566
 21
357.2838285013628
 31
0.0
  0
LINE
  5
2069
330
2
100
AcDbEntity
  8
CENTER
100
AcDbLine
 10
112.8895256009568
 20
379.6164475013626
 30
0.0
 11
136.4702826009565
 21
379.6164475013626
 31
0.0
  0
LINE
  5
206A
330
2
100
AcDbEntity
  8
0
100
AcDbLine
 10
122.2727046009567
 20
482.9691695013627
 30
0.0
 11
122.2727046009567
 21
358.2836875013628
 31
0.0
  0
LINE
  5
206B
330
2
100
AcDbEntity
  8
0
100
AcDbLine
 10
42.77270460095678
 20
438.626548501363
 30
0.0
 11
42.77270460095678
 21
402.6265485013629
 31
0.0
  0
ARC
  5
206C
330
2
100
AcDbEntity
  8
0
100
AcDbCircle
 10
52.77270460096179
 20
430.4688043799398
 30
0.0
 40
1.0
100
AcDbArc
 50
0.0
 51
87.9999999999964
  0
LINE
  5
206D
330
2
100
AcDbEntity
  8
0
100
AcDbLine
 10
48.27270460096179
 20
431.6265485013629
 30
0.0
 11
48.27270460096179
 21
428.0765485013628
 31
0.0
  0
LINE
  5
206E
330
2
100
AcDbEntity
  8
0
100
AcDbLine
 10
121.281424600957
 20
417.3623265013631
 30
0.0
 11
58.70414168221214
 21
416.816239571324
 31
0.0
  0
LINE
  5
206F
330
2
100
AcDbEntity
  8
0
100
AcDbLine
 10
121.281424600957
 20
414.3909385013632
 30
0.0
 11
58.86908774971335
 21
414.9355984685677
 31
0.0
  0
LINE
  5
2070
330
2
100
AcDbEntity
  8
0
100
AcDbLine
 10
121.281424600957
 20
413.576530501363
 30
0.0
 11
59.65418033150218
 21
414.1143575758598
 31
0.0
  0
LINE
  5
2071
330
2
100
AcDbEntity
  8
0
100
AcDbLine
 10
121.281424600957
 20
418.4481425013629
 30
0.0
 11
59.65417960952436
 21
417.9102919760718
 31
0.0
  0
LINE
  5
2072
330
2
100
AcDbEntity
  8
0
100
AcDbLine
 10
121.2814246009566
 20
427.6765665013628
 30
0.0
 11
59.65418033150172
 21
427.138739426866
 31
0.0
  0
LINE
  5
2073
330
2
100
AcDbEntity
  8
0
100
AcDbLine
 10
121.2814246009566
 20
422.8049545013629
 30
0.0
 11
59.65417960952436
 21
423.342805026654
 31
0.0
  0
LINE
  5
2074
330
2
100
AcDbEntity
  8
0
100
AcDbLine
 10
121.2814246009566
 20
423.8907705013627
 30
0.0
 11
59.24278763160555
 21
424.4321568835486
 31
0.0
  0
LINE
  5
2075
330
2
100
AcDbEntity
  8
0
100
AcDbLine
 10
121.2814246009566
 20
426.8621585013631
 30
0.0
 11
59.8986281639859
 21
426.3264831272142
 31
0.0
  0
LINE
  5
2076
330
2
100
AcDbEntity
  8
0
100
AcDbLine
 10
121.2814246009566
 20
404.5623545013628
 30
0.0
 11
51.60100460095691
 21
405.1703565013628
 31
0.0
  0
LINE
  5
2077
330
2
100
AcDbEntity
  8
0
100
AcDbLine
 10
121.2814246009566
 20
409.2851485013627
 30
0.0
 11
52.39400460095658
 21
408.6839525013626
 31
0.0
  0
LINE
  5
2078
330
2
100
AcDbEntity
  8
0
100
AcDbLine
 10
121.2814246009566
 20
405.0805585013629
 30
0.0
 11
51.08554860095683
 21
405.6931685013625
 31
0.0
  0
LINE
  5
2079
330
2
100
AcDbEntity
  8
0
100
AcDbLine
 10
121.2814246009566
 20
407.9609605013626
 30
0.0
 11
51.08554860095683
 21
407.3485645013626
 31
0.0
  0
LINE
  5
207A
330
2
100
AcDbEntity
  8
0
100
AcDbLine
 10
121.2814246009566
 20
364.8481905013629
 30
0.0
 11
50.45608460095673
 21
365.4662475013626
 31
0.0
  0
LINE
  5
207B
330
2
100
AcDbEntity
  8
0
100
AcDbLine
 10
121.5747066009566
 20
366.4584695013629
 30
0.0
 11
50.45608460095673
 21
365.8378295013628
 31
0.0
  0
LINE
  5
207C
330
2
100
AcDbEntity
  8
0
100
AcDbLine
 10
121.2814246009566
 20
368.3630485013629
 30
0.0
 11
50.57998660095655
 21
367.7460475013628
 31
0.0
  0
LINE
  5
207D
330
2
100
AcDbEntity
  8
0
100
AcDbLine
 10
121.2814246009566
 20
366.5051265013627
 30
0.0
 11
50.57998660095655
 21
367.1221275013628
 31
0.0
  0
LINE
  5
207E
330
2
100
AcDbEntity
  8
0
100
AcDbLine
 10
121.2814246009566
 20
369.7968095013627
 30
0.0
 11
50.67912260095681
 21
370.4129295013628
 31
0.0
  0
LINE
  5
207F
330
2
100
AcDbEntity
  8
0
100
AcDbLine
 10
121.2814246009566
 20
371.8579285013626
 30
0.0
 11
50.67912260095681
 21
371.2417865013628
 31
0.0
  0
LINE
  5
2080
330
2
100
AcDbEntity
  8
0
100
AcDbLine
 10
103.1265256009569
 20
369.9552265013628
 30
0.0
 11
52.3147046009567
 21
369.5118105013627
 31
0.0
  0
LINE
  5
2081
330
2
100
AcDbEntity
  8
0
100
AcDbLine
 10
121.2814246009566
 20
374.4913285013628
 30
0.0
 11
50.81790060095682
 21
375.1062465013625
 31
0.0
  0
LINE
  5
2082
330
2
100
AcDbEntity
  8
0
100
AcDbLine
 10
117.7826226009565
 20
376.8038285013628
 30
0.0
 11
50.81790060095682
 21
376.2194475013627
 31
0.0
  0
LINE
  5
2083
330
2
100
AcDbEntity
  8
0
100
AcDbLine
 10
121.2814246009566
 20
387.8845475013628
 30
0.0
 11
50.99630660095681
 21
388.4979475013626
 31
0.0
  0
LINE
  5
2084
330
2
100
AcDbEntity
  8
0
100
AcDbLine
 10
121.2814246009566
 20
390.5865285013625
 30
0.0
 11
50.99630660095681
 21
389.9731295013627
 31
0.0
  0
LINE
  5
2085
330
2
100
AcDbEntity
  8
0
100
AcDbLine
 10
121.2814246009566
 20
396.1025295013625
 30
0.0
 11
51.0657046009569
 21
396.7153275013626
 31
0.0
  0
LINE
  5
2086
330
2
100
AcDbEntity
  8
0
100
AcDbLine
 10
121.2814246009566
 20
398.9445495013626
 30
0.0
 11
51.0657046009569
 21
398.3317485013628
 31
0.0
  0
LINE
  5
2087
330
2
100
AcDbEntity
  8
0
100
AcDbLine
 10
121.2814246009566
 20
373.6719475013625
 30
0.0
 11
52.47330460095691
 21
373.0714685013628
 31
0.0
  0
LINE
  5
2088
330
2
100
AcDbEntity
  8
0
100
AcDbLine
 10
117.3339226009566
 20
378.6222075013626
 30
0.0
 11
52.62202460095659
 21
378.0574875013627
 31
0.0
  0
LINE
  5
2089
330
2
100
AcDbEntity
  8
0
100
AcDbLine
 10
121.2814246009566
 20
392.2607285013625
 30
0.0
 11
52.65176260095677
 21
391.6619485013626
 31
0.0
  0
LINE
  5
208A
330
2
100
AcDbEntity
  8
0
100
AcDbLine
 10
121.2814246009566
 20
400.4669495013629
 30
0.0
 11
52.5724626009569
 21
399.8671285013626
 31
0.0
  0
LINE
  5
208B
330
2
100
AcDbEntity
  8
0
100
AcDbLine
 10
45.27270460095678
 20
401.6265485013629
 30
0.0
 11
45.27270460095678
 21
370.2810095013625
 31
0.0
  0
LINE
  5
208C
330
2
100
AcDbEntity
  8
0
100
AcDbLine
 10
50.43500460095675
 20
368.2533295013628
 30
0.0
 11
47.25522660095657
 21
368.2810895013628
 31
0.0
  0
ARC
  5
208D
330
2
100
AcDbEntity
  8
0
100
AcDbCircle
 10
47.27270460095678
 20
370.2810095013625
 30
0.0
 40
2.0
100
AcDbArc
 50
180.0
 51
269.5000000000084
  0
ARC
  5
208E
330
2
100
AcDbEntity
  8
0
100
AcDbCircle
 10
50.82268460095656
 20
375.6694485013628
 30
0.0
 40
0.55
100
AcDbArc
 50
90.49999999999155
 51
180.0
  0
ARC
  5
208F
330
2
100
AcDbEntity
  8
0
100
AcDbCircle
 10
52.64270660095689
 20
375.6875495013625
 30
0.0
 40
2.37
100
AcDbArc
 50
90.49999999999155
 51
180.0
  0
ARC
  5
2090
330
2
100
AcDbEntity
  8
0
100
AcDbCircle
 10
50.68268460095669
 20
370.8318095013625
 30
0.0
 40
0.41
100
AcDbArc
 50
90.49999999999155
 51
180.0
  0
ARC
  5
2091
330
2
100
AcDbEntity
  8
0
100
AcDbCircle
 10
52.49270660095681
 20
370.8515465013626
 30
0.0
 40
2.22
100
AcDbArc
 50
90.49999999999155
 51
180.0
  0
ARC
  5
2092
330
2
100
AcDbEntity
  8
0
100
AcDbCircle
 10
52.33268660095655
 20
367.4518885013628
 30
0.0
 40
2.06
100
AcDbArc
 50
90.49999999999155
 51
180.0
  0
ARC
  5
2093
330
2
100
AcDbEntity
  8
0
100
AcDbCircle
 10
50.58268660095655
 20
367.4321285013626
 30
0.0
 40
0.31
100
AcDbArc
 50
180.0
 51
269.5000000000084
  0
ARC
  5
2094
330
2
100
AcDbEntity
  8
0
100
AcDbCircle
 10
50.58268660095655
 20
367.4360695013626
 30
0.0
 40
0.31
100
AcDbArc
 50
90.49999999999155
 51
180.0
  0
LINE
  5
2095
330
2
100
AcDbEntity
  8
0
100
AcDbLine
 10
50.27270460095678
 20
367.4518885013628
 30
0.0
 11
50.27270460095678
 21
367.4321285013626
 31
0.0
  0
LINE
  5
2096
330
2
100
AcDbEntity
  8
0
100
AcDbLine
 10
50.27270460095678
 20
367.4360695013626
 30
0.0
 11
50.27270460095678
 21
367.4321285013626
 31
0.0
  0
ARC
  5
2097
330
2
100
AcDbEntity
  8
0
100
AcDbCircle
 10
50.68268460095669
 20
370.8229105013626
 30
0.0
 40
0.41
100
AcDbArc
 50
180.0
 51
269.5000000000084
  0
LINE
  5
2098
330
2
100
AcDbEntity
  8
0
100
AcDbLine
 10
50.27270460095678
 20
370.8515465013626
 30
0.0
 11
50.27270460095678
 21
370.8229105013626
 31
0.0
  0
LINE
  5
2099
330
2
100
AcDbEntity
  8
0
100
AcDbLine
 10
50.27270460095678
 20
370.8318095013625
 30
0.0
 11
50.27270460095678
 21
370.8229105013626
 31
0.0
  0
ARC
  5
209A
330
2
100
AcDbEntity
  8
0
100
AcDbCircle
 10
50.82268460095656
 20
375.6562495013628
 30
0.0
 40
0.55
100
AcDbArc
 50
180.0
 51
269.5000000000084
  0
LINE
  5
209B
330
2
100
AcDbEntity
  8
0
100
AcDbLine
 10
50.27270460095678
 20
375.6875495013625
 30
0.0
 11
50.27270460095678
 21
375.6562495013628
 31
0.0
  0
LINE
  5
209C
330
2
100
AcDbEntity
  8
0
100
AcDbLine
 10
50.27270460095678
 20
375.6694485013628
 30
0.0
 11
50.27270460095678
 21
375.6562495013628
 31
0.0
  0
ARC
  5
209D
330
2
100
AcDbEntity
  8
0
100
AcDbCircle
 10
50.45768660095655
 20
365.6512675013629
 30
0.0
 40
0.185
100
AcDbArc
 50
180.0
 51
269.5000000000084
  0
ARC
  5
209E
330
2
100
AcDbEntity
  8
0
100
AcDbCircle
 10
50.45768660095655
 20
365.6528275013626
 30
0.0
 40
0.185
100
AcDbArc
 50
90.49999999999155
 51
180.0
  0
LINE
  5
209F
330
2
100
AcDbEntity
  8
0
100
AcDbLine
 10
50.27270460095678
 20
365.6710085013625
 30
0.0
 11
50.27270460095678
 21
365.6512675013629
 31
0.0
  0
ARC
  5
20A0
330
2
100
AcDbEntity
  8
0
100
AcDbCircle
 10
52.08768460095689
 20
365.6710085013625
 30
0.0
 40
1.814999999999999
100
AcDbArc
 50
127.1051030000108
 51
180.0
  0
ARC
  5
20A1
330
2
100
AcDbEntity
  8
0
100
AcDbCircle
 10
52.41270460095666
 20
406.5441505013628
 30
0.0
 40
2.14
100
AcDbArc
 50
90.49999999999155
 51
180.0
  0
LINE
  5
20A2
330
2
100
AcDbEntity
  8
0
100
AcDbLine
 10
46.77270460095678
 20
409.6003659039704
 30
0.0
 11
46.77270460095678
 21
401.6265485013629
 31
0.0
  0
LINE
  5
20A3
330
2
100
AcDbEntity
  8
0
100
AcDbLine
 10
46.77270460095678
 20
401.6265485013629
 30
0.0
 11
43.77270460095724
 21
401.6265485013629
 31
0.0
  0
ARC
  5
20A4
330
2
100
AcDbEntity
  8
0
100
AcDbCircle
 10
43.77270460095679
 20
402.6265485013629
 30
0.0
 40
1.0
100
AcDbArc
 50
180.0
 51
270.0
  0
ARC
  5
20A5
330
2
100
AcDbEntity
  8
0
100
AcDbCircle
 10
52.59270460095649
 20
397.5473285013628
 30
0.0
 40
2.319999999999999
100
AcDbArc
 50
90.49999999999155
 51
180.0
  0
ARC
  5
20A6
330
2
100
AcDbEntity
  8
0
100
AcDbCircle
 10
51.07268460095657
 20
397.5317285013627
 30
0.0
 40
0.8
100
AcDbArc
 50
90.49999999999155
 51
180.0
  0
ARC
  5
20A7
330
2
100
AcDbEntity
  8
0
100
AcDbCircle
 10
51.07268460095657
 20
397.5153485013626
 30
0.0
 40
0.8
100
AcDbArc
 50
180.0
 51
269.5000000000084
  0
LINE
  5
20A8
330
2
100
AcDbEntity
  8
0
100
AcDbLine
 10
50.27270460095678
 20
397.5473285013628
 30
0.0
 11
50.27270460095678
 21
397.5317285013627
 31
0.0
  0
LINE
  5
20A9
330
2
100
AcDbEntity
  8
0
100
AcDbLine
 10
50.27270460095678
 20
397.5317285013627
 30
0.0
 11
50.27270460095678
 21
397.5153485013626
 31
0.0
  0
ARC
  5
20AA
330
2
100
AcDbEntity
  8
0
100
AcDbCircle
 10
51.0027086009568
 20
389.2279485013629
 30
0.0
 40
0.73
100
AcDbArc
 50
180.0
 51
269.5000000000084
  0
LINE
  5
20AB
330
2
100
AcDbEntity
  8
0
100
AcDbLine
 10
50.27270460095678
 20
389.2619285013626
 30
0.0
 11
50.27270460095678
 21
389.2433275013629
 31
0.0
  0
LINE
  5
20AC
330
2
100
AcDbEntity
  8
0
100
AcDbLine
 10
50.27270460095678
 20
389.2433275013629
 30
0.0
 11
50.27270460095678
 21
389.2279485013629
 31
0.0
  0
ARC
  5
20AD
330
2
100
AcDbEntity
  8
0
100
AcDbCircle
 10
52.6726826009567
 20
389.2619285013626
 30
0.0
 40
2.399999999999999
100
AcDbArc
 50
90.49999999999155
 51
180.0
  0
ARC
  5
20AE
330
2
100
AcDbEntity
  8
0
100
AcDbCircle
 10
51.0027086009568
 20
389.2433275013629
 30
0.0
 40
0.73
100
AcDbArc
 50
90.49999999999155
 51
180.0
  0
ARC
  5
20AF
330
2
100
AcDbEntity
  8
0
100
AcDbCircle
 10
51.0927046009565
 20
406.5131605013627
 30
0.0
 40
0.8199999999999999
100
AcDbArc
 50
180.0
 51
269.5000000000084
  0
ARC
  5
20B0
330
2
100
AcDbEntity
  8
0
100
AcDbCircle
 10
51.0927046009565
 20
406.5285565013625
 30
0.0
 40
0.8199999999999999
100
AcDbArc
 50
90.49999999999155
 51
180.0
  0
ARC
  5
20B1
330
2
100
AcDbEntity
  8
0
100
AcDbCircle
 10
51.61270060095694
 20
406.5103685013629
 30
0.0
 40
1.34
100
AcDbArc
 50
180.0
 51
269.5000000000084
  0
LINE
  5
20B2
330
2
100
AcDbEntity
  8
0
100
AcDbLine
 10
50.27270460095678
 20
406.5441505013628
 30
0.0
 11
50.27270460095678
 21
406.5103685013629
 31
0.0
  0
LINE
  5
20B3
330
2
100
AcDbEntity
  8
0
100
AcDbLine
 10
50.27270460095678
 20
406.5285565013625
 30
0.0
 11
50.27270460095678
 21
406.5131605013627
 31
0.0
  0
ARC
  5
20B4
330
2
100
AcDbEntity
  8
0
100
AcDbCircle
 10
48.27270460096179
 20
425.0765485013627
 30
0.0
 40
3.0
100
AcDbArc
 50
90.0
 51
270.0
  0
ARC
  5
20B5
330
2
100
AcDbEntity
  8
0
100
AcDbCircle
 10
48.27270460096224
 20
414.7265485013628
 30
0.0
 40
1.0
100
AcDbArc
 50
90.0
 51
270.0
  0
LINE
  5
20B6
330
2
100
AcDbEntity
  8
0
100
AcDbLine
 10
48.27270460096224
 20
409.6265485013629
 30
0.0
 11
43.77270460096224
 21
409.5480007091857
 31
0.0
  0
LINE
  5
20B7
330
2
100
AcDbEntity
  8
0
100
AcDbLine
 10
46.47270460096296
 20
419.8265485013627
 30
0.0
 11
50.07270460096106
 21
419.8265485013627
 31
0.0
  0
ARC
  5
20B8
330
2
100
AcDbEntity
  8
0
100
AcDbCircle
 10
48.27270460096224
 20
414.7265485013628
 30
0.0
 40
2.0
100
AcDbArc
 50
235.2729312954421
 51
304.7270687045578
  0
LINE
  5
20B9
330
2
100
AcDbEntity
  8
0
100
AcDbLine
 10
46.47270460096206
 20
416.8265485013627
 30
0.0
 11
57.29566061215519
 21
416.8265485013627
 31
0.0
  0
LINE
  5
20BA
330
2
100
AcDbEntity
  8
0
100
AcDbLine
 10
46.47270460096206
 20
418.8265485013627
 30
0.0
 11
57.20140101869538
 21
418.8265485013627
 31
0.0
  0
ARC
  5
20BB
330
2
100
AcDbEntity
  8
0
100
AcDbCircle
 10
46.47270460096206
 20
417.8265485013628
 30
0.0
 40
2.0
100
AcDbArc
 50
89.99999999997395
 51
204.6092450239372
  0
LINE
  5
20BC
330
2
100
AcDbEntity
  8
0
100
AcDbLine
 10
44.65436674543616
 20
416.9936935060833
 30
0.0
 11
45.02993338498799
 21
416.3431930047519
 31
0.0
  0
ARC
  5
20BD
330
2
100
AcDbEntity
  8
0
100
AcDbCircle
 10
48.27270460096224
 20
416.1265485013629
 30
0.0
 40
3.25
100
AcDbArc
 50
176.177837868673
 51
249.4781325999769
  0
ARC
  5
20BE
330
2
100
AcDbEntity
  8
0
100
AcDbCircle
 10
46.47270460096206
 20
417.8265485013628
 30
0.0
 40
1.0
100
AcDbArc
 50
90.0
 51
270.0
  0
LINE
  5
20BF
330
2
100
AcDbEntity
  8
0
100
AcDbLine
 10
48.27270460096179
 20
422.0765485013627
 30
0.0
 11
48.27270460096224
 21
419.8265485013627
 31
0.0
  0
LINE
  5
20C0
330
2
100
AcDbEntity
  8
0
100
AcDbLine
 10
53.77270460096133
 20
422.0765485013627
 30
0.0
 11
53.77270460096224
 21
418.8265485013627
 31
0.0
  0
ARC
  5
20C1
330
2
100
AcDbEntity
  8
0
100
AcDbCircle
 10
50.07270460096197
 20
417.8265485013628
 30
0.0
 40
2.0
100
AcDbArc
 50
29.99999999999609
 51
90.00000000002605
  0
ARC
  5
20C2
330
2
100
AcDbEntity
  8
0
100
AcDbCircle
 10
52.77270460096224
 20
410.7843015083746
 30
0.0
 40
1.0
100
AcDbArc
 50
272.0000000000035
 51
0.0
  0
LINE
  5
20C3
330
2
100
AcDbEntity
  8
0
100
AcDbLine
 10
48.27270460096224
 20
415.7265485013629
 30
0.0
 11
59.00140101869556
 21
415.7265485013629
 31
0.0
  0
LINE
  5
20C4
330
2
100
AcDbEntity
  8
0
100
AcDbLine
 10
48.27270460096224
 20
413.7265485013628
 30
0.0
 11
59.09566061215537
 21
413.7265485013628
 31
0.0
  0
LINE
  5
20C5
330
2
100
AcDbEntity
  8
0
100
AcDbLine
 10
48.27270460096224
 20
412.7265485013628
 30
0.0
 11
48.27270460096224
 21
409.6265485013629
 31
0.0
  0
LINE
  5
20C6
330
2
100
AcDbEntity
  8
0
100
AcDbLine
 10
48.27270460096224
 20
409.6265485013629
 30
0.0
 11
52.80760409766481
 21
409.7849106813552
 31
0.0
  0
ARC
  5
20C7
330
2
100
AcDbEntity
  8
0
100
AcDbCircle
 10
48.27270460096224
 20
416.1265485013629
 30
0.0
 40
3.25
100
AcDbArc
 50
352.930285957695
 51
3.822162131326958
  0
LINE
  5
20C8
330
2
100
AcDbEntity
  8
0
100
AcDbLine
 10
51.79454124301855
 20
416.8265485013627
 30
0.0
 11
51.51547581693648
 21
416.3431930047519
 31
0.0
  0
LINE
  5
20C9
330
2
100
AcDbEntity
  8
0
100
AcDbLine
 10
51.79454124301855
 20
416.8265485013627
 30
0.0
 11
51.51547581693648
 21
416.3431930047519
 31
0.0
  0
ARC
  5
20CA
330
2
100
AcDbEntity
  8
0
100
AcDbCircle
 10
48.27270460096224
 20
416.1265485013629
 30
0.0
 40
3.25
100
AcDbArc
 50
290.521867400023
 51
312.3994733644338
  0
ARC
  5
20CB
330
2
100
AcDbEntity
  8
0
100
AcDbCircle
 10
59.67074407957352
 20
416.0123247791163
 30
0.0
 40
1.898039478616692
100
AcDbArc
 50
260.5613775252245
 51
269.4999867419111
  0
ARC
  5
20CC
330
2
100
AcDbEntity
  8
0
100
AcDbCircle
 10
58.71234120297185
 20
415.8766387455981
 30
0.0
 40
0.9396366020142174
100
AcDbArc
 50
90.49998466970505
 51
189.1913538948804
  0
ARC
  5
20CD
330
2
100
AcDbEntity
  8
0
100
AcDbCircle
 10
59.67074407957352
 20
416.0123247791163
 30
0.0
 40
1.898039478616692
100
AcDbArc
 50
90.50003505310135
 51
188.6596083652989
  0
SPLINE
  5
20CE
330
2
100
AcDbEntity
  8
HOJO
100
AcDbSpline
210
0.0
220
0.0
230
1.0
 70
     8
 71
     3
 72
    10
 73
     6
 74
     4
 42
0.0000000001
 43
0.0000000001
 44
0.0000000001
 40
0.0
 40
0.0
 40
0.0
 40
0.0
 40
0.6971907634055975
 40
1.694952319108457
 40
2.335350738679081
 40
2.335350738679081
 40
2.335350738679081
 40
2.335350738679081
 10
59.09566061215537
 20
413.7265485013628
 30
0.0
 10
59.26287475426356
 20
413.9475335134864
 30
0.0
 10
59.66939189825095
 20
414.4847739338236
 30
0.0
 10
58.49308278746774
 20
414.9952209794967
 30
0.0
 10
58.85853604202705
 20
415.5210058256732
 30
0.0
 10
59.00140101869556
 20
415.7265485013629
 30
0.0
 11
59.09566061215537
 21
413.7265485013628
 31
0.0
 11
59.38407306128465
 21
414.3612872033224
 31
0.0
 11
58.75475519379188
 21
415.1355527544693
 31
0.0
 11
59.00140101869556
 21
415.7265485013629
 31
0.0
  0
SPLINE
  5
20CF
330
2
100
AcDbEntity
  8
HOJO
100
AcDbSpline
210
0.0
220
0.0
230
1.0
 70
     8
 71
     3
 72
    10
 73
     6
 74
     4
 42
0.0000000001
 43
0.0000000001
 44
0.0000000001
 40
0.0
 40
0.0
 40
0.0
 40
0.0
 40
0.6971907634055975
 40
1.694952319108457
 40
2.335350738679081
 40
2.335350738679081
 40
2.335350738679081
 40
2.335350738679081
 10
57.29566061215519
 20
416.8265485013627
 30
0.0
 10
57.46287475426338
 20
417.0475335134864
 30
0.0
 10
57.86939189825076
 20
417.5847739338236
 30
0.0
 10
56.69308278746756
 20
418.0952209794967
 30
0.0
 10
57.05853604202687
 20
418.6210058256731
 30
0.0
 10
57.20140101869538
 20
418.8265485013627
 30
0.0
 11
57.29566061215519
 21
416.8265485013627
 31
0.0
 11
57.58407306128447
 21
417.4612872033223
 31
0.0
 11
56.95475519379169
 21
418.2355527544693
 31
0.0
 11
57.20140101869538
 21
418.8265485013627
 31
0.0
  0
LINE
  5
20D0
330
2
100
AcDbEntity
  8
0
100
AcDbLine
 10
53.77270460096224
 20
416.8265485013627
 30
0.0
 11
53.77270460096224
 21
415.7265485013629
 31
0.0
  0
LINE
  5
20D1
330
2
100
AcDbEntity
  8
0
100
AcDbLine
 10
53.77270460096224
 20
413.7265485013628
 30
0.0
 11
53.77270460096224
 21
410.7843015083746
 31
0.0
  0
LINE
  5
20D2
330
2
100
AcDbEntity
  8
0
100
AcDbLine
 10
48.27270460096179
 20
428.0765485013628
 30
0.0
 11
59.32029369633847
 21
428.0765485013628
 31
0.0
  0
LINE
  5
20D3
330
2
100
AcDbEntity
  8
0
100
AcDbLine
 10
48.27270460096179
 20
422.0765485013627
 30
0.0
 11
59.39808404019913
 21
422.0765485013627
 31
0.0
  0
ARC
  5
20D4
330
2
100
AcDbEntity
  8
0
100
AcDbCircle
 10
59.67074407957352
 20
425.2407722236095
 30
0.0
 40
1.898039478616692
100
AcDbArc
 50
246.5592971331421
 51
269.4999649468986
  0
SPLINE
  5
20D5
330
2
100
AcDbEntity
  8
HOJO
100
AcDbSpline
210
0.0
220
0.0
230
1.0
 70
     8
 71
     3
 72
    12
 73
     8
 74
     6
 42
0.0000000001
 43
0.0000000001
 44
0.0000000001
 40
0.0
 40
0.0
 40
0.0
 40
0.0
 40
1.684659730310068
 40
2.786160565551293
 40
4.550934817628394
 40
5.718899366606923
 40
6.335570522766976
 40
6.335570522766976
 40
6.335570522766976
 40
6.335570522766976
 10
59.39808404019913
 20
422.0765485013627
 30
0.0
 10
59.12117243192553
 20
422.6275083150461
 30
0.0
 10
58.66320445819515
 20
423.5387086473564
 30
0.0
 10
59.54582907613271
 20
424.8757098793787
 30
0.0
 10
60.10790691398004
 20
426.2015293458487
 30
0.0
 10
59.61049742250177
 20
427.3357225544579
 30
0.0
 10
59.39481989297719
 20
427.8862995995859
 30
0.0
 10
59.32029369633847
 20
428.0765485013628
 30
0.0
 11
59.39808404019913
 21
422.0765485013627
 31
0.0
 11
58.93234215631764
 21
423.6955490895426
 31
0.0
 11
59.39407199268408
 21
424.695603912163
 31
0.0
 11
59.89427956797271
 21
426.388004734196
 31
0.0
 11
59.54798193813985
 21
427.5034504474617
 31
0.0
 11
59.32029369633847
 21
428.0765485013628
 31
0.0
  0
LINE
  5
20D6
330
2
100
AcDbEntity
  8
0
100
AcDbLine
 10
53.77270460096179
 20
430.4688043799398
 30
0.0
 11
53.77270460096224
 21
428.0765485013628
 31
0.0
  0
ARC
  5
20D7
330
2
100
AcDbEntity
  8
0
100
AcDbCircle
 10
121.2727046009567
 20
386.8846285013625
 30
0.0
 40
1.0
100
AcDbArc
 50
0.0
 51
89.49999999998238
  0
ARC
  5
20D8
330
2
100
AcDbEntity
  8
0
100
AcDbCircle
 10
123.2727046009567
 20
358.2836875013628
 30
0.0
 40
1.0
100
AcDbArc
 50
180.0
 51
268.9999999999982
  0
ARC
  5
20D9
330
2
100
AcDbEntity
  8
0
100
AcDbCircle
 10
121.2727046009567
 20
363.8482095013625
 30
0.0
 40
1.0
100
AcDbArc
 50
0.0
 51
89.49999999998238
  0
LINE
  5
20DA
330
2
100
AcDbEntity
  8
0
100
AcDbLine
 10
120.9719236009568
 20
374.8664475013626
 30
0.0
 11
119.3611066009566
 21
374.8664475013626
 31
0.0
  0
LINE
  5
20DB
330
2
100
AcDbEntity
  8
0
100
AcDbLine
 10
120.9719236009568
 20
384.3664475013626
 30
0.0
 11
119.3611066009566
 21
384.3664475013626
 31
0.0
  0
ARC
  5
20DC
330
2
100
AcDbEntity
  8
0
100
AcDbCircle
 10
125.2719036009566
 20
379.6164475013626
 30
0.0
 40
8.0
100
AcDbArc
 50
147.6076050000083
 51
212.3923949999916
  0
ARC
  5
20DD
330
2
100
AcDbEntity
  8
0
100
AcDbCircle
 10
119.3611066009566
 20
375.8664475013626
 30
0.0
 40
1.0
100
AcDbArc
 50
212.3923949999916
 51
270.0
  0
ARC
  5
20DE
330
2
100
AcDbEntity
  8
0
100
AcDbCircle
 10
119.3611066009566
 20
383.3664475013626
 30
0.0
 40
1.0
100
AcDbArc
 50
90.0
 51
147.6076050000083
  0
LINE
  5
20DF
330
2
100
AcDbEntity
  8
0
100
AcDbLine
 10
120.9719236009568
 20
384.3664475013626
 30
0.0
 11
120.9719236009568
 21
374.8664475013626
 31
0.0
  0
LINE
  5
20E0
330
2
100
AcDbEntity
  8
0
100
AcDbLine
 10
122.2719036009566
 20
375.0164485013626
 30
0.0
 11
122.2719036009566
 21
379.6164475013626
 31
0.0
  0
ARC
  5
20E1
330
2
100
AcDbEntity
  8
0
100
AcDbCircle
 10
121.2727046009567
 20
369.3630105013628
 30
0.0
 40
1.0
100
AcDbArc
 50
270.4999999999915
 51
343.5553890000034
  0
ARC
  5
20E2
330
2
100
AcDbEntity
  8
0
100
AcDbCircle
 10
121.2727046009567
 20
368.7968285013627
 30
0.0
 40
1.0
100
AcDbArc
 50
0.0
 51
89.49999999998238
  0
ARC
  5
20E3
330
2
100
AcDbEntity
  8
0
100
AcDbCircle
 10
121.2727046009567
 20
372.8579095013626
 30
0.0
 40
1.0
100
AcDbArc
 50
270.4999999999915
 51
0.0
  0
ARC
  5
20E4
330
2
100
AcDbEntity
  8
0
100
AcDbCircle
 10
121.2727046009567
 20
374.6719095013629
 30
0.0
 40
1.0
100
AcDbArc
 50
270.4999999999915
 51
323.8237000000115
  0
ARC
  5
20E5
330
2
100
AcDbEntity
  8
0
100
AcDbCircle
 10
121.2727046009567
 20
373.4913475013629
 30
0.0
 40
1.0
100
AcDbArc
 50
0.0
 51
89.49999999998238
  0
LINE
  5
20E6
330
2
100
AcDbEntity
  8
0
100
AcDbLine
 10
120.9719236009568
 20
375.0164485013626
 30
0.0
 11
122.2719036009566
 21
375.0164485013626
 31
0.0
  0
ARC
  5
20E7
330
2
100
AcDbEntity
  8
0
100
AcDbCircle
 10
121.2727046009567
 20
365.5051685013629
 30
0.0
 40
1.0
100
AcDbArc
 50
0.0
 51
89.49999999998238
  0
LINE
  5
20E8
330
2
100
AcDbEntity
  8
0
100
AcDbLine
 10
120.9719236009568
 20
384.2164305013627
 30
0.0
 11
122.2719036009566
 21
384.2164305013627
 31
0.0
  0
ARC
  5
20E9
330
2
100
AcDbEntity
  8
0
100
AcDbCircle
 10
121.2727046009567
 20
391.5865285013625
 30
0.0
 40
1.0
100
AcDbArc
 50
270.4999999999915
 51
0.0
  0
ARC
  5
20EA
330
2
100
AcDbEntity
  8
0
100
AcDbCircle
 10
121.2727046009567
 20
393.2607285013625
 30
0.0
 40
1.0
100
AcDbArc
 50
270.4999999999915
 51
0.0
  0
ARC
  5
20EB
330
2
100
AcDbEntity
  8
0
100
AcDbCircle
 10
121.2727046009567
 20
395.1025295013625
 30
0.0
 40
1.0
100
AcDbArc
 50
0.0
 51
89.49999999998238
  0
ARC
  5
20EC
330
2
100
AcDbEntity
  8
0
100
AcDbCircle
 10
121.2727046009567
 20
408.9609605013626
 30
0.0
 40
1.0
100
AcDbArc
 50
270.4999999999915
 51
0.0
  0
ARC
  5
20ED
330
2
100
AcDbEntity
  8
0
100
AcDbCircle
 10
121.2727046009567
 20
403.5623545013629
 30
0.0
 40
1.0
100
AcDbArc
 50
0.0
 51
89.49999999998238
  0
ARC
  5
20EE
330
2
100
AcDbEntity
  8
0
100
AcDbCircle
 10
121.2727046009567
 20
404.0805585013628
 30
0.0
 40
1.0
100
AcDbArc
 50
0.0
 51
89.49999999998238
  0
ARC
  5
20EF
330
2
100
AcDbEntity
  8
0
100
AcDbCircle
 10
121.2727046009567
 20
399.9445495013625
 30
0.0
 40
1.0
100
AcDbArc
 50
270.4999999999915
 51
0.0
  0
ARC
  5
20F0
330
2
100
AcDbEntity
  8
0
100
AcDbCircle
 10
121.2727046009567
 20
401.4667585013627
 30
0.0
 40
1.0
100
AcDbArc
 50
270.4999999999915
 51
0.0
  0
ARC
  5
20F1
330
2
100
AcDbEntity
  8
0
100
AcDbCircle
 10
121.2727046009567
 20
419.4479295013631
 30
0.0
 40
1.0
100
AcDbArc
 50
270.4999999999915
 51
0.0
  0
ARC
  5
20F2
330
2
100
AcDbEntity
  8
0
100
AcDbCircle
 10
121.2727046009567
 20
418.3623265013631
 30
0.0
 40
1.0
100
AcDbArc
 50
270.4999999999915
 51
0.0
  0
ARC
  5
20F3
330
2
100
AcDbEntity
  8
0
100
AcDbCircle
 10
121.2727046009567
 20
413.3911365013629
 30
0.0
 40
1.0
100
AcDbArc
 50
0.0
 51
89.49999999998238
  0
ARC
  5
20F4
330
2
100
AcDbEntity
  8
0
100
AcDbCircle
 10
121.2727046009567
 20
410.2851485013626
 30
0.0
 40
1.0
100
AcDbArc
 50
270.4999999999915
 51
0.0
  0
ARC
  5
20F5
330
2
100
AcDbEntity
  8
0
100
AcDbCircle
 10
121.2727046009567
 20
412.5767445013627
 30
0.0
 40
1.0
100
AcDbArc
 50
0.0
 51
89.49999999998238
  0
ARC
  5
20F6
330
2
100
AcDbEntity
  8
0
100
AcDbCircle
 10
121.2727046009567
 20
427.8619605013629
 30
0.0
 40
1.0
100
AcDbArc
 50
270.4999999999915
 51
0.0
  0
ARC
  5
20F7
330
2
100
AcDbEntity
  8
0
100
AcDbCircle
 10
121.2727046009567
 20
428.6763525013626
 30
0.0
 40
1.0
100
AcDbArc
 50
270.4999999999915
 51
0.0
  0
ARC
  5
20F8
330
2
100
AcDbEntity
  8
0
100
AcDbCircle
 10
121.2727046009567
 20
422.8907705013627
 30
0.0
 40
1.0
100
AcDbArc
 50
0.0
 51
89.49999999998238
  0
ARC
  5
20F9
330
2
100
AcDbEntity
  8
0
100
AcDbCircle
 10
121.2727046009567
 20
421.8051675013627
 30
0.0
 40
1.0
100
AcDbArc
 50
0.0
 51
89.49999999998238
  0
LINE
  5
20FA
330
2
100
AcDbEntity
  8
0
100
AcDbLine
 10
59.75524060095676
 20
475.8677285013629
 30
0.0
 11
121.2814246009566
 21
476.4047695013625
 31
0.0
  0
LINE
  5
20FB
330
2
100
AcDbEntity
  8
0
100
AcDbLine
 10
121.2814246009566
 20
474.7477295013629
 30
0.0
 11
50.57998660095655
 21
474.1307295013627
 31
0.0
  0
LINE
  5
20FC
330
2
100
AcDbEntity
  8
0
100
AcDbLine
 10
121.2814246009566
 20
472.8897705013625
 30
0.0
 11
50.57998660095655
 21
473.5067675013626
 31
0.0
  0
LINE
  5
20FD
330
2
100
AcDbEntity
  8
0
100
AcDbLine
 10
121.2814246009566
 20
471.4561685013629
 30
0.0
 11
50.67912260095681
 21
470.8399505013628
 31
0.0
  0
LINE
  5
20FE
330
2
100
AcDbEntity
  8
0
100
AcDbLine
 10
103.1265256009569
 20
471.2977905013628
 30
0.0
 11
52.3147046009567
 21
471.7411685013628
 31
0.0
  0
LINE
  5
20FF
330
2
100
AcDbEntity
  8
0
100
AcDbLine
 10
121.2814246009566
 20
433.2917545013626
 30
0.0
 11
51.08554860095683
 21
433.9043505013625
 31
0.0
  0
LINE
  5
2100
330
2
100
AcDbEntity
  8
0
100
AcDbLine
 10
121.2814246009566
 20
431.9677665013625
 30
0.0
 11
52.39400460095658
 21
432.5689625013626
 31
0.0
  0
LINE
  5
2101
330
2
100
AcDbEntity
  8
0
100
AcDbLine
 10
117.7826226009565
 20
464.4491495013627
 30
0.0
 11
50.81790060095682
 21
465.0333665013628
 31
0.0
  0
LINE
  5
2102
330
2
100
AcDbEntity
  8
0
100
AcDbLine
 10
121.2814246009566
 20
466.7615885013626
 30
0.0
 11
50.81790060095682
 21
466.1465295013628
 31
0.0
  0
LINE
  5
2103
330
2
100
AcDbEntity
  8
0
100
AcDbLine
 10
121.2814246009566
 20
450.6663495013628
 30
0.0
 11
50.99630660095681
 21
451.2795695013625
 31
0.0
  0
LINE
  5
2104
330
2
100
AcDbEntity
  8
0
100
AcDbLine
 10
121.2814246009566
 20
453.368346501363
 30
0.0
 11
50.99630660095681
 21
452.7549475013627
 31
0.0
  0
LINE
  5
2105
330
2
100
AcDbEntity
  8
0
100
AcDbLine
 10
121.2814246009566
 20
442.3083685013627
 30
0.0
 11
51.0657046009569
 21
442.9211485013627
 31
0.0
  0
LINE
  5
2106
330
2
100
AcDbEntity
  8
0
100
AcDbLine
 10
121.2814246009566
 20
445.1503485013629
 30
0.0
 11
51.0657046009569
 21
444.5375475013626
 31
0.0
  0
LINE
  5
2107
330
2
100
AcDbEntity
  8
0
100
AcDbLine
 10
117.3339226009566
 20
462.6307295013627
 30
0.0
 11
52.62202460095659
 21
463.1953695013628
 31
0.0
  0
LINE
  5
2108
330
2
100
AcDbEntity
  8
0
100
AcDbLine
 10
121.2814246009566
 20
448.9921685013625
 30
0.0
 11
52.65176260095677
 21
449.5909685013627
 31
0.0
  0
LINE
  5
2109
330
2
100
AcDbEntity
  8
0
100
AcDbLine
 10
121.2814246009566
 20
440.7859685013629
 30
0.0
 11
52.5724626009569
 21
441.3857685013629
 31
0.0
  0
LINE
  5
210A
330
2
100
AcDbEntity
  8
0
100
AcDbLine
 10
121.2814246009566
 20
436.1723545013625
 30
0.0
 11
51.08554860095683
 21
435.5597465013627
 31
0.0
  0
LINE
  5
210B
330
2
100
AcDbEntity
  8
0
100
AcDbLine
 10
121.2814246009566
 20
436.6905435013629
 30
0.0
 11
51.60100460095691
 21
436.0825725013625
 31
0.0
  0
LINE
  5
210C
330
2
100
AcDbEntity
  8
0
100
AcDbLine
 10
121.2814246009566
 20
467.5809475013626
 30
0.0
 11
52.47330460095691
 21
468.1813885013627
 31
0.0
  0
LINE
  5
210D
330
2
100
AcDbEntity
  8
0
100
AcDbLine
 10
121.2814246009566
 20
469.3949465013626
 30
0.0
 11
50.67912260095681
 21
470.0111695013626
 31
0.0
  0
LINE
  5
210E
330
2
100
AcDbEntity
  8
0
100
AcDbLine
 10
121.2814246009566
 20
476.404906501363
 30
0.0
 11
50.45608460095673
 21
475.7868495013628
 31
0.0
  0
ARC
  5
210F
330
2
100
AcDbEntity
  8
0
100
AcDbCircle
 10
52.08768460095689
 20
475.5820885013628
 30
0.0
 40
1.814999999999999
100
AcDbArc
 50
180.0
 51
232.8948969999891
  0
ARC
  5
2110
330
2
100
AcDbEntity
  8
0
100
AcDbCircle
 10
51.0027086009568
 20
452.0249475013626
 30
0.0
 40
0.73
100
AcDbArc
 50
90.49999999999155
 51
180.0
  0
LINE
  5
2111
330
2
100
AcDbEntity
  8
0
100
AcDbLine
 10
45.27270460095678
 20
470.9717675013627
 30
0.0
 11
45.27270460095678
 21
439.6265485013629
 31
0.0
  0
LINE
  5
2112
330
2
100
AcDbEntity
  8
0
100
AcDbLine
 10
48.27270460096179
 20
431.6265485013629
 30
0.0
 11
43.77270460096179
 21
431.7050962935397
 31
0.0
  0
LINE
  5
2113
330
2
100
AcDbEntity
  8
0
100
AcDbLine
 10
46.77270460095678
 20
439.6265485013629
 30
0.0
 11
43.77270460095679
 21
439.6265485013629
 31
0.0
  0
ARC
  5
2114
330
2
100
AcDbEntity
  8
0
100
AcDbCircle
 10
43.77270460095679
 20
438.626548501363
 30
0.0
 40
1.0
100
AcDbArc
 50
90.0
 51
180.0
  0
LINE
  5
2115
330
2
100
AcDbEntity
  8
0
100
AcDbLine
 10
46.77270460095678
 20
431.6527310987551
 30
0.0
 11
46.77270460095678
 21
439.6265485013629
 31
0.0
  0
ARC
  5
2116
330
2
100
AcDbEntity
  8
0
100
AcDbCircle
 10
52.59270460095649
 20
443.7055485013626
 30
0.0
 40
2.319999999999999
100
AcDbArc
 50
180.0
 51
269.5000000000084
  0
ARC
  5
2117
330
2
100
AcDbEntity
  8
0
100
AcDbCircle
 10
51.0927046009565
 20
434.7397685013627
 30
0.0
 40
0.8199999999999999
100
AcDbArc
 50
90.49999999999155
 51
180.0
  0
ARC
  5
2118
330
2
100
AcDbEntity
  8
0
100
AcDbCircle
 10
51.61270060095694
 20
434.7425465013627
 30
0.0
 40
1.34
100
AcDbArc
 50
90.49999999999155
 51
180.0
  0
ARC
  5
2119
330
2
100
AcDbEntity
  8
0
100
AcDbCircle
 10
51.0927046009565
 20
434.7243725013629
 30
0.0
 40
0.8199999999999999
100
AcDbArc
 50
180.0
 51
269.5000000000084
  0
ARC
  5
211A
330
2
100
AcDbEntity
  8
0
100
AcDbCircle
 10
52.41270460095666
 20
434.7087625013625
 30
0.0
 40
2.14
100
AcDbArc
 50
180.0
 51
269.5000000000084
  0
LINE
  5
211B
330
2
100
AcDbEntity
  8
0
100
AcDbLine
 10
50.27270460095678
 20
434.7243725013629
 30
0.0
 11
50.27270460095678
 21
434.7397685013627
 31
0.0
  0
LINE
  5
211C
330
2
100
AcDbEntity
  8
0
100
AcDbLine
 10
50.27270460095678
 20
434.7087625013625
 30
0.0
 11
50.27270460095678
 21
434.7425465013627
 31
0.0
  0
LINE
  5
211D
330
2
100
AcDbEntity
  8
0
100
AcDbLine
 10
48.27321334589488
 20
431.6265396211871
 30
0.0
 11
52.80760409766435
 21
431.4681952069587
 31
0.0
  0
ARC
  5
211E
330
2
100
AcDbEntity
  8
0
100
AcDbCircle
 10
52.6726826009567
 20
451.9909495013627
 30
0.0
 40
2.399999999999999
100
AcDbArc
 50
180.0
 51
269.5000000000084
  0
ARC
  5
211F
330
2
100
AcDbEntity
  8
0
100
AcDbCircle
 10
51.0027086009568
 20
452.0095475013628
 30
0.0
 40
0.73
100
AcDbArc
 50
180.0
 51
269.5000000000084
  0
LINE
  5
2120
330
2
100
AcDbEntity
  8
0
100
AcDbLine
 10
50.27270460095678
 20
452.0095475013628
 30
0.0
 11
50.27270460095678
 21
452.0249475013626
 31
0.0
  0
LINE
  5
2121
330
2
100
AcDbEntity
  8
0
100
AcDbLine
 10
50.27270460095678
 20
451.9909495013627
 30
0.0
 11
50.27270460095678
 21
452.0095475013628
 31
0.0
  0
ARC
  5
2122
330
2
100
AcDbEntity
  8
0
100
AcDbCircle
 10
51.07268460095657
 20
443.7211495013626
 30
0.0
 40
0.8
100
AcDbArc
 50
180.0
 51
269.5000000000084
  0
LINE
  5
2123
330
2
100
AcDbEntity
  8
0
100
AcDbLine
 10
50.27270460095678
 20
443.7211495013626
 30
0.0
 11
50.27270460095678
 21
443.7375675013629
 31
0.0
  0
LINE
  5
2124
330
2
100
AcDbEntity
  8
0
100
AcDbLine
 10
50.27270460095678
 20
443.7055485013626
 30
0.0
 11
50.27270460095678
 21
443.7211495013626
 31
0.0
  0
ARC
  5
2125
330
2
100
AcDbEntity
  8
0
100
AcDbCircle
 10
51.07268460095657
 20
443.7375675013629
 30
0.0
 40
0.8
100
AcDbArc
 50
90.49999999999155
 51
180.0
  0
LINE
  5
2126
330
2
100
AcDbEntity
  8
0
100
AcDbLine
 10
50.43500460095675
 20
472.9995685013629
 30
0.0
 11
47.25522660095657
 21
472.9717675013628
 31
0.0
  0
ARC
  5
2127
330
2
100
AcDbEntity
  8
0
100
AcDbCircle
 10
47.27270460095678
 20
470.9717675013627
 30
0.0
 40
2.0
100
AcDbArc
 50
90.49999999999155
 51
180.0
  0
ARC
  5
2128
330
2
100
AcDbEntity
  8
0
100
AcDbCircle
 10
52.64270660095689
 20
465.5653685013628
 30
0.0
 40
2.37
100
AcDbArc
 50
180.0
 51
269.5000000000084
  0
ARC
  5
2129
330
2
100
AcDbEntity
  8
0
100
AcDbCircle
 10
50.58268660095655
 20
473.8167685013628
 30
0.0
 40
0.31
100
AcDbArc
 50
180.0
 51
269.5000000000084
  0
ARC
  5
212A
330
2
100
AcDbEntity
  8
0
100
AcDbCircle
 10
50.58268660095655
 20
473.8207695013627
 30
0.0
 40
0.31
100
AcDbArc
 50
90.49999999999155
 51
180.0
  0
ARC
  5
212B
330
2
100
AcDbEntity
  8
0
100
AcDbCircle
 10
50.82268460095656
 20
465.5833695013627
 30
0.0
 40
0.55
100
AcDbArc
 50
180.0
 51
269.5000000000084
  0
ARC
  5
212C
330
2
100
AcDbEntity
  8
0
100
AcDbCircle
 10
50.82268460095656
 20
465.5965495013626
 30
0.0
 40
0.55
100
AcDbArc
 50
90.49999999999155
 51
180.0
  0
LINE
  5
212D
330
2
100
AcDbEntity
  8
0
100
AcDbLine
 10
50.27270460095678
 20
465.5833695013627
 30
0.0
 11
50.27270460095678
 21
465.5965495013626
 31
0.0
  0
LINE
  5
212E
330
2
100
AcDbEntity
  8
0
100
AcDbLine
 10
50.27270460095678
 20
465.5653685013628
 30
0.0
 11
50.27270460095678
 21
465.5965495013626
 31
0.0
  0
ARC
  5
212F
330
2
100
AcDbEntity
  8
0
100
AcDbCircle
 10
50.68268460095669
 20
470.4211275013628
 30
0.0
 40
0.41
100
AcDbArc
 50
180.0
 51
269.5000000000084
  0
LINE
  5
2130
330
2
100
AcDbEntity
  8
0
100
AcDbLine
 10
50.27270460095678
 20
470.4013665013627
 30
0.0
 11
50.27270460095678
 21
470.429946501363
 31
0.0
  0
ARC
  5
2131
330
2
100
AcDbEntity
  8
0
100
AcDbCircle
 10
50.68268460095669
 20
470.429946501363
 30
0.0
 40
0.41
100
AcDbArc
 50
90.49999999999155
 51
180.0
  0
LINE
  5
2132
330
2
100
AcDbEntity
  8
0
100
AcDbLine
 10
50.27270460095678
 20
470.4211275013628
 30
0.0
 11
50.27270460095678
 21
470.429946501363
 31
0.0
  0
ARC
  5
2133
330
2
100
AcDbEntity
  8
0
100
AcDbCircle
 10
52.49270660095681
 20
470.4013665013627
 30
0.0
 40
2.22
100
AcDbArc
 50
180.0
 51
269.5000000000084
  0
ARC
  5
2134
330
2
100
AcDbEntity
  8
0
100
AcDbCircle
 10
52.33268660095655
 20
473.8009485013628
 30
0.0
 40
2.06
100
AcDbArc
 50
180.0
 51
269.5000000000084
  0
ARC
  5
2135
330
2
100
AcDbEntity
  8
0
100
AcDbCircle
 10
52.7727266009565
 20
474.1265865013626
 30
0.0
 40
1.0
100
AcDbArc
 50
0.0
 51
1.824028999993621
  0
LINE
  5
2136
330
2
100
AcDbEntity
  8
0
100
AcDbLine
 10
53.7727266009565
 20
470.8669275013628
 30
0.0
 11
53.7727266009565
 21
470.8497505013625
 31
0.0
  0
ARC
  5
2137
330
2
100
AcDbEntity
  8
0
100
AcDbCircle
 10
50.45768660095655
 20
475.6018295013629
 30
0.0
 40
0.185
100
AcDbArc
 50
90.49999999999155
 51
180.0
  0
ARC
  5
2138
330
2
100
AcDbEntity
  8
0
100
AcDbCircle
 10
50.45768660095655
 20
475.6002695013627
 30
0.0
 40
0.185
100
AcDbArc
 50
180.0
 51
269.5000000000084
  0
LINE
  5
2139
330
2
100
AcDbEntity
  8
0
100
AcDbLine
 10
50.27270460095678
 20
475.5820885013628
 30
0.0
 11
50.27270460095678
 21
475.6018295013629
 31
0.0
  0
ARC
  5
213A
330
2
100
AcDbEntity
  8
0
100
AcDbCircle
 10
121.2727046009567
 20
475.7477295013629
 30
0.0
 40
1.0
100
AcDbArc
 50
270.4999999999915
 51
0.0
  0
ARC
  5
213B
330
2
100
AcDbEntity
  8
0
100
AcDbCircle
 10
121.2727046009567
 20
441.3083685013627
 30
0.0
 40
1.0
100
AcDbArc
 50
0.0
 51
89.49999999998238
  0
ARC
  5
213C
330
2
100
AcDbEntity
  8
0
100
AcDbCircle
 10
121.2727046009567
 20
439.7861555013625
 30
0.0
 40
1.0
100
AcDbArc
 50
0.0
 51
89.49999999998238
  0
ARC
  5
213D
330
2
100
AcDbEntity
  8
0
100
AcDbCircle
 10
121.2727046009567
 20
430.9677665013625
 30
0.0
 40
1.0
100
AcDbArc
 50
0.0
 51
89.49999999998238
  0
ARC
  5
213E
330
2
100
AcDbEntity
  8
0
100
AcDbCircle
 10
121.2727046009567
 20
432.2919545013625
 30
0.0
 40
1.0
100
AcDbArc
 50
0.0
 51
89.49999999998238
  0
ARC
  5
213F
330
2
100
AcDbEntity
  8
0
100
AcDbCircle
 10
121.2727046009567
 20
437.6905435013629
 30
0.0
 40
1.0
100
AcDbArc
 50
270.4999999999915
 51
0.0
  0
ARC
  5
2140
330
2
100
AcDbEntity
  8
0
100
AcDbCircle
 10
121.2727046009567
 20
437.1723555013629
 30
0.0
 40
1.0
100
AcDbArc
 50
270.4999999999915
 51
0.0
  0
ARC
  5
2141
330
2
100
AcDbEntity
  8
0
100
AcDbCircle
 10
121.2727046009567
 20
449.6663495013628
 30
0.0
 40
1.0
100
AcDbArc
 50
0.0
 51
89.49999999998238
  0
ARC
  5
2142
330
2
100
AcDbEntity
  8
0
100
AcDbCircle
 10
121.2727046009567
 20
446.1503485013628
 30
0.0
 40
1.0
100
AcDbArc
 50
270.4999999999915
 51
0.0
  0
ARC
  5
2143
330
2
100
AcDbEntity
  8
0
100
AcDbCircle
 10
121.2727046009567
 20
447.9921685013625
 30
0.0
 40
1.0
100
AcDbArc
 50
0.0
 51
89.49999999998238
  0
LINE
  5
2144
330
2
100
AcDbEntity
  8
0
100
AcDbLine
 10
120.9719236009568
 20
456.8865695013625
 30
0.0
 11
119.3611066009566
 21
456.8865695013625
 31
0.0
  0
LINE
  5
2145
330
2
100
AcDbEntity
  8
0
100
AcDbLine
 10
120.9719236009568
 20
466.3865885013626
 30
0.0
 11
119.3611066009566
 21
466.3865885013626
 31
0.0
  0
ARC
  5
2146
330
2
100
AcDbEntity
  8
0
100
AcDbCircle
 10
125.2719036009566
 20
461.6365885013625
 30
0.0
 40
8.0
100
AcDbArc
 50
147.6076050000083
 51
212.3923949999916
  0
ARC
  5
2147
330
2
100
AcDbEntity
  8
0
100
AcDbCircle
 10
119.3611066009566
 20
457.8865695013625
 30
0.0
 40
1.0
100
AcDbArc
 50
212.3923949999916
 51
270.0
  0
ARC
  5
2148
330
2
100
AcDbEntity
  8
0
100
AcDbCircle
 10
119.3611066009566
 20
465.3865885013626
 30
0.0
 40
1.0
100
AcDbArc
 50
90.0
 51
147.6076050000083
  0
LINE
  5
2149
330
2
100
AcDbEntity
  8
0
100
AcDbLine
 10
122.2719036009566
 20
466.2363885013625
 30
0.0
 11
122.2719036009566
 21
461.6365885013625
 31
0.0
  0
LINE
  5
214A
330
2
100
AcDbEntity
  8
0
100
AcDbLine
 10
120.9719236009568
 20
466.3865885013626
 30
0.0
 11
120.9719236009568
 21
456.8865695013625
 31
0.0
  0
LINE
  5
214B
330
2
100
AcDbEntity
  8
0
100
AcDbLine
 10
120.9719236009568
 20
457.0365675013628
 30
0.0
 11
122.2719036009566
 21
457.0365675013628
 31
0.0
  0
ARC
  5
214C
330
2
100
AcDbEntity
  8
0
100
AcDbCircle
 10
121.2727046009567
 20
454.3681675013628
 30
0.0
 40
1.0
100
AcDbArc
 50
270.4999999999915
 51
0.0
  0
ARC
  5
214D
330
2
100
AcDbEntity
  8
0
100
AcDbCircle
 10
121.2727046009567
 20
471.8899495013626
 30
0.0
 40
1.0
100
AcDbArc
 50
16.44459900000745
 51
89.49999999998238
  0
ARC
  5
214E
330
2
100
AcDbEntity
  8
0
100
AcDbCircle
 10
121.2727046009567
 20
466.5809475013626
 30
0.0
 40
1.0
100
AcDbArc
 50
36.17633799998822
 51
89.49999999998238
  0
ARC
  5
214F
330
2
100
AcDbEntity
  8
0
100
AcDbCircle
 10
121.2727046009567
 20
467.7615885013626
 30
0.0
 40
1.0
100
AcDbArc
 50
270.4999999999915
 51
0.0
  0
LINE
  5
2150
330
2
100
AcDbEntity
  8
0
100
AcDbLine
 10
120.9719236009568
 20
466.2363885013625
 30
0.0
 11
122.2719036009566
 21
466.2363885013625
 31
0.0
  0
ARC
  5
2151
330
2
100
AcDbEntity
  8
0
100
AcDbCircle
 10
121.2727046009567
 20
468.3949465013626
 30
0.0
 40
1.0
100
AcDbArc
 50
0.0
 51
89.49999999998238
  0
ARC
  5
2152
330
2
100
AcDbEntity
  8
0
100
AcDbCircle
 10
121.2727046009567
 20
472.4559475013626
 30
0.0
 40
1.0
100
AcDbArc
 50
270.4999999999915
 51
0.0
  0
ARC
  5
2153
330
2
100
AcDbEntity
  8
0
100
AcDbCircle
 10
121.2727046009567
 20
477.4045675013628
 30
0.0
 40
1.0
100
AcDbArc
 50
270.4999999999915
 51
0.0
  0
ARC
  5
2154
330
2
100
AcDbEntity
  8
0
100
AcDbCircle
 10
123.2727046009567
 20
482.9691695013627
 30
0.0
 40
1.0
100
AcDbArc
 50
91.00000000000177
 51
180.0
  0
LINE
  5
2155
330
2
100
AcDbEntity
  8
0
100
AcDbLine
 10
43.27261260095747
 20
470.1265485013629
 30
0.0
 11
43.27261260095747
 21
439.4925207824069
 31
0.0
  0
LINE
  5
2156
330
2
100
AcDbEntity
  8
0
100
AcDbLine
 10
43.77230801446694
 20
470.6439982497141
 30
0.0
 11
43.27261260095747
 21
470.1265485013629
 31
0.0
  0
LINE
  5
2157
330
2
100
AcDbEntity
  8
0
100
AcDbLine
 10
43.27261260095702
 20
401.7605762203191
 30
0.0
 11
43.27261260095702
 21
371.1265485013629
 31
0.0
  0
LINE
  5
2158
330
2
100
AcDbEntity
  8
0
100
AcDbLine
 10
43.77261260095702
 20
370.6265485013629
 30
0.0
 11
43.27261260095702
 21
371.1265485013629
 31
0.0
  0
LINE
  5
22F7
330
2
100
AcDbEntity
  8
0
100
AcDbLine
 10
43.77230801446631
 20
202.560194249714
 30
0.0
 11
45.2726126009573
 21
202.6125860403464
 31
0.0
  0
LINE
  5
22F8
330
2
100
AcDbEntity
  8
0
100
AcDbLine
 10
43.77230801446631
 20
106.1452947530115
 30
0.0
 11
45.2726126009573
 21
106.0929029623793
 31
0.0
  0
LINE
  5
22F9
330
2
100
AcDbEntity
  8
0
100
AcDbLine
 10
122.2726126009568
 20
218.5053655013626
 30
0.0
 11
122.2726126009568
 21
93.81988350136277
 31
0.0
  0
LINE
  5
22FA
330
2
100
AcDbEntity
  8
0
100
AcDbLine
 10
45.27261260095684
 20
206.5079635013626
 30
0.0
 11
45.27261260095684
 21
105.8172055013629
 31
0.0
  0
LINE
  5
22FB
330
2
100
AcDbEntity
  8
CENTER
100
AcDbLine
 10
112.8894336009564
 20
115.1526435013625
 30
0.0
 11
136.4701906009561
 21
115.1526435013625
 31
0.0
  0
LINE
  5
22FC
330
2
100
AcDbEntity
  8
0
100
AcDbLine
 10
132.2726126009568
 20
92.66264550136298
 30
0.0
 11
123.255160194519
 21
92.82003580620637
 31
0.0
  0
LINE
  5
22FD
330
2
100
AcDbEntity
  8
0
100
AcDbLine
 10
121.2813326009566
 20
168.8279505013625
 30
0.0
 11
51.08545660095689
 21
169.4405465013624
 31
0.0
  0
LINE
  5
22FE
330
2
100
AcDbEntity
  8
0
100
AcDbLine
 10
121.2813326009566
 20
167.5039625013628
 30
0.0
 11
52.39391260095664
 21
168.1051585013629
 31
0.0
  0
LINE
  5
22FF
330
2
100
AcDbEntity
  8
0
100
AcDbLine
 10
121.2813326009566
 20
159.4269665013626
 30
0.0
 11
51.13007260095656
 21
160.0391485013624
 31
0.0
  0
LINE
  5
2300
330
2
100
AcDbEntity
  8
0
100
AcDbLine
 10
121.2813326009566
 20
162.3983545013625
 30
0.0
 11
51.13007260095656
 21
161.7861585013625
 31
0.0
  0
LINE
  5
2301
330
2
100
AcDbEntity
  8
0
100
AcDbLine
 10
121.2813326009566
 20
163.2127625013627
 30
0.0
 11
51.93297460095647
 21
162.6075525013625
 31
0.0
  0
LINE
  5
2302
330
2
100
AcDbEntity
  8
0
100
AcDbLine
 10
121.2813326009566
 20
158.3411505013628
 30
0.0
 11
52.21053260095669
 21
158.9439645013627
 31
0.0
  0
LINE
  5
2303
330
2
100
AcDbEntity
  8
0
100
AcDbLine
 10
121.2813326009566
 20
153.9841565013626
 30
0.0
 11
52.21053260095669
 21
153.3813565013625
 31
0.0
  0
LINE
  5
2304
330
2
100
AcDbEntity
  8
0
100
AcDbLine
 10
121.2813326009566
 20
149.1125425013624
 30
0.0
 11
51.93297460095647
 21
149.7177525013626
 31
0.0
  0
LINE
  5
2305
330
2
100
AcDbEntity
  8
0
100
AcDbLine
 10
121.2813326009566
 20
149.9269665013626
 30
0.0
 11
51.13007260095656
 21
150.5391485013625
 31
0.0
  0
LINE
  5
2306
330
2
100
AcDbEntity
  8
0
100
AcDbLine
 10
121.2813326009566
 20
152.8983545013625
 30
0.0
 11
51.13007260095656
 21
152.2861585013625
 31
0.0
  0
LINE
  5
2307
330
2
100
AcDbEntity
  8
0
100
AcDbLine
 10
121.2813326009566
 20
100.3843865013628
 30
0.0
 11
50.45599260095634
 21
101.0024435013629
 31
0.0
  0
LINE
  5
2308
330
2
100
AcDbEntity
  8
0
100
AcDbLine
 10
121.5746146009562
 20
101.9946655013628
 30
0.0
 11
50.45599260095634
 21
101.3740255013627
 31
0.0
  0
LINE
  5
2309
330
2
100
AcDbEntity
  8
0
100
AcDbLine
 10
121.2813326009566
 20
103.8992445013628
 30
0.0
 11
50.57989460095661
 21
103.2822435013627
 31
0.0
  0
LINE
  5
230A
330
2
100
AcDbEntity
  8
0
100
AcDbLine
 10
121.2813326009566
 20
102.0413225013626
 30
0.0
 11
50.57989460095661
 21
102.6583235013627
 31
0.0
  0
LINE
  5
230B
330
2
100
AcDbEntity
  8
0
100
AcDbLine
 10
121.2813326009566
 20
105.3330055013625
 30
0.0
 11
50.67903060095642
 21
105.9491255013627
 31
0.0
  0
LINE
  5
230C
330
2
100
AcDbEntity
  8
0
100
AcDbLine
 10
121.2813326009566
 20
107.394124501363
 30
0.0
 11
50.67903060095642
 21
106.7779825013627
 31
0.0
  0
LINE
  5
230D
330
2
100
AcDbEntity
  8
0
100
AcDbLine
 10
121.2813326009566
 20
110.0275245013627
 30
0.0
 11
50.81780860095688
 21
110.6424425013629
 31
0.0
  0
LINE
  5
230E
330
2
100
AcDbEntity
  8
0
100
AcDbLine
 10
121.2813326009566
 20
109.2081435013624
 30
0.0
 11
52.47321260095652
 21
108.6076645013627
 31
0.0
  0
LINE
  5
230F
330
2
100
AcDbEntity
  8
0
100
AcDbLine
 10
117.3338340951284
 20
114.1584035318551
 30
0.0
 11
52.62193260095665
 21
113.5936835013626
 31
0.0
  0
LINE
  5
2310
330
2
100
AcDbEntity
  8
0
100
AcDbLine
 10
117.7825409509585
 20
112.3400245916841
 30
0.0
 11
50.81780860095688
 21
111.7556435013626
 31
0.0
  0
LINE
  5
2311
330
2
100
AcDbEntity
  8
0
100
AcDbLine
 10
121.2813326009566
 20
123.4207435013627
 30
0.0
 11
50.99621460095687
 21
124.0341435013625
 31
0.0
  0
LINE
  5
2312
330
2
100
AcDbEntity
  8
0
100
AcDbLine
 10
121.2813326009566
 20
126.1227245013624
 30
0.0
 11
50.99621460095687
 21
125.5093255013626
 31
0.0
  0
LINE
  5
2313
330
2
100
AcDbEntity
  8
0
100
AcDbLine
 10
121.2813326009566
 20
131.6387255013624
 30
0.0
 11
51.06561260095651
 21
132.2515235013625
 31
0.0
  0
LINE
  5
2314
330
2
100
AcDbEntity
  8
0
100
AcDbLine
 10
121.2813326009566
 20
134.4807455013624
 30
0.0
 11
51.06561260095651
 21
133.8679445013627
 31
0.0
  0
LINE
  5
2315
330
2
100
AcDbEntity
  8
0
100
AcDbLine
 10
121.2813326009566
 20
127.7969245013628
 30
0.0
 11
52.65167060095638
 21
127.1981445013625
 31
0.0
  0
LINE
  5
2316
330
2
100
AcDbEntity
  8
0
100
AcDbLine
 10
121.2813326009566
 20
136.0031455013627
 30
0.0
 11
52.57237060095651
 21
135.4033245013625
 31
0.0
  0
LINE
  5
2317
330
2
100
AcDbEntity
  8
0
100
AcDbLine
 10
121.2813326009566
 20
140.0985505013628
 30
0.0
 11
51.60091260095652
 21
140.7065525013627
 31
0.0
  0
LINE
  5
2318
330
2
100
AcDbEntity
  8
0
100
AcDbLine
 10
121.2813326009566
 20
144.8213445013626
 30
0.0
 11
52.39391260095664
 21
144.2201485013629
 31
0.0
  0
LINE
  5
2319
330
2
100
AcDbEntity
  8
0
100
AcDbLine
 10
121.2813326009566
 20
140.6167545013627
 30
0.0
 11
51.08545660095689
 21
141.2293645013624
 31
0.0
  0
LINE
  5
231A
330
2
100
AcDbEntity
  8
0
100
AcDbLine
 10
121.2813326009566
 20
143.497156501363
 30
0.0
 11
51.08545660095689
 21
142.8847605013625
 31
0.0
  0
LINE
  5
231B
330
2
100
AcDbEntity
  8
0
100
AcDbLine
 10
103.1264336009565
 20
105.4914225013626
 30
0.0
 11
52.31461260095676
 21
105.0480065013626
 31
0.0
  0
LINE
  5
231C
330
2
100
AcDbEntity
  8
0
100
AcDbLine
 10
121.2813326009566
 20
171.7085505013629
 30
0.0
 11
51.08545660095689
 21
171.0959425013625
 31
0.0
  0
LINE
  5
231D
330
2
100
AcDbEntity
  8
0
100
AcDbLine
 10
121.2813326009566
 20
172.2267395013628
 30
0.0
 11
51.60091260095652
 21
171.6187685013629
 31
0.0
  0
ARC
  5
231E
330
2
100
AcDbEntity
  8
0
100
AcDbCircle
 10
52.49261460095687
 20
106.3877425013625
 30
0.0
 40
2.22
100
AcDbArc
 50
90.49999999999155
 51
180.0
  0
LINE
  5
231F
330
2
100
AcDbEntity
  8
0
100
AcDbLine
 10
50.43491260095681
 20
103.7895255013628
 30
0.0
 11
47.25513460095664
 21
103.8172855013627
 31
0.0
  0
ARC
  5
2320
330
2
100
AcDbEntity
  8
0
100
AcDbCircle
 10
47.27261260095684
 20
105.8172055013629
 30
0.0
 40
2.0
100
AcDbArc
 50
180.0
 51
269.5000000000084
  0
ARC
  5
2321
330
2
100
AcDbEntity
  8
0
100
AcDbCircle
 10
52.33259460095661
 20
102.9880845013627
 30
0.0
 40
2.06
100
AcDbArc
 50
90.49999999999155
 51
180.0
  0
LINE
  5
2322
330
2
100
AcDbEntity
  8
0
100
AcDbLine
 10
50.27261260095684
 20
101.2072045013629
 30
0.0
 11
50.27261260095684
 21
101.1874635013628
 31
0.0
  0
LINE
  5
2323
330
2
100
AcDbEntity
  8
0
100
AcDbLine
 10
50.27261260095684
 20
102.9880845013627
 30
0.0
 11
50.27261260095684
 21
102.968324501363
 31
0.0
  0
LINE
  5
2324
330
2
100
AcDbEntity
  8
0
100
AcDbLine
 10
50.27261260095684
 20
102.9722655013629
 30
0.0
 11
50.27261260095684
 21
102.968324501363
 31
0.0
  0
ARC
  5
2325
330
2
100
AcDbEntity
  8
0
100
AcDbCircle
 10
52.0875926009565
 20
101.2072045013629
 30
0.0
 40
1.814999999999999
100
AcDbArc
 50
127.1051030000098
 51
180.0
  0
ARC
  5
2326
330
2
100
AcDbEntity
  8
0
100
AcDbCircle
 10
50.45759460095661
 20
101.1874635013628
 30
0.0
 40
0.185
100
AcDbArc
 50
180.0
 51
269.5000000000084
  0
ARC
  5
2327
330
2
100
AcDbEntity
  8
0
100
AcDbCircle
 10
50.45759460095661
 20
101.1890235013625
 30
0.0
 40
0.185
100
AcDbArc
 50
90.49999999999155
 51
180.0
  0
ARC
  5
2328
330
2
100
AcDbEntity
  8
0
100
AcDbCircle
 10
50.58259460095661
 20
102.968324501363
 30
0.0
 40
0.31
100
AcDbArc
 50
180.0
 51
269.5000000000084
  0
ARC
  5
2329
330
2
100
AcDbEntity
  8
0
100
AcDbCircle
 10
50.58259460095661
 20
102.9722655013629
 30
0.0
 40
0.31
100
AcDbArc
 50
90.49999999999155
 51
180.0
  0
LINE
  5
232A
330
2
100
AcDbEntity
  8
0
100
AcDbLine
 10
50.27261260095684
 20
106.3877425013625
 30
0.0
 11
50.27261260095684
 21
106.3591065013625
 31
0.0
  0
LINE
  5
232B
330
2
100
AcDbEntity
  8
0
100
AcDbLine
 10
50.27261260095684
 20
106.3680055013629
 30
0.0
 11
50.27261260095684
 21
106.3591065013625
 31
0.0
  0
ARC
  5
232C
330
2
100
AcDbEntity
  8
0
100
AcDbCircle
 10
50.68259260095675
 20
106.3591065013625
 30
0.0
 40
0.41
100
AcDbArc
 50
180.0
 51
269.5000000000084
  0
ARC
  5
232D
330
2
100
AcDbEntity
  8
0
100
AcDbCircle
 10
50.68259260095675
 20
106.3680055013629
 30
0.0
 40
0.41
100
AcDbArc
 50
90.49999999999155
 51
180.0
  0
ARC
  5
232E
330
2
100
AcDbEntity
  8
0
100
AcDbCircle
 10
52.6426146009565
 20
111.2237455013628
 30
0.0
 40
2.37
100
AcDbArc
 50
90.49999999999155
 51
180.0
  0
LINE
  5
232F
330
2
100
AcDbEntity
  8
0
100
AcDbLine
 10
50.27261260095684
 20
111.2237455013628
 30
0.0
 11
50.27261260095684
 21
111.1924455013627
 31
0.0
  0
LINE
  5
2330
330
2
100
AcDbEntity
  8
0
100
AcDbLine
 10
50.27261260095684
 20
111.2056445013627
 30
0.0
 11
50.27261260095684
 21
111.1924455013627
 31
0.0
  0
ARC
  5
2331
330
2
100
AcDbEntity
  8
0
100
AcDbCircle
 10
50.82259260095662
 20
111.2056445013627
 30
0.0
 40
0.55
100
AcDbArc
 50
90.49999999999155
 51
180.0
  0
ARC
  5
2332
330
2
100
AcDbEntity
  8
0
100
AcDbCircle
 10
50.82259260095662
 20
111.1924455013627
 30
0.0
 40
0.55
100
AcDbArc
 50
180.0
 51
269.5000000000084
  0
ARC
  5
2333
330
2
100
AcDbEntity
  8
0
100
AcDbCircle
 10
52.67259060095677
 20
124.7981245013625
 30
0.0
 40
2.399999999999999
100
AcDbArc
 50
90.49999999999155
 51
180.0
  0
ARC
  5
2334
330
2
100
AcDbEntity
  8
0
100
AcDbCircle
 10
51.00261660095686
 20
124.7795235013628
 30
0.0
 40
0.73
100
AcDbArc
 50
90.49999999999155
 51
180.0
  0
LINE
  5
2335
330
2
100
AcDbEntity
  8
0
100
AcDbLine
 10
50.27261260095684
 20
124.7981245013625
 30
0.0
 11
50.27261260095684
 21
124.7795235013628
 31
0.0
  0
LINE
  5
2336
330
2
100
AcDbEntity
  8
0
100
AcDbLine
 10
50.27261260095684
 20
124.7795235013628
 30
0.0
 11
50.27261260095684
 21
124.7641445013628
 31
0.0
  0
ARC
  5
2337
330
2
100
AcDbEntity
  8
0
100
AcDbCircle
 10
51.00261660095686
 20
124.7641445013628
 30
0.0
 40
0.73
100
AcDbArc
 50
180.0
 51
269.5000000000084
  0
ARC
  5
2338
330
2
100
AcDbEntity
  8
0
100
AcDbCircle
 10
52.2275906009566
 20
151.4263545013628
 30
0.0
 40
1.955
100
AcDbArc
 50
90.49999999999155
 51
180.0
  0
ARC
  5
2339
330
2
100
AcDbEntity
  8
0
100
AcDbCircle
 10
51.13761060095686
 20
151.4211525013625
 30
0.0
 40
0.865
100
AcDbArc
 50
90.49999999999155
 51
180.0
  0
ARC
  5
233A
330
2
100
AcDbEntity
  8
0
100
AcDbCircle
 10
51.61260860095655
 20
142.0465645013628
 30
0.0
 40
1.34
100
AcDbArc
 50
180.0
 51
269.5000000000084
  0
ARC
  5
233B
330
2
100
AcDbEntity
  8
0
100
AcDbCircle
 10
52.59261260095655
 20
133.0835245013627
 30
0.0
 40
2.319999999999999
100
AcDbArc
 50
90.49999999999155
 51
180.0
  0
LINE
  5
233C
330
2
100
AcDbEntity
  8
0
100
AcDbLine
 10
50.27261260095684
 20
133.0835245013627
 30
0.0
 11
50.27261260095684
 21
133.0679245013625
 31
0.0
  0
LINE
  5
233D
330
2
100
AcDbEntity
  8
0
100
AcDbLine
 10
50.27261260095684
 20
133.0679245013625
 30
0.0
 11
50.27261260095684
 21
133.0515445013625
 31
0.0
  0
ARC
  5
233E
330
2
100
AcDbEntity
  8
0
100
AcDbCircle
 10
51.07259260095663
 20
133.0515445013625
 30
0.0
 40
0.8
100
AcDbArc
 50
180.0
 51
269.5000000000084
  0
ARC
  5
233F
330
2
100
AcDbEntity
  8
0
100
AcDbCircle
 10
51.07259260095663
 20
133.0679245013625
 30
0.0
 40
0.8
100
AcDbArc
 50
90.49999999999155
 51
180.0
  0
ARC
  5
2340
330
2
100
AcDbEntity
  8
0
100
AcDbCircle
 10
52.41261260095672
 20
142.0803465013628
 30
0.0
 40
2.14
100
AcDbArc
 50
90.49999999999155
 51
180.0
  0
LINE
  5
2341
330
2
100
AcDbEntity
  8
0
100
AcDbLine
 10
50.27261260095684
 20
142.0803465013628
 30
0.0
 11
50.27261260095684
 21
142.0465645013628
 31
0.0
  0
LINE
  5
2342
330
2
100
AcDbEntity
  8
0
100
AcDbLine
 10
50.27261260095684
 20
142.0647525013628
 30
0.0
 11
50.27261260095684
 21
142.0493565013626
 31
0.0
  0
ARC
  5
2343
330
2
100
AcDbEntity
  8
0
100
AcDbCircle
 10
51.09261260095656
 20
142.0647525013628
 30
0.0
 40
0.8199999999999999
100
AcDbArc
 50
90.49999999999155
 51
180.0
  0
ARC
  5
2344
330
2
100
AcDbEntity
  8
0
100
AcDbCircle
 10
51.94759260095662
 20
151.3927545013626
 30
0.0
 40
1.675
100
AcDbArc
 50
180.0
 51
269.5000000000084
  0
LINE
  5
2345
330
2
100
AcDbEntity
  8
0
100
AcDbLine
 10
50.27261260095684
 20
151.4263545013628
 30
0.0
 11
50.27261260095684
 21
151.3927545013626
 31
0.0
  0
LINE
  5
2346
330
2
100
AcDbEntity
  8
0
100
AcDbLine
 10
50.27261260095684
 20
151.4211525013625
 30
0.0
 11
50.27261260095684
 21
151.4041545013624
 31
0.0
  0
ARC
  5
2347
330
2
100
AcDbEntity
  8
0
100
AcDbCircle
 10
51.13761060095686
 20
151.4041545013624
 30
0.0
 40
0.865
100
AcDbArc
 50
180.0
 51
269.5000000000084
  0
ARC
  5
2348
330
2
100
AcDbEntity
  8
0
100
AcDbCircle
 10
51.09261260095656
 20
142.0493565013626
 30
0.0
 40
0.8199999999999999
100
AcDbArc
 50
180.0
 51
269.5000000000084
  0
ARC
  5
2349
330
2
100
AcDbEntity
  8
0
100
AcDbCircle
 10
51.94759260095662
 20
160.9325505013626
 30
0.0
 40
1.675
100
AcDbArc
 50
90.49999999999155
 51
180.0
  0
ARC
  5
234A
330
2
100
AcDbEntity
  8
0
100
AcDbCircle
 10
52.2275906009566
 20
160.8989505013624
 30
0.0
 40
1.955
100
AcDbArc
 50
180.0
 51
269.5000000000084
  0
LINE
  5
234B
330
2
100
AcDbEntity
  8
0
100
AcDbLine
 10
50.27261260095684
 20
160.9041545013624
 30
0.0
 11
50.27261260095684
 21
160.9211525013625
 31
0.0
  0
LINE
  5
234C
330
2
100
AcDbEntity
  8
0
100
AcDbLine
 10
50.27261260095684
 20
160.8989505013624
 30
0.0
 11
50.27261260095684
 21
160.9325505013626
 31
0.0
  0
ARC
  5
234D
330
2
100
AcDbEntity
  8
0
100
AcDbCircle
 10
51.13761060095686
 20
160.9041545013624
 30
0.0
 40
0.865
100
AcDbArc
 50
180.0
 51
269.5000000000084
  0
ARC
  5
234E
330
2
100
AcDbEntity
  8
0
100
AcDbCircle
 10
51.13761060095686
 20
160.9211525013625
 30
0.0
 40
0.865
100
AcDbArc
 50
90.49999999999155
 51
180.0
  0
ARC
  5
234F
330
2
100
AcDbEntity
  8
0
100
AcDbCircle
 10
52.41261260095672
 20
170.2449585013628
 30
0.0
 40
2.14
100
AcDbArc
 50
180.0
 51
269.5000000000084
  0
LINE
  5
2350
330
2
100
AcDbEntity
  8
0
100
AcDbLine
 10
50.27261260095684
 20
170.2605685013628
 30
0.0
 11
50.27261260095684
 21
170.275964501363
 31
0.0
  0
LINE
  5
2351
330
2
100
AcDbEntity
  8
0
100
AcDbLine
 10
50.27261260095684
 20
170.2449585013628
 30
0.0
 11
50.27261260095684
 21
170.2787425013626
 31
0.0
  0
ARC
  5
2352
330
2
100
AcDbEntity
  8
0
100
AcDbCircle
 10
51.09261260095656
 20
170.2605685013628
 30
0.0
 40
0.8199999999999999
100
AcDbArc
 50
180.0
 51
269.5000000000084
  0
ARC
  5
2353
330
2
100
AcDbEntity
  8
0
100
AcDbCircle
 10
51.61260860095655
 20
170.2787425013626
 30
0.0
 40
1.34
100
AcDbArc
 50
90.49999999999155
 51
180.0
  0
ARC
  5
2354
330
2
100
AcDbEntity
  8
0
100
AcDbCircle
 10
51.09261260095656
 20
170.275964501363
 30
0.0
 40
0.8199999999999999
100
AcDbArc
 50
90.49999999999155
 51
180.0
  0
ARC
  5
2355
330
2
100
AcDbEntity
  8
0
100
AcDbCircle
 10
121.2726126009568
 20
108.3941055013629
 30
0.0
 40
1.0
100
AcDbArc
 50
270.4999999999915
 51
0.0
  0
ARC
  5
2356
330
2
100
AcDbEntity
  8
0
100
AcDbCircle
 10
123.2726126009568
 20
93.81988350136277
 30
0.0
 40
1.0
100
AcDbArc
 50
180.0
 51
268.9999999999982
  0
ARC
  5
2357
330
2
100
AcDbEntity
  8
0
100
AcDbCircle
 10
121.2726126009568
 20
104.3330245013626
 30
0.0
 40
1.0
100
AcDbArc
 50
0.0
 51
89.50000000000846
  0
ARC
  5
2358
330
2
100
AcDbEntity
  8
0
100
AcDbCircle
 10
121.2726126009568
 20
104.8992065013627
 30
0.0
 40
1.0
100
AcDbArc
 50
270.4999999999915
 51
343.5553890000034
  0
ARC
  5
2359
330
2
100
AcDbEntity
  8
0
100
AcDbCircle
 10
121.2726126009568
 20
101.0413645013628
 30
0.0
 40
1.0
100
AcDbArc
 50
0.0
 51
89.50000000000846
  0
ARC
  5
235A
330
2
100
AcDbEntity
  8
0
100
AcDbCircle
 10
121.2726126009568
 20
99.38440550136244
 30
0.0
 40
1.0
100
AcDbArc
 50
0.0
 51
89.50000000000846
  0
LINE
  5
235B
330
2
100
AcDbEntity
  8
0
100
AcDbLine
 10
120.9718316009569
 20
110.4026435013625
 30
0.0
 11
119.3610146009562
 21
110.4026435013625
 31
0.0
  0
LINE
  5
235C
330
2
100
AcDbEntity
  8
0
100
AcDbLine
 10
120.9718316009569
 20
119.9026435013625
 30
0.0
 11
119.3610146009562
 21
119.9026435013625
 31
0.0
  0
ARC
  5
235D
330
2
100
AcDbEntity
  8
0
100
AcDbCircle
 10
125.2718116009567
 20
115.1526435013625
 30
0.0
 40
8.0
100
AcDbArc
 50
147.6076050000069
 51
212.392394999993
  0
ARC
  5
235E
330
2
100
AcDbEntity
  8
0
100
AcDbCircle
 10
119.3610146009562
 20
111.4026435013625
 30
0.0
 40
1.0
100
AcDbArc
 50
212.392394999993
 51
270.0
  0
ARC
  5
235F
330
2
100
AcDbEntity
  8
0
100
AcDbCircle
 10
119.3610146009562
 20
118.9026435013625
 30
0.0
 40
1.0
100
AcDbArc
 50
90.0
 51
147.6076050000069
  0
LINE
  5
2360
330
2
100
AcDbEntity
  8
0
100
AcDbLine
 10
120.9718316009569
 20
119.9026435013625
 30
0.0
 11
120.9718316009569
 21
110.4026435013625
 31
0.0
  0
LINE
  5
2361
330
2
100
AcDbEntity
  8
0
100
AcDbLine
 10
120.9718316009569
 20
110.5526445013625
 30
0.0
 11
122.2718116009567
 21
110.5526445013625
 31
0.0
  0
ARC
  5
2362
330
2
100
AcDbEntity
  8
0
100
AcDbCircle
 10
121.2726126009568
 20
110.2081055013628
 30
0.0
 40
1.0
100
AcDbArc
 50
270.4999999999915
 51
323.8237000000101
  0
ARC
  5
2363
330
2
100
AcDbEntity
  8
0
100
AcDbCircle
 10
121.2726126009568
 20
109.0275435013628
 30
0.0
 40
1.0
100
AcDbArc
 50
0.0
 51
89.50000000000846
  0
LINE
  5
2364
330
2
100
AcDbEntity
  8
0
100
AcDbLine
 10
120.9718316009569
 20
119.7526265013626
 30
0.0
 11
122.2718116009567
 21
119.7526265013626
 31
0.0
  0
ARC
  5
2365
330
2
100
AcDbEntity
  8
0
100
AcDbCircle
 10
121.2726126009568
 20
122.4208245013624
 30
0.0
 40
1.0
100
AcDbArc
 50
0.0
 51
89.50000000000846
  0
ARC
  5
2366
330
2
100
AcDbEntity
  8
0
100
AcDbCircle
 10
121.2726126009568
 20
127.1227245013624
 30
0.0
 40
1.0
100
AcDbArc
 50
270.4999999999915
 51
0.0
  0
ARC
  5
2367
330
2
100
AcDbEntity
  8
0
100
AcDbCircle
 10
121.2726126009568
 20
128.7969245013628
 30
0.0
 40
1.0
100
AcDbArc
 50
270.4999999999915
 51
0.0
  0
ARC
  5
2368
330
2
100
AcDbEntity
  8
0
100
AcDbCircle
 10
121.2726126009568
 20
139.6167545013627
 30
0.0
 40
1.0
100
AcDbArc
 50
0.0
 51
89.50000000000846
  0
ARC
  5
2369
330
2
100
AcDbEntity
  8
0
100
AcDbCircle
 10
121.2726126009568
 20
139.0985505013628
 30
0.0
 40
1.0
100
AcDbArc
 50
0.0
 51
89.50000000000846
  0
ARC
  5
236A
330
2
100
AcDbEntity
  8
0
100
AcDbCircle
 10
121.2726126009568
 20
135.4807455013624
 30
0.0
 40
1.0
100
AcDbArc
 50
270.4999999999915
 51
0.0
  0
ARC
  5
236B
330
2
100
AcDbEntity
  8
0
100
AcDbCircle
 10
121.2726126009568
 20
137.0029545013627
 30
0.0
 40
1.0
100
AcDbArc
 50
270.4999999999915
 51
0.0
  0
ARC
  5
236C
330
2
100
AcDbEntity
  8
0
100
AcDbCircle
 10
121.2726126009568
 20
130.6387255013624
 30
0.0
 40
1.0
100
AcDbArc
 50
0.0
 51
89.50000000000846
  0
ARC
  5
236D
330
2
100
AcDbEntity
  8
0
100
AcDbCircle
 10
121.2726126009568
 20
145.8213445013626
 30
0.0
 40
1.0
100
AcDbArc
 50
270.4999999999915
 51
0.0
  0
ARC
  5
236E
330
2
100
AcDbEntity
  8
0
100
AcDbCircle
 10
121.2726126009568
 20
144.497156501363
 30
0.0
 40
1.0
100
AcDbArc
 50
270.4999999999915
 51
0.0
  0
ARC
  5
236F
330
2
100
AcDbEntity
  8
0
100
AcDbCircle
 10
121.2726126009568
 20
148.1127565013626
 30
0.0
 40
1.0
100
AcDbArc
 50
0.0
 51
89.50000000000846
  0
ARC
  5
2370
330
2
100
AcDbEntity
  8
0
100
AcDbCircle
 10
121.2726126009568
 20
148.9271485013628
 30
0.0
 40
1.0
100
AcDbArc
 50
0.0
 51
89.50000000000846
  0
ARC
  5
2371
330
2
100
AcDbEntity
  8
0
100
AcDbCircle
 10
121.2726126009568
 20
163.3981565013628
 30
0.0
 40
1.0
100
AcDbArc
 50
270.4999999999915
 51
0.0
  0
ARC
  5
2372
330
2
100
AcDbEntity
  8
0
100
AcDbCircle
 10
121.2726126009568
 20
158.4269665013626
 30
0.0
 40
1.0
100
AcDbArc
 50
0.0
 51
89.50000000000846
  0
ARC
  5
2373
330
2
100
AcDbEntity
  8
0
100
AcDbCircle
 10
121.2726126009568
 20
154.983957501363
 30
0.0
 40
1.0
100
AcDbArc
 50
270.4999999999915
 51
0.0
  0
ARC
  5
2374
330
2
100
AcDbEntity
  8
0
100
AcDbCircle
 10
121.2726126009568
 20
153.8983545013625
 30
0.0
 40
1.0
100
AcDbArc
 50
270.4999999999915
 51
0.0
  0
ARC
  5
2375
330
2
100
AcDbEntity
  8
0
100
AcDbCircle
 10
121.2726126009568
 20
157.3413635013626
 30
0.0
 40
1.0
100
AcDbArc
 50
0.0
 51
89.50000000000846
  0
ARC
  5
2376
330
2
100
AcDbEntity
  8
0
100
AcDbCircle
 10
121.2726126009568
 20
164.2125485013626
 30
0.0
 40
1.0
100
AcDbArc
 50
270.4999999999915
 51
0.0
  0
ARC
  5
2377
330
2
100
AcDbEntity
  8
0
100
AcDbCircle
 10
121.2726126009568
 20
167.8281505013629
 30
0.0
 40
1.0
100
AcDbArc
 50
0.0
 51
89.50000000000846
  0
ARC
  5
2378
330
2
100
AcDbEntity
  8
0
100
AcDbCircle
 10
121.2726126009568
 20
166.5039625013628
 30
0.0
 40
1.0
100
AcDbArc
 50
0.0
 51
89.50000000000846
  0
ARC
  5
2379
330
2
100
AcDbEntity
  8
0
100
AcDbCircle
 10
121.2726126009568
 20
172.7085515013628
 30
0.0
 40
1.0
100
AcDbArc
 50
270.4999999999915
 51
0.0
  0
ARC
  5
237A
330
2
100
AcDbEntity
  8
0
100
AcDbCircle
 10
121.2726126009568
 20
173.2267395013628
 30
0.0
 40
1.0
100
AcDbArc
 50
270.4999999999915
 51
0.0
  0
LINE
  5
237B
330
2
100
AcDbEntity
  8
CENTER
100
AcDbLine
 10
112.2107306009568
 20
197.1727845013625
 30
0.0
 11
136.4701906009561
 21
197.1727845013625
 31
0.0
  0
LINE
  5
237C
330
2
100
AcDbEntity
  8
0
100
AcDbLine
 10
132.2726126009568
 20
219.6627825013629
 30
0.0
 11
123.2551336009567
 21
219.5051445013628
 31
0.0
  0
LINE
  5
237D
330
2
100
AcDbEntity
  8
0
100
AcDbLine
 10
121.2813326009566
 20
202.2977845013629
 30
0.0
 11
50.81780860095688
 21
201.6827255013627
 31
0.0
  0
LINE
  5
237E
330
2
100
AcDbEntity
  8
0
100
AcDbLine
 10
121.2813326009566
 20
203.1171435013626
 30
0.0
 11
52.47321260095652
 21
203.7175845013626
 31
0.0
  0
LINE
  5
237F
330
2
100
AcDbEntity
  8
0
100
AcDbLine
 10
121.2813326009566
 20
186.2025455013627
 30
0.0
 11
50.99621460095687
 21
186.8157655013629
 31
0.0
  0
LINE
  5
2380
330
2
100
AcDbEntity
  8
0
100
AcDbLine
 10
121.2813326009566
 20
188.9045425013628
 30
0.0
 11
50.99621460095687
 21
188.291143501363
 31
0.0
  0
LINE
  5
2381
330
2
100
AcDbEntity
  8
0
100
AcDbLine
 10
121.2813326009566
 20
177.8445645013626
 30
0.0
 11
51.06561260095651
 21
178.457344501363
 31
0.0
  0
LINE
  5
2382
330
2
100
AcDbEntity
  8
0
100
AcDbLine
 10
121.2813326009566
 20
180.6865445013627
 30
0.0
 11
51.06561260095651
 21
180.0737435013625
 31
0.0
  0
LINE
  5
2383
330
2
100
AcDbEntity
  8
0
100
AcDbLine
 10
121.2813326009566
 20
184.5283645013628
 30
0.0
 11
52.65167060095638
 21
185.1271645013626
 31
0.0
  0
LINE
  5
2384
330
2
100
AcDbEntity
  8
0
100
AcDbLine
 10
121.2813326009566
 20
176.3221645013627
 30
0.0
 11
52.57237060095651
 21
176.9219645013627
 31
0.0
  0
LINE
  5
2385
330
2
100
AcDbEntity
  8
0
100
AcDbLine
 10
117.3338217094372
 20
198.1669255789452
 30
0.0
 11
52.62193260095665
 21
198.7315655013627
 31
0.0
  0
LINE
  5
2386
330
2
100
AcDbEntity
  8
0
100
AcDbLine
 10
117.7825192402754
 20
199.9853456004762
 30
0.0
 11
50.81780860095688
 21
200.5695625013627
 31
0.0
  0
LINE
  5
2387
330
2
100
AcDbEntity
  8
0
100
AcDbLine
 10
121.2813326009566
 20
210.2839255013628
 30
0.0
 11
50.57989460095661
 21
209.6669255013626
 31
0.0
  0
LINE
  5
2388
330
2
100
AcDbEntity
  8
0
100
AcDbLine
 10
121.2813326009566
 20
208.4259665013624
 30
0.0
 11
50.57989460095661
 21
209.0429635013625
 31
0.0
  0
LINE
  5
2389
330
2
100
AcDbEntity
  8
0
100
AcDbLine
 10
121.2813326009566
 20
206.9923645013628
 30
0.0
 11
50.67903060095642
 21
206.3761465013627
 31
0.0
  0
LINE
  5
238A
330
2
100
AcDbEntity
  8
0
100
AcDbLine
 10
59.75514860095637
 20
211.4039245013628
 30
0.0
 11
121.2813326009566
 21
211.9409655013628
 31
0.0
  0
LINE
  5
238B
330
2
100
AcDbEntity
  8
0
100
AcDbLine
 10
121.2813326009566
 20
204.9311425013629
 30
0.0
 11
50.67903060095642
 21
205.547365501363
 31
0.0
  0
LINE
  5
238C
330
2
100
AcDbEntity
  8
0
100
AcDbLine
 10
103.1264336009565
 20
206.8339865013627
 30
0.0
 11
52.31461260095676
 21
207.2773645013626
 31
0.0
  0
ARC
  5
238D
330
2
100
AcDbEntity
  8
0
100
AcDbCircle
 10
96.57832738015969
 20
279.6133989687815
 30
0.0
 40
46.0
100
AcDbArc
 50
250.5608481874146
 51
270.0
  0
ARC
  5
238E
330
2
100
AcDbEntity
  8
0
100
AcDbCircle
 10
96.57832738015969
 20
279.6133989687815
 30
0.0
 40
44.0
100
AcDbArc
 50
250.5608481874146
 51
270.0
  0
ARC
  5
238F
330
2
100
AcDbEntity
  8
0
100
AcDbCircle
 10
96.57832738015969
 20
279.6133989687815
 30
0.0
 40
42.0
100
AcDbArc
 50
250.5608481874146
 51
270.0
  0
ARC
  5
2390
330
2
100
AcDbEntity
  8
0
100
AcDbCircle
 10
96.57832738015969
 20
279.6133989687815
 30
0.0
 40
40.0
100
AcDbArc
 50
250.5608481874146
 51
270.0
  0
LINE
  5
2391
330
2
100
AcDbEntity
  8
0
100
AcDbLine
 10
56.27266260095649
 20
255.2491861204821
 30
0.0
 11
94.69328833149466
 21
255.2491861204821
 31
0.0
  0
LINE
  5
2392
330
2
100
AcDbEntity
  8
0
100
AcDbLine
 10
56.27264260095699
 20
249.2491861204821
 30
0.0
 11
94.69276492809678
 21
249.2491861204821
 31
0.0
  0
LINE
  5
2393
330
2
100
AcDbEntity
  8
0
100
AcDbLine
 10
47.27261260095639
 20
235.9081374706689
 30
0.0
 11
47.27261260095684
 21
210.6627825013629
 31
0.0
  0
LINE
  5
2394
330
2
100
AcDbEntity
  8
0
100
AcDbLine
 10
49.27261260095639
 20
235.0728103762308
 30
0.0
 11
49.27261260095685
 21
210.6627825013629
 31
0.0
  0
LINE
  5
2395
330
2
100
AcDbEntity
  8
0
100
AcDbLine
 10
45.27261260095684
 20
235.4869719657681
 30
0.0
 11
45.27261260095684
 21
210.6627825013629
 31
0.0
  0
LINE
  5
2396
330
2
100
AcDbEntity
  8
0
100
AcDbLine
 10
51.27261260095685
 20
235.4869705572728
 30
0.0
 11
51.27261260095685
 21
210.6627825013629
 31
0.0
  0
ARC
  5
2397
330
2
100
AcDbEntity
  8
0
100
AcDbCircle
 10
59.77261260095684
 20
209.4040435013626
 30
0.0
 40
2.0
100
AcDbArc
 50
90.50070200000861
 51
170.6273039999844
  0
LINE
  5
2398
330
2
100
AcDbEntity
  8
0
100
AcDbLine
 10
42.77261260095684
 20
209.6627825013629
 30
0.0
 11
42.77255160095665
 21
178.1627635013629
 31
0.0
  0
ARC
  5
2399
330
2
100
AcDbEntity
  8
0
100
AcDbCircle
 10
43.77263560095644
 20
178.1627635013629
 30
0.0
 40
1.0
100
AcDbArc
 50
180.0
 51
239.9984783206102
  0
ARC
  5
239A
330
2
100
AcDbEntity
  8
0
100
AcDbCircle
 10
52.59261260095655
 20
179.2417445013625
 30
0.0
 40
2.319999999999999
100
AcDbArc
 50
180.0
 51
269.5000000000084
  0
LINE
  5
239B
330
2
100
AcDbEntity
  8
0
100
AcDbLine
 10
50.27261260095684
 20
179.2573455013626
 30
0.0
 11
50.27261260095684
 21
179.2737635013627
 31
0.0
  0
LINE
  5
239C
330
2
100
AcDbEntity
  8
0
100
AcDbLine
 10
50.27261260095684
 20
179.2417445013625
 30
0.0
 11
50.27261260095684
 21
179.2573455013626
 31
0.0
  0
ARC
  5
239D
330
2
100
AcDbEntity
  8
0
100
AcDbCircle
 10
51.07259260095663
 20
179.2573455013626
 30
0.0
 40
0.8
100
AcDbArc
 50
180.0
 51
269.5000000000084
  0
ARC
  5
239E
330
2
100
AcDbEntity
  8
0
100
AcDbCircle
 10
51.07259260095663
 20
179.2737635013627
 30
0.0
 40
0.8
100
AcDbArc
 50
90.49999999999155
 51
180.0
  0
ARC
  5
239F
330
2
100
AcDbEntity
  8
0
100
AcDbCircle
 10
52.67259060095677
 20
187.5271455013626
 30
0.0
 40
2.399999999999999
100
AcDbArc
 50
180.0
 51
269.5000000000084
  0
ARC
  5
23A0
330
2
100
AcDbEntity
  8
0
100
AcDbCircle
 10
51.00261660095686
 20
187.5457435013627
 30
0.0
 40
0.73
100
AcDbArc
 50
180.0
 51
269.5000000000084
  0
LINE
  5
23A1
330
2
100
AcDbEntity
  8
0
100
AcDbLine
 10
50.27261260095684
 20
187.5457435013627
 30
0.0
 11
50.27261260095684
 21
187.5611435013625
 31
0.0
  0
LINE
  5
23A2
330
2
100
AcDbEntity
  8
0
100
AcDbLine
 10
50.27261260095684
 20
187.5271455013626
 30
0.0
 11
50.27261260095684
 21
187.5457435013627
 31
0.0
  0
ARC
  5
23A3
330
2
100
AcDbEntity
  8
0
100
AcDbCircle
 10
51.00261660095686
 20
187.5611435013625
 30
0.0
 40
0.73
100
AcDbArc
 50
90.49999999999155
 51
180.0
  0
LINE
  5
23A4
330
2
100
AcDbEntity
  8
0
100
AcDbLine
 10
50.43491260095681
 20
208.5357645013628
 30
0.0
 11
47.25513460095664
 21
208.5079635013626
 31
0.0
  0
LINE
  5
23A5
330
2
100
AcDbEntity
  8
0
100
AcDbLine
 10
52.77261260095684
 20
210.6627065013627
 30
0.0
 11
43.77261260095685
 21
210.6627825013629
 31
0.0
  0
ARC
  5
23A6
330
2
100
AcDbEntity
  8
0
100
AcDbCircle
 10
43.77263560095644
 20
209.6627825013629
 30
0.0
 40
1.0
100
AcDbArc
 50
90.0
 51
180.0
  0
ARC
  5
23A7
330
2
100
AcDbEntity
  8
0
100
AcDbCircle
 10
47.27261260095684
 20
206.5079635013626
 30
0.0
 40
2.0
100
AcDbArc
 50
90.49999999999155
 51
180.0
  0
LINE
  5
23A8
330
2
100
AcDbEntity
  8
0
100
AcDbLine
 10
53.77263460095656
 20
206.4031235013627
 30
0.0
 11
53.77263460095656
 21
206.3859465013629
 31
0.0
  0
ARC
  5
23A9
330
2
100
AcDbEntity
  8
0
100
AcDbCircle
 10
50.68259260095675
 20
205.9661425013628
 30
0.0
 40
0.41
100
AcDbArc
 50
90.49999999999155
 51
180.0
  0
ARC
  5
23AA
330
2
100
AcDbEntity
  8
0
100
AcDbCircle
 10
52.49261460095687
 20
205.9375625013627
 30
0.0
 40
2.22
100
AcDbArc
 50
180.0
 51
269.5000000000084
  0
LINE
  5
23AB
330
2
100
AcDbEntity
  8
0
100
AcDbLine
 10
50.27261260095684
 20
205.9375625013627
 30
0.0
 11
50.27261260095684
 21
205.9661425013628
 31
0.0
  0
LINE
  5
23AC
330
2
100
AcDbEntity
  8
0
100
AcDbLine
 10
50.27261260095684
 20
205.9573235013627
 30
0.0
 11
50.27261260095684
 21
205.9661425013628
 31
0.0
  0
ARC
  5
23AD
330
2
100
AcDbEntity
  8
0
100
AcDbCircle
 10
50.68259260095675
 20
205.9573235013627
 30
0.0
 40
0.41
100
AcDbArc
 50
180.0
 51
269.5000000000084
  0
ARC
  5
23AE
330
2
100
AcDbEntity
  8
0
100
AcDbCircle
 10
52.6426146009565
 20
201.1015645013626
 30
0.0
 40
2.37
100
AcDbArc
 50
180.0
 51
269.5000000000084
  0
LINE
  5
23AF
330
2
100
AcDbEntity
  8
0
100
AcDbLine
 10
50.27261260095684
 20
201.1195655013626
 30
0.0
 11
50.27261260095684
 21
201.1327455013625
 31
0.0
  0
LINE
  5
23B0
330
2
100
AcDbEntity
  8
0
100
AcDbLine
 10
50.27261260095684
 20
201.1015645013626
 30
0.0
 11
50.27261260095684
 21
201.1327455013625
 31
0.0
  0
ARC
  5
23B1
330
2
100
AcDbEntity
  8
0
100
AcDbCircle
 10
50.82259260095662
 20
201.1195655013626
 30
0.0
 40
0.55
100
AcDbArc
 50
180.0
 51
269.5000000000084
  0
ARC
  5
23B2
330
2
100
AcDbEntity
  8
0
100
AcDbCircle
 10
50.82259260095662
 20
201.1327455013625
 30
0.0
 40
0.55
100
AcDbArc
 50
90.49999999999155
 51
180.0
  0
ARC
  5
23B3
330
2
100
AcDbEntity
  8
0
100
AcDbCircle
 10
52.77261260095684
 20
209.6627825013629
 30
0.0
 40
1.0
100
AcDbArc
 50
0.0
 51
90.0
  0
ARC
  5
23B4
330
2
100
AcDbEntity
  8
0
100
AcDbCircle
 10
52.33259460095661
 20
209.3371445013627
 30
0.0
 40
2.06
100
AcDbArc
 50
180.0
 51
269.5000000000084
  0
ARC
  5
23B5
330
2
100
AcDbEntity
  8
0
100
AcDbCircle
 10
50.58259460095661
 20
209.3529645013628
 30
0.0
 40
0.31
100
AcDbArc
 50
180.0
 51
269.5000000000084
  0
ARC
  5
23B6
330
2
100
AcDbEntity
  8
0
100
AcDbCircle
 10
50.58259460095661
 20
209.3569655013626
 30
0.0
 40
0.31
100
AcDbArc
 50
90.49999999999155
 51
180.0
  0
ARC
  5
23B7
330
2
100
AcDbEntity
  8
0
100
AcDbCircle
 10
52.77263460095657
 20
209.6627825013629
 30
0.0
 40
1.0
100
AcDbArc
 50
0.0
 51
1.824028999993621
  0
ARC
  5
23B8
330
2
100
AcDbEntity
  8
0
100
AcDbCircle
 10
56.70501939435081
 20
202.4868980545503
 30
0.0
 40
40.0
100
AcDbArc
 50
70.56084818741466
 51
90.0
  0
ARC
  5
23B9
330
2
100
AcDbEntity
  8
0
100
AcDbCircle
 10
56.70501939435081
 20
202.4868980545503
 30
0.0
 40
42.0
100
AcDbArc
 50
70.56084818741466
 51
90.0
  0
ARC
  5
23BA
330
2
100
AcDbEntity
  8
0
100
AcDbCircle
 10
56.70501939435081
 20
202.4868980545503
 30
0.0
 40
46.0
100
AcDbArc
 50
70.56084818741466
 51
90.0
  0
ARC
  5
23BB
330
2
100
AcDbEntity
  8
0
100
AcDbCircle
 10
56.70501939435081
 20
202.4868980545503
 30
0.0
 40
44.0
100
AcDbArc
 50
70.56084818741466
 51
90.0
  0
ARC
  5
23BC
330
2
100
AcDbEntity
  8
0
100
AcDbCircle
 10
56.27266381414148
 20
237.4869568429645
 30
0.0
 40
9.000051213203853
100
AcDbArc
 50
90.00024308268166
 51
177.3436678381762
  0
ARC
  5
23BD
330
2
100
AcDbEntity
  8
0
100
AcDbCircle
 10
56.27266381414148
 20
237.4869568429645
 30
0.0
 40
11.00005121320385
100
AcDbArc
 50
90.00024308268166
 51
179.9998428472075
  0
ARC
  5
23BE
330
2
100
AcDbEntity
  8
0
100
AcDbCircle
 10
56.27266381414148
 20
237.4869568429645
 30
0.0
 40
7.000051213203854
100
AcDbArc
 50
90.00024308268166
 51
179.9998428472075
  0
ARC
  5
23BF
330
2
100
AcDbEntity
  8
0
100
AcDbCircle
 10
56.27266381414148
 20
237.4869568429645
 30
0.0
 40
5.000051213203854
100
AcDbArc
 50
90.00024308268166
 51
179.9998428472075
  0
LINE
  5
23C0
330
2
100
AcDbEntity
  8
0
100
AcDbLine
 10
45.27266260095649
 20
244.2491861204822
 30
0.0
 11
45.27261260095684
 21
237.4869719657681
 31
0.0
  0
LINE
  5
23C1
330
2
100
AcDbEntity
  8
HOJO
100
AcDbLine
 10
47.1439346009568
 20
237.9623199611037
 30
0.0
 11
49.40153360095684
 21
237.0117119611041
 31
0.0
  0
LINE
  5
23C2
330
2
100
AcDbEntity
  8
HOJO
100
AcDbLine
 10
47.1439346009568
 20
235.9623199611037
 30
0.0
 11
49.40153360095684
 21
235.0117119611041
 31
0.0
  0
ARC
  5
23C3
330
2
100
AcDbEntity
  8
HOJO
100
AcDbCircle
 10
46.522642600957
 20
236.4870079611037
 30
0.0
 40
1.600781999999999
100
AcDbArc
 50
67.16467300001993
 51
141.3418685642233
  0
ARC
  5
23C4
330
2
100
AcDbEntity
  8
HOJO
100
AcDbCircle
 10
46.522642600957
 20
234.4870079611037
 30
0.0
 40
1.600781999999999
100
AcDbArc
 50
67.16467300001993
 51
141.3418685641862
  0
LINE
  5
23C5
330
2
100
AcDbEntity
  8
HOJO
100
AcDbLine
 10
45.27261260095684
 20
235.4870439564397
 30
0.0
 11
45.27261260095684
 21
235.2482116371034
 31
0.0
  0
LINE
  5
23C6
330
2
100
AcDbEntity
  8
0
100
AcDbLine
 10
49.27261260095685
 20
237.4869568429645
 30
0.0
 11
49.27261260095639
 21
237.0659967716342
 31
0.0
  0
ARC
  5
23C7
330
2
100
AcDbEntity
  8
HOJO
100
AcDbCircle
 10
50.02264260095699
 20
238.4870079611037
 30
0.0
 40
1.600781
100
AcDbArc
 50
247.1647030000082
 51
321.3401944016112
  0
ARC
  5
23C8
330
2
100
AcDbEntity
  8
HOJO
100
AcDbCircle
 10
50.02264260095699
 20
236.4870079611037
 30
0.0
 40
1.600781
100
AcDbArc
 50
247.1647030000082
 51
321.3401944016112
  0
ARC
  5
23C9
330
2
100
AcDbEntity
  8
0
100
AcDbCircle
 10
56.27266260095649
 20
244.2491861204822
 30
0.0
 40
11.0
100
AcDbArc
 50
90.0
 51
180.0
  0
ARC
  5
23CA
330
2
100
AcDbEntity
  8
0
100
AcDbCircle
 10
56.27264260095699
 20
244.2491861204822
 30
0.0
 40
5.0
100
AcDbArc
 50
90.0
 51
131.974563421098
  0
ARC
  5
23CB
330
2
100
AcDbEntity
  8
0
100
AcDbCircle
 10
56.27264260095699
 20
237.4870080561232
 30
0.0
 40
9.0
100
AcDbArc
 50
90.0
 51
123.3057915968492
  0
LINE
  5
23CC
330
2
100
AcDbEntity
  8
0
100
AcDbLine
 10
56.27247656631181
 20
242.4868980545503
 30
0.0
 11
56.70501939435081
 21
242.4868980545503
 31
0.0
  0
LINE
  5
23CD
330
2
100
AcDbEntity
  8
0
100
AcDbLine
 10
56.27247656631181
 20
248.4868980545503
 30
0.0
 11
56.70501939435081
 21
248.4868980545503
 31
0.0
  0
LINE
  5
23CE
330
2
100
AcDbEntity
  8
0
100
AcDbLine
 10
56.27247656631181
 20
246.4868980545503
 30
0.0
 11
56.70501939435081
 21
246.4868980545503
 31
0.0
  0
LINE
  5
23CF
330
2
100
AcDbEntity
  8
0
100
AcDbLine
 10
56.27247656631181
 20
244.4868980545503
 30
0.0
 11
56.70501939435081
 21
244.4868980545503
 31
0.0
  0
LINE
  5
23D0
330
2
100
AcDbEntity
  8
0
100
AcDbLine
 10
70.01724278524881
 20
240.206716564066
 30
0.0
 11
81.26927048062709
 21
236.2356076828382
 31
0.0
  0
LINE
  5
23D1
330
2
100
AcDbEntity
  8
0
100
AcDbLine
 10
70.68285395479307
 20
242.0927074895417
 30
0.0
 11
81.9348816501718
 21
238.1215986083139
 31
0.0
  0
LINE
  5
23D2
330
2
100
AcDbEntity
  8
0
100
AcDbLine
 10
71.34846512433824
 20
243.9786984150178
 30
0.0
 11
82.60049281971651
 21
240.0075895337896
 31
0.0
  0
LINE
  5
23D3
330
2
100
AcDbEntity
  8
0
100
AcDbLine
 10
72.01407629388296
 20
245.8646893404935
 30
0.0
 11
83.26610398926169
 21
241.8935804592657
 31
0.0
  0
LINE
  5
23D4
330
2
100
AcDbEntity
  8
0
100
AcDbLine
 10
120.9718316009569
 20
201.9227845013625
 30
0.0
 11
120.9718316009569
 21
192.4227655013624
 31
0.0
  0
ARC
  5
23D5
330
2
100
AcDbEntity
  8
0
100
AcDbCircle
 10
125.2718116009567
 20
197.1727845013625
 30
0.0
 40
8.0
100
AcDbArc
 50
147.6076050000069
 51
212.392394999993
  0
LINE
  5
23D6
330
2
100
AcDbEntity
  8
0
100
AcDbLine
 10
120.9718316009569
 20
192.4227655013624
 30
0.0
 11
119.3610146009562
 21
192.4227655013624
 31
0.0
  0
ARC
  5
23D7
330
2
100
AcDbEntity
  8
0
100
AcDbCircle
 10
119.3610146009562
 20
193.4227655013624
 30
0.0
 40
1.0
100
AcDbArc
 50
212.392394999993
 51
270.0
  0
ARC
  5
23D8
330
2
100
AcDbEntity
  8
0
100
AcDbCircle
 10
121.2726126009568
 20
183.5283645013628
 30
0.0
 40
1.0
100
AcDbArc
 50
0.0
 51
89.50000000000846
  0
ARC
  5
23D9
330
2
100
AcDbEntity
  8
0
100
AcDbCircle
 10
121.2726126009568
 20
181.6865445013627
 30
0.0
 40
1.0
100
AcDbArc
 50
270.4999999999915
 51
0.0
  0
ARC
  5
23DA
330
2
100
AcDbEntity
  8
0
100
AcDbCircle
 10
121.2726126009568
 20
176.8445645013626
 30
0.0
 40
1.0
100
AcDbArc
 50
0.0
 51
89.50000000000846
  0
ARC
  5
23DB
330
2
100
AcDbEntity
  8
0
100
AcDbCircle
 10
121.2726126009568
 20
175.3223515013624
 30
0.0
 40
1.0
100
AcDbArc
 50
0.0
 51
89.50000000000846
  0
LINE
  5
23DC
330
2
100
AcDbEntity
  8
0
100
AcDbLine
 10
120.9718316009569
 20
192.5727635013627
 30
0.0
 11
122.2718116009567
 21
192.5727635013627
 31
0.0
  0
ARC
  5
23DD
330
2
100
AcDbEntity
  8
0
100
AcDbCircle
 10
121.2726126009568
 20
185.2025455013627
 30
0.0
 40
1.0
100
AcDbArc
 50
0.0
 51
89.50000000000846
  0
ARC
  5
23DE
330
2
100
AcDbEntity
  8
0
100
AcDbCircle
 10
121.2726126009568
 20
189.9043635013627
 30
0.0
 40
1.0
100
AcDbArc
 50
270.4999999999915
 51
0.0
  0
LINE
  5
23DF
330
2
100
AcDbEntity
  8
0
100
AcDbLine
 10
120.9718316009569
 20
201.9227845013625
 30
0.0
 11
119.3610146009562
 21
201.9227845013625
 31
0.0
  0
ARC
  5
23E0
330
2
100
AcDbEntity
  8
0
100
AcDbCircle
 10
119.3610146009562
 20
200.9227845013625
 30
0.0
 40
1.0
100
AcDbArc
 50
90.0
 51
147.6076050000069
  0
LINE
  5
23E1
330
2
100
AcDbEntity
  8
0
100
AcDbLine
 10
120.9718316009569
 20
201.7725845013624
 30
0.0
 11
122.2718116009567
 21
201.7725845013624
 31
0.0
  0
ARC
  5
23E2
330
2
100
AcDbEntity
  8
0
100
AcDbCircle
 10
121.2726126009568
 20
203.931142501363
 30
0.0
 40
1.0
100
AcDbArc
 50
0.0
 51
89.50000000000846
  0
ARC
  5
23E3
330
2
100
AcDbEntity
  8
0
100
AcDbCircle
 10
121.2726126009568
 20
202.1171435013625
 30
0.0
 40
1.0
100
AcDbArc
 50
36.17633799998952
 51
89.50000000000846
  0
ARC
  5
23E4
330
2
100
AcDbEntity
  8
0
100
AcDbCircle
 10
121.2726126009568
 20
203.2977845013629
 30
0.0
 40
1.0
100
AcDbArc
 50
270.4999999999915
 51
0.0
  0
ARC
  5
23E5
330
2
100
AcDbEntity
  8
0
100
AcDbCircle
 10
121.2726126009568
 20
207.9921435013626
 30
0.0
 40
1.0
100
AcDbArc
 50
270.4999999999915
 51
0.0
  0
ARC
  5
23E6
330
2
100
AcDbEntity
  8
0
100
AcDbCircle
 10
121.2726126009568
 20
211.2839255013628
 30
0.0
 40
1.0
100
AcDbArc
 50
270.4999999999915
 51
0.0
  0
ARC
  5
23E7
330
2
100
AcDbEntity
  8
0
100
AcDbCircle
 10
121.2726126009568
 20
212.9407635013627
 30
0.0
 40
1.0
100
AcDbArc
 50
270.4999999999915
 51
0.0
  0
ARC
  5
23E8
330
2
100
AcDbEntity
  8
0
100
AcDbCircle
 10
121.2726126009568
 20
207.426145501363
 30
0.0
 40
1.0
100
AcDbArc
 50
16.44459900000745
 51
89.50000000000846
  0
LINE
  5
23E9
330
2
100
AcDbEntity
  8
0
100
AcDbLine
 10
104.4505197052151
 20
256.4792912033336
 30
0.0
 11
110.4926440379716
 21
257.5446807439939
 31
0.0
  0
LINE
  5
23EA
330
2
100
AcDbEntity
  8
0
100
AcDbLine
 10
110.733715200817
 20
249.2246317219147
 30
0.0
 11
104.4535581546127
 21
249.7740742686201
 31
0.0
  0
LINE
  5
23EB
330
2
100
AcDbEntity
  8
0
100
AcDbLine
 10
104.4535581546127
 20
249.2357363378201
 30
0.0
 11
110.5976304342032
 21
248.1523706235053
 31
0.0
  0
LINE
  5
23EC
330
2
100
AcDbEntity
  8
0
100
AcDbLine
 10
110.786108332308
 20
250.4246317219145
 30
0.0
 11
104.4535581546127
 21
250.9786580736718
 31
0.0
  0
LINE
  5
23ED
330
2
100
AcDbEntity
  8
0
100
AcDbLine
 10
110.7337152008142
 20
255.2724196455847
 30
0.0
 11
104.4535581546127
 21
254.7229770988792
 31
0.0
  0
LINE
  5
23EE
330
2
100
AcDbEntity
  8
0
100
AcDbLine
 10
104.4535581546127
 20
255.2613150296793
 30
0.0
 11
110.5976304342023
 21
256.3446807439937
 31
0.0
  0
LINE
  5
23EF
330
2
100
AcDbEntity
  8
0
100
AcDbLine
 10
110.7861083323039
 20
254.0724196455844
 30
0.0
 11
104.4535581546127
 21
253.5183932938276
 31
0.0
  0
LINE
  5
23F0
330
2
100
AcDbEntity
  8
0
100
AcDbLine
 10
104.4505197052151
 20
248.0177601641654
 30
0.0
 11
110.4926440379716
 21
246.9523706235055
 31
0.0
  0
LINE
  5
23F1
330
2
100
AcDbEntity
  8
0
100
AcDbLine
 10
120.3318251429644
 20
251.6485256837496
 30
0.0
 11
104.4535581546127
 21
251.6485256837496
 31
0.0
  0
LINE
  5
23F2
330
2
100
AcDbEntity
  8
0
100
AcDbLine
 10
120.3318251429644
 20
252.8485256837494
 30
0.0
 11
104.4535581546127
 21
252.8485256837494
 31
0.0
  0
LINE
  5
23F3
330
2
100
AcDbEntity
  8
0
100
AcDbLine
 10
97.05629370322624
 20
237.6133989687815
 30
0.0
 11
126.5310268966107
 21
240.1921039836539
 31
0.0
  0
LINE
  5
23F4
330
2
100
AcDbEntity
  8
0
100
AcDbLine
 10
97.05629370322624
 20
235.6133989687815
 30
0.0
 11
126.5242983113497
 21
233.0352826288408
 31
0.0
  0
LINE
  5
23F5
330
2
100
AcDbEntity
  8
0
100
AcDbLine
 10
96.96897181740888
 20
239.6133989687815
 30
0.0
 11
126.3567154111154
 21
242.1844933798375
 31
0.0
  0
LINE
  5
23F6
330
2
100
AcDbEntity
  8
0
100
AcDbLine
 10
96.96897181740888
 20
233.6133989687815
 30
0.0
 11
126.3499868258543
 21
231.0428932326572
 31
0.0
  0
LINE
  5
23F7
330
2
100
AcDbEntity
  8
0
100
AcDbLine
 10
126.4689718174088
 20
237.6133989687815
 30
0.0
 11
96.57832738015105
 21
237.6133989687815
 31
0.0
  0
LINE
  5
23F8
330
2
100
AcDbEntity
  8
0
100
AcDbLine
 10
126.4689718174088
 20
235.6133989687815
 30
0.0
 11
96.57832738015059
 21
235.6133989687815
 31
0.0
  0
LINE
  5
23F9
330
2
100
AcDbEntity
  8
0
100
AcDbLine
 10
96.96897181740888
 20
233.6133989687815
 30
0.0
 11
96.57832738015015
 21
233.6133989687815
 31
0.0
  0
LINE
  5
23FA
330
2
100
AcDbEntity
  8
0
100
AcDbLine
 10
94.88693749880468
 20
248.9991861204821
 30
0.0
 11
97.59696739471776
 21
248.9991861204821
 31
0.0
  0
LINE
  5
23FB
330
2
100
AcDbEntity
  8
0
100
AcDbLine
 10
94.88693749880468
 20
255.4991861204826
 30
0.0
 11
97.62198713199342
 21
255.4991861204826
 31
0.0
  0
LINE
  5
23FC
330
2
100
AcDbEntity
  8
0
100
AcDbLine
 10
94.68693749880486
 20
249.1991861204824
 30
0.0
 11
94.68693749880486
 21
255.2991861204823
 31
0.0
  0
ARC
  5
23FD
330
2
100
AcDbEntity
  8
0
100
AcDbCircle
 10
94.88693749880468
 20
249.1991861204824
 30
0.0
 40
0.2
100
AcDbArc
 50
180.0
 51
270.0
  0
ARC
  5
23FE
330
2
100
AcDbEntity
  8
0
100
AcDbCircle
 10
94.88693749880468
 20
255.2991861204823
 30
0.0
 40
0.2
100
AcDbArc
 50
90.0
 51
180.0
  0
LINE
  5
23FF
330
2
100
AcDbEntity
  8
0
100
AcDbLine
 10
104.4535581546127
 20
248.0524897996989
 30
0.0
 11
104.4535581546127
 21
256.4445615678005
 31
0.0
  0
ARC
  5
2400
330
2
100
AcDbEntity
  8
0
100
AcDbCircle
 10
101.7535581546129
 20
248.4553052335919
 30
0.0
 40
0.4
100
AcDbArc
 50
257.0698677002805
 51
326.0187104207559
  0
LINE
  5
2401
330
2
100
AcDbEntity
  8
0
100
AcDbLine
 10
101.6640530667448
 20
248.0654477734274
 30
0.0
 11
97.5969673947182
 21
248.9991861204821
 31
0.0
  0
LINE
  5
2402
330
2
100
AcDbEntity
  8
0
100
AcDbLine
 10
96.96897181740888
 20
239.6133989687815
 30
0.0
 11
96.57832738015969
 21
239.6133989687815
 31
0.0
  0
LINE
  5
2403
330
2
100
AcDbEntity
  8
0
100
AcDbLine
 10
102.0852462096184
 20
248.2317363758166
 30
0.0
 11
104.2188285190798
 21
247.8555282490966
 31
0.0
  0
ARC
  5
2404
330
2
100
AcDbEntity
  8
0
100
AcDbCircle
 10
104.2535581546129
 20
248.0524897996989
 30
0.0
 40
0.2
100
AcDbArc
 50
259.9999999999949
 51
0.0
  0
LINE
  5
2405
330
2
100
AcDbEntity
  8
0
100
AcDbLine
 10
102.6674835159459
 20
256.6109547745864
 30
0.0
 11
97.62198713199342
 21
255.4991861204821
 31
0.0
  0
LINE
  5
2406
330
2
100
AcDbEntity
  8
0
100
AcDbLine
 10
103.086595259698
 20
256.4418798463185
 30
0.0
 11
104.2188285190798
 21
256.6415231184028
 31
0.0
  0
ARC
  5
2407
330
2
100
AcDbEntity
  8
0
100
AcDbCircle
 10
102.7535581546129
 20
256.2203255941886
 30
0.0
 40
0.4
100
AcDbArc
 50
33.6339940220023
 51
102.4264747477459
  0
ARC
  5
2408
330
2
100
AcDbEntity
  8
0
100
AcDbCircle
 10
104.2535581546129
 20
256.4445615678005
 30
0.0
 40
0.2
100
AcDbArc
 50
0.0
 51
100.000000000005
  0
ARC
  5
2409
330
2
100
AcDbEntity
  8
0
100
AcDbCircle
 10
123.2726126009568
 20
218.5053655013626
 30
0.0
 40
1.0
100
AcDbArc
 50
91.00000000000177
 51
180.0
  0
LINE
  5
240A
330
2
100
AcDbEntity
  8
0
100
AcDbLine
 10
131.4248446443219
 20
231.6027205420787
 30
0.0
 11
126.4438711538635
 21
232.038499255817
 31
0.0
  0
LINE
  5
240B
330
2
100
AcDbEntity
  8
0
100
AcDbLine
 10
131.3943401343606
 20
231.2540523977468
 30
0.0
 11
126.4133666439013
 21
231.6898311114851
 31
0.0
  0
LINE
  5
240C
330
2
100
AcDbEntity
  8
0
100
AcDbLine
 10
131.3638356243985
 20
230.9053842534145
 30
0.0
 11
126.3828621339401
 21
231.3411629671528
 31
0.0
  0
LINE
  5
240D
330
2
100
AcDbEntity
  8
0
100
AcDbLine
 10
131.5027355110817
 20
232.2985798605255
 30
0.0
 11
126.5048801737869
 21
232.7358355444812
 31
0.0
  0
LINE
  5
240E
330
2
100
AcDbEntity
  8
0
100
AcDbLine
 10
131.4553491542836
 20
231.9513886864111
 30
0.0
 11
126.4743756638248
 21
232.3871674001494
 31
0.0
  0
LINE
  5
240F
330
2
100
AcDbEntity
  8
0
100
AcDbLine
 10
126.3499868258543
 20
231.0428932326572
 30
0.0
 11
126.5242983113497
 21
233.0352826288408
 31
0.0
  0
LINE
  5
2410
330
2
100
AcDbEntity
  8
0
100
AcDbLine
 10
131.4689718174088
 20
237.3133989687813
 30
0.0
 11
126.4689718174088
 21
237.3133989687813
 31
0.0
  0
LINE
  5
2411
330
2
100
AcDbEntity
  8
0
100
AcDbLine
 10
131.4689718174088
 20
236.9633989687814
 30
0.0
 11
126.4689718174088
 21
236.9633989687814
 31
0.0
  0
LINE
  5
2412
330
2
100
AcDbEntity
  8
0
100
AcDbLine
 10
131.4689718174088
 20
236.6133989687814
 30
0.0
 11
126.4689718174088
 21
236.6133989687814
 31
0.0
  0
LINE
  5
2413
330
2
100
AcDbEntity
  8
0
100
AcDbLine
 10
131.4689718174088
 20
235.9133989687812
 30
0.0
 11
126.4689718174088
 21
235.9133989687812
 31
0.0
  0
LINE
  5
2414
330
2
100
AcDbEntity
  8
0
100
AcDbLine
 10
131.4689718174088
 20
236.2633989687811
 30
0.0
 11
126.4689718174088
 21
236.2633989687811
 31
0.0
  0
LINE
  5
2415
330
2
100
AcDbEntity
  8
0
100
AcDbLine
 10
126.4689718174088
 20
235.6133989687815
 30
0.0
 11
126.4689718174088
 21
237.6133989687815
 31
0.0
  0
LINE
  5
2416
330
2
100
AcDbEntity
  8
0
100
AcDbLine
 10
120.3318251429644
 20
250.3485256837494
 30
0.0
 11
112.5292231872611
 21
250.3485256837494
 31
0.0
  0
LINE
  5
2417
330
2
100
AcDbEntity
  8
0
100
AcDbLine
 10
120.3318251429644
 20
249.1485256837496
 30
0.0
 11
112.4768300557701
 21
249.1485256837496
 31
0.0
  0
LINE
  5
2418
330
2
100
AcDbEntity
  8
0
100
AcDbLine
 10
120.3318251429644
 20
247.8485256837493
 30
0.0
 11
114.0705939875422
 21
247.8485256837493
 31
0.0
  0
LINE
  5
2419
330
2
100
AcDbEntity
  8
0
100
AcDbLine
 10
120.3318251429644
 20
246.6485256837496
 30
0.0
 11
113.9656075913101
 21
246.6485256837496
 31
0.0
  0
LINE
  5
241A
330
2
100
AcDbEntity
  8
0
100
AcDbLine
 10
120.3318251429644
 20
257.8485256837494
 30
0.0
 11
113.9656075913101
 21
257.8485256837494
 31
0.0
  0
LINE
  5
241B
330
2
100
AcDbEntity
  8
0
100
AcDbLine
 10
120.3318251429644
 20
256.6485256837495
 30
0.0
 11
114.0705939875409
 21
256.6485256837495
 31
0.0
  0
LINE
  5
241C
330
2
100
AcDbEntity
  8
0
100
AcDbLine
 10
120.3318251429644
 20
255.3485256837494
 30
0.0
 11
112.4768300557669
 21
255.3485256837494
 31
0.0
  0
LINE
  5
241D
330
2
100
AcDbEntity
  8
0
100
AcDbLine
 10
120.3318251429644
 20
254.1485256837495
 30
0.0
 11
112.529223187257
 21
254.1485256837495
 31
0.0
  0
ARC
  5
241E
330
2
100
AcDbEntity
  8
0
100
AcDbCircle
 10
114.0705939875418
 20
267.8485256837494
 30
0.0
 40
20.0
100
AcDbArc
 50
259.9999999999949
 51
270.0
  0
ARC
  5
241F
330
2
100
AcDbEntity
  8
0
100
AcDbCircle
 10
112.4768300557701
 20
269.1485256837495
 30
0.0
 40
20.0
100
AcDbArc
 50
265.0000000000003
 51
270.0
  0
ARC
  5
2420
330
2
100
AcDbEntity
  8
0
100
AcDbCircle
 10
113.9656075913101
 20
266.6485256837495
 30
0.0
 40
20.0
100
AcDbArc
 50
259.9999999999949
 51
270.0
  0
ARC
  5
2421
330
2
100
AcDbEntity
  8
0
100
AcDbCircle
 10
114.0705939875409
 20
236.6485256837496
 30
0.0
 40
20.0
100
AcDbArc
 50
90.0
 51
100.000000000005
  0
ARC
  5
2422
330
2
100
AcDbEntity
  8
0
100
AcDbCircle
 10
112.5292231872611
 20
270.3485256837494
 30
0.0
 40
20.0
100
AcDbArc
 50
265.0000000000003
 51
270.0
  0
ARC
  5
2423
330
2
100
AcDbEntity
  8
0
100
AcDbCircle
 10
112.5292231872575
 20
234.1485256837496
 30
0.0
 40
20.0
100
AcDbArc
 50
90.0
 51
94.99999999999975
  0
ARC
  5
2424
330
2
100
AcDbEntity
  8
0
100
AcDbCircle
 10
112.4768300557673
 20
235.3485256837493
 30
0.0
 40
20.0
100
AcDbArc
 50
90.0
 51
94.99999999999975
  0
ARC
  5
2425
330
2
100
AcDbEntity
  8
0
100
AcDbCircle
 10
113.9656075913101
 20
237.8485256837494
 30
0.0
 40
20.0
100
AcDbArc
 50
90.0
 51
100.000000000005
  0
LINE
  5
2426
330
2
100
AcDbEntity
  8
0
100
AcDbLine
 10
130.8318251429644
 20
249.0485256837497
 30
0.0
 11
130.8318251429644
 21
250.4485256837497
 31
0.0
  0
LINE
  5
2427
330
2
100
AcDbEntity
  8
0
100
AcDbLine
 10
128.3318251429644
 20
248.8485256837494
 30
0.0
 11
128.3318251429644
 21
250.6485256837496
 31
0.0
  0
LINE
  5
2428
330
2
100
AcDbEntity
  8
0
100
AcDbLine
 10
122.3318251429644
 20
258.4985256837494
 30
0.0
 11
122.3318251429644
 21
245.9985256837494
 31
0.0
  0
LINE
  5
2429
330
2
100
AcDbEntity
  8
0
100
AcDbLine
 10
120.3318251429644
 20
258.4985256837494
 30
0.0
 11
120.3318251429644
 21
245.9985256837494
 31
0.0
  0
LINE
  5
242A
330
2
100
AcDbEntity
  8
0
100
AcDbLine
 10
131.8318251429644
 20
258.4985256837494
 30
0.0
 11
131.8318251429644
 21
245.9985256837494
 31
0.0
  0
LINE
  5
242B
330
2
100
AcDbEntity
  8
0
100
AcDbLine
 10
131.8318251429644
 20
258.4985256837494
 30
0.0
 11
131.8318251429644
 21
245.9985256837494
 31
0.0
  0
LINE
  5
242C
330
2
100
AcDbEntity
  8
0
100
AcDbLine
 10
131.8318251429644
 20
245.9985256837494
 30
0.0
 11
120.3318251429644
 21
245.9985256837494
 31
0.0
  0
LINE
  5
242D
330
2
100
AcDbEntity
  8
0
100
AcDbLine
 10
128.2318251429645
 20
248.7485256837495
 30
0.0
 11
124.9318251429643
 21
248.7485256837495
 31
0.0
  0
LINE
  5
242E
330
2
100
AcDbEntity
  8
0
100
AcDbLine
 10
128.2318251429645
 20
248.2485256837495
 30
0.0
 11
124.9318251429643
 21
248.2485256837495
 31
0.0
  0
LINE
  5
242F
330
2
100
AcDbEntity
  8
0
100
AcDbLine
 10
128.2318251429645
 20
246.2485256837495
 30
0.0
 11
124.9318251429643
 21
246.2485256837495
 31
0.0
  0
ARC
  5
2430
330
2
100
AcDbEntity
  8
0
100
AcDbCircle
 10
124.9318251429643
 20
248.6485256837496
 30
0.0
 40
0.1
100
AcDbArc
 50
90.0
 51
180.0
  0
LINE
  5
2431
330
2
100
AcDbEntity
  8
0
100
AcDbLine
 10
124.8318251429644
 20
248.4985256837495
 30
0.0
 11
124.8318251429644
 21
248.6485256837496
 31
0.0
  0
ARC
  5
2432
330
2
100
AcDbEntity
  8
0
100
AcDbCircle
 10
124.9318251429643
 20
248.3485256837494
 30
0.0
 40
0.1
100
AcDbArc
 50
180.0
 51
270.0
  0
LINE
  5
2433
330
2
100
AcDbEntity
  8
0
100
AcDbLine
 10
124.8318251429644
 20
248.4985256837495
 30
0.0
 11
124.8318251429644
 21
248.3485256837494
 31
0.0
  0
ARC
  5
2434
330
2
100
AcDbEntity
  8
0
100
AcDbCircle
 10
124.9318251429643
 20
246.1485256837495
 30
0.0
 40
0.1
100
AcDbArc
 50
90.0
 51
180.0
  0
LINE
  5
2435
330
2
100
AcDbEntity
  8
0
100
AcDbLine
 10
124.8318251429644
 20
246.1485256837495
 30
0.0
 11
124.8318251429644
 21
245.9985256837494
 31
0.0
  0
LINE
  5
2436
330
2
100
AcDbEntity
  8
0
100
AcDbLine
 10
131.3943401343606
 20
241.9727455398161
 30
0.0
 11
126.4133666439013
 21
241.5369668260773
 31
0.0
  0
LINE
  5
2437
330
2
100
AcDbEntity
  8
0
100
AcDbLine
 10
131.4248446443219
 20
241.6240773954837
 30
0.0
 11
126.4438711538635
 21
241.1882986817455
 31
0.0
  0
LINE
  5
2438
330
2
100
AcDbEntity
  8
0
100
AcDbLine
 10
131.5027355110817
 20
240.9282180770369
 30
0.0
 11
126.5048801737869
 21
240.4909623930812
 31
0.0
  0
LINE
  5
2439
330
2
100
AcDbEntity
  8
0
100
AcDbLine
 10
131.4553491542836
 20
241.2754092511514
 30
0.0
 11
126.4743756638248
 21
240.8396305374135
 31
0.0
  0
LINE
  5
243A
330
2
100
AcDbEntity
  8
0
100
AcDbLine
 10
131.3638356243985
 20
242.321413684148
 30
0.0
 11
126.3828621339401
 21
241.8856349704097
 31
0.0
  0
LINE
  5
243B
330
2
100
AcDbEntity
  8
0
100
AcDbLine
 10
130.7318251429645
 20
248.9485256837497
 30
0.0
 11
129.9318251429643
 21
248.9485256837497
 31
0.0
  0
LINE
  5
243C
330
2
100
AcDbEntity
  8
0
100
AcDbLine
 10
129.8318251429644
 20
248.4985256837495
 30
0.0
 11
129.8318251429644
 21
248.8485256837494
 31
0.0
  0
ARC
  5
243D
330
2
100
AcDbEntity
  8
0
100
AcDbCircle
 10
129.9318251429643
 20
248.8485256837494
 30
0.0
 40
0.1
100
AcDbArc
 50
90.0
 51
180.0
  0
ARC
  5
243E
330
2
100
AcDbEntity
  8
0
100
AcDbCircle
 10
130.7318251429645
 20
249.0485256837497
 30
0.0
 40
0.1
100
AcDbArc
 50
270.0
 51
0.0
  0
LINE
  5
243F
330
2
100
AcDbEntity
  8
0
100
AcDbLine
 10
130.7318251429645
 20
248.0485256837496
 30
0.0
 11
129.9318251429643
 21
248.0485256837496
 31
0.0
  0
ARC
  5
2440
330
2
100
AcDbEntity
  8
0
100
AcDbCircle
 10
129.9318251429643
 20
248.1485256837495
 30
0.0
 40
0.1
100
AcDbArc
 50
180.0
 51
270.0
  0
ARC
  5
2441
330
2
100
AcDbEntity
  8
0
100
AcDbCircle
 10
130.7318251429645
 20
247.9485256837497
 30
0.0
 40
0.1
100
AcDbArc
 50
0.0
 51
90.0
  0
LINE
  5
2442
330
2
100
AcDbEntity
  8
0
100
AcDbLine
 10
129.8318251429644
 20
248.4985256837495
 30
0.0
 11
129.8318251429644
 21
248.1485256837495
 31
0.0
  0
ARC
  5
2443
330
2
100
AcDbEntity
  8
0
100
AcDbCircle
 10
128.2318251429645
 20
248.8485256837494
 30
0.0
 40
0.1
100
AcDbArc
 50
270.0
 51
0.0
  0
ARC
  5
2444
330
2
100
AcDbEntity
  8
0
100
AcDbCircle
 10
128.2318251429645
 20
248.1485256837495
 30
0.0
 40
0.1
100
AcDbArc
 50
0.0
 51
90.0
  0
LINE
  5
2445
330
2
100
AcDbEntity
  8
0
100
AcDbLine
 10
130.7318251429645
 20
246.4485256837497
 30
0.0
 11
129.9318251429643
 21
246.4485256837497
 31
0.0
  0
LINE
  5
2446
330
2
100
AcDbEntity
  8
0
100
AcDbLine
 10
129.8318251429644
 20
245.9985256837494
 30
0.0
 11
129.8318251429644
 21
246.3485256837494
 31
0.0
  0
ARC
  5
2447
330
2
100
AcDbEntity
  8
0
100
AcDbCircle
 10
129.9318251429643
 20
246.3485256837494
 30
0.0
 40
0.1
100
AcDbArc
 50
90.0
 51
180.0
  0
ARC
  5
2448
330
2
100
AcDbEntity
  8
0
100
AcDbCircle
 10
130.7318251429645
 20
246.5485256837496
 30
0.0
 40
0.1
100
AcDbArc
 50
270.0
 51
0.0
  0
ARC
  5
2449
330
2
100
AcDbEntity
  8
0
100
AcDbCircle
 10
128.2318251429645
 20
246.3485256837494
 30
0.0
 40
0.1
100
AcDbArc
 50
270.0
 51
0.0
  0
LINE
  5
244A
330
2
100
AcDbEntity
  8
0
100
AcDbLine
 10
130.8318251429644
 20
247.9485256837497
 30
0.0
 11
130.8318251429644
 21
246.5485256837496
 31
0.0
  0
LINE
  5
244B
330
2
100
AcDbEntity
  8
0
100
AcDbLine
 10
128.3318251429644
 20
248.1485256837495
 30
0.0
 11
128.3318251429644
 21
246.3485256837494
 31
0.0
  0
LINE
  5
244C
330
2
100
AcDbEntity
  8
0
100
AcDbLine
 10
126.3567154111154
 20
242.1844933798375
 30
0.0
 11
126.5310268966107
 21
240.1921039836539
 31
0.0
  0
LINE
  5
244D
330
2
100
AcDbEntity
  8
0
100
AcDbLine
 10
131.8318251429644
 20
258.4985256837494
 30
0.0
 11
120.3318251429644
 21
258.4985256837494
 31
0.0
  0
LINE
  5
244E
330
2
100
AcDbEntity
  8
0
100
AcDbLine
 10
128.2318251429645
 20
251.2485256837495
 30
0.0
 11
124.9318251429643
 21
251.2485256837495
 31
0.0
  0
LINE
  5
244F
330
2
100
AcDbEntity
  8
0
100
AcDbLine
 10
128.2318251429645
 20
250.7485256837495
 30
0.0
 11
124.9318251429643
 21
250.7485256837495
 31
0.0
  0
LINE
  5
2450
330
2
100
AcDbEntity
  8
0
100
AcDbLine
 10
128.2318251429645
 20
256.2485256837494
 30
0.0
 11
124.9318251429643
 21
256.2485256837494
 31
0.0
  0
LINE
  5
2451
330
2
100
AcDbEntity
  8
0
100
AcDbLine
 10
128.2318251429645
 20
255.7485256837495
 30
0.0
 11
124.9318251429643
 21
255.7485256837495
 31
0.0
  0
LINE
  5
2452
330
2
100
AcDbEntity
  8
0
100
AcDbLine
 10
128.2318251429645
 20
253.7485256837495
 30
0.0
 11
124.9318251429643
 21
253.7485256837495
 31
0.0
  0
LINE
  5
2453
330
2
100
AcDbEntity
  8
0
100
AcDbLine
 10
128.2318251429645
 20
253.2485256837495
 30
0.0
 11
124.9318251429643
 21
253.2485256837495
 31
0.0
  0
LINE
  5
2454
330
2
100
AcDbEntity
  8
0
100
AcDbLine
 10
128.2318251429645
 20
258.2485256837494
 30
0.0
 11
124.9318251429643
 21
258.2485256837494
 31
0.0
  0
ARC
  5
2455
330
2
100
AcDbEntity
  8
0
100
AcDbCircle
 10
124.9318251429643
 20
251.1485256837496
 30
0.0
 40
0.1
100
AcDbArc
 50
90.0
 51
180.0
  0
LINE
  5
2456
330
2
100
AcDbEntity
  8
0
100
AcDbLine
 10
124.8318251429644
 20
250.8485256837494
 30
0.0
 11
124.8318251429644
 21
251.1485256837496
 31
0.0
  0
ARC
  5
2457
330
2
100
AcDbEntity
  8
0
100
AcDbCircle
 10
124.9318251429643
 20
250.8485256837494
 30
0.0
 40
0.1
100
AcDbArc
 50
180.0
 51
270.0
  0
ARC
  5
2458
330
2
100
AcDbEntity
  8
0
100
AcDbCircle
 10
124.9318251429643
 20
255.8485256837494
 30
0.0
 40
0.1
100
AcDbArc
 50
180.0
 51
270.0
  0
LINE
  5
2459
330
2
100
AcDbEntity
  8
0
100
AcDbLine
 10
124.8318251429644
 20
253.6485256837496
 30
0.0
 11
124.8318251429644
 21
253.3485256837494
 31
0.0
  0
ARC
  5
245A
330
2
100
AcDbEntity
  8
0
100
AcDbCircle
 10
124.9318251429643
 20
253.6485256837496
 30
0.0
 40
0.1
100
AcDbArc
 50
90.0
 51
180.0
  0
ARC
  5
245B
330
2
100
AcDbEntity
  8
0
100
AcDbCircle
 10
124.9318251429643
 20
253.3485256837494
 30
0.0
 40
0.1
100
AcDbArc
 50
180.0
 51
270.0
  0
LINE
  5
245C
330
2
100
AcDbEntity
  8
0
100
AcDbLine
 10
124.8318251429644
 20
255.9985256837495
 30
0.0
 11
124.8318251429644
 21
256.1485256837495
 31
0.0
  0
ARC
  5
245D
330
2
100
AcDbEntity
  8
0
100
AcDbCircle
 10
124.9318251429643
 20
256.1485256837495
 30
0.0
 40
0.1
100
AcDbArc
 50
90.0
 51
180.0
  0
LINE
  5
245E
330
2
100
AcDbEntity
  8
0
100
AcDbLine
 10
124.8318251429644
 20
255.9985256837495
 30
0.0
 11
124.8318251429644
 21
255.8485256837494
 31
0.0
  0
ARC
  5
245F
330
2
100
AcDbEntity
  8
0
100
AcDbCircle
 10
124.9318251429643
 20
258.3485256837494
 30
0.0
 40
0.1
100
AcDbArc
 50
180.0
 51
270.0
  0
LINE
  5
2460
330
2
100
AcDbEntity
  8
0
100
AcDbLine
 10
124.8318251429644
 20
258.3485256837494
 30
0.0
 11
124.8318251429644
 21
258.4985256837494
 31
0.0
  0
LINE
  5
2461
330
2
100
AcDbEntity
  8
0
100
AcDbLine
 10
129.8318251429644
 20
250.9985256837495
 30
0.0
 11
129.8318251429644
 21
250.6485256837496
 31
0.0
  0
ARC
  5
2462
330
2
100
AcDbEntity
  8
0
100
AcDbCircle
 10
128.2318251429645
 20
250.6485256837496
 30
0.0
 40
0.1
100
AcDbArc
 50
0.0
 51
90.0
  0
LINE
  5
2463
330
2
100
AcDbEntity
  8
0
100
AcDbLine
 10
130.7318251429645
 20
250.5485256837496
 30
0.0
 11
129.9318251429643
 21
250.5485256837496
 31
0.0
  0
ARC
  5
2464
330
2
100
AcDbEntity
  8
0
100
AcDbCircle
 10
129.9318251429643
 20
250.6485256837496
 30
0.0
 40
0.1
100
AcDbArc
 50
180.0
 51
270.0
  0
ARC
  5
2465
330
2
100
AcDbEntity
  8
0
100
AcDbCircle
 10
130.7318251429645
 20
250.4485256837497
 30
0.0
 40
0.1
100
AcDbArc
 50
0.0
 51
90.0
  0
LINE
  5
2466
330
2
100
AcDbEntity
  8
0
100
AcDbLine
 10
130.8318251429644
 20
256.5485256837496
 30
0.0
 11
130.8318251429644
 21
257.9485256837497
 31
0.0
  0
LINE
  5
2467
330
2
100
AcDbEntity
  8
0
100
AcDbLine
 10
128.3318251429644
 20
256.3485256837494
 30
0.0
 11
128.3318251429644
 21
258.1485256837495
 31
0.0
  0
ARC
  5
2468
330
2
100
AcDbEntity
  8
0
100
AcDbCircle
 10
130.7318251429645
 20
251.5485256837497
 30
0.0
 40
0.1
100
AcDbArc
 50
270.0
 51
0.0
  0
LINE
  5
2469
330
2
100
AcDbEntity
  8
0
100
AcDbLine
 10
130.7318251429645
 20
251.4485256837498
 30
0.0
 11
129.9318251429643
 21
251.4485256837498
 31
0.0
  0
ARC
  5
246A
330
2
100
AcDbEntity
  8
0
100
AcDbCircle
 10
129.9318251429643
 20
251.3485256837494
 30
0.0
 40
0.1
100
AcDbArc
 50
90.0
 51
180.0
  0
LINE
  5
246B
330
2
100
AcDbEntity
  8
0
100
AcDbLine
 10
129.8318251429644
 20
250.9985256837495
 30
0.0
 11
129.8318251429644
 21
251.3485256837494
 31
0.0
  0
ARC
  5
246C
330
2
100
AcDbEntity
  8
0
100
AcDbCircle
 10
128.2318251429645
 20
251.3485256837494
 30
0.0
 40
0.1
100
AcDbArc
 50
270.0
 51
0.0
  0
ARC
  5
246D
330
2
100
AcDbEntity
  8
0
100
AcDbCircle
 10
129.9318251429643
 20
255.6485256837496
 30
0.0
 40
0.1
100
AcDbArc
 50
180.0
 51
270.0
  0
LINE
  5
246E
330
2
100
AcDbEntity
  8
0
100
AcDbLine
 10
128.3318251429644
 20
255.6485256837496
 30
0.0
 11
128.3318251429644
 21
253.8485256837494
 31
0.0
  0
ARC
  5
246F
330
2
100
AcDbEntity
  8
0
100
AcDbCircle
 10
128.2318251429645
 20
255.6485256837496
 30
0.0
 40
0.1
100
AcDbArc
 50
0.0
 51
90.0
  0
LINE
  5
2470
330
2
100
AcDbEntity
  8
0
100
AcDbLine
 10
130.7318251429645
 20
253.0485256837497
 30
0.0
 11
129.9318251429643
 21
253.0485256837497
 31
0.0
  0
LINE
  5
2471
330
2
100
AcDbEntity
  8
0
100
AcDbLine
 10
130.7318251429645
 20
253.9485256837497
 30
0.0
 11
129.9318251429643
 21
253.9485256837497
 31
0.0
  0
LINE
  5
2472
330
2
100
AcDbEntity
  8
0
100
AcDbLine
 10
130.7318251429645
 20
255.5485256837497
 30
0.0
 11
129.9318251429643
 21
255.5485256837497
 31
0.0
  0
LINE
  5
2473
330
2
100
AcDbEntity
  8
0
100
AcDbLine
 10
129.8318251429644
 20
253.4985256837495
 30
0.0
 11
129.8318251429644
 21
253.1485256837496
 31
0.0
  0
LINE
  5
2474
330
2
100
AcDbEntity
  8
0
100
AcDbLine
 10
129.8318251429644
 20
253.4985256837495
 30
0.0
 11
129.8318251429644
 21
253.8485256837494
 31
0.0
  0
ARC
  5
2475
330
2
100
AcDbEntity
  8
0
100
AcDbCircle
 10
129.9318251429643
 20
253.8485256837494
 30
0.0
 40
0.1
100
AcDbArc
 50
90.0
 51
180.0
  0
ARC
  5
2476
330
2
100
AcDbEntity
  8
0
100
AcDbCircle
 10
129.9318251429643
 20
253.1485256837496
 30
0.0
 40
0.1
100
AcDbArc
 50
180.0
 51
270.0
  0
ARC
  5
2477
330
2
100
AcDbEntity
  8
0
100
AcDbCircle
 10
130.7318251429645
 20
254.0485256837496
 30
0.0
 40
0.1
100
AcDbArc
 50
270.0
 51
0.0
  0
LINE
  5
2478
330
2
100
AcDbEntity
  8
0
100
AcDbLine
 10
130.8318251429644
 20
255.4485256837498
 30
0.0
 11
130.8318251429644
 21
254.0485256837496
 31
0.0
  0
ARC
  5
2479
330
2
100
AcDbEntity
  8
0
100
AcDbCircle
 10
130.7318251429645
 20
255.4485256837498
 30
0.0
 40
0.1
100
AcDbArc
 50
0.0
 51
90.0
  0
ARC
  5
247A
330
2
100
AcDbEntity
  8
0
100
AcDbCircle
 10
130.7318251429645
 20
252.9485256837497
 30
0.0
 40
0.1
100
AcDbArc
 50
0.0
 51
90.0
  0
LINE
  5
247B
330
2
100
AcDbEntity
  8
0
100
AcDbLine
 10
130.8318251429644
 20
252.2485256837494
 30
0.0
 11
130.8318251429644
 21
252.9485256837497
 31
0.0
  0
ARC
  5
247C
330
2
100
AcDbEntity
  8
0
100
AcDbCircle
 10
128.2318251429645
 20
253.8485256837494
 30
0.0
 40
0.1
100
AcDbArc
 50
270.0
 51
0.0
  0
ARC
  5
247D
330
2
100
AcDbEntity
  8
0
100
AcDbCircle
 10
128.2318251429645
 20
253.1485256837496
 30
0.0
 40
0.1
100
AcDbArc
 50
0.0
 51
90.0
  0
LINE
  5
247E
330
2
100
AcDbEntity
  8
0
100
AcDbLine
 10
128.3318251429644
 20
253.1485256837496
 30
0.0
 11
128.3318251429644
 21
252.2485256837494
 31
0.0
  0
LINE
  5
247F
330
2
100
AcDbEntity
  8
0
100
AcDbLine
 10
130.7318251429645
 20
256.4485256837497
 30
0.0
 11
129.9318251429643
 21
256.4485256837497
 31
0.0
  0
LINE
  5
2480
330
2
100
AcDbEntity
  8
0
100
AcDbLine
 10
129.8318251429644
 20
255.9985256837495
 30
0.0
 11
129.8318251429644
 21
256.3485256837494
 31
0.0
  0
ARC
  5
2481
330
2
100
AcDbEntity
  8
0
100
AcDbCircle
 10
129.9318251429643
 20
256.3485256837494
 30
0.0
 40
0.1
100
AcDbArc
 50
90.0
 51
180.0
  0
ARC
  5
2482
330
2
100
AcDbEntity
  8
0
100
AcDbCircle
 10
130.7318251429645
 20
256.5485256837496
 30
0.0
 40
0.1
100
AcDbArc
 50
270.0
 51
0.0
  0
ARC
  5
2483
330
2
100
AcDbEntity
  8
0
100
AcDbCircle
 10
128.2318251429645
 20
256.3485256837494
 30
0.0
 40
0.1
100
AcDbArc
 50
270.0
 51
0.0
  0
LINE
  5
2484
330
2
100
AcDbEntity
  8
0
100
AcDbLine
 10
129.8318251429644
 20
255.9985256837495
 30
0.0
 11
129.8318251429644
 21
255.6485256837496
 31
0.0
  0
LINE
  5
2485
330
2
100
AcDbEntity
  8
0
100
AcDbLine
 10
130.8318251429644
 20
252.2485256837494
 30
0.0
 11
130.8318251429644
 21
251.5485256837497
 31
0.0
  0
LINE
  5
2486
330
2
100
AcDbEntity
  8
0
100
AcDbLine
 10
128.3318251429644
 20
251.3485256837494
 30
0.0
 11
128.3318251429644
 21
252.2485256837494
 31
0.0
  0
LINE
  5
2487
330
2
100
AcDbEntity
  8
0
100
AcDbLine
 10
130.7318251429645
 20
258.0485256837496
 30
0.0
 11
129.9318251429643
 21
258.0485256837496
 31
0.0
  0
ARC
  5
2488
330
2
100
AcDbEntity
  8
0
100
AcDbCircle
 10
129.9318251429643
 20
258.1485256837495
 30
0.0
 40
0.1
100
AcDbArc
 50
180.0
 51
270.0
  0
ARC
  5
2489
330
2
100
AcDbEntity
  8
0
100
AcDbCircle
 10
130.7318251429645
 20
257.9485256837497
 30
0.0
 40
0.1
100
AcDbArc
 50
0.0
 51
90.0
  0
ARC
  5
248A
330
2
100
AcDbEntity
  8
0
100
AcDbCircle
 10
128.2318251429645
 20
258.1485256837495
 30
0.0
 40
0.1
100
AcDbArc
 50
0.0
 51
90.0
  0
LINE
  5
248B
330
2
100
AcDbEntity
  8
0
100
AcDbLine
 10
129.8318251429644
 20
258.4985256837494
 30
0.0
 11
129.8318251429644
 21
258.1485256837495
 31
0.0
  0
LINE
  5
248C
330
2
100
AcDbEntity
  8
0
100
AcDbLine
 10
43.27261260095684
 20
106.6627445013628
 30
0.0
 11
43.27261260095684
 21
202.0427445013627
 31
0.0
  0
LINE
  5
248D
330
2
100
AcDbEntity
  8
0
100
AcDbLine
 10
43.77230801446631
 20
106.1452947530115
 30
0.0
 11
43.27261260095684
 21
106.6627445013628
 31
0.0
  0
LINE
  5
248E
330
2
100
AcDbEntity
  8
0
100
AcDbLine
 10
43.77230801446631
 20
202.560194249714
 30
0.0
 11
43.27261260095684
 21
202.0427445013627
 31
0.0
  0
ENDSEC
  0
SECTION
  2
OBJECTS
  0
DICTIONARY
  5
7
330
0
100
AcDbDictionary
  3
ACAD_COLOR
350
1F3D
  3
ACAD_GROUP
350
75
  3
ACAD_LAYOUT
350
61
  3
ACAD_MATERIAL
350
1F13
  3
ACAD_MLEADERSTYLE
350
1F62
  3
ACAD_MLINESTYLE
350
76
  3
ACAD_PLOTSETTINGS
350
77
  3
ACAD_PLOTSTYLENAME
350
6
  3
ACAD_SCALELIST
350
1F40
  3
ACAD_TABLESTYLE
350
1F3E
  3
ACAD_VISUALSTYLE
350
1F2C
  3
ACADDIM
350
480
  3
ACDB_RECOMPOSE_DATA
350
24A1
  3
ACDBHEADERROUNDTRIPXREC
350
2523
  3
ACDBVARIABLEDICTIONARY
350
102
  3
DWGPROPS
350
24A2
  0
DICTIONARY
  5
24AA
330
6E
100
AcDbDictionary
280
     1
  3
ACAD_XREC_ROUNDTRIP
360
24AB
  0
DICTIONARY
  5
1F67
330
66
100
AcDbDictionary
280
     1
  3
ACAD_LAYERSTATES
360
1F68
  0
DICTIONARY
  5
248F
330
5E
100
AcDbDictionary
280
     1
  3
ACAD_XREC_ROUNDTRIP
360
24A5
  3
ADSK_XREC_LAYER_RECONCILED
360
2490
  0
DICTIONARY
  5
2491
330
3E
100
AcDbDictionary
280
     1
  3
ACAD_XREC_ROUNDTRIP
360
24A4
  3
ADSK_XREC_LAYER_RECONCILED
360
2492
  0
DICTIONARY
  5
2497
330
2B5
100
AcDbDictionary
280
     1
  3
ACAD_XREC_ROUNDTRIP
360
24B1
  3
ADSK_XREC_LAYER_RECONCILED
360
2498
  0
DICTIONARY
  5
2499
330
2BA
100
AcDbDictionary
280
     1
  3
ACAD_XREC_ROUNDTRIP
360
24B2
  3
ADSK_XREC_LAYER_RECONCILED
360
249A
  0
DICTIONARY
  5
249D
330
3FA
100
AcDbDictionary
280
     1
  3
ACAD_XREC_ROUNDTRIP
360
24B4
  3
ADSK_XREC_LAYER_RECONCILED
360
249E
  0
DICTIONARY
  5
2544
330
2
100
AcDbDictionary
280
     1
  3
ACAD_LAYOUTSELFREF
360
2545
  0
DICTIONARY
  5
2546
330
251D
100
AcDbDictionary
280
     1
  3
ACAD_LAYOUTSELFREF
360
2547
  0
DICTIONARY
  5
1F3D
102
{ACAD_REACTORS
330
7
102
}
330
7
100
AcDbDictionary
  0
DICTIONARY
  5
75
102
{ACAD_REACTORS
330
7
102
}
330
7
100
AcDbDictionary
  0
DICTIONARY
  5
61
102
{ACAD_REACTORS
330
7
102
}
330
7
100
AcDbDictionary
  0
DICTIONARY
  5
1F13
102
{ACAD_REACTORS
330
7
102
}
330
7
100
AcDbDictionary
  3
BYBLOCK
350
1F1C
  3
BYLAYER
350
1F14
  3
GLOBAL
350
1F24
  0
DICTIONARY
  5
1F62
102
{ACAD_REACTORS
330
7
102
}
330
7
100
AcDbDictionary
  3
STANDARD
350
1F63
  0
DICTIONARY
  5
76
102
{ACAD_REACTORS
330
7
102
}
330
7
100
AcDbDictionary
  3
STANDARD
350
78
  0
DICTIONARY
  5
77
102
{ACAD_REACTORS
330
7
102
}
330
7
100
AcDbDictionary
  0
ACDBDICTIONARYWDFLT
  5
6
102
{ACAD_REACTORS
330
7
102
}
330
7
100
AcDbDictionary
281
     1
  3
Normal
350
5
100
AcDbDictionaryWithDefault
340
5
  0
DICTIONARY
  5
1F40
102
{ACAD_REACTORS
330
7
102
}
330
7
100
AcDbDictionary
  3
A0
350
1F41
  3
A1
350
1F42
  3
A2
350
1F43
  3
A3
350
1F44
  3
A4
350
1F45
  3
A5
350
1F46
  3
A6
350
1F47
  3
A7
350
1F48
  3
A8
350
1F49
  3
A9
350
1F4A
  3
B0
350
1F4B
  3
B1
350
1F4C
  3
B2
350
1F4D
  3
B3
350
1F4E
  3
B4
350
1F4F
  3
B5
350
1F50
  3
B6
350
1F51
  3
B7
350
1F52
  3
B8
350
1F53
  3
B9
350
1F54
  3
C0
350
1F55
  3
C1
350
1F56
  3
C2
350
1F57
  3
C3
350
1F58
  3
C4
350
1F59
  3
C5
350
1F5A
  3
C6
350
1F5B
  3
C7
350
1F5C
  3
C8
350
1F5D
  3
C9
350
1F5E
  3
D0
350
1F5F
  3
D1
350
1F60
  3
D2
350
1F61
  0
DICTIONARY
  5
1F3E
102
{ACAD_REACTORS
330
7
102
}
330
7
100
AcDbDictionary
  3
STANDARD
350
1F3F
  0
DICTIONARY
  5
1F2C
102
{ACAD_REACTORS
330
7
102
}
330
7
100
AcDbDictionary
  3
2DWIREFRAME
350
1F32
  3
3D_HIDDEN
350
1F34
  3
3DWIREFRAME
350
1F33
  3
BASIC
350
1F31
  3
BRIGHTEN
350
1F38
  3
COLORCHANGE
350
1F3C
  3
CONCEPTUAL
350
1F35
  3
DIM
350
1F37
  3
FACEPATTERN
350
1F3B
  3
FLAT
350
1F2D
  3
FLATWITHEDGES
350
1F2E
  3
GOURAUD
350
1F2F
  3
GOURAUDWITHEDGES
350
1F30
  3
LINEPATTERN
350
1F3A
  3
REALISTIC
350
1F36
  3
THICKEN
350
1F39
  0
XRECORD
  5
480
102
{ACAD_REACTORS
330
7
102
}
330
7
100
AcDbXrecord
 90
   990106
  3

 60
     0
 61
     0
 62
     1
 63
     3
 64
     1
 65
     0
 66
     0
 67
     3
 68
     1
 69
     0
 70
     0
 71
     0
 72
     0
 40
0.0
170
     2
340
0
  0
XRECORD
  5
24A1
102
{ACAD_REACTORS
330
7
102
}
330
7
100
AcDbXrecord
 90
        1
330
1F3F
  0
DICTIONARY
  5
2523
102
{ACAD_REACTORS
330
7
102
}
330
7
100
AcDbDictionary
  3
CEPSNTYPE
350
252D
  3
DIMSTYLEDATA
350
2531
  3
FINGERPRINTGUID
350
252E
  3
HYPERLINKBASE
350
2526
  3
INSUNITS
350
252C
  3
LAYOUTDICT
350
2528
  3
LWETCUNION
350
252B
  3
PLOTSETDICT
350
2529
  3
PLOTSTYLNAMDICT
350
252A
  3
PSVPSCALE
350
2530
  3
PUCSBASE
350
2534
  3
PUCSORGBACK
350
253A
  3
PUCSORGBOTTOM
350
2536
  3
PUCSORGFRONT
350
2539
  3
PUCSORGLEFT
350
2537
  3
PUCSORGRIGHT
350
2538
  3
PUCSORGTOP
350
2535
  3
PUCSORTHOREF
350
2532
  3
PUCSORTHOVIEW
350
2533
  3
STYLESHEET
350
2527
  3
TSTACKALIGN
350
2524
  3
TSTACKSIZE
350
2525
  3
UCSBASE
350
253D
  3
UCSORGBACK
350
2543
  3
UCSORGBOTTOM
350
253F
  3
UCSORGFRONT
350
2542
  3
UCSORGLEFT
350
2540
  3
UCSORGRIGHT
350
2541
  3
UCSORGTOP
350
253E
  3
UCSORTHOREF
350
253B
  3
UCSORTHOVIEW
350
253C
  3
VERSIONGUID
350
252F
  0
DICTIONARY
  5
102
102
{ACAD_REACTORS
330
7
102
}
330
7
100
AcDbDictionary
  3
CANNOSCALE
350
24BD
  3
CMLEADERSTYLE
350
24BC
  3
CTABLESTYLE
350
24BB
  3
DIMASSOC
350
103
  3
INDEXCTL
350
24BF
  3
SORTENTS
350
24BE
  0
XRECORD
  5
24A2
102
{ACAD_REACTORS
330
7
102
}
330
7
100
AcDbXrecord
  1
DWGPROPS COOKIE
  2

  3

  4

  6

  7

  8
ymorima
  9

300
=
301
=
302
=
303
=
304
=
305
=
306
=
307
=
308
=
309
=
 40
0.0316093287037037
 41
2453692.455048646
 42
2454474.411976631
  1

 90
        0
  0
XRECORD
  5
24AB
102
{ACAD_REACTORS
330
24AA
102
}
330
24AA
100
AcDbXrecord
102
VTR_0.000_0.000_1.000_1.000_VISUALSTYLE
340
1F32
102
VTR_0.000_0.000_1.000_1.000_GRIDDISPLAY
 70
     3
102
VTR_0.000_0.000_1.000_1.000_GRIDMAJOR
 70
     5
102
VTR_0.000_0.000_1.000_1.000_DEFAULTLIGHTING
280
     1
102
VTR_0.000_0.000_1.000_1.000_DEFAULTLIGHTINGTYPE
 70
     1
102
VTR_0.000_0.000_1.000_1.000_BRIGHTNESS
141
0.0
102
VTR_0.000_0.000_1.000_1.000_CONTRAST
142
0.0
  0
DICTIONARY
  5
1F68
102
{ACAD_REACTORS
330
1F67
102
}
330
1F67
100
AcDbDictionary
  0
XRECORD
  5
24A5
102
{ACAD_REACTORS
330
248F
102
}
330
248F
100
AcDbXrecord
102
MATERIAL
340
1F24
  0
XRECORD
  5
2490
102
{ACAD_REACTORS
330
248F
102
}
330
248F
100
AcDbXrecord
290
     1
  0
XRECORD
  5
24A4
102
{ACAD_REACTORS
330
2491
102
}
330
2491
100
AcDbXrecord
102
MATERIAL
340
1F24
  0
XRECORD
  5
2492
102
{ACAD_REACTORS
330
2491
102
}
330
2491
100
AcDbXrecord
290
     1
  0
XRECORD
  5
24B1
102
{ACAD_REACTORS
330
2497
102
}
330
2497
100
AcDbXrecord
102
MATERIAL
340
1F24
  0
XRECORD
  5
2498
102
{ACAD_REACTORS
330
2497
102
}
330
2497
100
AcDbXrecord
290
     1
  0
XRECORD
  5
24B2
102
{ACAD_REACTORS
330
2499
102
}
330
2499
100
AcDbXrecord
102
MATERIAL
340
1F24
  0
XRECORD
  5
249A
102
{ACAD_REACTORS
330
2499
102
}
330
2499
100
AcDbXrecord
290
     1
  0
XRECORD
  5
24B4
102
{ACAD_REACTORS
330
249D
102
}
330
249D
100
AcDbXrecord
102
MATERIAL
340
1F24
  0
XRECORD
  5
249E
102
{ACAD_REACTORS
330
249D
102
}
330
249D
100
AcDbXrecord
290
     1
  0
XRECORD
  5
2545
102
{ACAD_REACTORS
330
2544
102
}
330
2544
100
AcDbXrecord
340
2
  0
XRECORD
  5
2547
102
{ACAD_REACTORS
330
2546
102
}
330
2546
100
AcDbXrecord
340
251D
  0
ACAD_PROXY_OBJECT
  5
1F1C
102
{ACAD_XDICTIONARY
360
1F1D
102
}
102
{ACAD_REACTORS
330
1F13
102
}
330
1F13
100
AcDbProxyObject
 90
      499
 91
      511
 93
     1340
310
42109E509B1BD8DAC02004014080404555555555555953FAA155555555555654FEA9AA400014080404555555555555953FAA155555555555654FEA9AA400000000000000E03F4080404555555555555953FAA155555555555654FEA9AA4014080404555555555555953FAA155555555555654FEA9AA4010201011555555555
310
55654FEA8555555555555953FAA6A9005020101155555555555654FEA8555555555555953FAA6A9000
 94
        0
1001
ACAD
1000
AcadProxyRoundTripData
1071
      504
1071
   655383
1070
     0
  0
ACAD_PROXY_OBJECT
  5
1F14
102
{ACAD_XDICTIONARY
360
1F15
102
}
102
{ACAD_REACTORS
330
1F13
102
}
330
1F13
100
AcDbProxyObject
 90
      499
 91
      511
 93
     1340
310
42109E53185E595C802004014080404555555555555953FAA155555555555654FEA9AA400014080404555555555555953FAA155555555555654FEA9AA400000000000000E03F4080404555555555555953FAA155555555555654FEA9AA4014080404555555555555953FAA155555555555654FEA9AA4010201011555555555
310
55654FEA8555555555555953FAA6A9005020101155555555555654FEA8555555555555953FAA6A9000
 94
        0
1001
ACAD
1000
AcadProxyRoundTripData
1071
      504
1071
   655383
1070
     0
  0
ACAD_PROXY_OBJECT
  5
1F24
102
{ACAD_XDICTIONARY
360
1F25
102
}
102
{ACAD_REACTORS
330
1F13
102
}
330
1F13
100
AcDbProxyObject
 90
      499
 91
      511
 93
     1332
310
41D1DB1BD8985B002004014080404555555555555953FAA155555555555654FEA9AA400014080404555555555555953FAA155555555555654FEA9AA400000000000000E03F4080404555555555555953FAA155555555555654FEA9AA4014080404555555555555953FAA155555555555654FEA9AA401020101155555555555
310
654FEA8555555555555953FAA6A9005020101155555555555654FEA8555555555555953FAA6A9000
 94
        0
1001
ACAD
1000
AcadProxyRoundTripData
1071
      504
1071
   655383
1070
     0
  0
ACAD_PROXY_OBJECT
  5
1F63
102
{ACAD_REACTORS
330
1F62
102
}
330
1F62
100
AcDbProxyObject
 90
      499
 91
      511
 93
      618
310
40901902A4063FBFFFFFE056BD1B81E855B9FC0AD7A3703D0AD73F4254DD185B99185C990000AD7A3703D0AC73F90141901A02B5E8DC0F42B1CFC02B5E8DC0F42B1CFE5764000000000000300FC6
340
6A
340
0
340
16
340
0
 94
        0
1001
ACAD_MLEADERVER
1070
     2
1001
ACAD
1000
AcadProxyRoundTripData
1071
      508
1071
   655383
1070
     0
  0
MLINESTYLE
  5
78
102
{ACAD_REACTORS
330
76
102
}
330
76
100
AcDbMlineStyle
  2
STANDARD
 70
     0
  3

 62
     0
 51
90.0
 52
90.0
 71
     2
 49
0.5
 62
   256
  6
BYLAYER
 49
-0.5
 62
   256
  6
BYLAYER
  0
ACDBPLACEHOLDER
  5
5
102
{ACAD_REACTORS
330
6
102
}
330
6
100
AcDbPlaceHolder
280
     0
  0
ACAD_PROXY_OBJECT
  5
1F41
102
{ACAD_REACTORS
330
1F40
102
}
330
1F40
100
AcDbProxyObject
 90
      499
 91
      511
 93
       49
310
904313A3100598
 94
        0
1001
ACAD
1000
AcadProxyRoundTripData
1071
      507
1071
   655383
1070
     0
  0
ACAD_PROXY_OBJECT
  5
1F42
102
{ACAD_REACTORS
330
1F40
102
}
330
1F40
100
AcDbProxyObject
 90
      499
 91
      511
 93
      113
310
904313A3200400000000000000406B
 94
        0
1001
ACAD
1000
AcadProxyRoundTripData
1071
      507
1071
   655383
1070
     0
  0
ACAD_PROXY_OBJECT
  5
1F43
102
{ACAD_REACTORS
330
1F40
102
}
330
1F40
100
AcDbProxyObject
 90
      499
 91
      511
 93
      113
310
904313A3400400000000000010406B
 94
        0
1001
ACAD
1000
AcadProxyRoundTripData
1071
      507
1071
   655383
1070
     0
  0
ACAD_PROXY_OBJECT
  5
1F44
102
{ACAD_REACTORS
330
1F40
102
}
330
1F40
100
AcDbProxyObject
 90
      499
 91
      511
 93
      113
310
904313A3500400000000000014406B
 94
        0
1001
ACAD
1000
AcadProxyRoundTripData
1071
      507
1071
   655383
1070
     0
  0
ACAD_PROXY_OBJECT
  5
1F45
102
{ACAD_REACTORS
330
1F40
102
}
330
1F40
100
AcDbProxyObject
 90
      499
 91
      511
 93
      113
310
904313A3800400000000000020406B
 94
        0
1001
ACAD
1000
AcadProxyRoundTripData
1071
      507
1071
   655383
1070
     0
  0
ACAD_PROXY_OBJECT
  5
1F46
102
{ACAD_REACTORS
330
1F40
102
}
330
1F40
100
AcDbProxyObject
 90
      499
 91
      511
 93
      121
310
905313A3130004000000000000244051
 94
        0
1001
ACAD
1000
AcadProxyRoundTripData
1071
      507
1071
   655383
1070
     0
  0
ACAD_PROXY_OBJECT
  5
1F47
102
{ACAD_REACTORS
330
1F40
102
}
330
1F40
100
AcDbProxyObject
 90
      499
 91
      511
 93
      121
310
905313A3136004000000000000304051
 94
        0
1001
ACAD
1000
AcadProxyRoundTripData
1071
      507
1071
   655383
1070
     0
  0
ACAD_PROXY_OBJECT
  5
1F48
102
{ACAD_REACTORS
330
1F40
102
}
330
1F40
100
AcDbProxyObject
 90
      499
 91
      511
 93
      121
310
905313A3230004000000000000344051
 94
        0
1001
ACAD
1000
AcadProxyRoundTripData
1071
      507
1071
   655383
1070
     0
  0
ACAD_PROXY_OBJECT
  5
1F49
102
{ACAD_REACTORS
330
1F40
102
}
330
1F40
100
AcDbProxyObject
 90
      499
 91
      511
 93
      121
310
905313A33300040000000000003E4051
 94
        0
1001
ACAD
1000
AcadProxyRoundTripData
1071
      507
1071
   655383
1070
     0
  0
ACAD_PROXY_OBJECT
  5
1F4A
102
{ACAD_REACTORS
330
1F40
102
}
330
1F40
100
AcDbProxyObject
 90
      499
 91
      511
 93
      121
310
905313A3430004000000000000444051
 94
        0
1001
ACAD
1000
AcadProxyRoundTripData
1071
      507
1071
   655383
1070
     0
  0
ACAD_PROXY_OBJECT
  5
1F4B
102
{ACAD_REACTORS
330
1F40
102
}
330
1F40
100
AcDbProxyObject
 90
      499
 91
      511
 93
      121
310
905313A3530004000000000000494051
 94
        0
1001
ACAD
1000
AcadProxyRoundTripData
1071
      507
1071
   655383
1070
     0
  0
ACAD_PROXY_OBJECT
  5
1F4C
102
{ACAD_REACTORS
330
1F40
102
}
330
1F40
100
AcDbProxyObject
 90
      499
 91
      511
 93
      129
310
906313A313030004000000000000594038
 94
        0
1001
ACAD
1000
AcadProxyRoundTripData
1071
      507
1071
   655383
1070
     0
  0
ACAD_PROXY_OBJECT
  5
1F4D
102
{ACAD_REACTORS
330
1F40
102
}
330
1F40
100
AcDbProxyObject
 90
      499
 91
      511
 93
      113
310
904323A31000000000000000010159
 94
        0
1001
ACAD
1000
AcadProxyRoundTripData
1071
      507
1071
   655383
1070
     0
  0
ACAD_PROXY_OBJECT
  5
1F4E
102
{ACAD_REACTORS
330
1F40
102
}
330
1F40
100
AcDbProxyObject
 90
      499
 91
      511
 93
      113
310
904343A31000000000000000410159
 94
        0
1001
ACAD
1000
AcadProxyRoundTripData
1071
      507
1071
   655383
1070
     0
  0
ACAD_PROXY_OBJECT
  5
1F4F
102
{ACAD_REACTORS
330
1F40
102
}
330
1F40
100
AcDbProxyObject
 90
      499
 91
      511
 93
      113
310
904383A31000000000000000810159
 94
        0
1001
ACAD
1000
AcadProxyRoundTripData
1071
      507
1071
   655383
1070
     0
  0
ACAD_PROXY_OBJECT
  5
1F50
102
{ACAD_REACTORS
330
1F40
102
}
330
1F40
100
AcDbProxyObject
 90
      499
 91
      511
 93
      121
310
90531303A31000000000000000910140
 94
        0
1001
ACAD
1000
AcadProxyRoundTripData
1071
      507
1071
   655383
1070
     0
  0
ACAD_PROXY_OBJECT
  5
1F51
102
{ACAD_REACTORS
330
1F40
102
}
330
1F40
100
AcDbProxyObject
 90
      499
 91
      511
 93
      129
310
9063130303A31000000000000001650138
 94
        0
1001
ACAD
1000
AcadProxyRoundTripData
1071
      507
1071
   655383
1070
     0
  0
ACAD_PROXY_OBJECT
  5
1F52
102
{ACAD_REACTORS
330
1F40
102
}
330
1F40
100
AcDbProxyObject
 90
      499
 91
      511
 93
      265
310
90F312F31323822203D2031272D302200000000000000200FC00000000000028402B
 94
        0
1001
ACAD
1000
AcadProxyRoundTripData
1071
      507
1071
   655383
1070
     0
  0
ACAD_PROXY_OBJECT
  5
1F53
102
{ACAD_REACTORS
330
1F40
102
}
330
1F40
100
AcDbProxyObject
 90
      499
 91
      511
 93
      257
310
90E312F363422203D2031272D302200000000000000240FC000000000000284040
 94
        0
1001
ACAD
1000
AcadProxyRoundTripData
1071
      507
1071
   655383
1070
     0
  0
ACAD_PROXY_OBJECT
  5
1F54
102
{ACAD_REACTORS
330
1F40
102
}
330
1F40
100
AcDbProxyObject
 90
      499
 91
      511
 93
      257
310
90E312F333222203D2031272D302200000000000000280FC000000000000284040
 94
        0
1001
ACAD
1000
AcadProxyRoundTripData
1071
      507
1071
   655383
1070
     0
  0
ACAD_PROXY_OBJECT
  5
1F55
102
{ACAD_REACTORS
330
1F40
102
}
330
1F40
100
AcDbProxyObject
 90
      499
 91
      511
 93
      257
310
90E312F313622203D2031272D3022000000000000002C0FC000000000000284040
 94
        0
1001
ACAD
1000
AcadProxyRoundTripData
1071
      507
1071
   655383
1070
     0
  0
ACAD_PROXY_OBJECT
  5
1F56
102
{ACAD_REACTORS
330
1F40
102
}
330
1F40
100
AcDbProxyObject
 90
      499
 91
      511
 93
      257
310
90E332F333222203D2031272D3022000000000000002E0FC000000000000284040
 94
        0
1001
ACAD
1000
AcadProxyRoundTripData
1071
      507
1071
   655383
1070
     0
  0
ACAD_PROXY_OBJECT
  5
1F57
102
{ACAD_REACTORS
330
1F40
102
}
330
1F40
100
AcDbProxyObject
 90
      499
 91
      511
 93
      249
310
90D312F3822203D2031272D302200000000000000300FC000000000000284040
 94
        0
1001
ACAD
1000
AcadProxyRoundTripData
1071
      507
1071
   655383
1070
     0
  0
ACAD_PROXY_OBJECT
  5
1F58
102
{ACAD_REACTORS
330
1F40
102
}
330
1F40
100
AcDbProxyObject
 90
      499
 91
      511
 93
      257
310
90E332F313622203D2031272D302200000000000000320FC000000000000284040
 94
        0
1001
ACAD
1000
AcadProxyRoundTripData
1071
      507
1071
   655383
1070
     0
  0
ACAD_PROXY_OBJECT
  5
1F59
102
{ACAD_REACTORS
330
1F40
102
}
330
1F40
100
AcDbProxyObject
 90
      499
 91
      511
 93
      249
310
90D312F3422203D2031272D302200000000000000340FC000000000000284040
 94
        0
1001
ACAD
1000
AcadProxyRoundTripData
1071
      507
1071
   655383
1070
     0
  0
ACAD_PROXY_OBJECT
  5
1F5A
102
{ACAD_REACTORS
330
1F40
102
}
330
1F40
100
AcDbProxyObject
 90
      499
 91
      511
 93
      249
310
90D332F3822203D2031272D302200000000000000360FC000000000000284040
 94
        0
1001
ACAD
1000
AcadProxyRoundTripData
1071
      507
1071
   655383
1070
     0
  0
ACAD_PROXY_OBJECT
  5
1F5B
102
{ACAD_REACTORS
330
1F40
102
}
330
1F40
100
AcDbProxyObject
 90
      499
 91
      511
 93
      249
310
90D312F3222203D2031272D302200000000000000380FC000000000000284040
 94
        0
1001
ACAD
1000
AcadProxyRoundTripData
1071
      507
1071
   655383
1070
     0
  0
ACAD_PROXY_OBJECT
  5
1F5C
102
{ACAD_REACTORS
330
1F40
102
}
330
1F40
100
AcDbProxyObject
 90
      499
 91
      511
 93
      249
310
90D332F3422203D2031272D3022000000000000003A0FC000000000000284040
 94
        0
1001
ACAD
1000
AcadProxyRoundTripData
1071
      507
1071
   655383
1070
     0
  0
ACAD_PROXY_OBJECT
  5
1F5D
102
{ACAD_REACTORS
330
1F40
102
}
330
1F40
100
AcDbProxyObject
 90
      499
 91
      511
 93
      169
310
90B3122203D2031272D3022004000000000000284020
 94
        0
1001
ACAD
1000
AcadProxyRoundTripData
1071
      507
1071
   655383
1070
     0
  0
ACAD_PROXY_OBJECT
  5
1F5E
102
{ACAD_REACTORS
330
1F40
102
}
330
1F40
100
AcDbProxyObject
 90
      499
 91
      511
 93
      265
310
90F312D312F3222203D2031272D3022000000000000003E0FC00000000000028402B
 94
        0
1001
ACAD
1000
AcadProxyRoundTripData
1071
      507
1071
   655383
1070
     0
  0
ACAD_PROXY_OBJECT
  5
1F5F
102
{ACAD_REACTORS
330
1F40
102
}
330
1F40
100
AcDbProxyObject
 90
      499
 91
      511
 93
      233
310
90B3322203D2031272D30220000000000000002100000000000000284000
 94
        0
1001
ACAD
1000
AcadProxyRoundTripData
1071
      507
1071
   655383
1070
     0
  0
ACAD_PROXY_OBJECT
  5
1F60
102
{ACAD_REACTORS
330
1F40
102
}
330
1F40
100
AcDbProxyObject
 90
      499
 91
      511
 93
      233
310
90B3622203D2031272D30220000000000000006100000000000000284000
 94
        0
1001
ACAD
1000
AcadProxyRoundTripData
1071
      507
1071
   655383
1070
     0
  0
ACAD_PROXY_OBJECT
  5
1F61
102
{ACAD_REACTORS
330
1F40
102
}
330
1F40
100
AcDbProxyObject
 90
      499
 91
      511
 93
      257
310
90E31272D3022203D2031272D3022000000000000000A100000000000000284040
 94
        0
1001
ACAD
1000
AcadProxyRoundTripData
1071
      507
1071
   655383
1070
     0
  0
ACAD_PROXY_OBJECT
  5
1F3F
102
{ACAD_XDICTIONARY
360
249F
102
}
102
{ACAD_REACTORS
330
1F3E
102
}
330
1F3E
100
AcDbProxyObject
 90
      499
 91
      511
 93
     1849
310
4254DD185B99185C990028B81E85EB51B8AE3F2E07A17AD46E2B8FC02B5E8DC0F42B1CFD028000000C1008070000C3001FDFF8000000C1003FBFF000000182007F7FE00000030400FEFFC00000060801FDFF8000000C1003FBFF00000018200000000000000681FA0B0000001820100E000186003FBFF000000182007F7FE0
310
0000030400FEFFC00000060801FDFF8000000C1003FBFF000000182007F7FE000000304000AD7A3703D0AC73F4160000003040201C00030C007F7FE00000030400FEFFC00000060801FDFF8000000C1003FBFF000000182007F7FE00000030400FEFFC000000608000
340
16
340
16
340
16
 94
        0
1001
ACAD
1000
AcadProxyRoundTripData
1071
      506
1071
   655383
1070
     0
  0
ACAD_PROXY_OBJECT
  5
1F32
102
{ACAD_REACTORS
330
1F2C
102
}
330
1F2C
100
AcDbProxyObject
 90
      499
 91
      511
 93
      444
310
430C9915DA5C99599C985B59401049028333333333333E3BF0000000000000FB0107901411070040501600405405064090741402480A0340
 94
        0
1001
ACAD
1000
AcDbSavedByObjectVersion
1070
     0
1000
AcadProxyRoundTripData
1071
      505
1071
   655383
1070
     0
  0
ACAD_PROXY_OBJECT
  5
1F34
102
{ACAD_REACTORS
330
1F2C
102
}
330
1F2C
100
AcDbProxyObject
 90
      499
 91
      511
 93
      508
310
428CD108121A5919195B8010640502408333333333333E3BF0000000000000FB01079024090700405020000000000001110200405405064090740C02480A0340
 94
        0
1001
ACAD
1000
AcDbSavedByObjectVersion
1070
     0
1000
AcadProxyRoundTripData
1071
      505
1071
   655383
1070
     0
  0
ACAD_PROXY_OBJECT
  5
1F33
102
{ACAD_REACTORS
330
1F2C
102
}
330
1F2C
100
AcDbProxyObject
 90
      499
 91
      511
 93
      444
310
430CD915DA5C99599C985B59401059028333333333333E3BF0000000000000FB0107901411070040501600405405064090741402480A0340
 94
        0
1001
ACAD
1000
AcDbSavedByObjectVersion
1070
     0
1000
AcadProxyRoundTripData
1071
      505
1071
   655383
1070
     0
  0
ACAD_PROXY_OBJECT
  5
1F31
102
{ACAD_REACTORS
330
1F2C
102
}
330
1F2C
100
AcDbProxyObject
 90
      499
 91
      511
 93
      396
310
4190985CDA58C0107406404333333333333E3BF0000000000000FB0107A41107004050150841D405064090741402480A0356
 94
        0
1001
ACAD
1000
AcDbSavedByObjectVersion
1070
     0
1000
AcadProxyRoundTripData
1071
      505
1071
   655383
1070
     0
  0
ACAD_PROXY_OBJECT
  5
1F38
102
{ACAD_REACTORS
330
1F2C
102
}
330
1F2C
100
AcDbProxyObject
 90
      499
 91
      511
 93
      436
310
42509C9A59DA1D195B8010C409028333333333333E3BF0000000000000FB010790141107004050150841D405064090741402480A029956
 94
        0
1001
ACAD
1000
AcDbSavedByObjectVersion
1070
     0
1000
AcadProxyRoundTripData
1071
      505
1071
   655383
1070
     0
  0
ACAD_PROXY_OBJECT
  5
1F3C
102
{ACAD_REACTORS
330
1F2C
102
}
330
1F2C
100
AcDbProxyObject
 90
      499
 91
      511
 93
      460
310
4310DBDB1BDC90DA185B99D9401104090240C333333333333E3BF0000000000000FB0108901411070040501508421405064090741402480A0354
 94
        0
1001
ACAD
1000
AcDbSavedByObjectVersion
1070
     0
1000
AcadProxyRoundTripData
1071
      505
1071
   655383
1070
     0
  0
ACAD_PROXY_OBJECT
  5
1F35
102
{ACAD_REACTORS
330
1F2C
102
}
330
1F2C
100
AcDbProxyObject
 90
      499
 91
      511
 93
      508
310
42D0DBDB98D95C1D1D585B0010940D028333333333333E3BF0000000000000FB0107902409070040501000000000000111010841D405064090740C02480A0340
 94
        0
1001
ACAD
1000
AcDbSavedByObjectVersion
1070
     0
1000
AcadProxyRoundTripData
1071
      505
1071
   655383
1070
     0
  0
ACAD_PROXY_OBJECT
  5
1F37
102
{ACAD_REACTORS
330
1F2C
102
}
330
1F2C
100
AcDbProxyObject
 90
      499
 91
      511
 93
      420
310
41111A5B4010B409028333333333333E3BF0000000000000FB010790141107004050150841D405064090741402480A02677FFFFFDB
 94
        0
1001
ACAD
1000
AcDbSavedByObjectVersion
1070
     0
1000
AcadProxyRoundTripData
1071
      505
1071
   655383
1070
     0
  0
ACAD_PROXY_OBJECT
  5
1F3B
102
{ACAD_REACTORS
330
1F2C
102
}
330
1F2C
100
AcDbProxyObject
 90
      499
 91
      511
 93
      452
310
43119858D95C185D1D195C9B8010F409028333333333333E3BF0000000000000FB010790141107004050150841D405064090741402480A0350
 94
        0
1001
ACAD
1000
AcDbSavedByObjectVersion
1070
     0
1000
AcadProxyRoundTripData
1071
      505
1071
   655383
1070
     0
  0
ACAD_PROXY_OBJECT
  5
1F2D
102
{ACAD_REACTORS
330
1F2C
102
}
330
1F2C
100
AcDbProxyObject
 90
      499
 91
      511
 93
      396
310
41519B185D00240901404333333333333E3BF0000000000000F9010740A41107004050150841D405064090741402480A1B55
 94
        0
1001
ACAD
1000
AcDbSavedByObjectVersion
1070
     0
1000
AcadProxyRoundTripData
1071
      505
1071
   655383
1070
     0
  0
ACAD_PROXY_OBJECT
  5
1F2E
102
{ACAD_REACTORS
330
1F2C
102
}
330
1F2C
100
AcDbProxyObject
 90
      499
 91
      511
 93
      484
310
43919B185D15DA5D1A115919D95CC010140901404333333333333E3BF0000000000000F9010740901411070040501600405405064090741402480A1B50
 94
        0
1001
ACAD
1000
AcDbSavedByObjectVersion
1070
     0
1000
AcadProxyRoundTripData
1071
      505
1071
   655383
1070
     0
  0
ACAD_PROXY_OBJECT
  5
1F2F
102
{ACAD_REACTORS
330
1F2C
102
}
330
1F2C
100
AcDbProxyObject
 90
      499
 91
      511
 93
      420
310
4211DBDD5C985D590010240902404333333333333E3BF0000000000000F9010740A411070040501641D405064090741402480A1B50
 94
        0
1001
ACAD
1000
AcDbSavedByObjectVersion
1070
     0
1000
AcadProxyRoundTripData
1071
      505
1071
   655383
1070
     0
  0
ACAD_PROXY_OBJECT
  5
1F30
102
{ACAD_REACTORS
330
1F2C
102
}
330
1F2C
100
AcDbProxyObject
 90
      499
 91
      511
 93
      508
310
4451DBDD5C985D5915DA5D1A115919D95CC010340902404333333333333E3BF0000000000000F9010740901411070040501600405405064090741402480A1B50
 94
        0
1001
ACAD
1000
AcDbSavedByObjectVersion
1070
     0
1000
AcadProxyRoundTripData
1071
      505
1071
   655383
1070
     0
  0
ACAD_PROXY_OBJECT
  5
1F3A
102
{ACAD_REACTORS
330
1F2C
102
}
330
1F2C
100
AcDbProxyObject
 90
      499
 91
      511
 93
      452
310
43131A5B995C185D1D195C9B8010E409028333333333333E3BF0000000000000FB010790141107004050750841D405064090741402483A0350
 94
        0
1001
ACAD
1000
AcDbSavedByObjectVersion
1070
     0
1000
AcadProxyRoundTripData
1071
      505
1071
   655383
1070
     0
  0
ACAD_PROXY_OBJECT
  5
1F36
102
{ACAD_REACTORS
330
1F2C
102
}
330
1F2C
100
AcDbProxyObject
 90
      499
 91
      511
 93
      428
310
429499585B1A5CDD1A58C0108409028333333333333E3BF0000000000000FB01079019070040501508421405064090741402480A1B45
 94
        0
1001
ACAD
1000
AcDbSavedByObjectVersion
1070
     0
1000
AcadProxyRoundTripData
1071
      505
1071
   655383
1070
     0
  0
ACAD_PROXY_OBJECT
  5
1F39
102
{ACAD_REACTORS
330
1F2C
102
}
330
1F2C
100
AcDbProxyObject
 90
      499
 91
      511
 93
      420
310
42151A1A58DAD95B8010D409028333333333333E3BF0000000000000FB010790141107004050150C41D405064090741402480A0352
 94
        0
1001
ACAD
1000
AcDbSavedByObjectVersion
1070
     0
1000
AcadProxyRoundTripData
1071
      505
1071
   655383
1070
     0
  0
XRECORD
  5
252D
102
{ACAD_REACTORS
330
2523
102
}
330
2523
100
AcDbXrecord
 90
        0
  0
XRECORD
  5
2531
102
{ACAD_REACTORS
330
2523
102
}
330
2523
100
AcDbXrecord
1000
DSTYLE
1002
{
1070
   179
 70
     2
1070
   277
 70
     6
1002
}
  0
XRECORD
  5
252E
102
{ACAD_REACTORS
330
2523
102
}
330
2523
100
AcDbXrecord
  1
{6385560B-F4B1-4644-A7C2-A3E32AC3D232}
  0
XRECORD
  5
2526
102
{ACAD_REACTORS
330
2523
102
}
330
2523
100
AcDbXrecord
  1

  0
XRECORD
  5
252C
102
{ACAD_REACTORS
330
2523
102
}
330
2523
100
AcDbXrecord
 90
        0
  0
XRECORD
  5
2528
102
{ACAD_REACTORS
330
2523
102
}
330
2523
100
AcDbXrecord
340
61
  0
XRECORD
  5
252B
102
{ACAD_REACTORS
330
2523
102
}
330
2523
100
AcDbXrecord
 90
    10781
  0
XRECORD
  5
2529
102
{ACAD_REACTORS
330
2523
102
}
330
2523
100
AcDbXrecord
340
77
  0
XRECORD
  5
252A
102
{ACAD_REACTORS
330
2523
102
}
330
2523
100
AcDbXrecord
340
6
  0
XRECORD
  5
2530
102
{ACAD_REACTORS
330
2523
102
}
330
2523
100
AcDbXrecord
 40
0.0
  0
XRECORD
  5
2534
102
{ACAD_REACTORS
330
2523
102
}
330
2523
100
AcDbXrecord
340
0
  0
XRECORD
  5
253A
102
{ACAD_REACTORS
330
2523
102
}
330
2523
100
AcDbXrecord
 10
0.0
 20
0.0
 30
0.0
  0
XRECORD
  5
2536
102
{ACAD_REACTORS
330
2523
102
}
330
2523
100
AcDbXrecord
 10
0.0
 20
0.0
 30
0.0
  0
XRECORD
  5
2539
102
{ACAD_REACTORS
330
2523
102
}
330
2523
100
AcDbXrecord
 10
0.0
 20
0.0
 30
0.0
  0
XRECORD
  5
2537
102
{ACAD_REACTORS
330
2523
102
}
330
2523
100
AcDbXrecord
 10
0.0
 20
0.0
 30
0.0
  0
XRECORD
  5
2538
102
{ACAD_REACTORS
330
2523
102
}
330
2523
100
AcDbXrecord
 10
0.0
 20
0.0
 30
0.0
  0
XRECORD
  5
2535
102
{ACAD_REACTORS
330
2523
102
}
330
2523
100
AcDbXrecord
 10
0.0
 20
0.0
 30
0.0
  0
XRECORD
  5
2532
102
{ACAD_REACTORS
330
2523
102
}
330
2523
100
AcDbXrecord
340
0
  0
XRECORD
  5
2533
102
{ACAD_REACTORS
330
2523
102
}
330
2523
100
AcDbXrecord
 70
     0
  0
XRECORD
  5
2527
102
{ACAD_REACTORS
330
2523
102
}
330
2523
100
AcDbXrecord
  1
Sekkei.ctb
  0
XRECORD
  5
2524
102
{ACAD_REACTORS
330
2523
102
}
330
2523
100
AcDbXrecord
 90
        1
  0
XRECORD
  5
2525
102
{ACAD_REACTORS
330
2523
102
}
330
2523
100
AcDbXrecord
 90
       70
  0
XRECORD
  5
253D
102
{ACAD_REACTORS
330
2523
102
}
330
2523
100
AcDbXrecord
340
0
  0
XRECORD
  5
2543
102
{ACAD_REACTORS
330
2523
102
}
330
2523
100
AcDbXrecord
 10
0.0
 20
0.0
 30
0.0
  0
XRECORD
  5
253F
102
{ACAD_REACTORS
330
2523
102
}
330
2523
100
AcDbXrecord
 10
0.0
 20
0.0
 30
0.0
  0
XRECORD
  5
2542
102
{ACAD_REACTORS
330
2523
102
}
330
2523
100
AcDbXrecord
 10
0.0
 20
0.0
 30
0.0
  0
XRECORD
  5
2540
102
{ACAD_REACTORS
330
2523
102
}
330
2523
100
AcDbXrecord
 10
0.0
 20
0.0
 30
0.0
  0
XRECORD
  5
2541
102
{ACAD_REACTORS
330
2523
102
}
330
2523
100
AcDbXrecord
 10
0.0
 20
0.0
 30
0.0
  0
XRECORD
  5
253E
102
{ACAD_REACTORS
330
2523
102
}
330
2523
100
AcDbXrecord
 10
0.0
 20
0.0
 30
0.0
  0
XRECORD
  5
253B
102
{ACAD_REACTORS
330
2523
102
}
330
2523
100
AcDbXrecord
340
0
  0
XRECORD
  5
253C
102
{ACAD_REACTORS
330
2523
102
}
330
2523
100
AcDbXrecord
 70
     0
  0
XRECORD
  5
252F
102
{ACAD_REACTORS
330
2523
102
}
330
2523
100
AcDbXrecord
  1
{3632B753-18BE-467F-BF96-08F53B623E63}
  0
DICTIONARYVAR
  5
24BD
102
{ACAD_REACTORS
330
102
102
}
330
102
100
DictionaryVariables
280
     0
  1
1:1
  0
DICTIONARYVAR
  5
24BC
102
{ACAD_REACTORS
330
102
102
}
330
102
100
DictionaryVariables
280
     0
  1
STANDARD
  0
DICTIONARYVAR
  5
24BB
102
{ACAD_REACTORS
330
102
102
}
330
102
100
DictionaryVariables
280
     0
  1
STANDARD
  0
DICTIONARYVAR
  5
103
102
{ACAD_REACTORS
330
102
102
}
330
102
100
DictionaryVariables
280
     0
  1
1
  0
DICTIONARYVAR
  5
24BF
102
{ACAD_REACTORS
330
102
102
}
330
102
100
DictionaryVariables
280
     0
  1
0
  0
DICTIONARYVAR
  5
24BE
102
{ACAD_REACTORS
330
102
102
}
330
102
100
DictionaryVariables
280
     0
  1
127
  0
DICTIONARY
  5
1F1D
330
1F1C
100
AcDbDictionary
280
     1
  3
ACAD_XREC_ROUNDTRIP
360
24B8
  3
BUMPTILE
360
1F1F
  3
DIFFUSETILE
360
1F1E
  3
OPACITYTILE
360
1F22
  3
REFLECTIONTILE
360
1F21
  3
REFRACTIONTILE
360
1F23
  3
SPECULARTILE
360
1F20
  0
DICTIONARY
  5
1F15
330
1F14
100
AcDbDictionary
280
     1
  3
ACAD_XREC_ROUNDTRIP
360
24B7
  3
BUMPTILE
360
1F17
  3
DIFFUSETILE
360
1F16
  3
OPACITYTILE
360
1F1A
  3
REFLECTIONTILE
360
1F19
  3
REFRACTIONTILE
360
1F1B
  3
SPECULARTILE
360
1F18
  0
DICTIONARY
  5
1F25
330
1F24
100
AcDbDictionary
280
     1
  3
ACAD_XREC_ROUNDTRIP
360
24B9
  3
BUMPTILE
360
1F27
  3
DIFFUSETILE
360
1F26
  3
OPACITYTILE
360
1F2A
  3
REFLECTIONTILE
360
1F29
  3
REFRACTIONTILE
360
1F2B
  3
SPECULARTILE
360
1F28
  0
DICTIONARY
  5
249F
330
1F3F
100
AcDbDictionary
280
     1
  3
ACAD_ROUNDTRIP_2008_TABLES
360
24A0
  3
ACAD_XREC_ROUNDTRIP
360
24BA
  0
XRECORD
  5
24B8
102
{ACAD_REACTORS
330
1F1D
102
}
330
1F1D
100
AcDbXrecord
102
MATERIAL
148
0.0
149
0.0
149
0.0
 93
        0
 94
      127
282
     0
 72
     0
 77
     0
171
     0
175
     0
179
     0
273
     0
  0
XRECORD
  5
1F1F
102
{ACAD_REACTORS
330
1F1D
102
}
330
1F1D
100
AcDbXrecord
270
     1
271
     1
  0
XRECORD
  5
1F1E
102
{ACAD_REACTORS
330
1F1D
102
}
330
1F1D
100
AcDbXrecord
270
     1
271
     1
  0
XRECORD
  5
1F22
102
{ACAD_REACTORS
330
1F1D
102
}
330
1F1D
100
AcDbXrecord
270
     1
271
     1
  0
XRECORD
  5
1F21
102
{ACAD_REACTORS
330
1F1D
102
}
330
1F1D
100
AcDbXrecord
270
     1
271
     1
  0
XRECORD
  5
1F23
102
{ACAD_REACTORS
330
1F1D
102
}
330
1F1D
100
AcDbXrecord
270
     1
271
     1
  0
XRECORD
  5
1F20
102
{ACAD_REACTORS
330
1F1D
102
}
330
1F1D
100
AcDbXrecord
270
     1
271
     1
  0
XRECORD
  5
24B7
102
{ACAD_REACTORS
330
1F15
102
}
330
1F15
100
AcDbXrecord
102
MATERIAL
148
0.0
149
0.0
149
0.0
 93
        0
 94
      127
282
     0
 72
     0
 77
     0
171
     0
175
     0
179
     0
273
     0
  0
XRECORD
  5
1F17
102
{ACAD_REACTORS
330
1F15
102
}
330
1F15
100
AcDbXrecord
270
     1
271
     1
  0
XRECORD
  5
1F16
102
{ACAD_REACTORS
330
1F15
102
}
330
1F15
100
AcDbXrecord
270
     1
271
     1
  0
XRECORD
  5
1F1A
102
{ACAD_REACTORS
330
1F15
102
}
330
1F15
100
AcDbXrecord
270
     1
271
     1
  0
XRECORD
  5
1F19
102
{ACAD_REACTORS
330
1F15
102
}
330
1F15
100
AcDbXrecord
270
     1
271
     1
  0
XRECORD
  5
1F1B
102
{ACAD_REACTORS
330
1F15
102
}
330
1F15
100
AcDbXrecord
270
     1
271
     1
  0
XRECORD
  5
1F18
102
{ACAD_REACTORS
330
1F15
102
}
330
1F15
100
AcDbXrecord
270
     1
271
     1
  0
XRECORD
  5
24B9
102
{ACAD_REACTORS
330
1F25
102
}
330
1F25
100
AcDbXrecord
102
MATERIAL
148
0.0
149
0.0
149
0.0
 93
        0
 94
      127
282
     0
 72
     0
 77
     0
171
     0
175
     0
179
     0
273
     0
  0
XRECORD
  5
1F27
102
{ACAD_REACTORS
330
1F25
102
}
330
1F25
100
AcDbXrecord
270
     1
271
     1
  0
XRECORD
  5
1F26
102
{ACAD_REACTORS
330
1F25
102
}
330
1F25
100
AcDbXrecord
270
     1
271
     1
  0
XRECORD
  5
1F2A
102
{ACAD_REACTORS
330
1F25
102
}
330
1F25
100
AcDbXrecord
270
     1
271
     1
  0
XRECORD
  5
1F29
102
{ACAD_REACTORS
330
1F25
102
}
330
1F25
100
AcDbXrecord
270
     1
271
     1
  0
XRECORD
  5
1F2B
102
{ACAD_REACTORS
330
1F25
102
}
330
1F25
100
AcDbXrecord
270
     1
271
     1
  0
XRECORD
  5
1F28
102
{ACAD_REACTORS
330
1F25
102
}
330
1F25
100
AcDbXrecord
270
     1
271
     1
  0
ACAD_PROXY_OBJECT
  5
24A0
102
{ACAD_REACTORS
330
249F
102
}
330
249F
100
AcDbProxyObject
 90
      499
 91
      511
 93
     1044
310
40D054060020000020000003200101A000080002A5058000000C100000000000000340FE901405075F5449544C450041501A8000000C800406800020000A9416000000304000AD7A3703D0AC73FA409014217D2115051115480105406A0000003200101A000080002A5028000000C10002B5E8DC0F42B1CFE903409065F444
310
15441004
340
16
340
16
340
16
 94
        0
1001
ACAD
1000
AcadProxyRoundTripData
1071
      510
1071
   655383
1070
     0
  0
XRECORD
  5
24BA
102
{ACAD_REACTORS
330
249F
102
}
330
249F
100
AcDbXrecord
102
ACAD_ROUNDTRIP_PRE2007_TABLESTYLE
 90
      512
 91
        0
  1

 92
      512
 93
        0
  2

 94
      512
 95
        0
  3

  0
ENDSEC
  0
EOF
