  0
SECTION
  2
HEADER
  9
$ACADVER
  1
AC1014
  9
$ACADMAINTVER
 70
     9
  9
$DWGCODEPAGE
  3
ANSI_932
  9
$INSBASE
 10
0.0
 20
0.0
 30
0.0
  9
$EXTMIN
 10
20.37048387538163
 20
18.18775321602134
 30
0.0
  9
$EXTMAX
 10
327.8672392465072
 20
293.8107740306104
 30
0.0
  9
$LIMMIN
 10
0.0
 20
0.0
  9
$LIMMAX
 10
297.0
 20
210.0
  9
$ORTHOMODE
 70
     1
  9
$REGENMODE
 70
     1
  9
$FILLMODE
 70
     1
  9
$QTEXTMODE
 70
     0
  9
$MIRRTEXT
 70
     0
  9
$DRAGMODE
 70
     2
  9
$LTSCALE
 40
2.0
  9
$OSMODE
 70
    37
  9
$ATTMODE
 70
     1
  9
$TEXTSIZE
 40
6.0
  9
$TRACEWID
 40
1.0
  9
$TEXTSTYLE
  7
STANDARD
  9
$CLAYER
  8
0
  9
$CELTYPE
  6
BYLAYER
  9
$CECOLOR
 62
   256
  9
$CELTSCALE
 40
1.0
  9
$DELOBJ
 70
     1
  9
$DISPSILH
 70
     0
  9
$DIMSCALE
 40
2.0
  9
$DIMASZ
 40
1.8
  9
$DIMEXO
 40
0.625
  9
$DIMDLI
 40
3.75
  9
$DIMRND
 40
0.0
  9
$DIMDLE
 40
0.0
  9
$DIMEXE
 40
0.8
  9
$DIMTP
 40
0.0
  9
$DIMTM
 40
0.0
  9
$DIMTXT
 40
1.8
  9
$DIMCEN
 40
2.5
  9
$DIMTSZ
 40
0.0
  9
$DIMTOL
 70
     0
  9
$DIMLIM
 70
     0
  9
$DIMTIH
 70
     0
  9
$DIMTOH
 70
     0
  9
$DIMSE1
 70
     0
  9
$DIMSE2
 70
     0
  9
$DIMTAD
 70
     1
  9
$DIMZIN
 70
     8
  9
$DIMBLK
  1

  9
$DIMASO
 70
     1
  9
$DIMSHO
 70
     1
  9
$DIMPOST
  1

  9
$DIMAPOST
  1

  9
$DIMALT
 70
     0
  9
$DIMALTD
 70
     4
  9
$DIMALTF
 40
0.0394
  9
$DIMLFAC
 40
1.0
  9
$DIMTOFL
 70
     1
  9
$DIMTVP
 40
0.0
  9
$DIMTIX
 70
     0
  9
$DIMSOXD
 70
     0
  9
$DIMSAH
 70
     0
  9
$DIMBLK1
  1

  9
$DIMBLK2
  1

  9
$DIMSTYLE
  2
STANDARD
  9
$DIMCLRD
 70
     0
  9
$DIMCLRE
 70
     0
  9
$DIMCLRT
 70
     0
  9
$DIMTFAC
 40
1.0
  9
$DIMGAP
 40
0.75
  9
$DIMJUST
 70
     0
  9
$DIMSD1
 70
     0
  9
$DIMSD2
 70
     0
  9
$DIMTOLJ
 70
     1
  9
$DIMTZIN
 70
     0
  9
$DIMALTZ
 70
     0
  9
$DIMALTTZ
 70
     0
  9
$DIMFIT
 70
     3
  9
$DIMUPT
 70
     0
  9
$DIMUNIT
 70
     8
  9
$DIMDEC
 70
     2
  9
$DIMTDEC
 70
     2
  9
$DIMALTU
 70
     8
  9
$DIMALTTD
 70
     4
  9
$DIMTXSTY
  7
STANDARD
  9
$DIMAUNIT
 70
     0
  9
$LUNITS
 70
     2
  9
$LUPREC
 70
     3
  9
$SKETCHINC
 40
1.0
  9
$FILLETRAD
 40
10.0
  9
$AUNITS
 70
     0
  9
$AUPREC
 70
     2
  9
$MENU
  1
.
  9
$ELEVATION
 40
0.0
  9
$PELEVATION
 40
0.0
  9
$THICKNESS
 40
0.0
  9
$LIMCHECK
 70
     0
  9
$BLIPMODE
 70
     0
  9
$CHAMFERA
 40
0.0
  9
$CHAMFERB
 40
0.0
  9
$CHAMFERC
 40
20.0
  9
$CHAMFERD
 40
0.0
  9
$SKPOLY
 70
     0
  9
$TDCREATE
 40
2453692.537992801
  9
$TDUPDATE
 40
2453928.598195891
  9
$TDINDWG
 40
0.0154459491
  9
$TDUSRTIMER
 40
0.0154459491
  9
$USRTIMER
 70
     1
  9
$ANGBASE
 50
0.0
  9
$ANGDIR
 70
     0
  9
$PDMODE
 70
     0
  9
$PDSIZE
 40
-10.0
  9
$PLINEWID
 40
0.0
  9
$COORDS
 70
     0
  9
$SPLFRAME
 70
     0
  9
$SPLINETYPE
 70
     6
  9
$SPLINESEGS
 70
     8
  9
$ATTDIA
 70
     0
  9
$ATTREQ
 70
     1
  9
$HANDLING
 70
-16383
  9
$HANDSEED
  5
17DC
  9
$SURFTAB1
 70
     6
  9
$SURFTAB2
 70
     6
  9
$SURFTYPE
 70
     6
  9
$SURFU
 70
     6
  9
$SURFV
 70
     6
  9
$UCSNAME
  2

  9
$UCSORG
 10
0.0
 20
0.0
 30
0.0
  9
$UCSXDIR
 10
1.0
 20
0.0
 30
0.0
  9
$UCSYDIR
 10
0.0
 20
1.0
 30
0.0
  9
$PUCSNAME
  2

  9
$PUCSORG
 10
0.0
 20
0.0
 30
0.0
  9
$PUCSXDIR
 10
1.0
 20
0.0
 30
0.0
  9
$PUCSYDIR
 10
0.0
 20
1.0
 30
0.0
  9
$USERI1
 70
     0
  9
$USERI2
 70
     0
  9
$USERI3
 70
     0
  9
$USERI4
 70
     0
  9
$USERI5
 70
     0
  9
$USERR1
 40
0.0
  9
$USERR2
 40
0.0
  9
$USERR3
 40
0.0
  9
$USERR4
 40
0.0
  9
$USERR5
 40
0.0
  9
$WORLDVIEW
 70
     1
  9
$SHADEDGE
 70
     3
  9
$SHADEDIF
 70
    70
  9
$TILEMODE
 70
     1
  9
$MAXACTVP
 70
    48
  9
$PINSBASE
 10
0.0
 20
0.0
 30
0.0
  9
$PLIMCHECK
 70
     0
  9
$PEXTMIN
 10
0.0
 20
0.0
 30
0.0
  9
$PEXTMAX
 10
0.0
 20
0.0
 30
0.0
  9
$PLIMMIN
 10
0.0
 20
0.0
  9
$PLIMMAX
 10
12.0
 20
9.0
  9
$UNITMODE
 70
     0
  9
$VISRETAIN
 70
     1
  9
$PLINEGEN
 70
     0
  9
$PSLTSCALE
 70
     1
  9
$TREEDEPTH
 70
  3020
  9
$PICKSTYLE
 70
     1
  9
$CMLSTYLE
  2
STANDARD
  9
$CMLJUST
 70
     0
  9
$CMLSCALE
 40
1.0
  9
$PROXYGRAPHICS
 70
     1
  9
$MEASUREMENT
 70
     0
  0
ENDSEC
  0
SECTION
  2
CLASSES
  0
CLASS
  1
DICTIONARYVAR
  2
AcDbDictionaryVar
  3
AutoCAD 2000
 90
        0
280
     0
281
     0
  0
CLASS
  1
ACDBDICTIONARYWDFLT
  2
AcDbDictionaryWithDefault
  3
AutoCAD 2000
 90
        0
280
     0
281
     0
  0
CLASS
  1
ACDBPLACEHOLDER
  2
AcDbPlaceHolder
  3
AutoCAD 2000
 90
        0
280
     0
281
     0
  0
CLASS
  1
LAYOUT
  2
AcDbLayout
  3
AutoCAD 2000
 90
        0
280
     0
281
     0
  0
CLASS
  1
LONG_TRANSACTION
  2
AcDbLongTransaction
  3
AutoCAD 2000
 90
        0
280
     0
281
     0
  0
CLASS
  1
LWPOLYLINE
  2
AcDbPolyline
  3
AutoCAD 2000
 90
        0
280
     0
281
     1
  0
CLASS
  1
HATCH
  2
AcDbHatch
  3
AutoCAD 2000
 90
        0
280
     0
281
     1
  0
CLASS
  1
XRECORD
  2
AcDbXrecord
  3
AutoCAD 2000
 90
        0
280
     0
281
     0
  0
ENDSEC
  0
SECTION
  2
TABLES
  0
TABLE
  2
VPORT
  5
6E
330
0
100
AcDbSymbolTable
 70
     2
  0
VPORT
  5
17B6
330
6E
100
AcDbSymbolTableRecord
100
AcDbViewportTableRecord
  2
*ACTIVE
 70
     0
 10
0.0
 20
0.0
 11
1.0
 21
1.0
 12
195.2737542048978
 22
154.4931979964099
 13
0.0
 23
0.0
 14
10.0
 24
10.0
 15
10.0
 25
10.0
 16
0.0
 26
0.0
 36
1.0
 17
0.0
 27
0.0
 37
0.0
 40
280.8244089728761
 41
1.566970091027308
 42
50.0
 43
0.0
 44
0.0
 50
0.0
 51
0.0
 71
     0
 72
   100
 73
     1
 74
     3
 75
     0
 76
     0
 77
     0
 78
     0
  0
ENDTAB
  0
TABLE
  2
LTYPE
  5
69
330
0
100
AcDbSymbolTable
 70
     4
  0
LTYPE
  5
6A
330
69
100
AcDbSymbolTableRecord
100
AcDbLinetypeTableRecord
  2
BYBLOCK
 70
     0
  3

 72
    65
 73
     0
 40
0.0
  0
LTYPE
  5
6B
330
69
100
AcDbSymbolTableRecord
100
AcDbLinetypeTableRecord
  2
BYLAYER
 70
     0
  3

 72
    65
 73
     0
 40
0.0
  0
LTYPE
  5
8
330
69
100
AcDbSymbolTableRecord
100
AcDbLinetypeTableRecord
  2
CONTINUOUS
 70
     0
  3
Solid line
 72
    65
 73
     0
 40
0.0
  0
LTYPE
  5
27C
330
69
100
AcDbSymbolTableRecord
100
AcDbLinetypeTableRecord
  2
SEKKEI_A2_
 70
     0
  3
center(A2)  ____ _ ____ _ ____ _ ____ _ ____ _ 
 72
    65
 73
     4
 40
14.28749999999999
 49
9.525
 74
     0
 49
-1.587499999999999
 74
     0
 49
1.587499999999999
 74
     0
 49
-1.587499999999999
 74
     0
  0
LTYPE
  5
2B4
330
69
100
AcDbSymbolTableRecord
100
AcDbLinetypeTableRecord
  2
HIDDEN2
 70
     0
  3
Hidden (.5x) _ _ _ _ _ _ _ _ _ _ _ _ _ _ _ _ _
 72
    65
 73
     2
 40
4.762499999999999
 49
3.174999999999999
 74
     0
 49
-1.587499999999999
 74
     0
  0
LTYPE
  5
48F
330
69
100
AcDbSymbolTableRecord
100
AcDbLinetypeTableRecord
  2
SEKKEI_H
 70
     0
  3
Hidden-S _ _ _ _ _ _ _ _ _ _ _ _ _ _ _ _ _
 72
    65
 73
     2
 40
2.381249999999999
 49
1.587499999999999
 74
     0
 49
-0.79375
 74
     0
  0
ENDTAB
  0
TABLE
  2
LAYER
  5
66
330
0
100
AcDbSymbolTable
 70
     9
  0
LAYER
  5
5E
330
66
100
AcDbSymbolTableRecord
100
AcDbLayerTableRecord
  2
0
 70
     0
 62
     7
  6
CONTINUOUS
  0
LAYER
  5
3E
330
66
100
AcDbSymbolTableRecord
100
AcDbLayerTableRecord
  2
CENTER
 70
     0
 62
     3
  6
SEKKEI_A2_
  0
LAYER
  5
2B5
330
66
100
AcDbSymbolTableRecord
100
AcDbLayerTableRecord
  2
HIDS
 70
     0
 62
     1
  6
HIDDEN2
  0
LAYER
  5
2BA
330
66
100
AcDbSymbolTableRecord
100
AcDbLayerTableRecord
  2
HOJO
 70
     0
 62
     4
  6
CONTINUOUS
  0
LAYER
  5
3FA
330
66
100
AcDbSymbolTableRecord
100
AcDbLayerTableRecord
  2
TITLE
 70
     0
 62
     4
  6
CONTINUOUS
  0
ENDTAB
  0
TABLE
  2
STYLE
  5
67
330
0
100
AcDbSymbolTable
 70
     2
  0
STYLE
  5
16
330
67
100
AcDbSymbolTableRecord
100
AcDbTextStyleTableRecord
  2
STANDARD
 70
     0
 40
0.0
 41
1.0
 50
0.0
 71
     0
 42
6.0
  3
simplex.shx
  4
extfont.shx
  0
ENDTAB
  0
TABLE
  2
VIEW
  5
6C
330
0
100
AcDbSymbolTable
 70
     0
  0
ENDTAB
  0
TABLE
  2
UCS
  5
6D
330
0
100
AcDbSymbolTable
 70
     0
  0
ENDTAB
  0
TABLE
  2
APPID
  5
70
330
0
100
AcDbSymbolTable
 70
     1
  0
APPID
  5
71
330
70
100
AcDbSymbolTableRecord
100
AcDbRegAppTableRecord
  2
ACAD
 70
     0
  0
ENDTAB
  0
TABLE
  2
DIMSTYLE
  5
72
330
0
100
AcDbSymbolTable
 70
     1
  0
DIMSTYLE
105
73
102
{ACAD_REACTORS
330
114E
330
11D7
330
11DF
102
}
330
72
100
AcDbSymbolTableRecord
100
AcDbDimStyleTableRecord
  2
STANDARD
 70
     0
  3

  4

  5

  6

  7

 40
2.0
 41
1.8
 42
0.625
 43
3.75
 44
0.8
 45
0.0
 46
0.0
 47
0.0
 48
0.0
140
1.8
141
2.5
142
0.0
143
0.0394
144
1.0
145
0.0
146
1.0
147
0.75
 71
     0
 72
     0
 73
     0
 74
     0
 75
     0
 76
     0
 77
     1
 78
     8
170
     0
171
     4
172
     1
173
     0
174
     0
175
     0
176
     0
177
     0
178
     0
270
     8
271
     2
272
     2
273
     8
274
     4
340
16
275
     0
280
     0
281
     0
282
     0
283
     1
284
     0
285
     0
286
     0
287
     3
288
     0
  0
ENDTAB
  0
TABLE
  2
BLOCK_RECORD
  5
1
330
0
100
AcDbSymbolTable
 70
    38
  0
BLOCK_RECORD
  5
2
102
{ACAD_XDICTIONARY
360
17D8
102
}
330
1
100
AcDbSymbolTableRecord
100
AcDbBlockTableRecord
  2
*MODEL_SPACE
  0
BLOCK_RECORD
  5
17B1
102
{ACAD_XDICTIONARY
360
17DA
102
}
330
1
100
AcDbSymbolTableRecord
100
AcDbBlockTableRecord
  2
*PAPER_SPACE
  0
ENDTAB
  0
ENDSEC
  0
SECTION
  2
BLOCKS
  0
BLOCK
  5
5D
330
2
100
AcDbEntity
  8
0
100
AcDbBlockBegin
  2
*MODEL_SPACE
 70
     0
 10
0.0
 20
0.0
 30
0.0
  3
*MODEL_SPACE
  1

  0
ENDBLK
  5
5F
330
2
100
AcDbEntity
  8
0
100
AcDbBlockEnd
  0
BLOCK
  5
17B3
330
17B1
100
AcDbEntity
 67
     1
  8
0
100
AcDbBlockBegin
  2
*PAPER_SPACE
 70
     0
 10
0.0
 20
0.0
 30
0.0
  3
*PAPER_SPACE
  1

  0
ENDBLK
  5
17B4
330
17B1
100
AcDbEntity
 67
     1
  8
0
100
AcDbBlockEnd
  0
ENDSEC
  0
SECTION
  2
ENTITIES
  0
LINE
  5
6B4
330
2
100
AcDbEntity
  8
CENTER
100
AcDbLine
 10
20.37048387538163
 20
82.87118503800753
 30
0.0
 11
164.3704838753816
 21
82.87118503800753
 31
0.0
  0
LINE
  5
6FC
330
2
100
AcDbEntity
  8
0
100
AcDbLine
 10
161.8704838753816
 20
110.3711850380075
 30
0.0
 11
161.8704838753816
 21
77.37118503800752
 31
0.0
  0
LINE
  5
6FE
330
2
100
AcDbEntity
  8
0
100
AcDbLine
 10
158.6705168753816
 20
108.1711840380075
 30
0.0
 11
158.6705168753816
 21
57.57119503800755
 31
0.0
  0
LINE
  5
700
330
2
100
AcDbEntity
  8
0
100
AcDbLine
 10
151.3705068753816
 20
120.3121950380075
 30
0.0
 11
151.3705068753816
 21
45.43019503800752
 31
0.0
  0
LINE
  5
701
330
2
100
AcDbEntity
  8
0
100
AcDbLine
 10
118.8705218753817
 20
121.0199850380075
 30
0.0
 11
118.8705218753817
 21
44.72249603800753
 31
0.0
  0
LINE
  5
702
330
2
100
AcDbEntity
  8
0
100
AcDbLine
 10
157.8705068753816
 20
121.3602940380075
 30
0.0
 11
157.8705068753816
 21
44.38209503800749
 31
0.0
  0
LINE
  5
703
330
2
100
AcDbEntity
  8
HIDS
  6
SEKKEI_H
100
AcDbLine
 10
150.8705068753817
 20
54.12118503800752
 30
0.0
 11
158.8705068753816
 21
54.12118503800752
 31
0.0
  0
LINE
  5
704
330
2
100
AcDbEntity
  8
HIDS
  6
SEKKEI_H
100
AcDbLine
 10
150.8705068753817
 20
47.62118503800752
 30
0.0
 11
158.8705068753816
 21
47.62118503800752
 31
0.0
  0
LINE
  5
705
330
2
100
AcDbEntity
  8
CENTER
100
AcDbLine
 10
146.8477178753816
 20
50.87118503800752
 30
0.0
 11
162.6205598753816
 21
50.87118503800752
 31
0.0
  0
LINE
  5
706
330
2
100
AcDbEntity
  8
0
100
AcDbLine
 10
152.3618168753815
 20
44.43019503800752
 30
0.0
 11
157.8705068753816
 21
44.38209503800749
 31
0.0
  0
LINE
  5
707
330
2
100
AcDbEntity
  8
0
100
AcDbLine
 10
117.8705218753817
 20
54.63558503800754
 30
0.0
 11
150.8705068753817
 21
54.34759503800751
 31
0.0
  0
LINE
  5
708
330
2
100
AcDbEntity
  8
0
100
AcDbLine
 10
118.8705218753817
 20
44.72249603800753
 30
0.0
 11
152.3618168753815
 21
44.43019503800752
 31
0.0
  0
LINE
  5
711
330
2
100
AcDbEntity
  8
0
100
AcDbLine
 10
117.8731198753815
 20
45.03118503800749
 30
0.0
 11
118.8705218753817
 21
45.02249503800749
 31
0.0
  0
LINE
  5
713
330
2
100
AcDbEntity
  8
0
100
AcDbLine
 10
150.8705068753817
 20
55.37118503800752
 30
0.0
 11
150.8705068753817
 21
46.37118503800752
 31
0.0
  0
ARC
  5
714
330
2
100
AcDbEntity
  8
0
100
AcDbCircle
 10
152.3705068753816
 20
45.43019503800752
 30
0.0
 40
1.0
100
AcDbArc
 50
180.0
 51
269.5000000000002
  0
LINE
  5
715
330
2
100
AcDbEntity
  8
0
100
AcDbLine
 10
150.8705068753817
 20
46.37118503800752
 30
0.0
 11
151.3705068753816
 21
45.87118503800752
 31
0.0
  0
LINE
  5
716
330
2
100
AcDbEntity
  8
0
100
AcDbLine
 10
150.8705068753817
 20
55.37118503800752
 30
0.0
 11
151.3705068753816
 21
55.87118503800752
 31
0.0
  0
LINE
  5
717
330
2
100
AcDbEntity
  8
0
100
AcDbLine
 10
158.8705068753816
 20
57.37118503800752
 30
0.0
 11
158.8705068753816
 21
45.37339403800752
 31
0.0
  0
LINE
  5
718
330
2
100
AcDbEntity
  8
0
100
AcDbLine
 10
157.8705068753816
 20
44.38209503800749
 30
0.0
 11
158.8705068753816
 21
45.37339403800752
 31
0.0
  0
LINE
  5
719
330
2
100
AcDbEntity
  8
0
100
AcDbLine
 10
158.6705168753816
 20
57.57119503800755
 30
0.0
 11
158.8705068753816
 21
57.37118503800752
 31
0.0
  0
ARC
  5
71A
330
2
100
AcDbEntity
  8
0
100
AcDbCircle
 10
160.8704838753816
 20
74.37118503800753
 30
0.0
 40
2.0
100
AcDbArc
 50
90.0
 51
180.0
  0
ARC
  5
71B
330
2
100
AcDbEntity
  8
0
100
AcDbCircle
 10
160.8704838753816
 20
77.37118503800752
 30
0.0
 40
1.0
100
AcDbArc
 50
270.0
 51
0.0
  0
LINE
  5
71C
330
2
100
AcDbEntity
  8
0
100
AcDbLine
 10
152.3618168753815
 20
121.3121950380075
 30
0.0
 11
157.8705068753816
 21
121.3602940380075
 31
0.0
  0
LINE
  5
71D
330
2
100
AcDbEntity
  8
HIDS
  6
SEKKEI_H
100
AcDbLine
 10
150.8705068753817
 20
118.1211850380075
 30
0.0
 11
158.8705068753816
 21
118.1211850380075
 31
0.0
  0
LINE
  5
71E
330
2
100
AcDbEntity
  8
HIDS
  6
SEKKEI_H
100
AcDbLine
 10
150.8705068753817
 20
111.6211850380075
 30
0.0
 11
158.8705068753816
 21
111.6211850380075
 31
0.0
  0
LINE
  5
71F
330
2
100
AcDbEntity
  8
CENTER
100
AcDbLine
 10
146.8477178753816
 20
114.8711850380075
 30
0.0
 11
161.6205598753816
 21
114.8711850380075
 31
0.0
  0
LINE
  5
720
330
2
100
AcDbEntity
  8
CENTER
100
AcDbLine
 10
189.8704838753816
 20
93.87118503800753
 30
0.0
 11
146.3705068753816
 21
93.87118503800753
 31
0.0
  0
LINE
  5
721
330
2
100
AcDbEntity
  8
0
100
AcDbLine
 10
117.8705218753817
 20
111.1067940380075
 30
0.0
 11
150.8705068753817
 21
111.3947940380075
 31
0.0
  0
LINE
  5
722
330
2
100
AcDbEntity
  8
0
100
AcDbLine
 10
118.8705218753817
 20
121.0199850380075
 30
0.0
 11
152.3618168753815
 21
121.3121950380075
 31
0.0
  0
LINE
  5
72F
330
2
100
AcDbEntity
  8
0
100
AcDbLine
 10
117.8731198753815
 20
120.7111970380075
 30
0.0
 11
118.8705218753817
 21
120.7198940380075
 31
0.0
  0
LINE
  5
730
330
2
100
AcDbEntity
  8
0
100
AcDbLine
 10
150.8705068753817
 20
119.3711850380075
 30
0.0
 11
150.8705068753817
 21
110.3711850380075
 31
0.0
  0
LINE
  5
731
330
2
100
AcDbEntity
  8
0
100
AcDbLine
 10
150.8705068753817
 20
110.3711850380075
 30
0.0
 11
151.3705068753816
 21
109.8711850380075
 31
0.0
  0
ARC
  5
732
330
2
100
AcDbEntity
  8
0
100
AcDbCircle
 10
152.3705068753816
 20
120.3121950380075
 30
0.0
 40
1.0
100
AcDbArc
 50
90.4999999999997
 51
180.0
  0
LINE
  5
733
330
2
100
AcDbEntity
  8
0
100
AcDbLine
 10
150.8705068753817
 20
119.3711850380075
 30
0.0
 11
151.3705068753816
 21
119.8711850380075
 31
0.0
  0
LINE
  5
7DC
330
2
100
AcDbEntity
  8
0
100
AcDbLine
 10
184.8704838753816
 20
95.87118503800752
 30
0.0
 11
166.8704838753816
 21
95.87118503800752
 31
0.0
  0
LINE
  5
7DD
330
2
100
AcDbEntity
  8
0
100
AcDbLine
 10
184.8704838753816
 20
91.87118503800752
 30
0.0
 11
166.8704838753816
 21
91.87118503800752
 31
0.0
  0
LINE
  5
7DE
330
2
100
AcDbEntity
  8
0
100
AcDbLine
 10
184.3704838753816
 20
99.87118503800752
 30
0.0
 11
162.8704838753816
 21
99.87118503800752
 31
0.0
  0
LINE
  5
7DF
330
2
100
AcDbEntity
  8
0
100
AcDbLine
 10
184.3704838753816
 20
87.87118503800753
 30
0.0
 11
162.8704838753816
 21
87.87118503800753
 31
0.0
  0
LINE
  5
7E0
330
2
100
AcDbEntity
  8
0
100
AcDbLine
 10
162.8704838753816
 20
101.3711850380075
 30
0.0
 11
162.8704838753816
 21
86.37118503800753
 31
0.0
  0
ARC
  5
7E1
330
2
100
AcDbEntity
  8
0
100
AcDbCircle
 10
166.8704838753816
 20
93.87118503800753
 30
0.0
 40
2.0
100
AcDbArc
 50
90.0
 51
180.0
  0
LINE
  5
7E2
330
2
100
AcDbEntity
  8
0
100
AcDbLine
 10
162.8704838753816
 20
86.37118503800753
 30
0.0
 11
161.8704838753816
 21
86.37118503800753
 31
0.0
  0
ARC
  5
7E3
330
2
100
AcDbEntity
  8
0
100
AcDbCircle
 10
166.8704838753816
 20
93.87118503800753
 30
0.0
 40
2.0
100
AcDbArc
 50
180.0
 51
270.0
  0
LINE
  5
7E4
330
2
100
AcDbEntity
  8
0
100
AcDbLine
 10
162.8704838753816
 20
101.3711850380075
 30
0.0
 11
161.8704838753816
 21
101.3711850380075
 31
0.0
  0
LINE
  5
7E5
330
2
100
AcDbEntity
  8
0
100
AcDbLine
 10
184.8704838753816
 20
99.37118503800753
 30
0.0
 11
184.8704838753816
 21
88.37118503800752
 31
0.0
  0
LINE
  5
7E6
330
2
100
AcDbEntity
  8
0
100
AcDbLine
 10
184.3704838753816
 20
91.87118503800752
 30
0.0
 11
184.3704838753816
 21
87.87118503800753
 31
0.0
  0
LINE
  5
7E7
330
2
100
AcDbEntity
  8
0
100
AcDbLine
 10
184.3704838753816
 20
87.87118503800753
 30
0.0
 11
184.8704838753816
 21
88.37118503800752
 31
0.0
  0
LINE
  5
7E8
330
2
100
AcDbEntity
  8
0
100
AcDbLine
 10
184.3704838753816
 20
99.87118503800752
 30
0.0
 11
184.3704838753816
 21
95.87118503800752
 31
0.0
  0
LINE
  5
7E9
330
2
100
AcDbEntity
  8
0
100
AcDbLine
 10
184.3704838753816
 20
99.87118503800752
 30
0.0
 11
184.8704838753816
 21
99.37118503800753
 31
0.0
  0
LINE
  5
7EA
330
2
100
AcDbEntity
  8
0
100
AcDbLine
 10
158.8705068753816
 20
120.3689840380075
 30
0.0
 11
158.8705068753816
 21
108.3711850380075
 31
0.0
  0
ARC
  5
7EB
330
2
100
AcDbEntity
  8
0
100
AcDbCircle
 10
160.8704838753816
 20
113.3711850380075
 30
0.0
 40
2.0
100
AcDbArc
 50
180.0
 51
270.0
  0
LINE
  5
7EC
330
2
100
AcDbEntity
  8
0
100
AcDbLine
 10
158.6705168753816
 20
108.1711840380075
 30
0.0
 11
158.8705068753816
 21
108.3711850380075
 31
0.0
  0
ARC
  5
7ED
330
2
100
AcDbEntity
  8
0
100
AcDbCircle
 10
160.8704838753816
 20
110.3711850380075
 30
0.0
 40
1.0
100
AcDbArc
 50
0.0
 51
90.0
  0
LINE
  5
7EE
330
2
100
AcDbEntity
  8
0
100
AcDbLine
 10
157.8705068753816
 20
121.3602940380075
 30
0.0
 11
158.8705068753816
 21
120.3689840380075
 31
0.0
  0
LINE
  5
7EF
330
2
100
AcDbEntity
  8
0
100
AcDbLine
 10
322.8672392465071
 20
114.8511940380075
 30
0.0
 11
322.8672392465071
 21
50.89129403800751
 31
0.0
  0
LINE
  5
7F0
330
2
100
AcDbEntity
  8
0
100
AcDbLine
 10
245.9072172465072
 20
114.8511940380075
 30
0.0
 11
245.9072172465072
 21
50.89118503800751
 31
0.0
  0
CIRCLE
  5
7F1
330
2
100
AcDbEntity
  8
0
100
AcDbCircle
 10
284.3872282465071
 20
93.87118503800753
 30
0.0
 40
17.5
  0
CIRCLE
  5
7F2
330
2
100
AcDbEntity
  8
0
100
AcDbCircle
 10
284.3872282465071
 20
82.87118503800753
 30
0.0
 40
35.0
  0
LINE
  5
7F3
330
2
100
AcDbEntity
  8
CENTER
100
AcDbLine
 10
284.3872282465071
 20
140.9523956571271
 30
0.0
 11
284.3872282465073
 21
39.39118503800751
 31
0.0
  0
LINE
  5
7F4
330
2
100
AcDbEntity
  8
CENTER
100
AcDbLine
 10
316.3872282465071
 20
120.8711850380075
 30
0.0
 11
316.3872282465071
 21
44.87118503800752
 31
0.0
  0
LINE
  5
7F5
330
2
100
AcDbEntity
  8
CENTER
100
AcDbLine
 10
252.3872282465071
 20
120.8711850380075
 30
0.0
 11
252.3872282465071
 21
44.87118503800752
 31
0.0
  0
LINE
  5
7F6
330
2
100
AcDbEntity
  8
0
100
AcDbLine
 10
279.6372282465073
 20
64.37118503800753
 30
0.0
 11
274.6784276880358
 21
64.37118503800753
 31
0.0
  0
LINE
  5
7F7
330
2
100
AcDbEntity
  8
0
100
AcDbLine
 10
274.1334263082232
 20
67.87118503800752
 30
0.0
 11
279.6372282465073
 21
67.87118503800752
 31
0.0
  0
LINE
  5
7F8
330
2
100
AcDbEntity
  8
0
100
AcDbLine
 10
279.6372282465073
 20
62.87118503800752
 30
0.0
 11
276.3872282465073
 21
62.87118503800752
 31
0.0
  0
LINE
  5
7F9
330
2
100
AcDbEntity
  8
0
100
AcDbLine
 10
269.8872282465073
 20
57.87118503800752
 30
0.0
 11
279.6372282465073
 21
57.87118503800752
 31
0.0
  0
LINE
  5
7FA
330
2
100
AcDbEntity
  8
CENTER
100
AcDbLine
 10
246.3872282465071
 20
50.87118503800752
 30
0.0
 11
322.387228246507
 21
50.87118503800752
 31
0.0
  0
LINE
  5
7FB
330
2
100
AcDbEntity
  8
CENTER
100
AcDbLine
 10
240.9072172465072
 20
82.87118503800753
 30
0.0
 11
327.8672392465072
 21
82.87118503800753
 31
0.0
  0
LINE
  5
7FC
330
2
100
AcDbEntity
  8
0
100
AcDbLine
 10
252.4072172465072
 20
44.39118503800751
 30
0.0
 11
316.3672392465072
 21
44.39118503800751
 31
0.0
  0
ARC
  5
7FD
330
2
100
AcDbEntity
  8
0
100
AcDbCircle
 10
247.9072172465072
 20
55.37118503800752
 30
0.0
 40
2.0
100
AcDbArc
 50
90.0
 51
180.0
  0
ARC
  5
7FE
330
2
100
AcDbEntity
  8
0
100
AcDbCircle
 10
252.4072172465072
 20
50.89118503800751
 30
0.0
 40
6.5
100
AcDbArc
 50
180.0
 51
270.0
  0
LINE
  5
7FF
330
2
100
AcDbEntity
  8
0
100
AcDbLine
 10
276.3872282465073
 20
62.87118503800752
 30
0.0
 11
276.3872282465073
 21
58.87118503800753
 31
0.0
  0
ARC
  5
800
330
2
100
AcDbEntity
  8
0
100
AcDbCircle
 10
274.9975223641541
 20
61.65794974388984
 30
0.0
 40
6.360400373134885
100
AcDbArc
 50
109.330727832983
 51
216.5387118574263
  0
ARC
  5
801
330
2
100
AcDbEntity
  8
0
100
AcDbCircle
 10
276.1944551911748
 20
61.5017125299554
 30
0.0
 40
4.060400373134885
100
AcDbArc
 50
166.3033947545398
 51
214.6155053814396
  0
LINE
  5
802
330
2
100
AcDbEntity
  8
0
100
AcDbLine
 10
258.8872282465071
 20
55.37118503800752
 30
0.0
 11
258.8872282465071
 21
46.39118503800751
 31
0.0
  0
CIRCLE
  5
803
330
2
100
AcDbEntity
  8
0
100
AcDbCircle
 10
252.3872282465071
 20
50.87118503800752
 30
0.0
 40
3.25
  0
ARC
  5
804
330
2
100
AcDbEntity
  8
0
100
AcDbCircle
 10
256.8872282465071
 20
46.39118503800751
 30
0.0
 40
2.0
100
AcDbArc
 50
270.0
 51
0.0
  0
LINE
  5
805
330
2
100
AcDbEntity
  8
0
100
AcDbLine
 10
247.9072172465072
 20
57.37118503800752
 30
0.0
 11
256.8872282465071
 21
57.37118503800752
 31
0.0
  0
ARC
  5
806
330
2
100
AcDbEntity
  8
0
100
AcDbCircle
 10
256.8872282465071
 20
55.37118503800752
 30
0.0
 40
2.0
100
AcDbArc
 50
0.0
 51
90.0
  0
LINE
  5
807
330
2
100
AcDbEntity
  8
0
100
AcDbLine
 10
276.3872282465073
 20
58.87118503800753
 30
0.0
 11
273.4700530581409
 21
58.87118503800753
 31
0.0
  0
ARC
  5
808
330
2
100
AcDbEntity
  8
0
100
AcDbCircle
 10
273.4700530581409
 20
59.62118503800752
 30
0.0
 40
0.75
100
AcDbArc
 50
214.6155053814396
 51
270.0
  0
ARC
  5
809
330
2
100
AcDbEntity
  8
0
100
AcDbCircle
 10
274.6784276880358
 20
61.87118503800753
 30
0.0
 40
2.5
100
AcDbArc
 50
90.0
 51
166.3033947545398
  0
ARC
  5
80A
330
2
100
AcDbEntity
  8
0
100
AcDbCircle
 10
274.1334263082232
 20
64.12118503800752
 30
0.0
 40
3.75
100
AcDbArc
 50
90.0
 51
109.330727832983
  0
LINE
  5
80B
330
2
100
AcDbEntity
  8
0
100
AcDbLine
 10
311.887228246507
 20
57.37118503800752
 30
0.0
 11
320.8672392465071
 21
57.37118503800752
 31
0.0
  0
LINE
  5
80C
330
2
100
AcDbEntity
  8
0
100
AcDbLine
 10
300.4372282465075
 20
57.87118503800752
 30
0.0
 11
298.8882809663506
 21
60.36943050493562
 31
0.0
  0
LINE
  5
80D
330
2
100
AcDbEntity
  8
0
100
AcDbLine
 10
289.1372282465073
 20
57.87118503800752
 30
0.0
 11
289.1372282465073
 21
67.87118503800752
 31
0.0
  0
LINE
  5
80E
330
2
100
AcDbEntity
  8
0
100
AcDbLine
 10
292.3872282465073
 20
57.87118503800752
 30
0.0
 11
292.3872282465073
 21
64.37118503800753
 31
0.0
  0
LINE
  5
80F
330
2
100
AcDbEntity
  8
0
100
AcDbLine
 10
296.6372282465073
 20
57.87118503800752
 30
0.0
 11
293.6372282465073
 21
62.87118503800752
 31
0.0
  0
LINE
  5
810
330
2
100
AcDbEntity
  8
0
100
AcDbLine
 10
282.6372282465073
 20
64.37118503800753
 30
0.0
 11
282.6372282465073
 21
57.87118503800752
 31
0.0
  0
LINE
  5
811
330
2
100
AcDbEntity
  8
0
100
AcDbLine
 10
282.6372282465073
 20
64.37118503800753
 30
0.0
 11
282.6372282465073
 21
57.87118503800752
 31
0.0
  0
LINE
  5
812
330
2
100
AcDbEntity
  8
0
100
AcDbLine
 10
286.1372282465073
 20
57.87118503800752
 30
0.0
 11
286.1372282465073
 21
64.37118503800753
 31
0.0
  0
LINE
  5
813
330
2
100
AcDbEntity
  8
0
100
AcDbLine
 10
286.1372282465073
 20
64.37118503800753
 30
0.0
 11
286.1372282465073
 21
57.87118503800752
 31
0.0
  0
LINE
  5
814
330
2
100
AcDbEntity
  8
0
100
AcDbLine
 10
286.1372282465073
 20
64.37118503800753
 30
0.0
 11
286.1372282465073
 21
57.87118503800752
 31
0.0
  0
LINE
  5
815
330
2
100
AcDbEntity
  8
0
100
AcDbLine
 10
286.1372282465073
 20
64.37118503800753
 30
0.0
 11
286.1372282465073
 21
57.87118503800752
 31
0.0
  0
LINE
  5
816
330
2
100
AcDbEntity
  8
0
100
AcDbLine
 10
279.6372282465073
 20
57.87118503800752
 30
0.0
 11
279.6372282465073
 21
62.87118503800752
 31
0.0
  0
LINE
  5
817
330
2
100
AcDbEntity
  8
0
100
AcDbLine
 10
282.6372282465073
 20
57.87118503800752
 30
0.0
 11
286.1372282465073
 21
57.87118503800752
 31
0.0
  0
LINE
  5
818
330
2
100
AcDbEntity
  8
0
100
AcDbLine
 10
289.1372282465073
 20
57.87118503800752
 30
0.0
 11
292.3872282465073
 21
57.87118503800752
 31
0.0
  0
LINE
  5
819
330
2
100
AcDbEntity
  8
0
100
AcDbLine
 10
309.887228246507
 20
55.37118503800752
 30
0.0
 11
309.887228246507
 21
46.39118503800751
 31
0.0
  0
ARC
  5
81A
330
2
100
AcDbEntity
  8
0
100
AcDbCircle
 10
311.887228246507
 20
46.39118503800751
 30
0.0
 40
2.0
100
AcDbArc
 50
180.0
 51
270.0
  0
LINE
  5
81B
330
2
100
AcDbEntity
  8
0
100
AcDbLine
 10
300.4372282465075
 20
57.87118503800752
 30
0.0
 11
296.6372282465073
 21
57.87118503800752
 31
0.0
  0
ARC
  5
81C
330
2
100
AcDbEntity
  8
0
100
AcDbCircle
 10
311.887228246507
 20
55.37118503800752
 30
0.0
 40
2.0
100
AcDbArc
 50
90.0
 51
180.0
  0
LINE
  5
81D
330
2
100
AcDbEntity
  8
0
100
AcDbLine
 10
293.6372282465073
 20
62.87118503800752
 30
0.0
 11
295.9122282465074
 21
62.87118503800752
 31
0.0
  0
LINE
  5
81E
330
2
100
AcDbEntity
  8
0
100
AcDbLine
 10
292.3872282465073
 20
64.37118503800753
 30
0.0
 11
295.9122282465074
 21
64.37118503800753
 31
0.0
  0
LINE
  5
81F
330
2
100
AcDbEntity
  8
0
100
AcDbLine
 10
289.1372282465073
 20
67.87118503800752
 30
0.0
 11
297.1561007078058
 21
67.87118503800752
 31
0.0
  0
LINE
  5
820
330
2
100
AcDbEntity
  8
0
100
AcDbLine
 10
286.1372282465073
 20
64.37118503800753
 30
0.0
 11
287.8872282465073
 21
64.37118503800753
 31
0.0
  0
LINE
  5
821
330
2
100
AcDbEntity
  8
0
100
AcDbLine
 10
287.8872282465073
 20
67.87118503800752
 30
0.0
 11
280.8872282465073
 21
67.87118503800752
 31
0.0
  0
LINE
  5
822
330
2
100
AcDbEntity
  8
0
100
AcDbLine
 10
280.8872282465073
 20
67.87118503800752
 30
0.0
 11
280.8872282465073
 21
64.37118503800753
 31
0.0
  0
LINE
  5
823
330
2
100
AcDbEntity
  8
0
100
AcDbLine
 10
279.6372282465073
 20
67.87118503800752
 30
0.0
 11
279.6372282465073
 21
64.37118503800753
 31
0.0
  0
LINE
  5
824
330
2
100
AcDbEntity
  8
0
100
AcDbLine
 10
280.8872282465073
 20
64.37118503800753
 30
0.0
 11
282.6372282465073
 21
64.37118503800753
 31
0.0
  0
LINE
  5
825
330
2
100
AcDbEntity
  8
0
100
AcDbLine
 10
287.8872282465073
 20
64.37118503800753
 30
0.0
 11
287.8872282465073
 21
67.87118503800752
 31
0.0
  0
ARC
  5
826
330
2
100
AcDbEntity
  8
0
100
AcDbCircle
 10
295.7848575568519
 20
63.77420227938682
 30
0.0
 40
4.60491370615741
100
AcDbArc
 50
312.379409433819
 51
49.34908835590164
  0
ARC
  5
827
330
2
100
AcDbEntity
  8
0
100
AcDbCircle
 10
298.8904246986649
 20
60.37071674432422
 30
0.0
 40
0.0025
100
AcDbArc
 50
132.3794094338536
 51
210.963756532034
  0
LINE
  5
828
330
2
100
AcDbEntity
  8
0
100
AcDbLine
 10
296.6372282465073
 20
63.6461850380075
 30
0.0
 11
296.6372282465073
 21
63.59618503800755
 31
0.0
  0
ARC
  5
829
330
2
100
AcDbEntity
  8
0
100
AcDbCircle
 10
295.9122282465074
 20
63.6461850380075
 30
0.0
 40
0.7250000000000001
100
AcDbArc
 50
359.9999999999967
 51
90.0
  0
ARC
  5
82A
330
2
100
AcDbEntity
  8
0
100
AcDbCircle
 10
295.9122282465074
 20
63.59618503800755
 30
0.0
 40
0.7250000000000001
100
AcDbArc
 50
270.0
 51
0.0
  0
ARC
  5
82B
330
2
100
AcDbEntity
  8
0
100
AcDbCircle
 10
297.1561007078058
 20
65.37118503800752
 30
0.0
 40
2.5
100
AcDbArc
 50
49.34908835590164
 51
90.0
  0
CIRCLE
  5
82C
330
2
100
AcDbEntity
  8
0
100
AcDbCircle
 10
316.3672392465072
 20
50.89118503800751
 30
0.0
 40
3.25
  0
ARC
  5
82D
330
2
100
AcDbEntity
  8
0
100
AcDbCircle
 10
316.3672392465072
 20
50.89118503800751
 30
0.0
 40
6.5
100
AcDbArc
 50
270.0
 51
0.0
  0
ARC
  5
82E
330
2
100
AcDbEntity
  8
0
100
AcDbCircle
 10
320.8672392465071
 20
55.37118503800752
 30
0.0
 40
2.0
100
AcDbArc
 50
0.0
 51
90.0
  0
LINE
  5
82F
330
2
100
AcDbEntity
  8
HOJO
100
AcDbLine
 10
278.7581237467587
 20
138.326925657127
 30
0.0
 11
281.0157227467588
 21
137.376317657127
 31
0.0
  0
LINE
  5
830
330
2
100
AcDbEntity
  8
0
100
AcDbLine
 10
276.8872282465071
 20
95.87118503800752
 30
0.0
 11
280.887228246507
 21
95.87118503800752
 31
0.0
  0
LINE
  5
831
330
2
100
AcDbEntity
  8
0
100
AcDbLine
 10
276.8872282465071
 20
91.87118503800752
 30
0.0
 11
280.887228246507
 21
91.87118503800752
 31
0.0
  0
LINE
  5
832
330
2
100
AcDbEntity
  8
CENTER
100
AcDbLine
 10
264.3872282465071
 20
93.87118503800753
 30
0.0
 11
304.3872282465071
 21
93.87118503800753
 31
0.0
  0
ARC
  5
833
330
2
100
AcDbEntity
  8
0
100
AcDbCircle
 10
284.3872282465071
 20
93.87118503800753
 30
0.0
 40
7.5
100
AcDbArc
 50
195.4660029999981
 51
164.5339969999984
  0
ARC
  5
834
330
2
100
AcDbEntity
  8
0
100
AcDbCircle
 10
284.3872282465071
 20
93.87118503800753
 30
0.0
 40
5.999998999999999
100
AcDbArc
 50
199.4712069999985
 51
160.528793000001
  0
LINE
  5
835
330
2
100
AcDbEntity
  8
0
100
AcDbLine
 10
252.4072172465072
 20
121.3511960380075
 30
0.0
 11
316.3672392465072
 21
121.3511960380075
 31
0.0
  0
LINE
  5
836
330
2
100
AcDbEntity
  8
CENTER
100
AcDbLine
 10
246.3872282465071
 20
114.8711850380075
 30
0.0
 11
322.387228246507
 21
114.8711850380075
 31
0.0
  0
LINE
  5
837
330
2
100
AcDbEntity
  8
0
100
AcDbLine
 10
276.8868317467587
 20
137.8516151628879
 30
0.0
 11
276.8868317467587
 21
121.3911950380074
 31
0.0
  0
ARC
  5
838
330
2
100
AcDbEntity
  8
0
100
AcDbCircle
 10
247.9072172465072
 20
110.3711850380075
 30
0.0
 40
2.0
100
AcDbArc
 50
180.0
 51
270.0
  0
ARC
  5
839
330
2
100
AcDbEntity
  8
0
100
AcDbCircle
 10
252.4072172465072
 20
114.8511940380075
 30
0.0
 40
6.5
100
AcDbArc
 50
90.0
 51
180.0
  0
LINE
  5
83A
330
2
100
AcDbEntity
  8
0
100
AcDbLine
 10
276.8872282465071
 20
91.87118503800752
 30
0.0
 11
276.8872282465071
 21
95.87118503800752
 31
0.0
  0
LINE
  5
83B
330
2
100
AcDbEntity
  8
0
100
AcDbLine
 10
258.8872282465071
 20
110.3711850380075
 30
0.0
 11
258.8872282465071
 21
119.3511960380075
 31
0.0
  0
CIRCLE
  5
83C
330
2
100
AcDbEntity
  8
0
100
AcDbCircle
 10
252.3872282465071
 20
114.8711850380075
 30
0.0
 40
3.25
  0
LINE
  5
83D
330
2
100
AcDbEntity
  8
0
100
AcDbLine
 10
247.9072172465072
 20
108.3711850380075
 30
0.0
 11
256.8872282465071
 21
108.3711850380075
 31
0.0
  0
ARC
  5
83E
330
2
100
AcDbEntity
  8
0
100
AcDbCircle
 10
256.8872282465071
 20
110.3711850380075
 30
0.0
 40
2.0
100
AcDbArc
 50
270.0
 51
0.0
  0
ARC
  5
83F
330
2
100
AcDbEntity
  8
0
100
AcDbCircle
 10
256.8872282465071
 20
119.3511960380075
 30
0.0
 40
2.0
100
AcDbArc
 50
0.0
 51
90.0
  0
ARC
  5
840
330
2
100
AcDbEntity
  8
HOJO
100
AcDbCircle
 10
278.1368317467587
 20
136.851613657127
 30
0.0
 40
1.600781999999999
100
AcDbArc
 50
67.16467299999876
 51
141.3401949999987
  0
LINE
  5
841
330
2
100
AcDbEntity
  8
0
100
AcDbLine
 10
278.8876247462555
 20
138.2723966260061
 30
0.0
 11
278.8876247462555
 21
121.3911950380074
 31
0.0
  0
LINE
  5
842
330
2
100
AcDbEntity
  8
0
100
AcDbLine
 10
291.8868317467587
 20
137.8516600966607
 30
0.0
 11
291.8868317467587
 21
121.3911950380074
 31
0.0
  0
LINE
  5
843
330
2
100
AcDbEntity
  8
0
100
AcDbLine
 10
284.3871217467589
 20
138.4327072629442
 30
0.0
 11
284.3872282465071
 21
121.3511960380075
 31
0.0
  0
LINE
  5
844
330
2
100
AcDbEntity
  8
0
100
AcDbLine
 10
283.3871217467589
 20
138.2659812007008
 30
0.0
 11
283.3871217467586
 21
121.3511960380075
 31
0.0
  0
LINE
  5
845
330
2
100
AcDbEntity
  8
0
100
AcDbLine
 10
285.3871217467586
 20
138.0620731610182
 30
0.0
 11
285.3871217467586
 21
121.3511960380075
 31
0.0
  0
LINE
  5
846
330
2
100
AcDbEntity
  8
0
100
AcDbLine
 10
282.8868317467587
 20
137.8516137521466
 30
0.0
 11
282.8868317467587
 21
121.3911950380074
 31
0.0
  0
LINE
  5
847
330
2
100
AcDbEntity
  8
0
100
AcDbLine
 10
280.8876247462554
 20
137.4302559269714
 30
0.0
 11
280.8876247462555
 21
121.3911950380074
 31
0.0
  0
LINE
  5
848
330
2
100
AcDbEntity
  8
0
100
AcDbLine
 10
285.8868317467587
 20
137.8516600966608
 30
0.0
 11
285.8868317467587
 21
121.3911950380074
 31
0.0
  0
LINE
  5
849
330
2
100
AcDbEntity
  8
0
100
AcDbLine
 10
311.887228246507
 20
108.3711850380075
 30
0.0
 11
320.8672392465071
 21
108.3711850380075
 31
0.0
  0
LINE
  5
84A
330
2
100
AcDbEntity
  8
0
100
AcDbLine
 10
280.887228246507
 20
91.87118503800752
 30
0.0
 11
280.887228246507
 21
95.87118503800752
 31
0.0
  0
LINE
  5
84B
330
2
100
AcDbEntity
  8
0
100
AcDbLine
 10
309.887228246507
 20
110.3711850380075
 30
0.0
 11
309.887228246507
 21
119.3511960380075
 31
0.0
  0
ARC
  5
84C
330
2
100
AcDbEntity
  8
0
100
AcDbCircle
 10
311.887228246507
 20
110.3711850380075
 30
0.0
 40
2.0
100
AcDbArc
 50
180.0
 51
270.0
  0
ARC
  5
84D
330
2
100
AcDbEntity
  8
0
100
AcDbCircle
 10
311.887228246507
 20
119.3511960380075
 30
0.0
 40
2.0
100
AcDbArc
 50
90.0
 51
180.0
  0
CIRCLE
  5
84E
330
2
100
AcDbEntity
  8
0
100
AcDbCircle
 10
316.3872282465071
 20
114.8711850380075
 30
0.0
 40
3.25
  0
ARC
  5
84F
330
2
100
AcDbEntity
  8
0
100
AcDbCircle
 10
316.3672392465072
 20
114.8511940380075
 30
0.0
 40
6.5
100
AcDbArc
 50
0.0
 51
90.0
  0
ARC
  5
850
330
2
100
AcDbEntity
  8
0
100
AcDbCircle
 10
320.8672392465071
 20
110.3711850380075
 30
0.0
 40
2.0
100
AcDbArc
 50
270.0
 51
0.0
  0
ARC
  5
851
330
2
100
AcDbEntity
  8
HOJO
100
AcDbCircle
 10
287.6368325380711
 20
138.8516132355256
 30
0.0
 40
1.600781
100
AcDbArc
 50
247.1647030000001
 51
321.340194401624
  0
ARC
  5
852
330
2
100
AcDbEntity
  8
HOJO
100
AcDbCircle
 10
284.1368325380711
 20
136.8516132355256
 30
0.0
 40
1.600781999999999
100
AcDbArc
 50
67.16467300000042
 51
117.9266184500972
  0
ARC
  5
853
330
2
100
AcDbEntity
  8
HOJO
100
AcDbCircle
 10
281.6368317467587
 20
138.851613657127
 30
0.0
 40
1.600781
100
AcDbArc
 50
247.1647030000001
 51
321.340194401624
  0
LINE
  5
854
330
2
100
AcDbEntity
  8
HOJO
100
AcDbLine
 10
285.8868317467587
 20
137.8516600966608
 30
0.0
 11
287.0157235380712
 21
137.3763172355256
 31
0.0
  0
LINE
  5
855
330
2
100
AcDbEntity
  8
HOJO
100
AcDbLine
 10
284.7581245380712
 20
138.3269252355257
 30
0.0
 11
285.3871217467589
 21
138.0620731610182
 31
0.0
  0
LINE
  5
856
330
2
100
AcDbEntity
  8
HOJO
100
AcDbLine
 10
290.7581245380712
 20
138.3269252355256
 30
0.0
 11
291.8868317467587
 21
137.8516600966607
 31
0.0
  0
ARC
  5
857
330
2
100
AcDbEntity
  8
HOJO
100
AcDbCircle
 10
290.1368325380711
 20
136.8516132355255
 30
0.0
 40
1.600781999999999
100
AcDbArc
 50
67.16467299999876
 51
141.3401949999987
  0
TEXT
  5
858
330
2
100
AcDbEntity
  8
TITLE
100
AcDbText
 10
25.72158748921538
 20
20.28907973159141
 30
0.0
 40
6.0
  1
VGKD12-5～60N50
100
AcDbText
  0
MTEXT
  5
86E
330
2
100
AcDbEntity
  8
TITLE
100
AcDbMText
 10
111.1917851155158
 20
29.50135321602136
 30
0.0
 40
4.242600000000001
 41
22.51394708935678
 71
     1
 72
     5
  1
L1\PL2
1001
ACAD
1000
MTEXTBEGIN
1070
    73
1070
     1
1070
    44
1040
1.0
1070
    74
1070
     0
1000
MTEXTEND
  0
LINE
  5
8B7
330
2
100
AcDbEntity
  8
0
100
AcDbLine
 10
161.8704838753816
 20
271.6657383446223
 30
0.0
 11
161.8704838753816
 21
238.6657383446223
 31
0.0
  0
LINE
  5
8B8
330
2
100
AcDbEntity
  8
0
100
AcDbLine
 10
158.6704868753816
 20
280.4657413446223
 30
0.0
 11
158.6704868753816
 21
229.8657513446223
 31
0.0
  0
LINE
  5
8B9
330
2
100
AcDbEntity
  8
0
100
AcDbLine
 10
118.8704838753816
 20
293.3144663446223
 30
0.0
 11
118.8704838753816
 21
217.0170113446223
 31
0.0
  0
LINE
  5
8BA
330
2
100
AcDbEntity
  8
0
100
AcDbLine
 10
157.8704838753816
 20
293.6548133446224
 30
0.0
 11
157.8704838753816
 21
216.6766793446224
 31
0.0
  0
LINE
  5
8BB
330
2
100
AcDbEntity
  8
0
100
AcDbLine
 10
117.8730938753816
 20
217.0257383446224
 30
0.0
 11
117.8730938753816
 21
293.3057383446223
 31
0.0
  0
LINE
  5
8BC
330
2
100
AcDbEntity
  8
0
100
AcDbLine
 10
117.8704458753816
 20
229.5257393446223
 30
0.0
 11
151.3704838753816
 21
229.2333963446224
 31
0.0
  0
LINE
  5
8BD
330
2
100
AcDbEntity
  8
0
100
AcDbLine
 10
118.8704838753816
 20
217.0170113446223
 30
0.0
 11
152.3617868753816
 21
216.7247443446223
 31
0.0
  0
LINE
  5
8BE
330
2
100
AcDbEntity
  8
0
100
AcDbLine
 10
117.8730938753816
 20
217.3257273446223
 30
0.0
 11
118.8704838753816
 21
217.3170293446223
 31
0.0
  0
LINE
  5
8BF
330
2
100
AcDbEntity
  8
HIDS
  6
SEKKEI_H
100
AcDbLine
 10
150.8704838753816
 20
226.4157383446223
 30
0.0
 11
158.8704838753816
 21
226.4157383446223
 31
0.0
  0
LINE
  5
8C0
330
2
100
AcDbEntity
  8
HIDS
  6
SEKKEI_H
100
AcDbLine
 10
150.8704838753816
 20
219.9157383446223
 30
0.0
 11
158.8704838753816
 21
219.9157383446223
 31
0.0
  0
LINE
  5
8C1
330
2
100
AcDbEntity
  8
0
100
AcDbLine
 10
152.3617868753816
 20
216.7247443446223
 30
0.0
 11
157.8704838753816
 21
216.6766643446223
 31
0.0
  0
LINE
  5
8C2
330
2
100
AcDbEntity
  8
CENTER
100
AcDbLine
 10
146.8476878753816
 20
223.1657383446223
 30
0.0
 11
162.6204838753816
 21
223.1657383446223
 31
0.0
  0
LINE
  5
8C3
330
2
100
AcDbEntity
  8
0
100
AcDbLine
 10
150.8704838753816
 20
227.6657383446223
 30
0.0
 11
150.8704838753816
 21
218.6657383446223
 31
0.0
  0
LINE
  5
8C4
330
2
100
AcDbEntity
  8
0
100
AcDbLine
 10
151.3704838753816
 20
229.2333963446224
 30
0.0
 11
151.3704838753816
 21
217.7246983446224
 31
0.0
  0
LINE
  5
8C5
330
2
100
AcDbEntity
  8
0
100
AcDbLine
 10
150.8704838753816
 20
218.6657383446223
 30
0.0
 11
151.3704838753816
 21
218.1657383446223
 31
0.0
  0
ARC
  5
8C6
330
2
100
AcDbEntity
  8
0
100
AcDbCircle
 10
152.3704838753816
 20
217.7246983446224
 30
0.0
 40
1.0
100
AcDbArc
 50
180.0
 51
269.5000000000002
  0
LINE
  5
8C7
330
2
100
AcDbEntity
  8
0
100
AcDbLine
 10
150.8704838753816
 20
227.6657383446223
 30
0.0
 11
151.3704838753816
 21
228.1657383446223
 31
0.0
  0
LINE
  5
8C8
330
2
100
AcDbEntity
  8
0
100
AcDbLine
 10
158.8704838753816
 20
229.6657383446223
 30
0.0
 11
158.8704838753816
 21
217.6679363446223
 31
0.0
  0
LINE
  5
8C9
330
2
100
AcDbEntity
  8
0
100
AcDbLine
 10
157.8704838753816
 20
216.6766643446223
 30
0.0
 11
158.8704838753816
 21
217.6679363446223
 31
0.0
  0
LINE
  5
8CA
330
2
100
AcDbEntity
  8
0
100
AcDbLine
 10
158.6704868753816
 20
229.8657513446223
 30
0.0
 11
158.8704838753816
 21
229.6657383446223
 31
0.0
  0
ARC
  5
8CB
330
2
100
AcDbEntity
  8
0
100
AcDbCircle
 10
160.1704868753816
 20
235.6657383446223
 30
0.0
 40
2.0
100
AcDbArc
 50
90.0
 51
138.5903929999999
  0
ARC
  5
8CC
330
2
100
AcDbEntity
  8
0
100
AcDbCircle
 10
160.8704838753816
 20
238.6657383446223
 30
0.0
 40
1.0
100
AcDbArc
 50
270.0
 51
0.0
  0
LINE
  5
8CD
330
2
100
AcDbEntity
  8
0
100
AcDbLine
 10
160.1704868753816
 20
237.6657383446223
 30
0.0
 11
160.8704838753816
 21
237.6657383446223
 31
0.0
  0
LINE
  5
8CE
330
2
100
AcDbEntity
  8
0
100
AcDbLine
 10
118.8704838753816
 20
293.3144663446223
 30
0.0
 11
152.3617868753816
 21
293.6067333446223
 31
0.0
  0
LINE
  5
8CF
330
2
100
AcDbEntity
  8
0
100
AcDbLine
 10
117.8704458753816
 20
280.8057383446223
 30
0.0
 11
151.3704838753816
 21
281.0980963446223
 31
0.0
  0
LINE
  5
8D0
330
2
100
AcDbEntity
  8
CENTER
100
AcDbLine
 10
189.8704838753816
 20
255.1657383446223
 30
0.0
 11
20.37048387538163
 21
255.1657383446223
 31
0.0
  0
LINE
  5
8D1
330
2
100
AcDbEntity
  8
0
100
AcDbLine
 10
117.8730938753816
 20
293.0057503446223
 30
0.0
 11
118.8704838753816
 21
293.0144473446223
 31
0.0
  0
LINE
  5
8D2
330
2
100
AcDbEntity
  8
0
100
AcDbLine
 10
164.8704838753816
 20
249.5087413446224
 30
0.0
 11
184.8704838753816
 21
249.5087413446224
 31
0.0
  0
LINE
  5
8D3
330
2
100
AcDbEntity
  8
0
100
AcDbLine
 10
164.8704838753816
 20
247.6657383446223
 30
0.0
 11
184.8704838753816
 21
247.6657383446223
 31
0.0
  0
LINE
  5
8D4
330
2
100
AcDbEntity
  8
0
100
AcDbLine
 10
184.3704838753816
 20
261.1657383446223
 30
0.0
 11
162.8704838753816
 21
261.1657383446223
 31
0.0
  0
LINE
  5
8D5
330
2
100
AcDbEntity
  8
0
100
AcDbLine
 10
162.8704838753816
 20
262.6657383446223
 30
0.0
 11
162.8704838753816
 21
247.6657383446223
 31
0.0
  0
LINE
  5
8D6
330
2
100
AcDbEntity
  8
0
100
AcDbLine
 10
162.8704838753816
 20
247.6657383446223
 30
0.0
 11
161.8704838753816
 21
247.6657383446223
 31
0.0
  0
LINE
  5
8D7
330
2
100
AcDbEntity
  8
0
100
AcDbLine
 10
164.8704838753816
 20
249.5087413446224
 30
0.0
 11
164.8704838753816
 21
247.6657383446223
 31
0.0
  0
LINE
  5
8D8
330
2
100
AcDbEntity
  8
0
100
AcDbLine
 10
164.8704838753816
 20
249.1657383446223
 30
0.0
 11
162.8704838753816
 21
249.1657383446223
 31
0.0
  0
LINE
  5
8D9
330
2
100
AcDbEntity
  8
0
100
AcDbLine
 10
162.8704838753816
 20
262.6657383446223
 30
0.0
 11
161.8704838753816
 21
262.6657383446223
 31
0.0
  0
ARC
  5
8DA
330
2
100
AcDbEntity
  8
0
100
AcDbCircle
 10
160.8704838753816
 20
271.6657383446223
 30
0.0
 40
1.0
100
AcDbArc
 50
0.0
 51
90.0
  0
ARC
  5
8DB
330
2
100
AcDbEntity
  8
0
100
AcDbCircle
 10
160.1704868753816
 20
274.6657383446223
 30
0.0
 40
2.0
100
AcDbArc
 50
221.4096220000006
 51
270.0
  0
LINE
  5
8DC
330
2
100
AcDbEntity
  8
0
100
AcDbLine
 10
160.1704868753816
 20
272.6657383446223
 30
0.0
 11
160.8704838753816
 21
272.6657383446223
 31
0.0
  0
LINE
  5
8DD
330
2
100
AcDbEntity
  8
0
100
AcDbLine
 10
184.8704838753816
 20
260.6657383446223
 30
0.0
 11
184.8704838753816
 21
249.6657383446223
 31
0.0
  0
LINE
  5
8DE
330
2
100
AcDbEntity
  8
0
100
AcDbLine
 10
184.3704838753816
 20
261.1657383446223
 30
0.0
 11
184.3704838753816
 21
249.5087413446224
 31
0.0
  0
LINE
  5
8DF
330
2
100
AcDbEntity
  8
0
100
AcDbLine
 10
184.7134868753816
 20
249.5087413446224
 30
0.0
 11
184.8704838753816
 21
249.6657383446223
 31
0.0
  0
LINE
  5
8E0
330
2
100
AcDbEntity
  8
0
100
AcDbLine
 10
184.8704838753816
 20
249.5087413446224
 30
0.0
 11
184.8704838753816
 21
247.6657383446223
 31
0.0
  0
LINE
  5
8E1
330
2
100
AcDbEntity
  8
0
100
AcDbLine
 10
184.3704838753816
 20
261.1657383446223
 30
0.0
 11
184.8704838753816
 21
260.6657383446223
 31
0.0
  0
LINE
  5
8E2
330
2
100
AcDbEntity
  8
HIDS
  6
SEKKEI_H
100
AcDbLine
 10
150.8704838753816
 20
290.4157383446223
 30
0.0
 11
158.8704838753816
 21
290.4157383446223
 31
0.0
  0
LINE
  5
8E3
330
2
100
AcDbEntity
  8
0
100
AcDbLine
 10
152.3617868753816
 20
293.6067333446223
 30
0.0
 11
157.8704838753816
 21
293.6548133446224
 31
0.0
  0
LINE
  5
8E4
330
2
100
AcDbEntity
  8
HIDS
  6
SEKKEI_H
100
AcDbLine
 10
150.8704838753816
 20
283.9157383446223
 30
0.0
 11
158.8704838753816
 21
283.9157383446223
 31
0.0
  0
LINE
  5
8E5
330
2
100
AcDbEntity
  8
CENTER
100
AcDbLine
 10
146.8476878753816
 20
287.1657383446223
 30
0.0
 11
161.6204838753816
 21
287.1657383446223
 31
0.0
  0
LINE
  5
8E6
330
2
100
AcDbEntity
  8
0
100
AcDbLine
 10
151.3704838753816
 20
292.6067783446224
 30
0.0
 11
151.3704838753816
 21
281.0980963446223
 31
0.0
  0
LINE
  5
8E7
330
2
100
AcDbEntity
  8
0
100
AcDbLine
 10
150.8704838753816
 20
291.6657383446223
 30
0.0
 11
150.8704838753816
 21
282.6657383446223
 31
0.0
  0
LINE
  5
8E8
330
2
100
AcDbEntity
  8
0
100
AcDbLine
 10
150.8704838753816
 20
282.6657383446223
 30
0.0
 11
151.3704838753816
 21
282.1657383446223
 31
0.0
  0
ARC
  5
8E9
330
2
100
AcDbEntity
  8
0
100
AcDbCircle
 10
152.3704838753816
 20
292.6067783446224
 30
0.0
 40
1.0
100
AcDbArc
 50
90.4999999999997
 51
180.0
  0
LINE
  5
8EA
330
2
100
AcDbEntity
  8
0
100
AcDbLine
 10
150.8704838753816
 20
291.6657383446223
 30
0.0
 11
151.3704838753816
 21
292.1657383446223
 31
0.0
  0
LINE
  5
8EB
330
2
100
AcDbEntity
  8
0
100
AcDbLine
 10
158.8704838753816
 20
292.6635413446223
 30
0.0
 11
158.8704838753816
 21
280.6657383446223
 31
0.0
  0
LINE
  5
8EC
330
2
100
AcDbEntity
  8
0
100
AcDbLine
 10
158.6704868753816
 20
280.4657413446223
 30
0.0
 11
158.8704838753816
 21
280.6657383446223
 31
0.0
  0
LINE
  5
8ED
330
2
100
AcDbEntity
  8
0
100
AcDbLine
 10
157.8704838753816
 20
293.6548133446224
 30
0.0
 11
158.8704838753816
 21
292.6635413446223
 31
0.0
  0
LINE
  5
BD5
330
2
100
AcDbEntity
  8
0
100
AcDbLine
 10
65.87309387538164
 20
247.2657383446222
 30
0.0
 11
65.87309387538164
 21
244.1657383446223
 31
0.0
  0
LINE
  5
BD6
330
2
100
AcDbEntity
  8
0
100
AcDbLine
 10
71.37309387538187
 20
248.2657383446221
 30
0.0
 11
71.37309387538164
 21
245.323491351634
 31
0.0
  0
LINE
  5
BD9
330
2
100
AcDbEntity
  8
0
100
AcDbLine
 10
109.3730938753818
 20
219.0257383446224
 30
0.0
 11
109.3730938753816
 21
291.3057383446224
 31
0.0
  0
LINE
  5
BDA
330
2
100
AcDbEntity
  8
0
100
AcDbLine
 10
60.37306287538183
 20
222.8051017174295
 30
0.0
 11
60.37306287538183
 21
287.5263749718151
 31
0.0
  0
LINE
  5
BDF
330
2
100
AcDbEntity
  8
0
100
AcDbLine
 10
25.37305587538174
 20
224.1018533617892
 30
0.0
 11
25.37305587538151
 21
286.2296233274553
 31
0.0
  0
LINE
  5
D15
330
2
100
AcDbEntity
  8
0
100
AcDbLine
 10
109.3705218753817
 20
119.4455870380074
 30
0.0
 11
109.3704228753814
 21
46.29658503800749
 31
0.0
  0
LINE
  5
D16
330
2
100
AcDbEntity
  8
0
100
AcDbLine
 10
25.37048387538163
 20
51.80730005517443
 30
0.0
 11
25.37048387538163
 21
113.9350700208406
 31
0.0
  0
LINE
  5
D17
330
2
100
AcDbEntity
  8
0
100
AcDbLine
 10
60.37048387538163
 20
118.8711850380075
 30
0.0
 11
60.37048387538163
 21
95.87118503800752
 31
0.0
  0
LINE
  5
D18
330
2
100
AcDbEntity
  8
0
100
AcDbLine
 10
61.3705828753815
 20
50.28999703800753
 30
0.0
 11
61.3705828753815
 21
106.9027860380075
 31
0.0
  0
LINE
  5
D19
330
2
100
AcDbEntity
  8
0
100
AcDbLine
 10
60.37048387538163
 20
115.2318216041122
 30
0.0
 11
60.37048387538163
 21
50.5105484719029
 31
0.0
  0
ARC
  5
D1B
330
2
100
AcDbEntity
  8
0
100
AcDbCircle
 10
111.7705228753817
 20
50.87118503800752
 30
0.0
 40
6.5
100
AcDbArc
 50
188.535994999999
 51
213.0556950000028
  0
LINE
  5
D1C
330
2
100
AcDbEntity
  8
0
100
AcDbLine
 10
109.3705218753817
 20
52.98799503800751
 30
0.0
 11
61.3705828753815
 21
53.40678603800745
 31
0.0
  0
LINE
  5
D1D
330
2
100
AcDbEntity
  8
0
100
AcDbLine
 10
107.8836218753814
 20
49.88418503800756
 30
0.0
 11
61.3705828753815
 21
50.28999703800753
 31
0.0
  0
LINE
  5
D1E
330
2
100
AcDbEntity
  8
0
100
AcDbLine
 10
60.37048387538163
 20
50.5105484719029
 30
0.0
 11
26.36175733988341
 21
50.8073381321102
 31
0.0
  0
ARC
  5
D1F
330
2
100
AcDbEntity
  8
0
100
AcDbCircle
 10
26.37048387538163
 20
51.80730005517443
 30
0.0
 40
1.0
100
AcDbArc
 50
180.0
 51
269.5000000000019
  0
POINT
  5
D20
330
2
100
AcDbEntity
  8
0
100
AcDbPoint
 10
25.37048387538163
 20
51.80730005517443
 30
0.0
  0
LINE
  5
D21
330
2
100
AcDbEntity
  8
0
100
AcDbLine
 10
61.3705828753815
 20
50.59008403800749
 30
0.0
 11
60.37048387538163
 21
50.59871051264463
 31
0.0
  0
LINE
  5
D22
330
2
100
AcDbEntity
  8
0
100
AcDbLine
 10
117.8705218753817
 20
44.73558403800746
 30
0.0
 11
110.8575208753815
 21
44.79678303800755
 31
0.0
  0
LINE
  5
D23
330
2
100
AcDbEntity
  8
0
100
AcDbLine
 10
108.3705218753817
 20
46.87118503800753
 30
0.0
 11
108.3705218753817
 21
49.79838503800749
 31
0.0
  0
ARC
  5
D24
330
2
100
AcDbEntity
  8
0
100
AcDbCircle
 10
110.8705218753817
 20
46.29678303800756
 30
0.0
 40
1.5
100
AcDbArc
 50
180.0
 51
269.5000000000019
  0
ARC
  5
D25
330
2
100
AcDbEntity
  8
0
100
AcDbCircle
 10
110.8705218753817
 20
46.29658503800749
 30
0.0
 40
1.5
100
AcDbArc
 50
180.0
 51
200.0025019999997
  0
LINE
  5
D26
330
2
100
AcDbEntity
  8
0
100
AcDbLine
 10
108.3705218753817
 20
46.87118503800753
 30
0.0
 11
107.1607208753817
 21
46.87118503800753
 31
0.0
  0
ARC
  5
D27
330
2
100
AcDbEntity
  8
0
100
AcDbCircle
 10
107.1607208753817
 20
47.87118503800752
 30
0.0
 40
1.0
100
AcDbArc
 50
213.0556950000028
 51
270.0
  0
LINE
  5
D28
330
2
100
AcDbEntity
  8
0
100
AcDbLine
 10
108.3705218753817
 20
47.07109403800745
 30
0.0
 11
109.3705218753817
 21
47.07109403800745
 31
0.0
  0
ARC
  5
D29
330
2
100
AcDbEntity
  8
0
100
AcDbCircle
 10
107.8705218753817
 20
48.38418503800756
 30
0.0
 40
1.5
100
AcDbArc
 50
0.0
 51
89.50000000000192
  0
LINE
  5
D2A
330
2
100
AcDbEntity
  8
0
100
AcDbLine
 10
117.8705218753817
 20
54.64535622506755
 30
0.0
 11
109.3969228753818
 21
54.57159603800755
 31
0.0
  0
LINE
  5
D2B
330
2
100
AcDbEntity
  8
CENTER
100
AcDbLine
 10
104.2166218753815
 20
114.8710950380075
 30
0.0
 11
110.2580228753814
 21
114.8710950380075
 31
0.0
  0
ARC
  5
D2C
330
2
100
AcDbEntity
  8
0
100
AcDbCircle
 10
111.7705228753817
 20
114.8710950380075
 30
0.0
 40
6.5
100
AcDbArc
 50
146.9443049999971
 51
213.0556950000028
  0
ARC
  5
D2D
330
2
100
AcDbEntity
  8
0
100
AcDbCircle
 10
111.7730958753817
 20
235.1657383446223
 30
0.0
 40
6.5
100
AcDbArc
 50
146.9443049999971
 51
213.0556950000028
  0
LINE
  5
D2E
330
2
100
AcDbEntity
  8
CENTER
100
AcDbLine
 10
104.0661938753818
 20
235.1657383446223
 30
0.0
 11
114.2647948753818
 21
235.1657383446223
 31
0.0
  0
LINE
  5
D2F
330
2
100
AcDbEntity
  8
0
100
AcDbLine
 10
109.3730938753818
 20
241.1570116507448
 30
0.0
 11
64.37309387538164
 21
241.5497128752347
 31
0.0
  0
LINE
  5
D30
330
2
100
AcDbEntity
  8
0
100
AcDbLine
 10
107.3905463653903
 20
222.1743126213831
 30
0.0
 11
61.37315087538161
 21
222.5758869785833
 31
0.0
  0
LINE
  5
D31
330
2
100
AcDbEntity
  8
0
100
AcDbLine
 10
73.87051387538178
 20
158.457588657127
 30
0.0
 11
112.2906362025215
 21
158.457588657127
 31
0.0
  0
LINE
  5
D32
330
2
100
AcDbEntity
  8
0
100
AcDbLine
 10
73.87053387538173
 20
164.457588657127
 30
0.0
 11
112.2911596059194
 21
164.457588657127
 31
0.0
  0
ARC
  5
D33
330
2
100
AcDbEntity
  8
0
100
AcDbCircle
 10
114.1761986545844
 20
188.8218015054261
 30
0.0
 40
42.0
100
AcDbArc
 50
250.5608481874074
 51
270.0
  0
ARC
  5
D34
330
2
100
AcDbEntity
  8
0
100
AcDbCircle
 10
114.1761986545844
 20
188.8218015054261
 30
0.0
 40
44.0
100
AcDbArc
 50
250.5608481874074
 51
270.0
  0
ARC
  5
D35
330
2
100
AcDbEntity
  8
0
100
AcDbCircle
 10
114.1761986545844
 20
188.8218015054261
 30
0.0
 40
40.0
100
AcDbArc
 50
250.5608481874074
 51
270.0
  0
ARC
  5
D36
330
2
100
AcDbEntity
  8
0
100
AcDbCircle
 10
114.1761986545844
 20
188.8218015054261
 30
0.0
 40
46.0
100
AcDbArc
 50
250.5608481874074
 51
270.0
  0
LINE
  5
D37
330
2
100
AcDbEntity
  8
0
100
AcDbLine
 10
60.37048387538163
 20
115.2318216041122
 30
0.0
 11
26.36175733988295
 21
114.9350319439048
 31
0.0
  0
LINE
  5
D38
330
2
100
AcDbEntity
  8
0
100
AcDbLine
 10
38.29711575936755
 20
155.9729410380074
 30
0.0
 11
28.29711575936755
 21
155.9729410380074
 31
0.0
  0
LINE
  5
D39
330
2
100
AcDbEntity
  8
0
100
AcDbLine
 10
38.29711575936755
 20
156.2729410380073
 30
0.0
 11
28.29711575936755
 21
156.2729410380073
 31
0.0
  0
LINE
  5
D3A
330
2
100
AcDbEntity
  8
0
100
AcDbLine
 10
38.29711575936755
 20
155.6729410380073
 30
0.0
 11
28.29711575936755
 21
155.6729410380073
 31
0.0
  0
LINE
  5
D3B
330
2
100
AcDbEntity
  8
0
100
AcDbLine
 10
28.40946825292178
 20
158.5462362091563
 30
0.0
 11
38.371415233839
 21
157.6746787816797
 31
0.0
  0
LINE
  5
D3C
330
2
100
AcDbEntity
  8
0
100
AcDbLine
 10
28.43561497574603
 20
158.8450946185838
 30
0.0
 11
38.39756195666371
 21
157.9735371911073
 31
0.0
  0
LINE
  5
D3D
330
2
100
AcDbEntity
  8
0
100
AcDbLine
 10
28.38332153009753
 20
158.2473777997288
 30
0.0
 11
38.34526851101475
 21
157.3758203722523
 31
0.0
  0
POINT
  5
D3E
330
2
100
AcDbEntity
  8
0
100
AcDbPoint
 10
25.37048387538163
 20
113.9350700208406
 30
0.0
  0
ARC
  5
D3F
330
2
100
AcDbEntity
  8
0
100
AcDbCircle
 10
26.37048387538163
 20
113.9350700208406
 30
0.0
 40
1.0
100
AcDbArc
 50
90.49999999999805
 51
180.0
  0
LINE
  5
D40
330
2
100
AcDbEntity
  8
0
100
AcDbLine
 10
53.37048387538164
 20
140.1318923881939
 30
0.0
 11
53.37048387538164
 21
150.4729410380074
 31
0.0
  0
LINE
  5
D41
330
2
100
AcDbEntity
  8
0
100
AcDbLine
 10
51.37048387538164
 20
139.7107268832932
 30
0.0
 11
51.37048387538164
 21
150.4729410380074
 31
0.0
  0
LINE
  5
D42
330
2
100
AcDbEntity
  8
0
100
AcDbLine
 10
52.37048387538163
 20
140.291897917335
 30
0.0
 11
52.37048387538163
 21
150.4729410380074
 31
0.0
  0
LINE
  5
D43
330
2
100
AcDbEntity
  8
0
100
AcDbLine
 10
87.61511405967359
 20
149.4151191007109
 30
0.0
 11
98.86714175505188
 21
145.4440102194829
 31
0.0
  0
ARC
  5
D44
330
2
100
AcDbEntity
  8
HOJO
100
AcDbCircle
 10
67.62051387538178
 20
147.6954104977486
 30
0.0
 40
1.600781
100
AcDbArc
 50
247.1647029999995
 51
321.3401944016193
  0
LINE
  5
D45
330
2
100
AcDbEntity
  8
HOJO
100
AcDbLine
 10
64.7418058753816
 20
147.1707224977486
 30
0.0
 11
66.99940487538163
 21
146.2201144977486
 31
0.0
  0
LINE
  5
D46
330
2
100
AcDbEntity
  8
0
100
AcDbLine
 10
66.87048387538164
 20
146.6953593796092
 30
0.0
 11
66.87048387538141
 21
146.2743993082789
 31
0.0
  0
ARC
  5
D47
330
2
100
AcDbEntity
  8
0
100
AcDbCircle
 10
70.37048387538163
 20
118.8711850380075
 30
0.0
 40
1.0
100
AcDbArc
 50
0.0
 51
90.0
  0
LINE
  5
D48
330
2
100
AcDbEntity
  8
0
100
AcDbLine
 10
105.6362228753815
 20
112.7215860380075
 30
0.0
 11
64.37048387538164
 21
112.3615345574737
 31
0.0
  0
LINE
  5
D49
330
2
100
AcDbEntity
  8
0
100
AcDbLine
 10
105.3425218753815
 20
115.8359870380074
 30
0.0
 11
64.37048387538164
 21
115.4783517058551
 31
0.0
  0
LINE
  5
D4A
330
2
100
AcDbEntity
  8
0
100
AcDbLine
 10
52.37048387538163
 20
115.1620066617862
 30
0.0
 11
52.37048387538163
 21
138.291897917335
 31
0.0
  0
LINE
  5
D4B
330
2
100
AcDbEntity
  8
0
100
AcDbLine
 10
51.37048387538164
 20
115.1532797939954
 30
0.0
 11
51.37048387538164
 21
137.7107268832931
 31
0.0
  0
LINE
  5
D4C
330
2
100
AcDbEntity
  8
0
100
AcDbLine
 10
53.37048387538164
 20
115.1707335295769
 30
0.0
 11
53.37048387538164
 21
138.1318923881939
 31
0.0
  0
LINE
  5
D4D
330
2
100
AcDbEntity
  8
0
100
AcDbLine
 10
62.87048387538163
 20
144.6953745024128
 30
0.0
 11
62.87048387538163
 21
119.8711850380075
 31
0.0
  0
LINE
  5
D4E
330
2
100
AcDbEntity
  8
0
100
AcDbLine
 10
68.87048387538164
 20
144.6953730939175
 30
0.0
 11
68.87048387538164
 21
119.8711850380075
 31
0.0
  0
LINE
  5
D4F
330
2
100
AcDbEntity
  8
0
100
AcDbLine
 10
66.87048387538141
 20
144.2812129128756
 30
0.0
 11
66.87048387538164
 21
119.8711850380075
 31
0.0
  0
LINE
  5
D50
330
2
100
AcDbEntity
  8
0
100
AcDbLine
 10
64.87048387538141
 20
145.1165400073136
 30
0.0
 11
64.87048387538163
 21
119.8711850380075
 31
0.0
  0
POINT
  5
D51
330
2
100
AcDbEntity
  8
0
100
AcDbPoint
 10
48.82048387538145
 20
115.1310262811289
 30
0.0
  0
LINE
  5
D52
330
2
100
AcDbEntity
  8
0
100
AcDbLine
 10
64.37048387538164
 20
115.4783517058551
 30
0.0
 11
64.37048387538164
 21
106.9027860380075
 31
0.0
  0
LINE
  5
D53
330
2
100
AcDbEntity
  8
0
100
AcDbLine
 10
60.37048387538163
 20
106.9027860380075
 30
0.0
 11
64.37048387538164
 21
106.9027860380075
 31
0.0
  0
LINE
  5
D54
330
2
100
AcDbEntity
  8
0
100
AcDbLine
 10
60.37048387538163
 20
113.4511850380074
 30
0.0
 11
64.37048387538164
 21
113.4511850380074
 31
0.0
  0
LINE
  5
D55
330
2
100
AcDbEntity
  8
0
100
AcDbLine
 10
70.37048387538163
 20
119.8711850380075
 30
0.0
 11
61.37048387538164
 21
119.8711850380075
 31
0.0
  0
POINT
  5
D56
330
2
100
AcDbEntity
  8
0
100
AcDbPoint
 10
57.9203848753815
 20
115.1929870424434
 30
0.0
  0
ARC
  5
D57
330
2
100
AcDbEntity
  8
0
100
AcDbCircle
 10
61.37048387538164
 20
118.8711850380075
 30
0.0
 40
1.0
100
AcDbArc
 50
90.0
 51
180.0
  0
LINE
  5
D58
330
2
100
AcDbEntity
  8
0
100
AcDbLine
 10
71.37048387538164
 20
118.8711850380075
 30
0.0
 11
71.37048387538164
 21
115.5219840380075
 31
0.0
  0
ARC
  5
D59
330
2
100
AcDbEntity
  8
HOJO
100
AcDbCircle
 10
52.62051387538178
 20
138.710762878629
 30
0.0
 40
1.600781999999999
100
AcDbArc
 50
67.16467299999876
 51
141.3418685642118
  0
LINE
  5
D5A
330
2
100
AcDbEntity
  8
HOJO
100
AcDbLine
 10
53.2418058753816
 20
140.186074878629
 30
0.0
 11
53.37048387538164
 21
140.1318923881939
 31
0.0
  0
LINE
  5
D5B
330
2
100
AcDbEntity
  8
HOJO
100
AcDbLine
 10
53.2418058753816
 20
138.1860748786291
 30
0.0
 11
53.37048387538164
 21
138.1318923881939
 31
0.0
  0
ARC
  5
D5C
330
2
100
AcDbEntity
  8
HOJO
100
AcDbCircle
 10
52.62051387538178
 20
136.7107628786291
 30
0.0
 40
1.600781999999999
100
AcDbArc
 50
67.16467299999876
 51
141.3418685641826
  0
ARC
  5
D5D
330
2
100
AcDbEntity
  8
HOJO
100
AcDbCircle
 10
64.12051387538179
 20
143.6954104977486
 30
0.0
 40
1.600781999999999
100
AcDbArc
 50
67.16467299999876
 51
141.3418685641826
  0
LINE
  5
D5E
330
2
100
AcDbEntity
  8
HOJO
100
AcDbLine
 10
62.87048387538163
 20
144.6954464930845
 30
0.0
 11
62.87048387538163
 21
144.4566141737481
 31
0.0
  0
ARC
  5
D5F
330
2
100
AcDbEntity
  8
HOJO
100
AcDbCircle
 10
67.62051387538178
 20
145.6954104977486
 30
0.0
 40
1.600781
100
AcDbArc
 50
247.1647029999995
 51
321.3401944016193
  0
LINE
  5
D60
330
2
100
AcDbEntity
  8
HOJO
100
AcDbLine
 10
64.7418058753816
 20
145.1707224977486
 30
0.0
 11
66.99940487538163
 21
144.2201144977486
 31
0.0
  0
ARC
  5
D61
330
2
100
AcDbEntity
  8
0
100
AcDbCircle
 10
73.87053387538173
 20
153.457588657127
 30
0.0
 40
11.0
100
AcDbArc
 50
90.0
 51
180.0
  0
ARC
  5
D62
330
2
100
AcDbEntity
  8
0
100
AcDbCircle
 10
73.87051387538178
 20
146.695410592768
 30
0.0
 40
9.0
100
AcDbArc
 50
90.0
 51
123.3057915968515
  0
ARC
  5
D63
330
2
100
AcDbEntity
  8
0
100
AcDbCircle
 10
73.87053508856673
 20
146.6953593796092
 30
0.0
 40
5.000051213203854
100
AcDbArc
 50
90.0002430827012
 51
179.9998428472107
  0
ARC
  5
D64
330
2
100
AcDbEntity
  8
0
100
AcDbCircle
 10
73.87053508856673
 20
146.6953593796092
 30
0.0
 40
7.000051213203854
100
AcDbArc
 50
90.0002430827012
 51
179.9998428472107
  0
ARC
  5
D65
330
2
100
AcDbEntity
  8
0
100
AcDbCircle
 10
73.87053508856673
 20
146.6953593796092
 30
0.0
 40
11.00005121320385
100
AcDbArc
 50
90.0002430827012
 51
179.9998428472107
  0
ARC
  5
D66
330
2
100
AcDbEntity
  8
0
100
AcDbCircle
 10
73.87051387538178
 20
153.457588657127
 30
0.0
 40
5.0
100
AcDbArc
 50
90.0
 51
131.9745634210934
  0
ARC
  5
D67
330
2
100
AcDbEntity
  8
0
100
AcDbCircle
 10
73.87053508856673
 20
146.6953593796092
 30
0.0
 40
9.000051213203853
100
AcDbArc
 50
90.0002430827012
 51
177.3436678381892
  0
ARC
  5
D68
330
2
100
AcDbEntity
  8
0
100
AcDbCircle
 10
46.37048387538164
 20
150.4729410380074
 30
0.0
 40
7.0
100
AcDbArc
 50
0.0
 51
89.62889052766097
  0
LINE
  5
D69
330
2
100
AcDbEntity
  8
0
100
AcDbLine
 10
38.3278373624654
 20
157.1765814326339
 30
0.0
 11
38.41499310521305
 21
158.1727761307256
 31
0.0
  0
LINE
  5
D6A
330
2
100
AcDbEntity
  8
0
100
AcDbLine
 10
46.41582313360697
 20
157.4727942044433
 30
0.0
 11
38.41499310521305
 21
158.1727761307256
 31
0.0
  0
LINE
  5
D6B
330
2
100
AcDbEntity
  8
0
100
AcDbLine
 10
46.37048387538164
 20
156.4729410380074
 30
0.0
 11
38.3278373624654
 21
157.1765814326338
 31
0.0
  0
LINE
  5
D6C
330
2
100
AcDbEntity
  8
0
100
AcDbLine
 10
46.37048387538164
 20
155.4729410380074
 30
0.0
 11
38.29711575936755
 21
155.4729410380074
 31
0.0
  0
LINE
  5
D6D
330
2
100
AcDbEntity
  8
0
100
AcDbLine
 10
46.37048387538164
 20
156.4729410380074
 30
0.0
 11
38.29711575936755
 21
156.4729410380074
 31
0.0
  0
LINE
  5
D6E
330
2
100
AcDbEntity
  8
0
100
AcDbLine
 10
38.29711575936755
 20
155.4729410380073
 30
0.0
 11
38.29711575936755
 21
156.4729410380074
 31
0.0
  0
ARC
  5
D6F
330
2
100
AcDbEntity
  8
0
100
AcDbCircle
 10
46.37048387538164
 20
150.4729410380074
 30
0.0
 40
5.0
100
AcDbArc
 50
0.0
 51
90.0
  0
ARC
  5
D70
330
2
100
AcDbEntity
  8
0
100
AcDbCircle
 10
46.37048387538164
 20
150.4729410380074
 30
0.0
 40
6.0
100
AcDbArc
 50
0.0
 51
90.0
  0
ARC
  5
D71
330
2
100
AcDbEntity
  8
HOJO
100
AcDbCircle
 10
64.12051387538179
 20
145.6954104977486
 30
0.0
 40
1.600781999999999
100
AcDbArc
 50
67.16467299999876
 51
141.3418685642152
  0
LINE
  5
D72
330
2
100
AcDbEntity
  8
0
100
AcDbLine
 10
62.87053387538174
 20
153.457588657127
 30
0.0
 11
62.87048387538163
 21
146.6953745024127
 31
0.0
  0
ARC
  5
D73
330
2
100
AcDbEntity
  8
0
100
AcDbCircle
 10
74.3028906687756
 20
111.6953005911949
 30
0.0
 40
44.0
100
AcDbArc
 50
70.56084818740743
 51
90.0
  0
ARC
  5
D74
330
2
100
AcDbEntity
  8
0
100
AcDbCircle
 10
74.3028906687756
 20
111.6953005911949
 30
0.0
 40
46.0
100
AcDbArc
 50
70.56084818740743
 51
90.0
  0
LINE
  5
D75
330
2
100
AcDbEntity
  8
0
100
AcDbLine
 10
88.28072522921786
 20
151.3011100261867
 30
0.0
 11
99.53275292459659
 21
147.3300011449587
 31
0.0
  0
ARC
  5
D76
330
2
100
AcDbEntity
  8
0
100
AcDbCircle
 10
74.3028906687756
 20
111.6953005911949
 30
0.0
 40
42.0
100
AcDbArc
 50
70.56084818740743
 51
90.0
  0
ARC
  5
D77
330
2
100
AcDbEntity
  8
0
100
AcDbCircle
 10
74.3028906687756
 20
111.6953005911949
 30
0.0
 40
40.0
100
AcDbArc
 50
70.56084818740743
 51
90.0
  0
LINE
  5
D78
330
2
100
AcDbEntity
  8
0
100
AcDbLine
 10
73.8703478407366
 20
151.6953005911949
 30
0.0
 11
74.3028906687756
 21
151.6953005911949
 31
0.0
  0
LINE
  5
D79
330
2
100
AcDbEntity
  8
0
100
AcDbLine
 10
73.8703478407366
 20
153.6953005911949
 30
0.0
 11
74.3028906687756
 21
153.6953005911949
 31
0.0
  0
LINE
  5
D7A
330
2
100
AcDbEntity
  8
0
100
AcDbLine
 10
73.8703478407366
 20
155.6953005911949
 30
0.0
 11
74.3028906687756
 21
155.6953005911949
 31
0.0
  0
LINE
  5
D7B
330
2
100
AcDbEntity
  8
0
100
AcDbLine
 10
73.8703478407366
 20
157.6953005911949
 30
0.0
 11
74.3028906687756
 21
157.6953005911949
 31
0.0
  0
LINE
  5
D7C
330
2
100
AcDbEntity
  8
0
100
AcDbLine
 10
89.61194756830776
 20
155.0730918771383
 30
0.0
 11
100.8639752636864
 21
151.1019829959103
 31
0.0
  0
LINE
  5
D7D
330
2
100
AcDbEntity
  8
0
100
AcDbLine
 10
88.94633639876303
 20
153.1871009516625
 30
0.0
 11
100.1983640941413
 21
149.2159920704344
 31
0.0
  0
LINE
  5
D7E
330
2
100
AcDbEntity
  8
0
100
AcDbLine
 10
60.37305587538151
 20
222.8051017785176
 30
0.0
 11
26.36432933988328
 21
223.101891438725
 31
0.0
  0
ARC
  5
D7F
330
2
100
AcDbEntity
  8
0
100
AcDbCircle
 10
26.37305587538174
 20
224.1018533617893
 30
0.0
 40
1.0
100
AcDbArc
 50
180.0
 51
269.5000000000019
  0
POINT
  5
D80
330
2
100
AcDbEntity
  8
0
100
AcDbPoint
 10
25.37305587538174
 20
224.1018533617892
 30
0.0
  0
ARC
  5
D81
330
2
100
AcDbEntity
  8
0
100
AcDbCircle
 10
70.37309387538164
 20
245.3234913516339
 30
0.0
 40
1.0
100
AcDbArc
 50
272.0000000000036
 51
0.0
  0
LINE
  5
D82
330
2
100
AcDbEntity
  8
0
100
AcDbLine
 10
61.37315087538161
 20
222.5758869785833
 30
0.0
 11
61.37315087538161
 21
233.1657383446223
 31
0.0
  0
LINE
  5
D83
330
2
100
AcDbEntity
  8
0
 62
     7
100
AcDbLine
 10
61.3730628753816
 20
222.8846403446224
 30
0.0
 11
60.37306287538161
 21
222.8934453446224
 31
0.0
  0
LINE
  5
D84
330
2
100
AcDbEntity
  8
0
100
AcDbLine
 10
64.37309387538164
 20
244.13955574723
 30
0.0
 11
64.37309387538164
 21
233.1657383446223
 31
0.0
  0
LINE
  5
D85
330
2
100
AcDbEntity
  8
0
100
AcDbLine
 10
64.37309387538164
 20
233.1657383446223
 30
0.0
 11
61.37309387538164
 21
233.1657383446223
 31
0.0
  0
ARC
  5
D86
330
2
100
AcDbEntity
  8
0
100
AcDbCircle
 10
61.37309387538164
 20
234.1657383446223
 30
0.0
 40
1.0
100
AcDbArc
 50
180.0
 51
270.0
  0
LINE
  5
D87
330
2
100
AcDbEntity
  8
0
100
AcDbLine
 10
65.87309387538164
 20
244.1657383446223
 30
0.0
 11
61.37309387538164
 21
244.0871905524453
 31
0.0
  0
LINE
  5
D88
330
2
100
AcDbEntity
  8
0
100
AcDbLine
 10
65.87309387538164
 20
244.1657383446223
 30
0.0
 11
70.40799337208444
 21
244.3241005246148
 31
0.0
  0
LINE
  5
D89
330
2
100
AcDbEntity
  8
0
100
AcDbLine
 10
144.0668430918341
 20
144.8218015054261
 30
0.0
 11
144.0668430918341
 21
146.8218015054261
 31
0.0
  0
LINE
  5
D8A
330
2
100
AcDbEntity
  8
0
100
AcDbLine
 10
144.0668430918341
 20
144.8218015054261
 30
0.0
 11
114.1761986545754
 21
144.8218015054261
 31
0.0
  0
LINE
  5
D8B
330
2
100
AcDbEntity
  8
0
100
AcDbLine
 10
114.5668430918341
 20
142.8218015054261
 30
0.0
 11
143.9478581002791
 21
140.2512957693021
 31
0.0
  0
LINE
  5
D8C
330
2
100
AcDbEntity
  8
0
100
AcDbLine
 10
114.654164977651
 20
144.8218015054261
 30
0.0
 11
144.1221695857744
 21
142.2436851654856
 31
0.0
  0
LINE
  5
D8D
330
2
100
AcDbEntity
  8
0
100
AcDbLine
 10
108.3705218753817
 20
118.8710930380075
 30
0.0
 11
108.3705218753817
 21
110.8710950380075
 31
0.0
  0
LINE
  5
D8E
330
2
100
AcDbEntity
  8
0
100
AcDbLine
 10
117.8705218753817
 20
111.0963860380074
 30
0.0
 11
109.3705218753817
 21
111.1705950380075
 31
0.0
  0
LINE
  5
D8F
330
2
100
AcDbEntity
  8
0
100
AcDbLine
 10
108.3705218753817
 20
110.8710950380075
 30
0.0
 11
107.1607208753817
 21
110.8710950380075
 31
0.0
  0
ARC
  5
D90
330
2
100
AcDbEntity
  8
0
100
AcDbCircle
 10
107.1607208753817
 20
111.8710950380075
 30
0.0
 40
1.0
100
AcDbArc
 50
213.0556950000028
 51
270.0
  0
LINE
  5
D91
330
2
100
AcDbEntity
  8
0
100
AcDbLine
 10
109.3705218753817
 20
111.0711860380074
 30
0.0
 11
108.3705218753817
 21
111.0711860380074
 31
0.0
  0
LINE
  5
D92
330
2
100
AcDbEntity
  8
0
100
AcDbLine
 10
117.8705218753817
 20
121.0067860380074
 30
0.0
 11
110.8575208753815
 21
120.9455870380074
 31
0.0
  0
ARC
  5
D93
330
2
100
AcDbEntity
  8
0
100
AcDbCircle
 10
110.8705218753817
 20
119.4455870380074
 30
0.0
 40
1.5
100
AcDbArc
 50
90.49999999999805
 51
180.0
  0
LINE
  5
D94
330
2
100
AcDbEntity
  8
0
100
AcDbLine
 10
108.3705218753817
 20
118.8710930380075
 30
0.0
 11
107.1607208753817
 21
118.8710930380075
 31
0.0
  0
ARC
  5
D95
330
2
100
AcDbEntity
  8
0
100
AcDbCircle
 10
107.1607208753817
 20
117.8710930380075
 30
0.0
 40
1.0
100
AcDbArc
 50
90.0
 51
146.9443049999971
  0
LINE
  5
D96
330
2
100
AcDbEntity
  8
0
100
AcDbLine
 10
108.3705218753817
 20
118.6711840380074
 30
0.0
 11
109.3705218753817
 21
118.6711840380074
 31
0.0
  0
LINE
  5
D97
330
2
100
AcDbEntity
  8
0
100
AcDbLine
 10
114.5668430918341
 20
142.8218015054261
 30
0.0
 11
114.1761986545749
 21
142.8218015054261
 31
0.0
  0
LINE
  5
D98
330
2
100
AcDbEntity
  8
0
100
AcDbLine
 10
149.0668430918341
 20
145.4718015054261
 30
0.0
 11
144.0668430918341
 21
145.4718015054261
 31
0.0
  0
LINE
  5
D99
330
2
100
AcDbEntity
  8
0
100
AcDbLine
 10
149.0668430918341
 20
145.1218015054261
 30
0.0
 11
144.0668430918341
 21
145.1218015054261
 31
0.0
  0
LINE
  5
D9A
330
2
100
AcDbEntity
  8
0
100
AcDbLine
 10
149.0668430918341
 20
145.8218015054261
 30
0.0
 11
144.0668430918341
 21
145.8218015054261
 31
0.0
  0
LINE
  5
D9B
330
2
100
AcDbEntity
  8
0
100
AcDbLine
 10
149.0668430918341
 20
146.171801505426
 30
0.0
 11
144.0668430918341
 21
146.171801505426
 31
0.0
  0
LINE
  5
D9C
330
2
100
AcDbEntity
  8
0
100
AcDbLine
 10
149.0532204287084
 20
141.1597912230557
 30
0.0
 11
144.07224693825
 21
141.5955699367939
 31
0.0
  0
LINE
  5
D9D
330
2
100
AcDbEntity
  8
0
100
AcDbLine
 10
149.1006067855065
 20
141.5069823971703
 30
0.0
 11
144.1027514482117
 21
141.944238081126
 31
0.0
  0
LINE
  5
D9E
330
2
100
AcDbEntity
  8
0
100
AcDbLine
 10
148.9617068988237
 20
140.1137867900594
 30
0.0
 11
143.9807334083649
 21
140.5495655037976
 31
0.0
  0
LINE
  5
D9F
330
2
100
AcDbEntity
  8
0
100
AcDbLine
 10
148.9922114087854
 20
140.4624549343915
 30
0.0
 11
144.0112379183266
 21
140.8982336481298
 31
0.0
  0
LINE
  5
DA0
330
2
100
AcDbEntity
  8
0
100
AcDbLine
 10
149.0227159187467
 20
140.8111230787236
 30
0.0
 11
144.0417424282883
 21
141.2469017924619
 31
0.0
  0
LINE
  5
DA1
330
2
100
AcDbEntity
  8
0
100
AcDbLine
 10
143.9478581002791
 20
140.2512957693021
 30
0.0
 11
144.1221695857744
 21
142.2436851654855
 31
0.0
  0
LINE
  5
DA2
330
2
100
AcDbEntity
  8
0
100
AcDbLine
 10
144.0668430918341
 20
146.8218015054261
 30
0.0
 11
114.1761986545758
 21
146.8218015054261
 31
0.0
  0
LINE
  5
DA3
330
2
100
AcDbEntity
  8
0
100
AcDbLine
 10
114.654164977651
 20
146.8218015054261
 30
0.0
 11
144.1288981710359
 21
149.4005065202985
 31
0.0
  0
LINE
  5
DA4
330
2
100
AcDbEntity
  8
0
100
AcDbLine
 10
114.5668430918341
 20
148.8218015054261
 30
0.0
 11
143.9545866855406
 21
151.392895916482
 31
0.0
  0
LINE
  5
DA5
330
2
100
AcDbEntity
  8
0
100
AcDbLine
 10
149.4296964173892
 20
155.2069282203943
 30
0.0
 11
137.9296964173892
 21
155.2069282203943
 31
0.0
  0
LINE
  5
DA6
330
2
100
AcDbEntity
  8
0
100
AcDbLine
 10
149.4296964173892
 20
167.7069282203943
 30
0.0
 11
137.9296964173892
 21
167.7069282203943
 31
0.0
  0
LINE
  5
DA7
330
2
100
AcDbEntity
  8
0
100
AcDbLine
 10
137.9296964173892
 20
162.0569282203944
 30
0.0
 11
122.0514294290379
 21
162.0569282203944
 31
0.0
  0
LINE
  5
DA8
330
2
100
AcDbEntity
  8
0
100
AcDbLine
 10
137.9296964173892
 20
160.8569282203944
 30
0.0
 11
122.0514294290379
 21
160.8569282203942
 31
0.0
  0
LINE
  5
DA9
330
2
100
AcDbEntity
  8
0
100
AcDbLine
 10
122.0483909796404
 20
157.2261627008104
 30
0.0
 11
128.0905153123964
 21
156.1607731601502
 31
0.0
  0
LINE
  5
DAA
330
2
100
AcDbEntity
  8
0
100
AcDbLine
 10
128.3839796067287
 20
163.2808221822292
 30
0.0
 11
122.0514294290379
 21
162.7267958304722
 31
0.0
  0
LINE
  5
DAB
330
2
100
AcDbEntity
  8
0
100
AcDbLine
 10
122.0514294290379
 20
164.4697175663238
 30
0.0
 11
128.1955017086276
 21
165.5530832806384
 31
0.0
  0
LINE
  5
DAC
330
2
100
AcDbEntity
  8
0
100
AcDbLine
 10
128.331586475239
 20
164.4808221822293
 30
0.0
 11
122.0514294290379
 21
163.9313796355241
 31
0.0
  0
LINE
  5
DAD
330
2
100
AcDbEntity
  8
0
100
AcDbLine
 10
128.3839796067328
 20
159.6330342585594
 30
0.0
 11
122.0514294290379
 21
160.1870606103167
 31
0.0
  0
LINE
  5
DAE
330
2
100
AcDbEntity
  8
0
100
AcDbLine
 10
122.0514294290379
 20
158.4441388744648
 30
0.0
 11
128.195501708628
 21
157.3607731601502
 31
0.0
  0
LINE
  5
DAF
330
2
100
AcDbEntity
  8
0
100
AcDbLine
 10
128.3315864752418
 20
158.4330342585594
 30
0.0
 11
122.0514294290379
 21
158.9824768052646
 31
0.0
  0
LINE
  5
DB0
330
2
100
AcDbEntity
  8
0
100
AcDbLine
 10
122.0483909796404
 20
165.6876937399786
 30
0.0
 11
128.0905153123964
 21
166.7530832806386
 31
0.0
  0
LINE
  5
DB1
330
2
100
AcDbEntity
  8
0
100
AcDbLine
 10
119.2619243411701
 20
157.2738503100722
 30
0.0
 11
115.1948386691429
 21
158.207588657127
 31
0.0
  0
LINE
  5
DB2
330
2
100
AcDbEntity
  8
0
100
AcDbLine
 10
122.0514294290379
 20
157.2608923363437
 30
0.0
 11
122.0514294290379
 21
165.6529641044453
 31
0.0
  0
LINE
  5
DB3
330
2
100
AcDbEntity
  8
0
100
AcDbLine
 10
114.5668430918341
 20
148.8218015054261
 30
0.0
 11
114.1761986545844
 21
148.8218015054261
 31
0.0
  0
ARC
  5
DB4
330
2
100
AcDbEntity
  8
0
100
AcDbCircle
 10
121.8514294290377
 20
157.2608923363437
 30
0.0
 40
0.2
100
AcDbArc
 50
260.0000000000013
 51
0.0
  0
LINE
  5
DB5
330
2
100
AcDbEntity
  8
0
100
AcDbLine
 10
119.6831174840432
 20
157.4401389124616
 30
0.0
 11
121.8166997935046
 21
157.0639307857412
 31
0.0
  0
ARC
  5
DB6
330
2
100
AcDbEntity
  8
0
100
AcDbCircle
 10
119.3514294290381
 20
157.6637077702365
 30
0.0
 40
0.4
100
AcDbArc
 50
257.0698677002805
 51
326.0187104207608
  0
LINE
  5
DB7
330
2
100
AcDbEntity
  8
0
100
AcDbLine
 10
112.4848087732299
 20
164.7075886571272
 30
0.0
 11
115.2198584064182
 21
164.7075886571272
 31
0.0
  0
LINE
  5
DB8
330
2
100
AcDbEntity
  8
0
100
AcDbLine
 10
112.4848087732299
 20
158.207588657127
 30
0.0
 11
115.1948386691429
 21
158.207588657127
 31
0.0
  0
LINE
  5
DB9
330
2
100
AcDbEntity
  8
0
100
AcDbLine
 10
112.2848087732296
 20
158.4075886571271
 30
0.0
 11
112.2848087732296
 21
164.5075886571271
 31
0.0
  0
ARC
  5
DBA
330
2
100
AcDbEntity
  8
0
100
AcDbCircle
 10
112.4848087732299
 20
158.4075886571271
 30
0.0
 40
0.2
100
AcDbArc
 50
180.0
 51
270.0
  0
ARC
  5
DBB
330
2
100
AcDbEntity
  8
0
100
AcDbCircle
 10
112.4848087732299
 20
164.5075886571271
 30
0.0
 40
0.2
100
AcDbArc
 50
90.0
 51
180.0
  0
LINE
  5
DBC
330
2
100
AcDbEntity
  8
0
100
AcDbLine
 10
120.2653547903706
 20
165.8193573112313
 30
0.0
 11
115.2198584064182
 21
164.707588657127
 31
0.0
  0
ARC
  5
DBD
330
2
100
AcDbEntity
  8
0
100
AcDbCircle
 10
121.8514294290377
 20
165.6529641044453
 30
0.0
 40
0.2
100
AcDbArc
 50
0.0
 51
99.99999999999861
  0
ARC
  5
DBE
330
2
100
AcDbEntity
  8
0
100
AcDbCircle
 10
120.3514294290381
 20
165.4287281308334
 30
0.0
 40
0.4
100
AcDbArc
 50
33.63399402201179
 51
102.4264747477324
  0
LINE
  5
DBF
330
2
100
AcDbEntity
  8
0
100
AcDbLine
 10
120.6844665341228
 20
165.6502823829631
 30
0.0
 11
121.8166997935046
 21
165.8499256550477
 31
0.0
  0
LINE
  5
DC0
330
2
100
AcDbEntity
  8
0
100
AcDbLine
 10
137.9296964173892
 20
167.7069282203943
 30
0.0
 11
137.9296964173892
 21
155.2069282203943
 31
0.0
  0
ARC
  5
DC1
330
2
100
AcDbEntity
  8
0
100
AcDbCircle
 10
131.668465261967
 20
177.0569282203944
 30
0.0
 40
20.0
100
AcDbArc
 50
260.0000000000013
 51
270.0
  0
ARC
  5
DC2
330
2
100
AcDbEntity
  8
0
100
AcDbCircle
 10
131.5634788657354
 20
175.8569282203944
 30
0.0
 40
20.0
100
AcDbArc
 50
260.0000000000013
 51
270.0
  0
LINE
  5
DC3
330
2
100
AcDbEntity
  8
0
100
AcDbLine
 10
137.9296964173892
 20
155.8569282203944
 30
0.0
 11
131.5634788657354
 21
155.8569282203943
 31
0.0
  0
LINE
  5
DC4
330
2
100
AcDbEntity
  8
0
100
AcDbLine
 10
137.9296964173892
 20
157.0569282203944
 30
0.0
 11
131.668465261967
 21
157.0569282203942
 31
0.0
  0
ARC
  5
DC5
330
2
100
AcDbEntity
  8
0
100
AcDbCircle
 10
131.5634788657349
 20
147.0569282203944
 30
0.0
 40
20.0
100
AcDbArc
 50
90.0
 51
99.99999999999861
  0
ARC
  5
DC6
330
2
100
AcDbEntity
  8
0
100
AcDbCircle
 10
131.6684652619661
 20
145.8569282203942
 30
0.0
 40
20.0
100
AcDbArc
 50
90.0
 51
99.99999999999861
  0
LINE
  5
DC7
330
2
100
AcDbEntity
  8
0
100
AcDbLine
 10
137.9296964173892
 20
163.3569282203944
 30
0.0
 11
130.1270944616818
 21
163.3569282203943
 31
0.0
  0
LINE
  5
DC8
330
2
100
AcDbEntity
  8
0
100
AcDbLine
 10
137.9296964173892
 20
164.5569282203944
 30
0.0
 11
130.0747013301917
 21
164.5569282203942
 31
0.0
  0
LINE
  5
DC9
330
2
100
AcDbEntity
  8
0
100
AcDbLine
 10
137.9296964173892
 20
158.3569282203943
 30
0.0
 11
130.0747013301948
 21
158.3569282203943
 31
0.0
  0
LINE
  5
DCA
330
2
100
AcDbEntity
  8
0
100
AcDbLine
 10
137.9296964173892
 20
159.5569282203944
 30
0.0
 11
130.1270944616859
 21
159.5569282203943
 31
0.0
  0
ARC
  5
DCB
330
2
100
AcDbEntity
  8
0
100
AcDbCircle
 10
130.1270944616823
 20
143.3569282203943
 30
0.0
 40
20.0
100
AcDbArc
 50
90.0
 51
94.99999999999975
  0
ARC
  5
DCC
330
2
100
AcDbEntity
  8
0
100
AcDbCircle
 10
130.1270944616859
 20
179.5569282203943
 30
0.0
 40
20.0
100
AcDbArc
 50
265.0000000000003
 51
270.0
  0
ARC
  5
DCD
330
2
100
AcDbEntity
  8
0
100
AcDbCircle
 10
130.0747013301948
 20
178.3569282203943
 30
0.0
 40
20.0
100
AcDbArc
 50
265.0000000000003
 51
270.0
  0
ARC
  5
DCE
330
2
100
AcDbEntity
  8
0
100
AcDbCircle
 10
130.0747013301921
 20
144.5569282203942
 30
0.0
 40
20.0
100
AcDbArc
 50
90.0
 51
94.99999999999975
  0
LINE
  5
DCF
330
2
100
AcDbEntity
  8
0
100
AcDbLine
 10
137.9296964173892
 20
165.8569282203943
 30
0.0
 11
131.6684652619657
 21
165.8569282203943
 31
0.0
  0
LINE
  5
DD0
330
2
100
AcDbEntity
  8
0
100
AcDbLine
 10
137.9296964173892
 20
167.0569282203944
 30
0.0
 11
131.5634788657349
 21
167.0569282203944
 31
0.0
  0
LINE
  5
DD1
330
2
100
AcDbEntity
  8
0
100
AcDbLine
 10
147.4296964173892
 20
157.7069282203943
 30
0.0
 11
147.4296964173892
 21
158.0569282203944
 31
0.0
  0
ARC
  5
DD2
330
2
100
AcDbEntity
  8
0
100
AcDbCircle
 10
142.5296964173891
 20
157.8569282203943
 30
0.0
 40
0.1
100
AcDbArc
 50
90.0
 51
180.0
  0
LINE
  5
DD3
330
2
100
AcDbEntity
  8
0
100
AcDbLine
 10
149.4296964173892
 20
167.7069282203943
 30
0.0
 11
149.4296964173892
 21
155.2069282203943
 31
0.0
  0
LINE
  5
DD4
330
2
100
AcDbEntity
  8
0
100
AcDbLine
 10
149.4296964173892
 20
167.7069282203943
 30
0.0
 11
149.4296964173892
 21
155.2069282203943
 31
0.0
  0
LINE
  5
DD5
330
2
100
AcDbEntity
  8
0
100
AcDbLine
 10
139.9296964173892
 20
167.7069282203943
 30
0.0
 11
139.9296964173892
 21
155.2069282203943
 31
0.0
  0
ARC
  5
DD6
330
2
100
AcDbEntity
  8
0
100
AcDbCircle
 10
148.3296964173893
 20
155.7569282203944
 30
0.0
 40
0.1
100
AcDbArc
 50
270.0
 51
0.0
  0
ARC
  5
DD7
330
2
100
AcDbEntity
  8
0
100
AcDbCircle
 10
148.3296964173893
 20
157.1569282203944
 30
0.0
 40
0.1
100
AcDbArc
 50
0.0
 51
90.0
  0
LINE
  5
DD8
330
2
100
AcDbEntity
  8
0
100
AcDbLine
 10
148.9617068988237
 20
151.5298162207927
 30
0.0
 11
143.9807334083649
 21
151.0940375070545
 31
0.0
  0
LINE
  5
DD9
330
2
100
AcDbEntity
  8
0
100
AcDbLine
 10
149.0532204287084
 20
150.4838117877964
 30
0.0
 11
144.07224693825
 21
150.0480330740581
 31
0.0
  0
LINE
  5
DDA
330
2
100
AcDbEntity
  8
0
100
AcDbLine
 10
149.1006067855065
 20
150.1366206136818
 30
0.0
 11
144.1027514482117
 21
149.699364929726
 31
0.0
  0
LINE
  5
DDB
330
2
100
AcDbEntity
  8
0
100
AcDbLine
 10
149.0668430918341
 20
146.521801505426
 30
0.0
 11
144.0668430918341
 21
146.521801505426
 31
0.0
  0
LINE
  5
DDC
330
2
100
AcDbEntity
  8
0
100
AcDbLine
 10
149.0227159187467
 20
150.8324799321285
 30
0.0
 11
144.0417424282883
 21
150.3967012183902
 31
0.0
  0
LINE
  5
DDD
330
2
100
AcDbEntity
  8
0
100
AcDbLine
 10
148.9922114087854
 20
151.1811480764606
 30
0.0
 11
144.0112379183266
 21
150.7453693627223
 31
0.0
  0
LINE
  5
DDE
330
2
100
AcDbEntity
  8
0
100
AcDbLine
 10
143.9545866855406
 20
151.392895916482
 30
0.0
 11
144.1288981710359
 21
149.4005065202985
 31
0.0
  0
LINE
  5
DDF
330
2
100
AcDbEntity
  8
0
100
AcDbLine
 10
145.8296964173892
 20
155.4569282203943
 30
0.0
 11
142.5296964173891
 21
155.4569282203943
 31
0.0
  0
LINE
  5
DE0
330
2
100
AcDbEntity
  8
0
100
AcDbLine
 10
145.8296964173892
 20
157.4569282203943
 30
0.0
 11
142.5296964173891
 21
157.4569282203943
 31
0.0
  0
LINE
  5
DE1
330
2
100
AcDbEntity
  8
0
100
AcDbLine
 10
142.4296964173892
 20
155.3569282203943
 30
0.0
 11
142.4296964173892
 21
155.2069282203943
 31
0.0
  0
ARC
  5
DE2
330
2
100
AcDbEntity
  8
0
100
AcDbCircle
 10
142.5296964173891
 20
155.3569282203943
 30
0.0
 40
0.1
100
AcDbArc
 50
90.0
 51
180.0
  0
LINE
  5
DE3
330
2
100
AcDbEntity
  8
0
100
AcDbLine
 10
142.4296964173892
 20
157.7069282203943
 30
0.0
 11
142.4296964173892
 21
157.5569282203944
 31
0.0
  0
ARC
  5
DE4
330
2
100
AcDbEntity
  8
0
100
AcDbCircle
 10
142.5296964173891
 20
157.5569282203944
 30
0.0
 40
0.1
100
AcDbArc
 50
180.0
 51
270.0
  0
LINE
  5
DE5
330
2
100
AcDbEntity
  8
0
100
AcDbLine
 10
142.4296964173892
 20
157.7069282203943
 30
0.0
 11
142.4296964173892
 21
157.8569282203943
 31
0.0
  0
LINE
  5
DE6
330
2
100
AcDbEntity
  8
0
100
AcDbLine
 10
145.9296964173892
 20
157.3569282203943
 30
0.0
 11
145.9296964173892
 21
155.5569282203944
 31
0.0
  0
ARC
  5
DE7
330
2
100
AcDbEntity
  8
0
100
AcDbCircle
 10
145.8296964173892
 20
155.5569282203944
 30
0.0
 40
0.1
100
AcDbArc
 50
270.0
 51
0.0
  0
ARC
  5
DE8
330
2
100
AcDbEntity
  8
0
100
AcDbCircle
 10
147.5296964173891
 20
155.5569282203944
 30
0.0
 40
0.1
100
AcDbArc
 50
90.0
 51
180.0
  0
LINE
  5
DE9
330
2
100
AcDbEntity
  8
0
100
AcDbLine
 10
147.4296964173892
 20
155.2069282203943
 30
0.0
 11
147.4296964173892
 21
155.5569282203944
 31
0.0
  0
LINE
  5
DEA
330
2
100
AcDbEntity
  8
0
100
AcDbLine
 10
148.3296964173893
 20
155.6569282203944
 30
0.0
 11
147.5296964173891
 21
155.6569282203944
 31
0.0
  0
ARC
  5
DEB
330
2
100
AcDbEntity
  8
0
100
AcDbCircle
 10
145.8296964173892
 20
157.3569282203943
 30
0.0
 40
0.1
100
AcDbArc
 50
0.0
 51
90.0
  0
LINE
  5
DEC
330
2
100
AcDbEntity
  8
0
100
AcDbLine
 10
147.4296964173892
 20
157.7069282203943
 30
0.0
 11
147.4296964173892
 21
157.3569282203943
 31
0.0
  0
ARC
  5
DED
330
2
100
AcDbEntity
  8
0
100
AcDbCircle
 10
147.5296964173891
 20
157.3569282203943
 30
0.0
 40
0.1
100
AcDbArc
 50
180.0
 51
270.0
  0
LINE
  5
DEE
330
2
100
AcDbEntity
  8
0
100
AcDbLine
 10
148.3296964173893
 20
157.2569282203944
 30
0.0
 11
147.5296964173891
 21
157.2569282203944
 31
0.0
  0
LINE
  5
DEF
330
2
100
AcDbEntity
  8
0
100
AcDbLine
 10
148.4296964173892
 20
157.1569282203944
 30
0.0
 11
148.4296964173892
 21
155.7569282203944
 31
0.0
  0
ARC
  5
DF0
330
2
100
AcDbEntity
  8
0
100
AcDbCircle
 10
148.3296964173893
 20
167.1569282203944
 30
0.0
 40
0.1
100
AcDbArc
 50
0.0
 51
90.0
  0
ARC
  5
DF1
330
2
100
AcDbEntity
  8
0
100
AcDbCircle
 10
148.3296964173893
 20
165.7569282203943
 30
0.0
 40
0.1
100
AcDbArc
 50
270.0
 51
0.0
  0
ARC
  5
DF2
330
2
100
AcDbEntity
  8
0
100
AcDbCircle
 10
148.3296964173893
 20
162.1569282203944
 30
0.0
 40
0.1
100
AcDbArc
 50
0.0
 51
90.0
  0
ARC
  5
DF3
330
2
100
AcDbEntity
  8
0
100
AcDbCircle
 10
148.3296964173893
 20
164.6569282203944
 30
0.0
 40
0.1
100
AcDbArc
 50
0.0
 51
90.0
  0
ARC
  5
DF4
330
2
100
AcDbEntity
  8
0
100
AcDbCircle
 10
148.3296964173893
 20
163.2569282203944
 30
0.0
 40
0.1
100
AcDbArc
 50
270.0
 51
0.0
  0
ARC
  5
DF5
330
2
100
AcDbEntity
  8
0
100
AcDbCircle
 10
148.3296964173893
 20
160.7569282203943
 30
0.0
 40
0.1
100
AcDbArc
 50
270.0
 51
0.0
  0
ARC
  5
DF6
330
2
100
AcDbEntity
  8
0
100
AcDbCircle
 10
148.3296964173893
 20
159.6569282203944
 30
0.0
 40
0.1
100
AcDbArc
 50
0.0
 51
90.0
  0
ARC
  5
DF7
330
2
100
AcDbEntity
  8
0
100
AcDbCircle
 10
148.3296964173893
 20
158.2569282203943
 30
0.0
 40
0.1
100
AcDbArc
 50
270.0
 51
0.0
  0
LINE
  5
DF8
330
2
100
AcDbEntity
  8
0
100
AcDbLine
 10
145.9296964173892
 20
164.8569282203943
 30
0.0
 11
145.9296964173892
 21
163.0569282203944
 31
0.0
  0
LINE
  5
DF9
330
2
100
AcDbEntity
  8
0
100
AcDbLine
 10
145.8296964173892
 20
162.4569282203943
 30
0.0
 11
142.5296964173891
 21
162.4569282203943
 31
0.0
  0
LINE
  5
DFA
330
2
100
AcDbEntity
  8
0
100
AcDbLine
 10
145.8296964173892
 20
162.9569282203943
 30
0.0
 11
142.5296964173891
 21
162.9569282203943
 31
0.0
  0
LINE
  5
DFB
330
2
100
AcDbEntity
  8
0
100
AcDbLine
 10
145.8296964173892
 20
159.9569282203944
 30
0.0
 11
142.5296964173891
 21
159.9569282203944
 31
0.0
  0
LINE
  5
DFC
330
2
100
AcDbEntity
  8
0
100
AcDbLine
 10
145.8296964173892
 20
160.4569282203943
 30
0.0
 11
142.5296964173891
 21
160.4569282203943
 31
0.0
  0
LINE
  5
DFD
330
2
100
AcDbEntity
  8
0
100
AcDbLine
 10
145.8296964173892
 20
157.9569282203943
 30
0.0
 11
142.5296964173891
 21
157.9569282203943
 31
0.0
  0
ARC
  5
DFE
330
2
100
AcDbEntity
  8
0
100
AcDbCircle
 10
142.5296964173891
 20
162.5569282203944
 30
0.0
 40
0.1
100
AcDbArc
 50
180.0
 51
270.0
  0
ARC
  5
DFF
330
2
100
AcDbEntity
  8
0
100
AcDbCircle
 10
142.5296964173891
 20
162.8569282203943
 30
0.0
 40
0.1
100
AcDbArc
 50
90.0
 51
180.0
  0
LINE
  5
E00
330
2
100
AcDbEntity
  8
0
100
AcDbLine
 10
142.4296964173892
 20
162.8569282203943
 30
0.0
 11
142.4296964173892
 21
162.5569282203944
 31
0.0
  0
ARC
  5
E01
330
2
100
AcDbEntity
  8
0
100
AcDbCircle
 10
142.5296964173891
 20
160.0569282203944
 30
0.0
 40
0.1
100
AcDbArc
 50
180.0
 51
270.0
  0
LINE
  5
E02
330
2
100
AcDbEntity
  8
0
100
AcDbLine
 10
142.4296964173892
 20
160.0569282203944
 30
0.0
 11
142.4296964173892
 21
160.3569282203943
 31
0.0
  0
ARC
  5
E03
330
2
100
AcDbEntity
  8
0
100
AcDbCircle
 10
142.5296964173891
 20
160.3569282203943
 30
0.0
 40
0.1
100
AcDbArc
 50
90.0
 51
180.0
  0
LINE
  5
E04
330
2
100
AcDbEntity
  8
0
100
AcDbLine
 10
145.9296964173892
 20
160.5569282203944
 30
0.0
 11
145.9296964173892
 21
161.4569282203943
 31
0.0
  0
LINE
  5
E05
330
2
100
AcDbEntity
  8
0
100
AcDbLine
 10
145.9296964173892
 20
162.3569282203943
 30
0.0
 11
145.9296964173892
 21
161.4569282203943
 31
0.0
  0
ARC
  5
E06
330
2
100
AcDbEntity
  8
0
100
AcDbCircle
 10
145.8296964173892
 20
162.3569282203943
 30
0.0
 40
0.1
100
AcDbArc
 50
0.0
 51
90.0
  0
ARC
  5
E07
330
2
100
AcDbEntity
  8
0
100
AcDbCircle
 10
145.8296964173892
 20
163.0569282203944
 30
0.0
 40
0.1
100
AcDbArc
 50
270.0
 51
0.0
  0
ARC
  5
E08
330
2
100
AcDbEntity
  8
0
100
AcDbCircle
 10
147.5296964173891
 20
162.3569282203943
 30
0.0
 40
0.1
100
AcDbArc
 50
180.0
 51
270.0
  0
ARC
  5
E09
330
2
100
AcDbEntity
  8
0
100
AcDbCircle
 10
147.5296964173891
 20
163.0569282203944
 30
0.0
 40
0.1
100
AcDbArc
 50
90.0
 51
180.0
  0
LINE
  5
E0A
330
2
100
AcDbEntity
  8
0
100
AcDbLine
 10
147.4296964173892
 20
162.7069282203943
 30
0.0
 11
147.4296964173892
 21
163.0569282203944
 31
0.0
  0
LINE
  5
E0B
330
2
100
AcDbEntity
  8
0
100
AcDbLine
 10
147.4296964173892
 20
162.7069282203943
 30
0.0
 11
147.4296964173892
 21
162.3569282203943
 31
0.0
  0
LINE
  5
E0C
330
2
100
AcDbEntity
  8
0
100
AcDbLine
 10
148.3296964173893
 20
163.1569282203944
 30
0.0
 11
147.5296964173891
 21
163.1569282203944
 31
0.0
  0
LINE
  5
E0D
330
2
100
AcDbEntity
  8
0
100
AcDbLine
 10
148.3296964173893
 20
162.2569282203944
 30
0.0
 11
147.5296964173891
 21
162.2569282203944
 31
0.0
  0
ARC
  5
E0E
330
2
100
AcDbEntity
  8
0
100
AcDbCircle
 10
145.8296964173892
 20
160.5569282203944
 30
0.0
 40
0.1
100
AcDbArc
 50
270.0
 51
0.0
  0
LINE
  5
E0F
330
2
100
AcDbEntity
  8
0
100
AcDbLine
 10
147.4296964173892
 20
160.2069282203943
 30
0.0
 11
147.4296964173892
 21
160.5569282203944
 31
0.0
  0
ARC
  5
E10
330
2
100
AcDbEntity
  8
0
100
AcDbCircle
 10
147.5296964173891
 20
160.5569282203944
 30
0.0
 40
0.1
100
AcDbArc
 50
90.0
 51
180.0
  0
LINE
  5
E11
330
2
100
AcDbEntity
  8
0
100
AcDbLine
 10
148.3296964173893
 20
160.6569282203944
 30
0.0
 11
147.5296964173891
 21
160.6569282203944
 31
0.0
  0
ARC
  5
E12
330
2
100
AcDbEntity
  8
0
100
AcDbCircle
 10
147.5296964173891
 20
159.8569282203943
 30
0.0
 40
0.1
100
AcDbArc
 50
180.0
 51
270.0
  0
LINE
  5
E13
330
2
100
AcDbEntity
  8
0
100
AcDbLine
 10
148.3296964173893
 20
159.7569282203944
 30
0.0
 11
147.5296964173891
 21
159.7569282203944
 31
0.0
  0
ARC
  5
E14
330
2
100
AcDbEntity
  8
0
100
AcDbCircle
 10
145.8296964173892
 20
158.0569282203944
 30
0.0
 40
0.1
100
AcDbArc
 50
270.0
 51
0.0
  0
ARC
  5
E15
330
2
100
AcDbEntity
  8
0
100
AcDbCircle
 10
147.5296964173891
 20
158.0569282203944
 30
0.0
 40
0.1
100
AcDbArc
 50
90.0
 51
180.0
  0
LINE
  5
E16
330
2
100
AcDbEntity
  8
0
100
AcDbLine
 10
148.3296964173893
 20
158.1569282203944
 30
0.0
 11
147.5296964173891
 21
158.1569282203944
 31
0.0
  0
LINE
  5
E17
330
2
100
AcDbEntity
  8
0
100
AcDbLine
 10
145.9296964173892
 20
158.0569282203944
 30
0.0
 11
145.9296964173892
 21
159.8569282203943
 31
0.0
  0
ARC
  5
E18
330
2
100
AcDbEntity
  8
0
100
AcDbCircle
 10
145.8296964173892
 20
159.8569282203943
 30
0.0
 40
0.1
100
AcDbArc
 50
0.0
 51
90.0
  0
LINE
  5
E19
330
2
100
AcDbEntity
  8
0
100
AcDbLine
 10
147.4296964173892
 20
160.2069282203943
 30
0.0
 11
147.4296964173892
 21
159.8569282203943
 31
0.0
  0
LINE
  5
E1A
330
2
100
AcDbEntity
  8
0
100
AcDbLine
 10
145.8296964173892
 20
167.4569282203943
 30
0.0
 11
142.5296964173891
 21
167.4569282203943
 31
0.0
  0
LINE
  5
E1B
330
2
100
AcDbEntity
  8
0
100
AcDbLine
 10
145.8296964173892
 20
164.9569282203943
 30
0.0
 11
142.5296964173891
 21
164.9569282203943
 31
0.0
  0
LINE
  5
E1C
330
2
100
AcDbEntity
  8
0
100
AcDbLine
 10
145.8296964173892
 20
165.4569282203943
 30
0.0
 11
142.5296964173891
 21
165.4569282203943
 31
0.0
  0
ARC
  5
E1D
330
2
100
AcDbEntity
  8
0
100
AcDbCircle
 10
142.5296964173891
 20
167.5569282203944
 30
0.0
 40
0.1
100
AcDbArc
 50
180.0
 51
270.0
  0
LINE
  5
E1E
330
2
100
AcDbEntity
  8
0
100
AcDbLine
 10
142.4296964173892
 20
167.5569282203944
 30
0.0
 11
142.4296964173892
 21
167.7069282203943
 31
0.0
  0
LINE
  5
E1F
330
2
100
AcDbEntity
  8
0
100
AcDbLine
 10
142.4296964173892
 20
165.2069282203943
 30
0.0
 11
142.4296964173892
 21
165.0569282203944
 31
0.0
  0
ARC
  5
E20
330
2
100
AcDbEntity
  8
0
100
AcDbCircle
 10
142.5296964173891
 20
165.3569282203943
 30
0.0
 40
0.1
100
AcDbArc
 50
90.0
 51
180.0
  0
LINE
  5
E21
330
2
100
AcDbEntity
  8
0
100
AcDbLine
 10
142.4296964173892
 20
165.2069282203943
 30
0.0
 11
142.4296964173892
 21
165.3569282203943
 31
0.0
  0
ARC
  5
E22
330
2
100
AcDbEntity
  8
0
100
AcDbCircle
 10
142.5296964173891
 20
165.0569282203944
 30
0.0
 40
0.1
100
AcDbArc
 50
180.0
 51
270.0
  0
ARC
  5
E23
330
2
100
AcDbEntity
  8
0
100
AcDbCircle
 10
145.8296964173892
 20
167.3569282203943
 30
0.0
 40
0.1
100
AcDbArc
 50
0.0
 51
90.0
  0
LINE
  5
E24
330
2
100
AcDbEntity
  8
0
100
AcDbLine
 10
147.4296964173892
 20
167.7069282203943
 30
0.0
 11
147.4296964173892
 21
167.3569282203943
 31
0.0
  0
ARC
  5
E25
330
2
100
AcDbEntity
  8
0
100
AcDbCircle
 10
147.5296964173891
 20
167.3569282203943
 30
0.0
 40
0.1
100
AcDbArc
 50
180.0
 51
270.0
  0
LINE
  5
E26
330
2
100
AcDbEntity
  8
0
100
AcDbLine
 10
148.3296964173893
 20
167.2569282203944
 30
0.0
 11
147.5296964173891
 21
167.2569282203944
 31
0.0
  0
LINE
  5
E27
330
2
100
AcDbEntity
  8
0
100
AcDbLine
 10
147.4296964173892
 20
165.2069282203943
 30
0.0
 11
147.4296964173892
 21
164.8569282203943
 31
0.0
  0
ARC
  5
E28
330
2
100
AcDbEntity
  8
0
100
AcDbCircle
 10
145.8296964173892
 20
165.5569282203944
 30
0.0
 40
0.1
100
AcDbArc
 50
270.0
 51
0.0
  0
ARC
  5
E29
330
2
100
AcDbEntity
  8
0
100
AcDbCircle
 10
147.5296964173891
 20
165.5569282203944
 30
0.0
 40
0.1
100
AcDbArc
 50
90.0
 51
180.0
  0
LINE
  5
E2A
330
2
100
AcDbEntity
  8
0
100
AcDbLine
 10
147.4296964173892
 20
165.2069282203943
 30
0.0
 11
147.4296964173892
 21
165.5569282203944
 31
0.0
  0
LINE
  5
E2B
330
2
100
AcDbEntity
  8
0
100
AcDbLine
 10
148.3296964173893
 20
165.6569282203944
 30
0.0
 11
147.5296964173891
 21
165.6569282203944
 31
0.0
  0
LINE
  5
E2C
330
2
100
AcDbEntity
  8
0
100
AcDbLine
 10
148.3296964173893
 20
164.7569282203944
 30
0.0
 11
147.5296964173891
 21
164.7569282203944
 31
0.0
  0
ARC
  5
E2D
330
2
100
AcDbEntity
  8
0
100
AcDbCircle
 10
145.8296964173892
 20
164.8569282203943
 30
0.0
 40
0.1
100
AcDbArc
 50
0.0
 51
90.0
  0
ARC
  5
E2E
330
2
100
AcDbEntity
  8
0
100
AcDbCircle
 10
147.5296964173891
 20
164.8569282203943
 30
0.0
 40
0.1
100
AcDbArc
 50
180.0
 51
270.0
  0
LINE
  5
E2F
330
2
100
AcDbEntity
  8
0
100
AcDbLine
 10
145.9296964173892
 20
165.5569282203944
 30
0.0
 11
145.9296964173892
 21
167.3569282203943
 31
0.0
  0
LINE
  5
E30
330
2
100
AcDbEntity
  8
0
100
AcDbLine
 10
148.4296964173892
 20
164.6569282203944
 30
0.0
 11
148.4296964173892
 21
163.2569282203944
 31
0.0
  0
LINE
  5
E31
330
2
100
AcDbEntity
  8
0
100
AcDbLine
 10
148.4296964173892
 20
161.4569282203943
 30
0.0
 11
148.4296964173892
 21
160.7569282203943
 31
0.0
  0
LINE
  5
E32
330
2
100
AcDbEntity
  8
0
100
AcDbLine
 10
148.4296964173892
 20
161.4569282203943
 30
0.0
 11
148.4296964173892
 21
162.1569282203944
 31
0.0
  0
LINE
  5
E33
330
2
100
AcDbEntity
  8
0
100
AcDbLine
 10
148.4296964173892
 20
158.2569282203943
 30
0.0
 11
148.4296964173892
 21
159.6569282203944
 31
0.0
  0
LINE
  5
E34
330
2
100
AcDbEntity
  8
0
100
AcDbLine
 10
148.4296964173892
 20
165.7569282203943
 30
0.0
 11
148.4296964173892
 21
167.1569282203944
 31
0.0
  0
LINE
  5
E35
330
2
100
AcDbEntity
  8
0
100
AcDbLine
 10
111.3730938753818
 20
217.0257383446224
 30
0.0
 11
117.8730938753816
 21
217.0257383446224
 31
0.0
  0
ARC
  5
E36
330
2
100
AcDbEntity
  8
0
100
AcDbCircle
 10
111.3730938753818
 20
219.0257383446224
 30
0.0
 40
2.0
100
AcDbArc
 50
180.0
 51
270.0
  0
ARC
  5
E37
330
2
100
AcDbEntity
  8
0
100
AcDbCircle
 10
107.3730938753818
 20
220.1743887701847
 30
0.0
 40
2.0
100
AcDbArc
 50
0.0
 51
89.50001664472729
  0
LINE
  5
E38
330
2
100
AcDbEntity
  8
0
100
AcDbLine
 10
108.3730938753818
 20
239.1657383446223
 30
0.0
 11
108.3730938753818
 21
231.1657383446223
 31
0.0
  0
LINE
  5
E39
330
2
100
AcDbEntity
  8
0
100
AcDbLine
 10
111.3730938753818
 20
229.5757383446223
 30
0.0
 11
117.8730938753818
 21
229.5757383446223
 31
0.0
  0
ARC
  5
E3A
330
2
100
AcDbEntity
  8
0
100
AcDbCircle
 10
111.3730938753818
 20
231.5757383446224
 30
0.0
 40
2.0
100
AcDbArc
 50
180.0
 51
270.0
  0
LINE
  5
E3B
330
2
100
AcDbEntity
  8
0
100
AcDbLine
 10
109.4246918753818
 20
231.3658383446223
 30
0.0
 11
108.3730938753818
 21
231.3658383446223
 31
0.0
  0
LINE
  5
E3C
330
2
100
AcDbEntity
  8
0
100
AcDbLine
 10
108.3730938753818
 20
231.1657383446223
 30
0.0
 11
107.1632928753819
 21
231.1657383446223
 31
0.0
  0
ARC
  5
E3D
330
2
100
AcDbEntity
  8
0
100
AcDbCircle
 10
107.1632928753819
 20
232.1657383446223
 30
0.0
 40
1.0
100
AcDbArc
 50
213.0556950000028
 51
270.0
  0
LINE
  5
E3E
330
2
100
AcDbEntity
  8
0
100
AcDbLine
 10
108.3730938753818
 20
239.1657383446223
 30
0.0
 11
107.1632928753819
 21
239.1657383446223
 31
0.0
  0
ARC
  5
E3F
330
2
100
AcDbEntity
  8
0
100
AcDbCircle
 10
107.1632928753819
 20
238.1657383446223
 30
0.0
 40
1.0
100
AcDbArc
 50
90.0
 51
146.9443049999971
  0
LINE
  5
E40
330
2
100
AcDbEntity
  8
0
100
AcDbLine
 10
108.3730938753818
 20
238.9658483446223
 30
0.0
 11
109.3730938753818
 21
238.9658483446223
 31
0.0
  0
LINE
  5
E7C
330
2
100
AcDbEntity
  8
0
100
AcDbLine
 10
109.3730938753818
 20
269.1744650384999
 30
0.0
 11
64.37309387538164
 21
268.7817638140102
 31
0.0
  0
LINE
  5
E7D
330
2
100
AcDbEntity
  8
0
100
AcDbLine
 10
107.3905463653899
 20
288.1571640678615
 30
0.0
 11
61.37315087538161
 21
287.7555897106615
 31
0.0
  0
LINE
  5
E7F
330
2
100
AcDbEntity
  8
0
100
AcDbLine
 10
38.41756510521338
 20
255.4744652124131
 30
0.0
 11
28.41756510521338
 21
255.4744652124132
 31
0.0
  0
LINE
  5
E80
330
2
100
AcDbEntity
  8
0
100
AcDbLine
 10
38.41756510521338
 20
255.1744652124132
 30
0.0
 11
28.41756510521338
 21
255.1744652124133
 31
0.0
  0
LINE
  5
E81
330
2
100
AcDbEntity
  8
0
100
AcDbLine
 10
38.41756510521338
 20
254.8744652124132
 30
0.0
 11
28.41756510521338
 21
254.8744652124132
 31
0.0
  0
LINE
  5
E82
330
2
100
AcDbEntity
  8
0
100
AcDbLine
 10
60.37305587538151
 20
287.5263749107271
 30
0.0
 11
26.36432933988328
 21
287.2295852505196
 31
0.0
  0
POINT
  5
E83
330
2
100
AcDbEntity
  8
0
100
AcDbPoint
 10
25.37305587538151
 20
286.2296233274553
 30
0.0
  0
ARC
  5
E84
330
2
100
AcDbEntity
  8
0
100
AcDbCircle
 10
26.37305587538151
 20
286.2296233274555
 30
0.0
 40
1.0
100
AcDbArc
 50
90.49999999999805
 51
180.0
  0
ARC
  5
E85
330
2
100
AcDbEntity
  8
0
100
AcDbCircle
 10
70.37309387538164
 20
265.0079942231992
 30
0.0
 40
1.0
100
AcDbArc
 50
0.0
 51
87.99999999999633
  0
LINE
  5
E86
330
2
100
AcDbEntity
  8
0
100
AcDbLine
 10
65.87309387538164
 20
248.2657383446222
 30
0.0
 11
76.69604988657477
 21
248.2657383446222
 31
0.0
  0
LINE
  5
E87
330
2
100
AcDbEntity
  8
0
100
AcDbLine
 10
65.87309387538164
 20
250.2657383446222
 30
0.0
 11
76.60179029311496
 21
250.2657383446222
 31
0.0
  0
LINE
  5
E88
330
2
100
AcDbEntity
  8
0
100
AcDbLine
 10
64.07309387538169
 20
253.3657383446223
 30
0.0
 11
74.801790293115
 21
253.3657383446223
 31
0.0
  0
LINE
  5
E89
330
2
100
AcDbEntity
  8
0
100
AcDbLine
 10
64.07309387538169
 20
251.3657383446223
 30
0.0
 11
74.89604988657482
 21
251.3657383446223
 31
0.0
  0
LINE
  5
E8A
330
2
100
AcDbEntity
  8
0
100
AcDbLine
 10
65.87309387538164
 20
262.6657383446223
 30
0.0
 11
76.9206829707581
 21
262.6657383446222
 31
0.0
  0
LINE
  5
E8B
330
2
100
AcDbEntity
  8
0
100
AcDbLine
 10
65.87309387538164
 20
256.6657383446223
 30
0.0
 11
76.99847331461899
 21
256.665738344622
 31
0.0
  0
LINE
  5
E8C
330
2
100
AcDbEntity
  8
0
100
AcDbLine
 10
64.37309387538164
 20
266.1919209420147
 30
0.0
 11
64.37309387538164
 21
277.1657383446223
 31
0.0
  0
LINE
  5
E8F
330
2
100
AcDbEntity
  8
0
100
AcDbLine
 10
52.87305587538174
 20
255.6744652124132
 30
0.0
 11
38.41756510521338
 21
255.6744652124132
 31
0.0
  0
LINE
  5
E90
330
2
100
AcDbEntity
  8
0
100
AcDbLine
 10
52.87305587538174
 20
254.6744652124132
 30
0.0
 11
38.41756510521338
 21
254.6744652124133
 31
0.0
  0
LINE
  5
E91
330
2
100
AcDbEntity
  8
0
100
AcDbLine
 10
38.41756510521338
 20
254.6744652124133
 30
0.0
 11
38.41756510521338
 21
255.6744652124132
 31
0.0
  0
ARC
  5
E92
330
2
100
AcDbEntity
  8
0
100
AcDbCircle
 10
52.87305587538174
 20
255.1744652124132
 30
0.0
 40
0.5
100
AcDbArc
 50
270.0
 51
90.0
  0
ARC
  5
E93
330
2
100
AcDbEntity
  8
0
100
AcDbCircle
 10
65.87309387538164
 20
259.6657383446223
 30
0.0
 40
3.0
100
AcDbArc
 50
90.0
 51
269.9999999999934
  0
ARC
  5
E94
330
2
100
AcDbEntity
  8
0
100
AcDbCircle
 10
64.07309387538169
 20
252.3657383446222
 30
0.0
 40
2.0
100
AcDbArc
 50
89.99999999997395
 51
204.6092450239451
  0
ARC
  5
E95
330
2
100
AcDbEntity
  8
0
100
AcDbCircle
 10
65.87309387538164
 20
250.6657383446222
 30
0.0
 40
3.25
100
AcDbArc
 50
176.1778378686729
 51
249.4781325999764
  0
LINE
  5
E96
330
2
100
AcDbEntity
  8
0
100
AcDbLine
 10
62.25475601985579
 20
251.5328833493427
 30
0.0
 11
62.6303226594074
 21
250.8823828480116
 31
0.0
  0
ARC
  5
E97
330
2
100
AcDbEntity
  8
0
100
AcDbCircle
 10
64.07309387538169
 20
252.3657383446222
 30
0.0
 40
1.0
100
AcDbArc
 50
90.0
 51
270.0
  0
ARC
  5
E98
330
2
100
AcDbEntity
  8
0
100
AcDbCircle
 10
65.87309387538164
 20
250.6657383446222
 30
0.0
 40
3.25
100
AcDbArc
 50
290.5218674000235
 51
312.3994733644477
  0
ARC
  5
E99
330
2
100
AcDbEntity
  8
0
100
AcDbCircle
 10
65.87309387538164
 20
249.2657383446222
 30
0.0
 40
2.0
100
AcDbArc
 50
235.272931295419
 51
304.7270687045809
  0
ARC
  5
E9A
330
2
100
AcDbEntity
  8
0
100
AcDbCircle
 10
65.87309387538164
 20
249.2657383446222
 30
0.0
 40
1.0
100
AcDbArc
 50
90.0
 51
270.0
  0
LINE
  5
E9B
330
2
100
AcDbEntity
  8
0
100
AcDbLine
 10
71.37309387538164
 20
251.3657383446221
 30
0.0
 11
71.37309387538187
 21
250.2657383446222
 31
0.0
  0
LINE
  5
E9C
330
2
100
AcDbEntity
  8
0
100
AcDbLine
 10
69.39493051743818
 20
251.3657383446223
 30
0.0
 11
69.11586509135588
 21
250.8823828480116
 31
0.0
  0
LINE
  5
E9D
330
2
100
AcDbEntity
  8
0
100
AcDbLine
 10
69.39493051743818
 20
251.3657383446223
 30
0.0
 11
69.11586509135588
 21
250.8823828480116
 31
0.0
  0
ARC
  5
E9E
330
2
100
AcDbEntity
  8
0
100
AcDbCircle
 10
65.87309387538164
 20
250.6657383446222
 30
0.0
 40
3.25
100
AcDbArc
 50
352.930285957695
 51
3.822162131327067
  0
LINE
  5
E9F
330
2
100
AcDbEntity
  8
0
100
AcDbLine
 10
64.07309387538259
 20
254.3657383446222
 30
0.0
 11
67.67309387538069
 21
254.3657383446222
 31
0.0
  0
LINE
  5
EA0
330
2
100
AcDbEntity
  8
0
100
AcDbLine
 10
65.87309387538164
 20
256.6657383446223
 30
0.0
 11
65.87309387538164
 21
254.3657383446224
 31
0.0
  0
ARC
  5
EA1
330
2
100
AcDbEntity
  8
0
100
AcDbCircle
 10
67.67309387538159
 20
252.3657383446222
 30
0.0
 40
2.0
100
AcDbArc
 50
30.00000000000054
 51
90.00000000002605
  0
LINE
  5
EA2
330
2
100
AcDbEntity
  8
0
100
AcDbLine
 10
71.37309387538095
 20
256.6657383446222
 30
0.0
 11
71.37309387538187
 21
253.3657383446223
 31
0.0
  0
LINE
  5
EA3
330
2
100
AcDbEntity
  8
0
100
AcDbLine
 10
65.87309387538164
 20
266.1657383446223
 30
0.0
 11
61.37309387538164
 21
266.2442861367992
 31
0.0
  0
LINE
  5
EA4
330
2
100
AcDbEntity
  8
0
100
AcDbLine
 10
71.37309387538164
 20
265.0079942231992
 30
0.0
 11
71.37309387538187
 21
262.6657383446223
 31
0.0
  0
LINE
  5
EA5
330
2
100
AcDbEntity
  8
0
100
AcDbLine
 10
65.87309387538164
 20
266.1657383446223
 30
0.0
 11
65.87309387538164
 21
262.6657383446223
 31
0.0
  0
LINE
  5
EA6
330
2
100
AcDbEntity
  8
0
100
AcDbLine
 10
65.8736026203145
 20
266.1657294644464
 30
0.0
 11
70.4079933720842
 21
266.0073850502184
 31
0.0
  0
LINE
  5
EA7
330
2
100
AcDbEntity
  8
0
100
AcDbLine
 10
61.37315087538161
 20
277.1657383446223
 30
0.0
 11
61.37315087538161
 21
287.7555897106615
 31
0.0
  0
LINE
  5
EA8
330
2
100
AcDbEntity
  8
0
100
AcDbLine
 10
64.37309387538164
 20
277.1657383446223
 30
0.0
 11
61.37309387538164
 21
277.1657383446223
 31
0.0
  0
ARC
  5
EA9
330
2
100
AcDbEntity
  8
0
100
AcDbCircle
 10
61.37309387538164
 20
276.1657383446223
 30
0.0
 40
1.0
100
AcDbArc
 50
90.0
 51
180.0
  0
LINE
  5
EAA
330
2
100
AcDbEntity
  8
0
 62
     7
100
AcDbLine
 10
61.3730628753816
 20
287.4468363446222
 30
0.0
 11
60.37306287538161
 21
287.4380313446222
 31
0.0
  0
SPLINE
  5
EAB
330
2
100
AcDbEntity
  8
HOJO
100
AcDbSpline
210
0.0
220
0.0
230
1.0
 70
     8
 71
     3
 72
    12
 73
     8
 74
     6
 42
0.0000000001
 43
0.0000000001
 44
0.0000000001
 40
0.0
 40
0.0
 40
0.0
 40
0.0
 40
1.684659730310349
 40
2.786160565551575
 40
4.550934817628674
 40
5.718899366607204
 40
6.335570522767257
 40
6.335570522767257
 40
6.335570522767257
 40
6.335570522767257
 10
76.99847331461899
 20
256.665738344622
 30
0.0
 10
76.72156170634527
 20
257.2166981583055
 30
0.0
 10
76.26359373261472
 20
258.1278984906159
 30
0.0
 10
77.14621835055234
 20
259.4648997226383
 30
0.0
 10
77.70829618839967
 20
260.7907191891081
 30
0.0
 10
77.21088669692138
 20
261.9249123977174
 30
0.0
 10
76.99520916739683
 20
262.4754894428454
 30
0.0
 10
76.9206829707581
 20
262.6657383446222
 30
0.0
 11
76.99847331461899
 21
256.665738344622
 31
0.0
 11
76.53273143073727
 21
258.2847389328021
 31
0.0
 11
76.9944612671037
 21
259.2847937554224
 31
0.0
 11
77.49466884239234
 21
260.9771945774555
 31
0.0
 11
77.14837121255948
 21
262.0926402907211
 31
0.0
 11
76.9206829707581
 21
262.6657383446222
 31
0.0
  0
SPLINE
  5
EAC
330
2
100
AcDbEntity
  8
HOJO
100
AcDbSpline
210
0.0
220
0.0
230
1.0
 70
     8
 71
     3
 72
    10
 73
     6
 74
     4
 42
0.0000000001
 43
0.0000000001
 44
0.0000000001
 40
0.0
 40
0.0
 40
0.0
 40
0.0
 40
0.697190763405494
 40
1.694952319108353
 40
2.335350738679082
 40
2.335350738679082
 40
2.335350738679082
 40
2.335350738679082
 10
74.89604988657482
 20
251.3657383446223
 30
0.0
 10
75.063264028683
 20
251.5867233567459
 30
0.0
 10
75.46978117267041
 20
252.1239637770832
 30
0.0
 10
74.29347206188717
 20
252.6344108227561
 30
0.0
 10
74.65892531644648
 20
253.1601956689325
 30
0.0
 10
74.801790293115
 20
253.3657383446223
 30
0.0
 11
74.89604988657482
 21
251.3657383446223
 31
0.0
 11
75.1844623357041
 21
252.0004770465817
 31
0.0
 11
74.55514446821132
 21
252.7747425977287
 31
0.0
 11
74.801790293115
 21
253.3657383446223
 31
0.0
  0
SPLINE
  5
EAD
330
2
100
AcDbEntity
  8
HOJO
100
AcDbSpline
210
0.0
220
0.0
230
1.0
 70
     8
 71
     3
 72
    10
 73
     6
 74
     4
 42
0.0000000001
 43
0.0000000001
 44
0.0000000001
 40
0.0
 40
0.0
 40
0.0
 40
0.0
 40
0.697190763405494
 40
1.694952319108353
 40
2.335350738679082
 40
2.335350738679082
 40
2.335350738679082
 40
2.335350738679082
 10
76.69604988657477
 20
248.2657383446222
 30
0.0
 10
76.86326402868295
 20
248.4867233567459
 30
0.0
 10
77.26978117267036
 20
249.0239637770831
 30
0.0
 10
76.09347206188712
 20
249.5344108227561
 30
0.0
 10
76.45892531644644
 20
250.0601956689325
 30
0.0
 10
76.60179029311496
 20
250.2657383446222
 30
0.0
 11
76.69604988657477
 21
248.2657383446222
 31
0.0
 11
76.98446233570405
 21
248.9004770465817
 31
0.0
 11
76.35514446821128
 21
249.6747425977287
 31
0.0
 11
76.60179029311496
 21
250.2657383446222
 31
0.0
  0
ARC
  5
EAE
330
2
100
AcDbEntity
  8
0
100
AcDbCircle
 10
111.3730938753816
 20
291.3057383446224
 30
0.0
 40
2.0
100
AcDbArc
 50
90.0
 51
180.0
  0
LINE
  5
EAF
330
2
100
AcDbEntity
  8
0
100
AcDbLine
 10
111.3730938753818
 20
280.7557383446223
 30
0.0
 11
117.8730938753816
 21
280.7557383446223
 31
0.0
  0
ARC
  5
EB0
330
2
100
AcDbEntity
  8
0
100
AcDbCircle
 10
111.3730938753818
 20
278.7557383446223
 30
0.0
 40
2.0
100
AcDbArc
 50
90.0
 51
180.0
  0
LINE
  5
EB1
330
2
100
AcDbEntity
  8
0
100
AcDbLine
 10
111.3730938753816
 20
293.3057383446223
 30
0.0
 11
117.8730938753816
 21
293.3057383446223
 31
0.0
  0
ARC
  5
EB2
330
2
100
AcDbEntity
  8
0
100
AcDbCircle
 10
107.3730938753818
 20
290.15708791906
 30
0.0
 40
2.0
100
AcDbArc
 50
270.4999833552727
 51
0.0
  0
LINE
  5
EB3
330
2
100
AcDbEntity
  8
0
100
AcDbLine
 10
117.8705218753817
 20
121.0067860380074
 30
0.0
 11
117.8705218753817
 21
44.73558403800746
 31
0.0
  0
ENDSEC
  0
SECTION
  2
OBJECTS
  0
DICTIONARY
  5
7
330
0
100
AcDbDictionary
  3
ACAD_GROUP
350
75
  3
ACAD_LAYOUT
350
61
  3
ACAD_MLINESTYLE
350
76
  3
ACAD_PLOTSETTINGS
350
77
  3
ACAD_PLOTSTYLENAME
350
6
  3
ACADDIM
350
480
  3
ACDBHEADERROUNDTRIPXREC
350
17B7
  3
ACDBVARIABLEDICTIONARY
350
102
  3
DWGPROPS
350
3D2
  0
DICTIONARY
  5
17D8
330
2
100
AcDbDictionary
280
     1
  3
ACAD_LAYOUTSELFREF
360
17D9
  0
DICTIONARY
  5
17DA
330
17B1
100
AcDbDictionary
280
     1
  3
ACAD_LAYOUTSELFREF
360
17DB
  0
DICTIONARY
  5
75
102
{ACAD_REACTORS
330
7
102
}
330
7
100
AcDbDictionary
  0
DICTIONARY
  5
61
102
{ACAD_REACTORS
330
7
102
}
330
7
100
AcDbDictionary
  0
DICTIONARY
  5
76
102
{ACAD_REACTORS
330
7
102
}
330
7
100
AcDbDictionary
  3
STANDARD
350
78
  0
DICTIONARY
  5
77
102
{ACAD_REACTORS
330
7
102
}
330
7
100
AcDbDictionary
  0
ACDBDICTIONARYWDFLT
  5
6
102
{ACAD_REACTORS
330
7
102
}
330
7
100
AcDbDictionary
281
     1
  3
Normal
350
5
100
AcDbDictionaryWithDefault
340
5
  0
XRECORD
  5
480
102
{ACAD_REACTORS
330
7
102
}
330
7
100
AcDbXrecord
 90
   990106
  3

 60
     0
 61
     0
 62
     1
 63
     3
 64
     1
 65
     0
 66
     0
 67
     3
 68
     1
 69
     0
 70
     0
 71
     0
 72
     0
 40
0.0
170
     2
340
0
  0
DICTIONARY
  5
17B7
102
{ACAD_REACTORS
330
7
102
}
330
7
100
AcDbDictionary
  3
CEPSNTYPE
350
17C1
  3
DIMSTYLEDATA
350
17C5
  3
FINGERPRINTGUID
350
17C2
  3
HYPERLINKBASE
350
17BA
  3
INSUNITS
350
17C0
  3
LAYOUTDICT
350
17BC
  3
LWETCUNION
350
17BF
  3
PLOTSETDICT
350
17BD
  3
PLOTSTYLNAMDICT
350
17BE
  3
PSVPSCALE
350
17C4
  3
PUCSBASE
350
17C8
  3
PUCSORGBACK
350
17CE
  3
PUCSORGBOTTOM
350
17CA
  3
PUCSORGFRONT
350
17CD
  3
PUCSORGLEFT
350
17CB
  3
PUCSORGRIGHT
350
17CC
  3
PUCSORGTOP
350
17C9
  3
PUCSORTHOREF
350
17C6
  3
PUCSORTHOVIEW
350
17C7
  3
STYLESHEET
350
17BB
  3
TSTACKALIGN
350
17B8
  3
TSTACKSIZE
350
17B9
  3
UCSBASE
350
17D1
  3
UCSORGBACK
350
17D7
  3
UCSORGBOTTOM
350
17D3
  3
UCSORGFRONT
350
17D6
  3
UCSORGLEFT
350
17D4
  3
UCSORGRIGHT
350
17D5
  3
UCSORGTOP
350
17D2
  3
UCSORTHOREF
350
17CF
  3
UCSORTHOVIEW
350
17D0
  3
VERSIONGUID
350
17C3
  0
DICTIONARY
  5
102
102
{ACAD_REACTORS
330
7
102
}
330
7
100
AcDbDictionary
  3
DIMASSOC
350
103
  0
XRECORD
  5
3D2
102
{ACAD_REACTORS
330
7
102
}
330
7
100
AcDbXrecord
  1
DWGPROPS COOKIE
  2

  3

  4

  6

  7

  8

  9

300
=
301
=
302
=
303
=
304
=
305
=
306
=
307
=
308
=
309
=
 40
0.5353330671296296
 41
2452052.431989363
 42
2453406.550756377
  1

 90
        0
  0
XRECORD
  5
17D9
102
{ACAD_REACTORS
330
17D8
102
}
330
17D8
100
AcDbXrecord
340
2
  0
XRECORD
  5
17DB
102
{ACAD_REACTORS
330
17DA
102
}
330
17DA
100
AcDbXrecord
340
17B1
  0
MLINESTYLE
  5
78
102
{ACAD_REACTORS
330
76
102
}
330
76
100
AcDbMlineStyle
  2
STANDARD
 70
     0
  3

 62
     0
 51
90.0
 52
90.0
 71
     2
 49
0.5
 62
   256
  6
BYLAYER
 49
-0.5
 62
   256
  6
BYLAYER
  0
ACDBPLACEHOLDER
  5
5
102
{ACAD_REACTORS
330
6
102
}
330
6
100
AcDbPlaceHolder
280
     0
  0
XRECORD
  5
17C1
102
{ACAD_REACTORS
330
17B7
102
}
330
17B7
100
AcDbXrecord
 90
        0
  0
XRECORD
  5
17C5
102
{ACAD_REACTORS
330
17B7
102
}
330
17B7
100
AcDbXrecord
1000
DSTYLE
1002
{
1070
   179
 70
     2
1070
   277
 70
     6
1002
}
  0
XRECORD
  5
17C2
102
{ACAD_REACTORS
330
17B7
102
}
330
17B7
100
AcDbXrecord
  1
{6385560B-F4B1-4644-A7C2-A3E32AC3D232}
  0
XRECORD
  5
17BA
102
{ACAD_REACTORS
330
17B7
102
}
330
17B7
100
AcDbXrecord
  1

  0
XRECORD
  5
17C0
102
{ACAD_REACTORS
330
17B7
102
}
330
17B7
100
AcDbXrecord
 90
        0
  0
XRECORD
  5
17BC
102
{ACAD_REACTORS
330
17B7
102
}
330
17B7
100
AcDbXrecord
340
61
  0
XRECORD
  5
17BF
102
{ACAD_REACTORS
330
17B7
102
}
330
17B7
100
AcDbXrecord
 90
    10781
  0
XRECORD
  5
17BD
102
{ACAD_REACTORS
330
17B7
102
}
330
17B7
100
AcDbXrecord
340
77
  0
XRECORD
  5
17BE
102
{ACAD_REACTORS
330
17B7
102
}
330
17B7
100
AcDbXrecord
340
6
  0
XRECORD
  5
17C4
102
{ACAD_REACTORS
330
17B7
102
}
330
17B7
100
AcDbXrecord
 40
0.0
  0
XRECORD
  5
17C8
102
{ACAD_REACTORS
330
17B7
102
}
330
17B7
100
AcDbXrecord
340
0
  0
XRECORD
  5
17CE
102
{ACAD_REACTORS
330
17B7
102
}
330
17B7
100
AcDbXrecord
 10
0.0
 20
0.0
 30
0.0
  0
XRECORD
  5
17CA
102
{ACAD_REACTORS
330
17B7
102
}
330
17B7
100
AcDbXrecord
 10
0.0
 20
0.0
 30
0.0
  0
XRECORD
  5
17CD
102
{ACAD_REACTORS
330
17B7
102
}
330
17B7
100
AcDbXrecord
 10
0.0
 20
0.0
 30
0.0
  0
XRECORD
  5
17CB
102
{ACAD_REACTORS
330
17B7
102
}
330
17B7
100
AcDbXrecord
 10
0.0
 20
0.0
 30
0.0
  0
XRECORD
  5
17CC
102
{ACAD_REACTORS
330
17B7
102
}
330
17B7
100
AcDbXrecord
 10
0.0
 20
0.0
 30
0.0
  0
XRECORD
  5
17C9
102
{ACAD_REACTORS
330
17B7
102
}
330
17B7
100
AcDbXrecord
 10
0.0
 20
0.0
 30
0.0
  0
XRECORD
  5
17C6
102
{ACAD_REACTORS
330
17B7
102
}
330
17B7
100
AcDbXrecord
340
0
  0
XRECORD
  5
17C7
102
{ACAD_REACTORS
330
17B7
102
}
330
17B7
100
AcDbXrecord
 70
     0
  0
XRECORD
  5
17BB
102
{ACAD_REACTORS
330
17B7
102
}
330
17B7
100
AcDbXrecord
  1
Sekkei.ctb
  0
XRECORD
  5
17B8
102
{ACAD_REACTORS
330
17B7
102
}
330
17B7
100
AcDbXrecord
 90
        1
  0
XRECORD
  5
17B9
102
{ACAD_REACTORS
330
17B7
102
}
330
17B7
100
AcDbXrecord
 90
       70
  0
XRECORD
  5
17D1
102
{ACAD_REACTORS
330
17B7
102
}
330
17B7
100
AcDbXrecord
340
0
  0
XRECORD
  5
17D7
102
{ACAD_REACTORS
330
17B7
102
}
330
17B7
100
AcDbXrecord
 10
0.0
 20
0.0
 30
0.0
  0
XRECORD
  5
17D3
102
{ACAD_REACTORS
330
17B7
102
}
330
17B7
100
AcDbXrecord
 10
0.0
 20
0.0
 30
0.0
  0
XRECORD
  5
17D6
102
{ACAD_REACTORS
330
17B7
102
}
330
17B7
100
AcDbXrecord
 10
0.0
 20
0.0
 30
0.0
  0
XRECORD
  5
17D4
102
{ACAD_REACTORS
330
17B7
102
}
330
17B7
100
AcDbXrecord
 10
0.0
 20
0.0
 30
0.0
  0
XRECORD
  5
17D5
102
{ACAD_REACTORS
330
17B7
102
}
330
17B7
100
AcDbXrecord
 10
0.0
 20
0.0
 30
0.0
  0
XRECORD
  5
17D2
102
{ACAD_REACTORS
330
17B7
102
}
330
17B7
100
AcDbXrecord
 10
0.0
 20
0.0
 30
0.0
  0
XRECORD
  5
17CF
102
{ACAD_REACTORS
330
17B7
102
}
330
17B7
100
AcDbXrecord
340
0
  0
XRECORD
  5
17D0
102
{ACAD_REACTORS
330
17B7
102
}
330
17B7
100
AcDbXrecord
 70
     0
  0
XRECORD
  5
17C3
102
{ACAD_REACTORS
330
17B7
102
}
330
17B7
100
AcDbXrecord
  1
{05100D94-F1AF-48EA-9680-8C631D06EA01}
  0
DICTIONARYVAR
  5
103
102
{ACAD_REACTORS
330
102
102
}
330
102
100
DictionaryVariables
280
     0
  1
1
  0
ENDSEC
  0
EOF
