  0
SECTION
  2
HEADER
  9
$ACADVER
  1
AC1014
  9
$ACADMAINTVER
 70
     9
  9
$DWGCODEPAGE
  3
ANSI_932
  9
$INSBASE
 10
0.0
 20
0.0
 30
0.0
  9
$EXTMIN
 10
47.80552261416779
 20
22.65575572411435
 30
0.0
  9
$EXTMAX
 10
436.2596214235487
 20
342.3382002658666
 30
0.0
  9
$LIMMIN
 10
0.0
 20
0.0
  9
$LIMMAX
 10
297.0
 20
210.0
  9
$ORTHOMODE
 70
     1
  9
$REGENMODE
 70
     1
  9
$FILLMODE
 70
     1
  9
$QTEXTMODE
 70
     0
  9
$MIRRTEXT
 70
     0
  9
$DRAGMODE
 70
     2
  9
$LTSCALE
 40
2.0
  9
$OSMODE
 70
    37
  9
$ATTMODE
 70
     1
  9
$TEXTSIZE
 40
6.0
  9
$TRACEWID
 40
1.0
  9
$TEXTSTYLE
  7
STANDARD
  9
$CLAYER
  8
0
  9
$CELTYPE
  6
BYLAYER
  9
$CECOLOR
 62
   256
  9
$CELTSCALE
 40
1.0
  9
$DELOBJ
 70
     1
  9
$DISPSILH
 70
     0
  9
$DIMSCALE
 40
2.0
  9
$DIMASZ
 40
1.8
  9
$DIMEXO
 40
0.625
  9
$DIMDLI
 40
3.75
  9
$DIMRND
 40
0.0
  9
$DIMDLE
 40
0.0
  9
$DIMEXE
 40
0.8
  9
$DIMTP
 40
0.0
  9
$DIMTM
 40
0.0
  9
$DIMTXT
 40
1.8
  9
$DIMCEN
 40
2.5
  9
$DIMTSZ
 40
0.0
  9
$DIMTOL
 70
     0
  9
$DIMLIM
 70
     0
  9
$DIMTIH
 70
     0
  9
$DIMTOH
 70
     0
  9
$DIMSE1
 70
     0
  9
$DIMSE2
 70
     0
  9
$DIMTAD
 70
     1
  9
$DIMZIN
 70
     8
  9
$DIMBLK
  1

  9
$DIMASO
 70
     1
  9
$DIMSHO
 70
     1
  9
$DIMPOST
  1

  9
$DIMAPOST
  1

  9
$DIMALT
 70
     0
  9
$DIMALTD
 70
     4
  9
$DIMALTF
 40
0.0394
  9
$DIMLFAC
 40
1.0
  9
$DIMTOFL
 70
     1
  9
$DIMTVP
 40
0.0
  9
$DIMTIX
 70
     0
  9
$DIMSOXD
 70
     0
  9
$DIMSAH
 70
     0
  9
$DIMBLK1
  1

  9
$DIMBLK2
  1

  9
$DIMSTYLE
  2
STANDARD
  9
$DIMCLRD
 70
     0
  9
$DIMCLRE
 70
     0
  9
$DIMCLRT
 70
     0
  9
$DIMTFAC
 40
1.0
  9
$DIMGAP
 40
0.75
  9
$DIMJUST
 70
     0
  9
$DIMSD1
 70
     0
  9
$DIMSD2
 70
     0
  9
$DIMTOLJ
 70
     1
  9
$DIMTZIN
 70
     0
  9
$DIMALTZ
 70
     0
  9
$DIMALTTZ
 70
     0
  9
$DIMFIT
 70
     3
  9
$DIMUPT
 70
     0
  9
$DIMUNIT
 70
     8
  9
$DIMDEC
 70
     2
  9
$DIMTDEC
 70
     2
  9
$DIMALTU
 70
     8
  9
$DIMALTTD
 70
     4
  9
$DIMTXSTY
  7
STANDARD
  9
$DIMAUNIT
 70
     0
  9
$LUNITS
 70
     2
  9
$LUPREC
 70
     3
  9
$SKETCHINC
 40
1.0
  9
$FILLETRAD
 40
10.0
  9
$AUNITS
 70
     0
  9
$AUPREC
 70
     2
  9
$MENU
  1
.
  9
$ELEVATION
 40
0.0
  9
$PELEVATION
 40
0.0
  9
$THICKNESS
 40
0.0
  9
$LIMCHECK
 70
     0
  9
$BLIPMODE
 70
     0
  9
$CHAMFERA
 40
0.0
  9
$CHAMFERB
 40
0.0
  9
$CHAMFERC
 40
20.0
  9
$CHAMFERD
 40
0.0
  9
$SKPOLY
 70
     0
  9
$TDCREATE
 40
2453692.558891597
  9
$TDUPDATE
 40
2453928.596810613
  9
$TDINDWG
 40
0.0339264931
  9
$TDUSRTIMER
 40
0.0339264931
  9
$USRTIMER
 70
     1
  9
$ANGBASE
 50
0.0
  9
$ANGDIR
 70
     0
  9
$PDMODE
 70
     0
  9
$PDSIZE
 40
-10.0
  9
$PLINEWID
 40
0.0
  9
$COORDS
 70
     0
  9
$SPLFRAME
 70
     0
  9
$SPLINETYPE
 70
     6
  9
$SPLINESEGS
 70
     8
  9
$ATTDIA
 70
     0
  9
$ATTREQ
 70
     1
  9
$HANDLING
 70
-16383
  9
$HANDSEED
  5
1C4B
  9
$SURFTAB1
 70
     6
  9
$SURFTAB2
 70
     6
  9
$SURFTYPE
 70
     6
  9
$SURFU
 70
     6
  9
$SURFV
 70
     6
  9
$UCSNAME
  2

  9
$UCSORG
 10
0.0
 20
0.0
 30
0.0
  9
$UCSXDIR
 10
1.0
 20
0.0
 30
0.0
  9
$UCSYDIR
 10
0.0
 20
1.0
 30
0.0
  9
$PUCSNAME
  2

  9
$PUCSORG
 10
0.0
 20
0.0
 30
0.0
  9
$PUCSXDIR
 10
1.0
 20
0.0
 30
0.0
  9
$PUCSYDIR
 10
0.0
 20
1.0
 30
0.0
  9
$USERI1
 70
     0
  9
$USERI2
 70
     0
  9
$USERI3
 70
     0
  9
$USERI4
 70
     0
  9
$USERI5
 70
     0
  9
$USERR1
 40
0.0
  9
$USERR2
 40
0.0
  9
$USERR3
 40
0.0
  9
$USERR4
 40
0.0
  9
$USERR5
 40
0.0
  9
$WORLDVIEW
 70
     1
  9
$SHADEDGE
 70
     3
  9
$SHADEDIF
 70
    70
  9
$TILEMODE
 70
     1
  9
$MAXACTVP
 70
    48
  9
$PINSBASE
 10
0.0
 20
0.0
 30
0.0
  9
$PLIMCHECK
 70
     0
  9
$PEXTMIN
 10
0.0
 20
0.0
 30
0.0
  9
$PEXTMAX
 10
0.0
 20
0.0
 30
0.0
  9
$PLIMMIN
 10
0.0
 20
0.0
  9
$PLIMMAX
 10
12.0
 20
9.0
  9
$UNITMODE
 70
     0
  9
$VISRETAIN
 70
     1
  9
$PLINEGEN
 70
     0
  9
$PSLTSCALE
 70
     1
  9
$TREEDEPTH
 70
  3020
  9
$PICKSTYLE
 70
     1
  9
$CMLSTYLE
  2
STANDARD
  9
$CMLJUST
 70
     0
  9
$CMLSCALE
 40
1.0
  9
$PROXYGRAPHICS
 70
     1
  9
$MEASUREMENT
 70
     0
  0
ENDSEC
  0
SECTION
  2
CLASSES
  0
CLASS
  1
DICTIONARYVAR
  2
AcDbDictionaryVar
  3
AutoCAD 2000
 90
        0
280
     0
281
     0
  0
CLASS
  1
ACDBDICTIONARYWDFLT
  2
AcDbDictionaryWithDefault
  3
AutoCAD 2000
 90
        0
280
     0
281
     0
  0
CLASS
  1
ACDBPLACEHOLDER
  2
AcDbPlaceHolder
  3
AutoCAD 2000
 90
        0
280
     0
281
     0
  0
CLASS
  1
LAYOUT
  2
AcDbLayout
  3
AutoCAD 2000
 90
        0
280
     0
281
     0
  0
CLASS
  1
LONG_TRANSACTION
  2
AcDbLongTransaction
  3
AutoCAD 2000
 90
        0
280
     0
281
     0
  0
CLASS
  1
LWPOLYLINE
  2
AcDbPolyline
  3
AutoCAD 2000
 90
        0
280
     0
281
     1
  0
CLASS
  1
HATCH
  2
AcDbHatch
  3
AutoCAD 2000
 90
        0
280
     0
281
     1
  0
CLASS
  1
XRECORD
  2
AcDbXrecord
  3
AutoCAD 2000
 90
        0
280
     0
281
     0
  0
ENDSEC
  0
SECTION
  2
TABLES
  0
TABLE
  2
VPORT
  5
6E
330
0
100
AcDbSymbolTable
 70
     2
  0
VPORT
  5
1C25
330
6E
100
AcDbSymbolTableRecord
100
AcDbViewportTableRecord
  2
*ACTIVE
 70
     0
 10
0.0
 20
0.0
 11
1.0
 21
1.0
 12
249.7185950360107
 22
182.5264486469235
 13
0.0
 23
0.0
 14
10.0
 24
10.0
 15
10.0
 25
10.0
 16
0.0
 26
0.0
 36
1.0
 17
0.0
 27
0.0
 37
0.0
 40
322.2407739553346
 41
1.566970091027308
 42
50.0
 43
0.0
 44
0.0
 50
0.0
 51
0.0
 71
     0
 72
   100
 73
     1
 74
     3
 75
     0
 76
     0
 77
     0
 78
     0
  0
ENDTAB
  0
TABLE
  2
LTYPE
  5
69
330
0
100
AcDbSymbolTable
 70
     4
  0
LTYPE
  5
6A
330
69
100
AcDbSymbolTableRecord
100
AcDbLinetypeTableRecord
  2
BYBLOCK
 70
     0
  3

 72
    65
 73
     0
 40
0.0
  0
LTYPE
  5
6B
330
69
100
AcDbSymbolTableRecord
100
AcDbLinetypeTableRecord
  2
BYLAYER
 70
     0
  3

 72
    65
 73
     0
 40
0.0
  0
LTYPE
  5
8
330
69
100
AcDbSymbolTableRecord
100
AcDbLinetypeTableRecord
  2
CONTINUOUS
 70
     0
  3
Solid line
 72
    65
 73
     0
 40
0.0
  0
LTYPE
  5
27C
330
69
100
AcDbSymbolTableRecord
100
AcDbLinetypeTableRecord
  2
SEKKEI_A2_
 70
     0
  3
center(A2)  ____ _ ____ _ ____ _ ____ _ ____ _ 
 72
    65
 73
     4
 40
14.28749999999999
 49
9.525
 74
     0
 49
-1.587499999999999
 74
     0
 49
1.587499999999999
 74
     0
 49
-1.587499999999999
 74
     0
  0
LTYPE
  5
2B4
330
69
100
AcDbSymbolTableRecord
100
AcDbLinetypeTableRecord
  2
HIDDEN2
 70
     0
  3
Hidden (.5x) _ _ _ _ _ _ _ _ _ _ _ _ _ _ _ _ _
 72
    65
 73
     2
 40
4.762499999999999
 49
3.174999999999999
 74
     0
 49
-1.587499999999999
 74
     0
  0
LTYPE
  5
48F
330
69
100
AcDbSymbolTableRecord
100
AcDbLinetypeTableRecord
  2
SEKKEI_H
 70
     0
  3
Hidden-S _ _ _ _ _ _ _ _ _ _ _ _ _ _ _ _ _
 72
    65
 73
     2
 40
2.381249999999999
 49
1.587499999999999
 74
     0
 49
-0.79375
 74
     0
  0
ENDTAB
  0
TABLE
  2
LAYER
  5
66
330
0
100
AcDbSymbolTable
 70
     9
  0
LAYER
  5
5E
330
66
100
AcDbSymbolTableRecord
100
AcDbLayerTableRecord
  2
0
 70
     0
 62
     7
  6
CONTINUOUS
  0
LAYER
  5
3E
330
66
100
AcDbSymbolTableRecord
100
AcDbLayerTableRecord
  2
CENTER
 70
     0
 62
     3
  6
SEKKEI_A2_
  0
LAYER
  5
2B5
330
66
100
AcDbSymbolTableRecord
100
AcDbLayerTableRecord
  2
HIDS
 70
     0
 62
     1
  6
HIDDEN2
  0
LAYER
  5
2BA
330
66
100
AcDbSymbolTableRecord
100
AcDbLayerTableRecord
  2
HOJO
 70
     0
 62
     4
  6
CONTINUOUS
  0
LAYER
  5
3FA
330
66
100
AcDbSymbolTableRecord
100
AcDbLayerTableRecord
  2
TITLE
 70
     0
 62
     4
  6
CONTINUOUS
  0
ENDTAB
  0
TABLE
  2
STYLE
  5
67
330
0
100
AcDbSymbolTable
 70
     2
  0
STYLE
  5
16
330
67
100
AcDbSymbolTableRecord
100
AcDbTextStyleTableRecord
  2
STANDARD
 70
     0
 40
0.0
 41
1.0
 50
0.0
 71
     0
 42
6.0
  3
simplex.shx
  4
extfont.shx
  0
ENDTAB
  0
TABLE
  2
VIEW
  5
6C
330
0
100
AcDbSymbolTable
 70
     0
  0
ENDTAB
  0
TABLE
  2
UCS
  5
6D
330
0
100
AcDbSymbolTable
 70
     0
  0
ENDTAB
  0
TABLE
  2
APPID
  5
70
330
0
100
AcDbSymbolTable
 70
     1
  0
APPID
  5
71
330
70
100
AcDbSymbolTableRecord
100
AcDbRegAppTableRecord
  2
ACAD
 70
     0
  0
ENDTAB
  0
TABLE
  2
DIMSTYLE
  5
72
330
0
100
AcDbSymbolTable
 70
     1
  0
DIMSTYLE
105
73
330
72
100
AcDbSymbolTableRecord
100
AcDbDimStyleTableRecord
  2
STANDARD
 70
     0
  3

  4

  5

  6

  7

 40
2.0
 41
1.8
 42
0.625
 43
3.75
 44
0.8
 45
0.0
 46
0.0
 47
0.0
 48
0.0
140
1.8
141
2.5
142
0.0
143
0.0394
144
1.0
145
0.0
146
1.0
147
0.75
 71
     0
 72
     0
 73
     0
 74
     0
 75
     0
 76
     0
 77
     1
 78
     8
170
     0
171
     4
172
     1
173
     0
174
     0
175
     0
176
     0
177
     0
178
     0
270
     8
271
     2
272
     2
273
     8
274
     4
340
16
275
     0
280
     0
281
     0
282
     0
283
     1
284
     0
285
     0
286
     0
287
     3
288
     0
  0
ENDTAB
  0
TABLE
  2
BLOCK_RECORD
  5
1
330
0
100
AcDbSymbolTable
 70
    39
  0
BLOCK_RECORD
  5
2
102
{ACAD_XDICTIONARY
360
1C47
102
}
330
1
100
AcDbSymbolTableRecord
100
AcDbBlockTableRecord
  2
*MODEL_SPACE
  0
BLOCK_RECORD
  5
1C20
102
{ACAD_XDICTIONARY
360
1C49
102
}
330
1
100
AcDbSymbolTableRecord
100
AcDbBlockTableRecord
  2
*PAPER_SPACE
  0
ENDTAB
  0
ENDSEC
  0
SECTION
  2
BLOCKS
  0
BLOCK
  5
5D
330
2
100
AcDbEntity
  8
0
100
AcDbBlockBegin
  2
*MODEL_SPACE
 70
     0
 10
0.0
 20
0.0
 30
0.0
  3
*MODEL_SPACE
  1

  0
ENDBLK
  5
5F
330
2
100
AcDbEntity
  8
0
100
AcDbBlockEnd
  0
BLOCK
  5
1C22
330
1C20
100
AcDbEntity
 67
     1
  8
0
100
AcDbBlockBegin
  2
*PAPER_SPACE
 70
     0
 10
0.0
 20
0.0
 30
0.0
  3
*PAPER_SPACE
  1

  0
ENDBLK
  5
1C23
330
1C20
100
AcDbEntity
 67
     1
  8
0
100
AcDbBlockEnd
  0
ENDSEC
  0
SECTION
  2
ENTITIES
  0
LINE
  5
799
330
2
100
AcDbEntity
  8
0
100
AcDbLine
 10
110.3095337683493
 20
64.36812789705107
 30
0.0
 11
216.3095437683492
 21
64.36812789705107
 31
0.0
  0
LINE
  5
79A
330
2
100
AcDbEntity
  8
0
100
AcDbLine
 10
110.3095337683493
 20
133.1867318970511
 30
0.0
 11
216.3095437683492
 21
133.1867318970511
 31
0.0
  0
LINE
  5
79B
330
2
100
AcDbEntity
  8
0
100
AcDbLine
 10
110.3095337683493
 20
143.777429897051
 30
0.0
 11
225.3095437683492
 21
143.777429897051
 31
0.0
  0
LINE
  5
79C
330
2
100
AcDbEntity
  8
CENTER
100
AcDbLine
 10
47.80552261416779
 20
98.7774298970511
 30
0.0
 11
234.3095437683492
 21
98.7774298970511
 31
0.0
  0
LINE
  5
79E
330
2
100
AcDbEntity
  8
0
100
AcDbLine
 10
110.3095337683493
 20
53.77742989705109
 30
0.0
 11
225.3095437683492
 21
53.77742989705109
 31
0.0
  0
LINE
  5
7A2
330
2
100
AcDbEntity
  8
0
100
AcDbLine
 10
110.3095337683493
 20
143.777429897051
 30
0.0
 11
110.3095337683493
 21
53.77742989705109
 31
0.0
  0
LINE
  5
807
330
2
100
AcDbEntity
  8
0
100
AcDbLine
 10
229.3095437683492
 20
92.77742989705108
 30
0.0
 11
229.3095437683492
 21
130.7774298970511
 31
0.0
  0
LINE
  5
808
330
2
100
AcDbEntity
  8
0
100
AcDbLine
 10
216.3095437683492
 20
141.777429897051
 30
0.0
 11
216.3095437683492
 21
55.77742989705109
 31
0.0
  0
LINE
  5
80A
330
2
100
AcDbEntity
  8
0
100
AcDbLine
 10
225.3095437683492
 20
143.777429897051
 30
0.0
 11
225.3095437683492
 21
53.77742989705109
 31
0.0
  0
LINE
  5
80E
330
2
100
AcDbEntity
  8
HIDS
  6
SEKKEI_H
100
AcDbLine
 10
216.3095437683492
 20
57.52742989705109
 30
0.0
 11
225.3095437683492
 21
57.52742989705109
 31
0.0
  0
LINE
  5
80F
330
2
100
AcDbEntity
  8
HIDS
  6
SEKKEI_H
100
AcDbLine
 10
216.3095437683492
 20
64.02742989705109
 30
0.0
 11
225.3095437683492
 21
64.02742989705109
 31
0.0
  0
LINE
  5
810
330
2
100
AcDbEntity
  8
CENTER
100
AcDbLine
 10
213.8095437683492
 20
60.77742989705109
 30
0.0
 11
227.8095437683492
 21
60.77742989705109
 31
0.0
  0
ARC
  5
811
330
2
100
AcDbEntity
  8
0
100
AcDbCircle
 10
218.3095437683492
 20
55.77742989705109
 30
0.0
 40
2.0
100
AcDbArc
 50
180.0
 51
270.0
  0
LINE
  5
812
330
2
100
AcDbEntity
  8
0
100
AcDbLine
 10
228.3095437683492
 20
91.77742989705109
 30
0.0
 11
225.3095437683492
 21
91.77742989705109
 31
0.0
  0
ARC
  5
813
330
2
100
AcDbEntity
  8
0
100
AcDbCircle
 10
228.3095437683492
 20
92.77742989705108
 30
0.0
 40
1.0
100
AcDbArc
 50
270.0
 51
0.0
  0
ARC
  5
89C
330
2
100
AcDbEntity
  8
0
100
AcDbCircle
 10
236.8095437683492
 20
111.7774298970511
 30
0.0
 40
2.5
100
AcDbArc
 50
180.0
 51
270.0
  0
ARC
  5
89D
330
2
100
AcDbEntity
  8
0
100
AcDbCircle
 10
236.8095437683492
 20
111.7774298970511
 30
0.0
 40
2.5
100
AcDbArc
 50
90.0
 51
180.0
  0
LINE
  5
89E
330
2
100
AcDbEntity
  8
CENTER
100
AcDbLine
 10
211.3095437683492
 20
111.777429897051
 30
0.0
 11
263.3095437683492
 21
111.7774298970511
 31
0.0
  0
LINE
  5
89F
330
2
100
AcDbEntity
  8
0
100
AcDbLine
 10
231.3095437683492
 20
104.277429897051
 30
0.0
 11
258.3095437683492
 21
104.277429897051
 31
0.0
  0
LINE
  5
8A0
330
2
100
AcDbEntity
  8
0
100
AcDbLine
 10
231.3095437683492
 20
119.2774298970511
 30
0.0
 11
258.3095437683492
 21
119.2774298970511
 31
0.0
  0
LINE
  5
8A1
330
2
100
AcDbEntity
  8
0
100
AcDbLine
 10
231.3095437683492
 20
120.2774298970511
 30
0.0
 11
231.3095437683492
 21
103.277429897051
 31
0.0
  0
LINE
  5
8A3
330
2
100
AcDbEntity
  8
0
100
AcDbLine
 10
229.3095437683492
 20
103.277429897051
 30
0.0
 11
231.3095437683492
 21
103.277429897051
 31
0.0
  0
LINE
  5
8A4
330
2
100
AcDbEntity
  8
HIDS
  6
SEKKEI_H
100
AcDbLine
 10
216.3095437683492
 20
133.527429897051
 30
0.0
 11
225.3095437683492
 21
133.527429897051
 31
0.0
  0
LINE
  5
8A5
330
2
100
AcDbEntity
  8
CENTER
100
AcDbLine
 10
213.8095437683492
 20
136.777429897051
 30
0.0
 11
227.8095437683492
 21
136.7774298970511
 31
0.0
  0
LINE
  5
8A6
330
2
100
AcDbEntity
  8
0
100
AcDbLine
 10
229.3095437683492
 20
120.2774298970511
 30
0.0
 11
231.3095437683492
 21
120.2774298970511
 31
0.0
  0
LINE
  5
8A7
330
2
100
AcDbEntity
  8
0
100
AcDbLine
 10
228.3095437683492
 20
131.7774298970511
 30
0.0
 11
225.3095437683492
 21
131.7774298970511
 31
0.0
  0
ARC
  5
8A8
330
2
100
AcDbEntity
  8
0
100
AcDbCircle
 10
228.3095437683492
 20
130.7774298970511
 30
0.0
 40
1.0
100
AcDbArc
 50
0.0
 51
90.0
  0
LINE
  5
8A9
330
2
100
AcDbEntity
  8
0
100
AcDbLine
 10
258.3095437683492
 20
119.2774298970511
 30
0.0
 11
258.3095437683492
 21
104.277429897051
 31
0.0
  0
LINE
  5
8AA
330
2
100
AcDbEntity
  8
0
100
AcDbLine
 10
236.8095437683492
 20
109.277429897051
 30
0.0
 11
258.3095437683492
 21
109.277429897051
 31
0.0
  0
LINE
  5
8AB
330
2
100
AcDbEntity
  8
0
100
AcDbLine
 10
236.8095437683492
 20
114.277429897051
 30
0.0
 11
258.3095437683492
 21
114.277429897051
 31
0.0
  0
ARC
  5
8AC
330
2
100
AcDbEntity
  8
0
100
AcDbCircle
 10
218.3095437683492
 20
141.777429897051
 30
0.0
 40
2.0
100
AcDbArc
 50
90.0
 51
180.0
  0
LINE
  5
8AD
330
2
100
AcDbEntity
  8
HIDS
  6
SEKKEI_H
100
AcDbLine
 10
216.3095437683492
 20
140.0274298970511
 30
0.0
 11
225.3095437683492
 21
140.0274298970511
 31
0.0
  0
LINE
  5
8D2
330
2
100
AcDbEntity
  8
0
100
AcDbLine
 10
426.2596214235487
 20
59.47643889705108
 30
0.0
 11
426.2596214235487
 21
138.0784208970511
 31
0.0
  0
LINE
  5
8D3
330
2
100
AcDbEntity
  8
0
100
AcDbLine
 10
421.2596214235487
 20
113.1388298970511
 30
0.0
 11
421.2596214235487
 21
84.41602989705108
 31
0.0
  0
LINE
  5
8D5
330
2
100
AcDbEntity
  8
0
100
AcDbLine
 10
336.2596214235487
 20
59.47624089705107
 30
0.0
 11
336.2596214235487
 21
138.0783298970511
 31
0.0
  0
LINE
  5
8D6
330
2
100
AcDbEntity
  8
0
100
AcDbLine
 10
341.2596214235487
 20
113.1388298970511
 30
0.0
 11
341.2596214235487
 21
84.41602989705108
 31
0.0
  0
CIRCLE
  5
8D7
330
2
100
AcDbEntity
  8
0
100
AcDbCircle
 10
381.2596214235487
 20
111.7774298970511
 30
0.0
 40
20.0
  0
LINE
  5
8D8
330
2
100
AcDbEntity
  8
CENTER
100
AcDbLine
 10
381.2596214235487
 20
43.77742989705109
 30
0.0
 11
381.2596214235487
 21
167.3786295161706
 31
0.0
  0
LINE
  5
8D9
330
2
100
AcDbEntity
  8
CENTER
100
AcDbLine
 10
343.2596214235487
 20
55.02742989705109
 30
0.0
 11
343.2596214235487
 21
142.527429897051
 31
0.0
  0
LINE
  5
8DA
330
2
100
AcDbEntity
  8
CENTER
100
AcDbLine
 10
419.2596214235488
 20
55.02742989705109
 30
0.0
 11
419.2596214235488
 21
142.527429897051
 31
0.0
  0
ARC
  5
8DC
330
2
100
AcDbEntity
  8
0
100
AcDbCircle
 10
381.2596214235487
 20
98.7774298970511
 30
0.0
 40
42.5
100
AcDbArc
 50
270.0
 51
340.2500919999984
  0
ARC
  5
8DD
330
2
100
AcDbEntity
  8
0
100
AcDbCircle
 10
421.2596214235487
 20
59.47643889705108
 30
0.0
 40
5.0
100
AcDbArc
 50
271.0001829999991
 51
0.0
  0
LINE
  5
8DF
330
2
100
AcDbEntity
  8
CENTER
100
AcDbLine
 10
425.0096214235488
 20
60.77742989705109
 30
0.0
 11
337.5096214235487
 21
60.77742989705109
 31
0.0
  0
LINE
  5
8E0
330
2
100
AcDbEntity
  8
0
100
AcDbLine
 10
341.1724174235488
 20
54.47702989705106
 30
0.0
 11
381.2596214235487
 21
53.77742989705109
 31
0.0
  0
ARC
  5
8E2
330
2
100
AcDbEntity
  8
0
100
AcDbCircle
 10
381.2596214235487
 20
98.7774298970511
 30
0.0
 40
42.5
100
AcDbArc
 50
199.7498929999984
 51
270.0
  0
CIRCLE
  5
8E4
330
2
100
AcDbEntity
  8
0
100
AcDbCircle
 10
343.2596214235487
 20
60.77742989705109
 30
0.0
 40
3.25
  0
ARC
  5
8E5
330
2
100
AcDbEntity
  8
0
100
AcDbCircle
 10
341.2596214235487
 20
59.47624089705107
 30
0.0
 40
5.0
100
AcDbArc
 50
180.0
 51
269.0004879999996
  0
ARC
  5
8E7
330
2
100
AcDbEntity
  8
0
100
AcDbCircle
 10
392.7846214235488
 20
81.55242989705106
 30
0.0
 40
0.7250000000000001
100
AcDbArc
 50
359.9999999999967
 51
90.0
  0
ARC
  5
8E8
330
2
100
AcDbEntity
  8
0
100
AcDbCircle
 10
392.7846214235488
 20
81.50242989705111
 30
0.0
 40
0.7250000000000001
100
AcDbArc
 50
270.0
 51
0.0
  0
LINE
  5
8E9
330
2
100
AcDbEntity
  8
0
100
AcDbLine
 10
386.0096214235487
 20
85.77742989705109
 30
0.0
 11
394.0284938848473
 21
85.77742989705109
 31
0.0
  0
LINE
  5
8EA
330
2
100
AcDbEntity
  8
0
100
AcDbLine
 10
393.5096214235487
 20
75.77742989705109
 30
0.0
 11
390.5096214235488
 21
80.77742989705109
 31
0.0
  0
LINE
  5
8EB
330
2
100
AcDbEntity
  8
0
100
AcDbLine
 10
421.3468104235488
 20
54.4771288970511
 30
0.0
 11
381.2596214235487
 21
53.77742989705109
 31
0.0
  0
LINE
  5
8EC
330
2
100
AcDbEntity
  8
0
100
AcDbLine
 10
376.5096214235487
 20
82.27742989705109
 30
0.0
 11
371.5508208650772
 21
82.27742989705109
 31
0.0
  0
LINE
  5
8ED
330
2
100
AcDbEntity
  8
0
100
AcDbLine
 10
371.0058194852646
 20
85.77742989705109
 30
0.0
 11
376.5096214235487
 21
85.77742989705109
 31
0.0
  0
LINE
  5
8EE
330
2
100
AcDbEntity
  8
0
100
AcDbLine
 10
376.5096214235487
 20
80.77742989705109
 30
0.0
 11
373.2596214235487
 21
80.77742989705109
 31
0.0
  0
LINE
  5
8EF
330
2
100
AcDbEntity
  8
0
100
AcDbLine
 10
366.7596214235487
 20
75.77742989705109
 30
0.0
 11
376.5096214235487
 21
75.77742989705109
 31
0.0
  0
ARC
  5
8F0
330
2
100
AcDbEntity
  8
0
100
AcDbCircle
 10
371.5508208650772
 20
79.77742989705109
 30
0.0
 40
2.5
100
AcDbArc
 50
90.0
 51
166.3033947545396
  0
ARC
  5
8F1
330
2
100
AcDbEntity
  8
0
100
AcDbCircle
 10
371.8699155411956
 20
79.56419460293341
 30
0.0
 40
6.360400373134885
100
AcDbArc
 50
109.3307278329831
 51
216.5387118574264
  0
LINE
  5
8F2
330
2
100
AcDbEntity
  8
0
100
AcDbLine
 10
373.2596214235487
 20
76.77742989705109
 30
0.0
 11
370.3424462351823
 21
76.77742989705109
 31
0.0
  0
ARC
  5
8F3
330
2
100
AcDbEntity
  8
0
100
AcDbCircle
 10
370.3424462351823
 20
77.52742989705109
 30
0.0
 40
0.75
100
AcDbArc
 50
214.6155053814396
 51
270.0
  0
ARC
  5
8F4
330
2
100
AcDbEntity
  8
0
100
AcDbCircle
 10
373.0668483682162
 20
79.40795738899897
 30
0.0
 40
4.060400373134885
100
AcDbArc
 50
166.3033947545396
 51
214.6155053814396
  0
LINE
  5
8F5
330
2
100
AcDbEntity
  8
0
100
AcDbLine
 10
373.2596214235487
 20
80.77742989705109
 30
0.0
 11
373.2596214235487
 21
76.77742989705109
 31
0.0
  0
ARC
  5
8F6
330
2
100
AcDbEntity
  8
0
100
AcDbCircle
 10
371.0058194852646
 20
82.02742989705109
 30
0.0
 40
3.75
100
AcDbArc
 50
90.0
 51
109.3307278329831
  0
LINE
  5
8F7
330
2
100
AcDbEntity
  8
0
100
AcDbLine
 10
386.0096214235487
 20
75.77742989705109
 30
0.0
 11
386.0096214235487
 21
85.77742989705109
 31
0.0
  0
LINE
  5
8F8
330
2
100
AcDbEntity
  8
0
100
AcDbLine
 10
379.5096214235487
 20
82.27742989705109
 30
0.0
 11
379.5096214235487
 21
75.77742989705109
 31
0.0
  0
LINE
  5
8F9
330
2
100
AcDbEntity
  8
0
100
AcDbLine
 10
379.5096214235487
 20
82.27742989705109
 30
0.0
 11
379.5096214235487
 21
75.77742989705109
 31
0.0
  0
LINE
  5
8FA
330
2
100
AcDbEntity
  8
0
100
AcDbLine
 10
383.0096214235487
 20
75.77742989705109
 30
0.0
 11
383.0096214235487
 21
82.27742989705109
 31
0.0
  0
LINE
  5
8FB
330
2
100
AcDbEntity
  8
0
100
AcDbLine
 10
383.0096214235487
 20
82.27742989705109
 30
0.0
 11
383.0096214235487
 21
75.77742989705109
 31
0.0
  0
LINE
  5
8FC
330
2
100
AcDbEntity
  8
0
100
AcDbLine
 10
383.0096214235487
 20
82.27742989705109
 30
0.0
 11
383.0096214235487
 21
75.77742989705109
 31
0.0
  0
LINE
  5
8FD
330
2
100
AcDbEntity
  8
0
100
AcDbLine
 10
383.0096214235487
 20
82.27742989705109
 30
0.0
 11
383.0096214235487
 21
75.77742989705109
 31
0.0
  0
LINE
  5
8FE
330
2
100
AcDbEntity
  8
0
100
AcDbLine
 10
389.2596214235487
 20
75.77742989705109
 30
0.0
 11
389.2596214235487
 21
82.27742989705109
 31
0.0
  0
LINE
  5
8FF
330
2
100
AcDbEntity
  8
0
100
AcDbLine
 10
379.5096214235487
 20
75.77742989705109
 30
0.0
 11
383.0096214235487
 21
75.77742989705109
 31
0.0
  0
LINE
  5
900
330
2
100
AcDbEntity
  8
0
100
AcDbLine
 10
376.5096214235487
 20
75.77742989705109
 30
0.0
 11
376.5096214235487
 21
80.77742989705109
 31
0.0
  0
LINE
  5
901
330
2
100
AcDbEntity
  8
0
100
AcDbLine
 10
386.0096214235487
 20
75.77742989705109
 30
0.0
 11
389.2596214235487
 21
75.77742989705109
 31
0.0
  0
LINE
  5
902
330
2
100
AcDbEntity
  8
0
100
AcDbLine
 10
390.5096214235488
 20
80.77742989705109
 30
0.0
 11
392.7846214235488
 21
80.77742989705109
 31
0.0
  0
LINE
  5
903
330
2
100
AcDbEntity
  8
0
100
AcDbLine
 10
383.0096214235487
 20
82.27742989705109
 30
0.0
 11
384.7596214235487
 21
82.27742989705109
 31
0.0
  0
LINE
  5
904
330
2
100
AcDbEntity
  8
0
100
AcDbLine
 10
384.7596214235487
 20
85.77742989705109
 30
0.0
 11
377.7596214235487
 21
85.77742989705109
 31
0.0
  0
LINE
  5
905
330
2
100
AcDbEntity
  8
0
100
AcDbLine
 10
377.7596214235487
 20
85.77742989705109
 30
0.0
 11
377.7596214235487
 21
82.27742989705109
 31
0.0
  0
LINE
  5
906
330
2
100
AcDbEntity
  8
0
100
AcDbLine
 10
377.7596214235487
 20
82.27742989705109
 30
0.0
 11
379.5096214235487
 21
82.27742989705109
 31
0.0
  0
LINE
  5
907
330
2
100
AcDbEntity
  8
0
100
AcDbLine
 10
376.5096214235487
 20
85.77742989705109
 30
0.0
 11
376.5096214235487
 21
82.27742989705109
 31
0.0
  0
LINE
  5
908
330
2
100
AcDbEntity
  8
0
100
AcDbLine
 10
384.7596214235487
 20
82.27742989705109
 30
0.0
 11
384.7596214235487
 21
85.77742989705109
 31
0.0
  0
LINE
  5
909
330
2
100
AcDbEntity
  8
0
100
AcDbLine
 10
389.2596214235487
 20
82.27742989705109
 30
0.0
 11
392.7846214235488
 21
82.27742989705109
 31
0.0
  0
CIRCLE
  5
90A
330
2
100
AcDbEntity
  8
0
100
AcDbCircle
 10
419.2596214235488
 20
60.77742989705109
 30
0.0
 40
3.25
  0
ARC
  5
90B
330
2
100
AcDbEntity
  8
0
100
AcDbCircle
 10
392.6572507338934
 20
81.68044713843039
 30
0.0
 40
4.60491370615741
100
AcDbArc
 50
312.379409433819
 51
49.34908835590166
  0
LINE
  5
90C
330
2
100
AcDbEntity
  8
0
100
AcDbLine
 10
397.3096214235489
 20
75.77742989705109
 30
0.0
 11
395.760674143392
 21
78.27567536397919
 31
0.0
  0
LINE
  5
90D
330
2
100
AcDbEntity
  8
0
100
AcDbLine
 10
397.3096214235489
 20
75.77742989705109
 30
0.0
 11
393.5096214235487
 21
75.77742989705109
 31
0.0
  0
ARC
  5
90E
330
2
100
AcDbEntity
  8
0
100
AcDbCircle
 10
395.7628178757064
 20
78.27696160336779
 30
0.0
 40
0.0025
100
AcDbArc
 50
132.3794094338536
 51
210.9637565320337
  0
ARC
  5
90F
330
2
100
AcDbEntity
  8
0
100
AcDbCircle
 10
394.0284938848473
 20
83.27742989705109
 30
0.0
 40
2.5
100
AcDbArc
 50
49.34908835590166
 51
90.0
  0
LINE
  5
910
330
2
100
AcDbEntity
  8
0
100
AcDbLine
 10
393.5096214235487
 20
81.55242989705106
 30
0.0
 11
393.5096214235487
 21
81.50242989705111
 31
0.0
  0
ARC
  5
911
330
2
100
AcDbEntity
  8
0
100
AcDbCircle
 10
421.2596214235487
 20
138.0784208970511
 30
0.0
 40
5.0
100
AcDbArc
 50
0.0
 51
89.00009199999994
  0
ARC
  5
912
330
2
100
AcDbEntity
  8
0
100
AcDbCircle
 10
381.2596214235487
 20
98.7774298970511
 30
0.0
 40
42.5
100
AcDbArc
 50
19.74990099999923
 51
90.0
  0
LINE
  5
914
330
2
100
AcDbEntity
  8
CENTER
100
AcDbLine
 10
326.2596214235488
 20
98.77742989705105
 30
0.0
 11
436.2596214235487
 21
98.77742989705105
 31
0.0
  0
LINE
  5
915
330
2
100
AcDbEntity
  8
CENTER
100
AcDbLine
 10
354.341733200992
 20
111.7774298970511
 30
0.0
 11
408.1775096461054
 21
111.7774298970511
 31
0.0
  0
ARC
  5
917
330
2
100
AcDbEntity
  8
0
100
AcDbCircle
 10
381.2596214235487
 20
98.7774298970511
 30
0.0
 40
42.5
100
AcDbArc
 50
90.0
 51
160.2501070000015
  0
LINE
  5
918
330
2
100
AcDbEntity
  8
0
100
AcDbLine
 10
341.1723254235486
 20
143.077520897051
 30
0.0
 11
381.2596214235487
 21
143.777429897051
 31
0.0
  0
LINE
  5
919
330
2
100
AcDbEntity
  8
CENTER
100
AcDbLine
 10
425.0096214235488
 20
136.7774298970511
 30
0.0
 11
337.5096214235487
 21
136.7774298970511
 31
0.0
  0
CIRCLE
  5
91A
330
2
100
AcDbEntity
  8
0
100
AcDbCircle
 10
343.2596214235487
 20
136.7774298970511
 30
0.0
 40
3.25
  0
ARC
  5
91B
330
2
100
AcDbEntity
  8
0
100
AcDbCircle
 10
341.2596214235487
 20
138.0783298970511
 30
0.0
 40
5.0
100
AcDbArc
 50
91.0006099999993
 51
180.0
  0
CIRCLE
  5
91C
330
2
100
AcDbEntity
  8
0
100
AcDbCircle
 10
419.2596214235488
 20
136.7774298970511
 30
0.0
 40
3.25
  0
ARC
  5
91E
330
2
100
AcDbEntity
  8
0
100
AcDbCircle
 10
381.2596214235487
 20
111.7774298970511
 30
0.0
 40
7.5
100
AcDbArc
 50
199.4712070000017
 51
160.5287929999982
  0
LINE
  5
91F
330
2
100
AcDbEntity
  8
0
100
AcDbLine
 10
371.7596214235487
 20
114.277429897051
 30
0.0
 11
376.7596214235487
 21
114.277429897051
 31
0.0
  0
LINE
  5
920
330
2
100
AcDbEntity
  8
0
100
AcDbLine
 10
371.7596214235487
 20
109.277429897051
 30
0.0
 11
376.7596214235487
 21
109.277429897051
 31
0.0
  0
LINE
  5
921
330
2
100
AcDbEntity
  8
0
100
AcDbLine
 10
371.7596214235487
 20
109.277429897051
 30
0.0
 11
371.7596214235487
 21
114.277429897051
 31
0.0
  0
LINE
  5
922
330
2
100
AcDbEntity
  8
0
100
AcDbLine
 10
376.7596214235487
 20
114.277429897051
 30
0.0
 11
376.7596214235487
 21
109.277429897051
 31
0.0
  0
LINE
  5
923
330
2
100
AcDbEntity
  8
0
100
AcDbLine
 10
398.3632279235488
 20
145.1424388970511
 30
0.0
 11
391.3366169235488
 21
147.7774298970511
 31
0.0
  0
LINE
  5
924
330
2
100
AcDbEntity
  8
0
100
AcDbLine
 10
421.3468104235488
 20
143.0777188970511
 30
0.0
 11
381.2596214235487
 21
143.777429897051
 31
0.0
  0
LINE
  5
925
330
2
100
AcDbEntity
  8
0
100
AcDbLine
 10
388.7592249238001
 20
165.6170162567543
 30
0.0
 11
388.7592249238004
 21
147.7774298970511
 31
0.0
  0
LINE
  5
926
330
2
100
AcDbEntity
  8
0
100
AcDbLine
 10
379.7592249238003
 20
165.6169699122402
 30
0.0
 11
379.7592249238003
 21
147.7774298970511
 31
0.0
  0
LINE
  5
927
330
2
100
AcDbEntity
  8
0
100
AcDbLine
 10
375.7600179232973
 20
166.0377527860996
 30
0.0
 11
375.7600179232973
 21
147.7774298970511
 31
0.0
  0
LINE
  5
928
330
2
100
AcDbEntity
  8
0
100
AcDbLine
 10
377.7600179232973
 20
165.195612087065
 30
0.0
 11
377.7600179232973
 21
147.7774298970511
 31
0.0
  0
LINE
  5
929
330
2
100
AcDbEntity
  8
0
100
AcDbLine
 10
382.7592249238001
 20
165.6170162567544
 30
0.0
 11
382.7592249238001
 21
147.7774298970511
 31
0.0
  0
LINE
  5
92A
330
2
100
AcDbEntity
  8
0
100
AcDbLine
 10
373.7592249238003
 20
165.6169713229815
 30
0.0
 11
373.7592249238003
 21
147.7774298970511
 31
0.0
  0
LINE
  5
92B
330
2
100
AcDbEntity
  8
0
100
AcDbLine
 10
391.3366169235488
 20
147.7774298970511
 30
0.0
 11
369.3366169235488
 21
147.7774298970511
 31
0.0
  0
LINE
  5
92C
330
2
100
AcDbEntity
  8
0
100
AcDbLine
 10
362.3099139235488
 20
145.1424388970511
 30
0.0
 11
369.3366169235488
 21
147.7774298970511
 31
0.0
  0
ARC
  5
92D
330
2
100
AcDbEntity
  8
0
100
AcDbCircle
 10
362.8366169235488
 20
143.737920897051
 30
0.0
 40
1.5
100
AcDbArc
 50
110.5565030000021
 51
180.0005040000005
  0
LINE
  5
92E
330
2
100
AcDbEntity
  8
0
100
AcDbLine
 10
361.3366169235488
 20
143.737920897051
 30
0.0
 11
361.3365249235488
 21
143.445730897051
 31
0.0
  0
LINE
  5
92F
330
2
100
AcDbEntity
  8
0
100
AcDbLine
 10
369.3366169235488
 20
147.7774298970511
 30
0.0
 11
369.3366169235488
 21
143.5854288970511
 31
0.0
  0
LINE
  5
930
330
2
100
AcDbEntity
  8
0
100
AcDbLine
 10
391.3366169235488
 20
147.7774298970511
 30
0.0
 11
391.3366169235488
 21
143.5854288970511
 31
0.0
  0
LINE
  5
931
330
2
100
AcDbEntity
  8
HOJO
100
AcDbLine
 10
375.6305169238004
 20
166.0922818172206
 30
0.0
 11
377.8881159238004
 21
165.1416738172206
 31
0.0
  0
ARC
  5
932
330
2
100
AcDbEntity
  8
HOJO
100
AcDbCircle
 10
375.0092249238001
 20
164.6169698172206
 30
0.0
 40
1.600781999999999
100
AcDbArc
 50
67.16467299999867
 51
141.3401949999986
  0
ARC
  5
933
330
2
100
AcDbEntity
  8
HOJO
100
AcDbCircle
 10
384.5092257151128
 20
166.6169693956192
 30
0.0
 40
1.600781
100
AcDbArc
 50
247.1647030000001
 51
321.3401944016234
  0
ARC
  5
934
330
2
100
AcDbEntity
  8
HOJO
100
AcDbCircle
 10
378.5092249238001
 20
166.6169698172206
 30
0.0
 40
1.600781
100
AcDbArc
 50
247.1647030000001
 51
321.3401944016234
  0
LINE
  5
935
330
2
100
AcDbEntity
  8
HOJO
100
AcDbLine
 10
382.7592249238001
 20
165.6170162567544
 30
0.0
 11
383.8881167151127
 21
165.1416733956192
 31
0.0
  0
LINE
  5
936
330
2
100
AcDbEntity
  8
HOJO
100
AcDbLine
 10
387.6305177151126
 20
166.0922813956191
 30
0.0
 11
388.7592249238001
 21
165.6170162567543
 31
0.0
  0
ARC
  5
937
330
2
100
AcDbEntity
  8
HOJO
100
AcDbCircle
 10
387.0092257151128
 20
164.6169693956191
 30
0.0
 40
1.600781999999999
100
AcDbArc
 50
67.16467299999867
 51
141.3401949999986
  0
LINE
  5
938
330
2
100
AcDbEntity
  8
0
100
AcDbLine
 10
406.9811028517277
 20
143.3283425765964
 30
0.0
 11
419.655550742263
 21
165.2811302808876
 31
0.0
  0
LINE
  5
939
330
2
100
AcDbEntity
  8
0
100
AcDbLine
 10
408.1242798040912
 20
143.3083831401317
 30
0.0
 11
420.2310065757111
 21
164.2778490219315
 31
0.0
  0
LINE
  5
93A
330
2
100
AcDbEntity
  8
0
100
AcDbLine
 10
405.8379258993642
 20
143.348302013061
 30
0.0
 11
418.7095141151579
 21
165.6425467769206
 31
0.0
  0
ARC
  5
93B
330
2
100
AcDbEntity
  8
0
100
AcDbCircle
 10
397.8366169235488
 20
143.737920897051
 30
0.0
 40
1.5
100
AcDbArc
 50
0.0001300000000561
 51
69.44419899999937
  0
LINE
  5
93C
330
2
100
AcDbEntity
  8
0
100
AcDbLine
 10
399.3366169235488
 20
143.737920897051
 30
0.0
 11
399.3365249235488
 21
143.4458298970511
 31
0.0
  0
LINE
  5
93D
330
2
100
AcDbEntity
  8
HOJO
100
AcDbLine
 10
418.8480752222052
 20
165.6251272369044
 30
0.0
 11
418.7095141151579
 21
165.6425467769206
 31
0.0
  0
ARC
  5
93E
330
2
100
AcDbEntity
  8
HOJO
100
AcDbCircle
 10
418.6484738773732
 20
164.0368235663964
 30
0.0
 40
1.600781999999999
100
AcDbArc
 50
8.659805000000465
 51
82.83532700000154
  0
MTEXT
  5
AD9
330
2
100
AcDbEntity
  8
TITLE
100
AcDbMText
 10
145.466571019134
 20
34.91215572411435
 30
0.0
 40
2.8284
 41
11.6777565
 71
     1
 72
     5
  1
L1\PL2\PL4
1001
ACAD
1000
MTEXTBEGIN
1070
    73
1070
     1
1070
    44
1040
1.0
1070
    74
1070
     0
1000
MTEXTEND
  0
TEXT
  5
ADA
330
2
100
AcDbEntity
  8
TITLE
100
AcDbText
 10
56.28685112121093
 20
25.9304621366889
 30
0.0
 40
6.0
  1
VGKD15-5～60N100
100
AcDbText
  0
LINE
  5
B10
330
2
100
AcDbEntity
  8
0
100
AcDbLine
 10
225.3095437683492
 20
341.4026543383791
 30
0.0
 11
225.3095437683492
 21
251.4026703383791
 31
0.0
  0
LINE
  5
B11
330
2
100
AcDbEntity
  8
0
100
AcDbLine
 10
216.3096207683492
 20
267.4026703383791
 30
0.0
 11
216.3096207683492
 21
253.402654338379
 31
0.0
  0
LINE
  5
B12
330
2
100
AcDbEntity
  8
0
100
AcDbLine
 10
110.3096237683492
 20
251.402670338379
 30
0.0
 11
225.3096207683493
 21
251.4026703383791
 31
0.0
  0
LINE
  5
B13
330
2
100
AcDbEntity
  8
CENTER
100
AcDbLine
 10
212.3096207683492
 20
258.4026703383791
 30
0.0
 11
229.3095437683492
 21
258.402670338379
 31
0.0
  0
LINE
  5
B14
330
2
100
AcDbEntity
  8
HIDS
  6
SEKKEI_H
100
AcDbLine
 10
216.3095437683492
 20
255.1526703383791
 30
0.0
 11
225.3095437683492
 21
255.1526703383791
 31
0.0
  0
ARC
  5
B15
330
2
100
AcDbEntity
  8
0
100
AcDbCircle
 10
218.3096207683492
 20
253.4026703383791
 30
0.0
 40
2.0
100
AcDbArc
 50
180.0
 51
270.0
  0
LINE
  5
B16
330
2
100
AcDbEntity
  8
0
100
AcDbLine
 10
216.3096207683492
 20
267.4026703383791
 30
0.0
 11
110.3096237683492
 21
267.4026703383791
 31
0.0
  0
LINE
  5
B17
330
2
100
AcDbEntity
  8
0
100
AcDbLine
 10
216.3096207683492
 20
325.402670338379
 30
0.0
 11
110.3096237683492
 21
325.402670338379
 31
0.0
  0
LINE
  5
B18
330
2
100
AcDbEntity
  8
0
100
AcDbLine
 10
110.3096237683492
 20
341.4026543383791
 30
0.0
 11
225.3096207683493
 21
341.4026543383791
 31
0.0
  0
LINE
  5
B19
330
2
100
AcDbEntity
  8
CENTER
100
AcDbLine
 10
263.3095437683492
 20
296.402670338379
 30
0.0
 11
47.80552261416779
 21
296.402670338379
 31
0.0
  0
LINE
  5
B1A
330
2
100
AcDbEntity
  8
0
100
AcDbLine
 10
231.3095437683492
 20
304.902670338379
 30
0.0
 11
231.3095437683492
 21
287.902670338379
 31
0.0
  0
LINE
  5
B1B
330
2
100
AcDbEntity
  8
0
100
AcDbLine
 10
229.3095437683492
 20
277.402670338379
 30
0.0
 11
229.3095437683492
 21
315.402670338379
 31
0.0
  0
LINE
  5
B1C
330
2
100
AcDbEntity
  8
0
100
AcDbLine
 10
258.3095437683492
 20
303.902670338379
 30
0.0
 11
258.3095437683492
 21
286.9026703383791
 31
0.0
  0
LINE
  5
B1D
330
2
100
AcDbEntity
  8
0
100
AcDbLine
 10
234.3095437683492
 20
286.9026703383791
 30
0.0
 11
258.3095437683492
 21
286.9026703383791
 31
0.0
  0
LINE
  5
B1E
330
2
100
AcDbEntity
  8
0
100
AcDbLine
 10
234.3095437683492
 20
289.3316703383791
 30
0.0
 11
258.3095437683492
 21
289.3316703383791
 31
0.0
  0
LINE
  5
B1F
330
2
100
AcDbEntity
  8
HIDS
  6
SEKKEI_H
100
AcDbLine
 10
216.3095437683492
 20
261.6526703383791
 30
0.0
 11
225.3095437683492
 21
261.6526703383791
 31
0.0
  0
LINE
  5
B20
330
2
100
AcDbEntity
  8
0
100
AcDbLine
 10
229.3095437683492
 20
287.902670338379
 30
0.0
 11
231.3095437683492
 21
287.902670338379
 31
0.0
  0
LINE
  5
B21
330
2
100
AcDbEntity
  8
0
100
AcDbLine
 10
228.3095437683492
 20
276.4026703383791
 30
0.0
 11
225.3095437683492
 21
276.4026703383791
 31
0.0
  0
ARC
  5
B22
330
2
100
AcDbEntity
  8
0
100
AcDbCircle
 10
228.3095437683492
 20
277.402670338379
 30
0.0
 40
1.0
100
AcDbArc
 50
270.0
 51
0.0
  0
LINE
  5
B23
330
2
100
AcDbEntity
  8
0
100
AcDbLine
 10
234.3095437683492
 20
289.3316703383791
 30
0.0
 11
234.3095437683492
 21
286.9026703383791
 31
0.0
  0
LINE
  5
B24
330
2
100
AcDbEntity
  8
0
100
AcDbLine
 10
231.3095437683492
 20
288.9026703383791
 30
0.0
 11
234.3095437683492
 21
288.9026703383791
 31
0.0
  0
LINE
  5
B25
330
2
100
AcDbEntity
  8
0
100
AcDbLine
 10
231.3095437683492
 20
303.902670338379
 30
0.0
 11
258.3095437683492
 21
303.902670338379
 31
0.0
  0
LINE
  5
B26
330
2
100
AcDbEntity
  8
0
100
AcDbLine
 10
229.3095437683492
 20
304.902670338379
 30
0.0
 11
231.3095437683492
 21
304.902670338379
 31
0.0
  0
ARC
  5
B27
330
2
100
AcDbEntity
  8
0
100
AcDbCircle
 10
228.3095437683492
 20
315.402670338379
 30
0.0
 40
1.0
100
AcDbArc
 50
0.0
 51
90.0
  0
LINE
  5
B28
330
2
100
AcDbEntity
  8
0
100
AcDbLine
 10
228.3095437683492
 20
316.402670338379
 30
0.0
 11
225.3095437683492
 21
316.402670338379
 31
0.0
  0
LINE
  5
B29
330
2
100
AcDbEntity
  8
CENTER
100
AcDbLine
 10
212.3096207683492
 20
334.402670338379
 30
0.0
 11
229.3095437683492
 21
334.402670338379
 31
0.0
  0
ARC
  5
B2A
330
2
100
AcDbEntity
  8
0
100
AcDbCircle
 10
218.3096207683492
 20
339.4026853383791
 30
0.0
 40
2.0
100
AcDbArc
 50
90.0
 51
180.0
  0
LINE
  5
B2B
330
2
100
AcDbEntity
  8
0
100
AcDbLine
 10
216.3096207683492
 20
325.402670338379
 30
0.0
 11
216.3096207683492
 21
339.4026543383791
 31
0.0
  0
LINE
  5
B2C
330
2
100
AcDbEntity
  8
HIDS
  6
SEKKEI_H
100
AcDbLine
 10
216.3095437683492
 20
331.152670338379
 30
0.0
 11
225.3095437683492
 21
331.152670338379
 31
0.0
  0
LINE
  5
B2D
330
2
100
AcDbEntity
  8
HIDS
  6
SEKKEI_H
100
AcDbLine
 10
216.3095437683492
 20
337.652670338379
 30
0.0
 11
225.3095437683492
 21
337.652670338379
 31
0.0
  0
LINE
  5
CA6
330
2
100
AcDbEntity
  8
0
100
AcDbLine
 10
159.9874504687545
 20
186.6092909799024
 30
0.0
 11
166.0295748015105
 21
187.6746805205626
 31
0.0
  0
LINE
  5
CA7
330
2
100
AcDbEntity
  8
0
100
AcDbLine
 10
166.3230390958469
 20
180.5546314984833
 30
0.0
 11
159.9904889181521
 21
181.1086578502407
 31
0.0
  0
LINE
  5
CA8
330
2
100
AcDbEntity
  8
0
100
AcDbLine
 10
159.9904889181521
 20
179.3657361143889
 30
0.0
 11
166.1345611977421
 21
178.2823704000741
 31
0.0
  0
LINE
  5
CA9
330
2
100
AcDbEntity
  8
0
100
AcDbLine
 10
159.9874504687545
 20
178.1477599407344
 30
0.0
 11
166.0295748015105
 21
177.0823704000742
 31
0.0
  0
LINE
  5
CAA
330
2
100
AcDbEntity
  8
0
100
AcDbLine
 10
166.2706459643559
 20
179.3546314984834
 30
0.0
 11
159.9904889181521
 21
179.9040740451887
 31
0.0
  0
LINE
  5
CAB
330
2
100
AcDbEntity
  8
0
100
AcDbLine
 10
166.3230390958428
 20
184.2024194221532
 30
0.0
 11
159.9904889181521
 21
183.6483930703962
 31
0.0
  0
LINE
  5
CAC
330
2
100
AcDbEntity
  8
0
100
AcDbLine
 10
166.2706459643532
 20
185.4024194221531
 30
0.0
 11
159.9904889181521
 21
184.8529768754481
 31
0.0
  0
LINE
  5
CAD
330
2
100
AcDbEntity
  8
0
100
AcDbLine
 10
159.9904889181521
 20
185.3913148062478
 30
0.0
 11
166.1345611977417
 21
186.4746805205624
 31
0.0
  0
LINE
  5
CAE
330
2
100
AcDbEntity
  8
0
100
AcDbLine
 10
175.8687559065033
 20
182.9785254603184
 30
0.0
 11
159.9904889181521
 21
182.9785254603184
 31
0.0
  0
LINE
  5
CAF
330
2
100
AcDbEntity
  8
0
100
AcDbLine
 10
175.8687559065033
 20
181.7785254603184
 30
0.0
 11
159.9904889181521
 21
181.7785254603182
 31
0.0
  0
LINE
  5
CB0
330
2
100
AcDbEntity
  8
0
100
AcDbLine
 10
182.0059025809482
 20
165.7433987453501
 30
0.0
 11
152.1152581436895
 21
165.7433987453501
 31
0.0
  0
LINE
  5
CB1
330
2
100
AcDbEntity
  8
0
100
AcDbLine
 10
182.0059025809482
 20
167.7433987453501
 30
0.0
 11
152.1152581436899
 21
167.7433987453501
 31
0.0
  0
LINE
  5
CB2
330
2
100
AcDbEntity
  8
0
100
AcDbLine
 10
152.5059025809482
 20
163.7433987453501
 30
0.0
 11
181.8869175893933
 21
161.1728930092261
 31
0.0
  0
LINE
  5
CB3
330
2
100
AcDbEntity
  8
0
100
AcDbLine
 10
152.5932244667655
 20
165.7433987453501
 30
0.0
 11
182.0612290748886
 21
163.1652824054096
 31
0.0
  0
LINE
  5
CB4
330
2
100
AcDbEntity
  8
0
100
AcDbLine
 10
152.5932244667655
 20
167.7433987453501
 30
0.0
 11
182.0679576601501
 21
170.3221037602225
 31
0.0
  0
LINE
  5
CB5
330
2
100
AcDbEntity
  8
0
100
AcDbLine
 10
152.5059025809482
 20
169.7433987453501
 30
0.0
 11
181.8936461746547
 21
172.314493156406
 31
0.0
  0
LINE
  5
CB6
330
2
100
AcDbEntity
  8
0
100
AcDbLine
 10
104.8095433644956
 20
165.2028101527996
 30
0.0
 11
104.8095433644956
 21
147.7774298970511
 31
0.0
  0
LINE
  5
CB7
330
2
100
AcDbEntity
  8
0
100
AcDbLine
 10
100.8095433644956
 20
165.6170437330086
 30
0.0
 11
100.8095433644956
 21
147.7774298970511
 31
0.0
  0
LINE
  5
CB8
330
2
100
AcDbEntity
  8
0
100
AcDbLine
 10
102.8095433644957
 20
166.0381372472375
 30
0.0
 11
102.8095433644956
 21
147.7774298970511
 31
0.0
  0
LINE
  5
CB9
330
2
100
AcDbEntity
  8
0
100
AcDbLine
 10
87.3095337683493
 20
139.1770709174573
 30
0.0
 11
87.3095337683493
 21
166.0312382742628
 31
0.0
  0
LINE
  5
CBA
330
2
100
AcDbEntity
  8
0
100
AcDbLine
 10
85.30953376834929
 20
139.1596171818758
 30
0.0
 11
85.30953376834929
 21
165.6169717423368
 31
0.0
  0
LINE
  5
CBB
330
2
100
AcDbEntity
  8
0
100
AcDbLine
 10
86.30953376834929
 20
139.1683440496665
 30
0.0
 11
86.30953376834929
 21
166.1981427763787
 31
0.0
  0
LINE
  5
CBC
330
2
100
AcDbEntity
  8
0
100
AcDbLine
 10
106.8095433644956
 20
165.6169703338416
 30
0.0
 11
106.8095433644956
 21
147.7774298970511
 31
0.0
  0
LINE
  5
CBE
330
2
100
AcDbEntity
  8
CENTER
100
AcDbLine
 10
93.20953776834938
 20
58.77742989705109
 30
0.0
 11
102.3095377683492
 21
58.77742989705109
 31
0.0
  0
LINE
  5
CBF
330
2
100
AcDbEntity
  8
0
100
AcDbLine
 10
95.72677762745717
 20
58.30433270232077
 30
0.0
 11
58.28335416185189
 21
58.63109650854068
 31
0.0
  0
LINE
  5
CC0
330
2
100
AcDbEntity
  8
CENTER
100
AcDbLine
 10
93.20953776834938
 20
138.777429897051
 30
0.0
 11
102.3095377683492
 21
138.777429897051
 31
0.0
  0
LINE
  5
CC1
330
2
100
AcDbEntity
  8
0
100
AcDbLine
 10
95.72677762745696
 20
139.2505270917783
 30
0.0
 11
58.28335416185416
 21
138.9237632855606
 31
0.0
  0
LINE
  5
CC2
330
2
100
AcDbEntity
  8
0
100
AcDbLine
 10
55.30953376834929
 20
135.9238775163674
 30
0.0
 11
55.30953376834929
 21
61.630982277734
 31
0.0
  0
ARC
  5
CC3
330
2
100
AcDbEntity
  8
0
100
AcDbCircle
 10
58.30953376834725
 20
61.63098227773315
 30
0.0
 40
3.0
100
AcDbArc
 50
179.9999999999967
 51
269.4999999999954
  0
POINT
  5
CC4
330
2
100
AcDbEntity
  8
0
100
AcDbPoint
 10
55.30953376834929
 20
133.0774298970511
 30
0.0
  0
ARC
  5
CC5
330
2
100
AcDbEntity
  8
0
100
AcDbCircle
 10
58.3095337683493
 20
135.9238775163681
 30
0.0
 40
3.0
100
AcDbArc
 50
90.49999999999805
 51
180.0
  0
LINE
  5
CC7
330
2
100
AcDbEntity
  8
0
100
AcDbLine
 10
98.30953376835067
 20
134.777429897051
 30
0.0
 11
98.30953376834953
 21
62.77742989705109
 31
0.0
  0
LINE
  5
CC8
330
2
100
AcDbEntity
  8
0
100
AcDbLine
 10
98.80953776834928
 20
132.045328897051
 30
0.0
 11
98.80942776834935
 21
65.50953089705109
 31
0.0
  0
LINE
  5
CC9
330
2
100
AcDbEntity
  8
0
100
AcDbLine
 10
98.80953776834928
 20
62.77742989705109
 30
0.0
 11
98.80953776834928
 21
54.77742989705109
 31
0.0
  0
ARC
  5
CCA
330
2
100
AcDbEntity
  8
0
100
AcDbCircle
 10
102.2095377683493
 20
58.77742989705109
 30
0.0
 40
6.5
100
AcDbArc
 50
146.9443049999971
 51
213.0556950000028
  0
LINE
  5
CCB
330
2
100
AcDbEntity
  8
0
100
AcDbLine
 10
99.8095377683493
 20
63.77742989705109
 30
0.0
 11
99.8095377683493
 21
54.77742989705109
 31
0.0
  0
LINE
  5
CCC
330
2
100
AcDbEntity
  8
0
100
AcDbLine
 10
110.3095337683493
 20
53.77742989705109
 30
0.0
 11
101.2477377683493
 21
53.77742989705109
 31
0.0
  0
LINE
  5
CCD
330
2
100
AcDbEntity
  8
0
100
AcDbLine
 10
98.80953776834928
 20
54.77742989705109
 30
0.0
 11
97.59974276834931
 21
54.77742989705109
 31
0.0
  0
ARC
  5
CCE
330
2
100
AcDbEntity
  8
0
100
AcDbCircle
 10
97.59974276834931
 20
55.77742989705109
 30
0.0
 40
1.0
100
AcDbArc
 50
213.0556950000028
 51
270.0
  0
LINE
  5
CCF
330
2
100
AcDbEntity
  8
0
100
AcDbLine
 10
99.8095377683493
 20
54.97743089705108
 30
0.0
 11
98.80953776834928
 21
54.97743089705108
 31
0.0
  0
ARC
  5
CD0
330
2
100
AcDbEntity
  8
0
100
AcDbCircle
 10
101.2477377683493
 20
55.30962989705108
 30
0.0
 40
1.533470999999999
100
AcDbArc
 50
200.3083040000001
 51
272.3116150000011
  0
LINE
  5
CD1
330
2
100
AcDbEntity
  8
0
100
AcDbLine
 10
110.3095337683493
 20
64.36823889705107
 30
0.0
 11
99.61634776834934
 21
64.36823889705107
 31
0.0
  0
LINE
  5
CD2
330
2
100
AcDbEntity
  8
0
100
AcDbLine
 10
98.80953776834928
 20
62.77742989705109
 30
0.0
 11
97.59974276834931
 21
62.77742989705109
 31
0.0
  0
ARC
  5
CD3
330
2
100
AcDbEntity
  8
0
100
AcDbCircle
 10
97.59974276834931
 20
61.77742989705109
 30
0.0
 40
1.0
100
AcDbArc
 50
90.0
 51
146.9443049999971
  0
LINE
  5
CD4
330
2
100
AcDbEntity
  8
0
100
AcDbLine
 10
98.30953776834929
 20
64.77742989705109
 30
0.0
 11
98.80953776834928
 21
64.77742989705109
 31
0.0
  0
ARC
  5
CD5
330
2
100
AcDbEntity
  8
0
100
AcDbCircle
 10
98.80953776834928
 20
63.77742989705109
 30
0.0
 40
1.0
100
AcDbArc
 50
0.0
 51
90.0
  0
ARC
  5
CD6
330
2
100
AcDbEntity
  8
0
100
AcDbCircle
 10
99.8095377683493
 20
65.50953089705109
 30
0.0
 40
1.0
100
AcDbArc
 50
180.0
 51
240.0001979999968
  0
LINE
  5
CD7
330
2
100
AcDbEntity
  8
0
100
AcDbLine
 10
98.80953776834928
 20
62.5774288970511
 30
0.0
 11
99.8095377683493
 21
62.5774288970511
 31
0.0
  0
LINE
  5
CD8
330
2
100
AcDbEntity
  8
0
100
AcDbLine
 10
98.80953776834928
 20
142.777429897051
 30
0.0
 11
98.80953776834928
 21
134.7774298970511
 31
0.0
  0
ARC
  5
CD9
330
2
100
AcDbEntity
  8
0
100
AcDbCircle
 10
102.2095377683493
 20
138.777429897051
 30
0.0
 40
6.5
100
AcDbArc
 50
146.9443049999971
 51
213.0556950000028
  0
LINE
  5
CDA
330
2
100
AcDbEntity
  8
0
100
AcDbLine
 10
99.8095377683493
 20
133.7774298970511
 30
0.0
 11
99.8095377683493
 21
142.777429897051
 31
0.0
  0
LINE
  5
CDB
330
2
100
AcDbEntity
  8
0
100
AcDbLine
 10
110.3095337683493
 20
133.1866208970511
 30
0.0
 11
99.61634776834934
 21
133.1866208970511
 31
0.0
  0
ARC
  5
CDC
330
2
100
AcDbEntity
  8
0
100
AcDbCircle
 10
98.80953776834928
 20
133.7774298970511
 30
0.0
 40
1.0
100
AcDbArc
 50
270.0
 51
0.0
  0
LINE
  5
CDD
330
2
100
AcDbEntity
  8
0
100
AcDbLine
 10
98.30953776834929
 20
132.7774298970511
 30
0.0
 11
98.80953776834928
 21
132.7774298970511
 31
0.0
  0
ARC
  5
CDE
330
2
100
AcDbEntity
  8
0
100
AcDbCircle
 10
99.8095377683493
 20
132.045328897051
 30
0.0
 40
1.0
100
AcDbArc
 50
120.000297999996
 51
180.0
  0
LINE
  5
CDF
330
2
100
AcDbEntity
  8
0
100
AcDbLine
 10
98.80953776834928
 20
134.7774298970511
 30
0.0
 11
97.59974276834931
 21
134.7774298970511
 31
0.0
  0
ARC
  5
CE0
330
2
100
AcDbEntity
  8
0
100
AcDbCircle
 10
97.59974276834931
 20
135.7774298970511
 30
0.0
 40
1.0
100
AcDbArc
 50
213.0556950000028
 51
270.0
  0
LINE
  5
CE1
330
2
100
AcDbEntity
  8
0
100
AcDbLine
 10
99.8095377683493
 20
134.977430897051
 30
0.0
 11
98.80953776834928
 21
134.977430897051
 31
0.0
  0
LINE
  5
CE2
330
2
100
AcDbEntity
  8
0
100
AcDbLine
 10
99.30953936449567
 20
147.7774298970511
 30
0.0
 11
108.3095433644956
 21
147.7774298970511
 31
0.0
  0
LINE
  5
CE3
330
2
100
AcDbEntity
  8
0
100
AcDbLine
 10
110.3095337683493
 20
143.777429897051
 30
0.0
 11
101.2477377683493
 21
143.777429897051
 31
0.0
  0
LINE
  5
CE4
330
2
100
AcDbEntity
  8
0
100
AcDbLine
 10
98.30951936449572
 20
146.7774298970511
 30
0.0
 11
98.30956100333573
 21
142.777454097115
 31
0.0
  0
LINE
  5
CE5
330
2
100
AcDbEntity
  8
0
100
AcDbLine
 10
98.80953776834928
 20
142.777429897051
 30
0.0
 11
97.59974276834931
 21
142.777429897051
 31
0.0
  0
ARC
  5
CE6
330
2
100
AcDbEntity
  8
0
100
AcDbCircle
 10
97.59974276834931
 20
141.777429897051
 30
0.0
 40
1.0
100
AcDbArc
 50
90.0
 51
146.9443049999971
  0
LINE
  5
CE7
330
2
100
AcDbEntity
  8
0
100
AcDbLine
 10
98.80953776834928
 20
142.5774288970511
 30
0.0
 11
99.8095377683493
 21
142.5774288970511
 31
0.0
  0
ARC
  5
CE8
330
2
100
AcDbEntity
  8
0
100
AcDbCircle
 10
101.2477377683493
 20
142.2452298970511
 30
0.0
 40
1.533470999999999
100
AcDbArc
 50
87.68839299999999
 51
159.6916959999998
  0
ARC
  5
CE9
330
2
100
AcDbEntity
  8
0
100
AcDbCircle
 10
99.30953936449567
 20
146.7774298970511
 30
0.0
 40
1.0
100
AcDbArc
 50
90.0
 51
180.0
  0
LINE
  5
CEA
330
2
100
AcDbEntity
  8
0
100
AcDbLine
 10
109.3095433644956
 20
146.7774298970511
 30
0.0
 11
109.3095433644956
 21
143.777429897051
 31
0.0
  0
ARC
  5
CEB
330
2
100
AcDbEntity
  8
0
100
AcDbCircle
 10
108.3095433644956
 20
146.7774298970511
 30
0.0
 40
1.0
100
AcDbArc
 50
0.0
 51
90.0
  0
ARC
  5
CEC
330
2
100
AcDbEntity
  8
0
100
AcDbCircle
 10
80.30953376834929
 20
178.379185897051
 30
0.0
 40
5.0
100
AcDbArc
 50
0.0
 51
90.0
  0
ARC
  5
CED
330
2
100
AcDbEntity
  8
0
100
AcDbCircle
 10
80.30953376834929
 20
178.379185897051
 30
0.0
 40
6.0
100
AcDbArc
 50
0.0
 51
90.0
  0
ARC
  5
CEE
330
2
100
AcDbEntity
  8
0
100
AcDbCircle
 10
80.30953376834929
 20
178.379185897051
 30
0.0
 40
7.0
100
AcDbArc
 50
0.0
 51
89.62889052766097
  0
ARC
  5
CEF
330
2
100
AcDbEntity
  8
HOJO
100
AcDbCircle
 10
86.55956376834945
 20
164.6170077376727
 30
0.0
 40
1.600781999999999
100
AcDbArc
 50
62.06288054473443
 51
141.3418685641826
  0
LINE
  5
CF0
330
2
100
AcDbEntity
  8
0
100
AcDbLine
 10
85.30953376834929
 20
167.6169717423367
 30
0.0
 11
85.30953376834929
 21
178.379185897051
 31
0.0
  0
LINE
  5
CF1
330
2
100
AcDbEntity
  8
0
100
AcDbLine
 10
87.3095337683493
 20
168.0312382742627
 30
0.0
 11
87.3095337683493
 21
178.379185897051
 31
0.0
  0
LINE
  5
CF2
330
2
100
AcDbEntity
  8
0
100
AcDbLine
 10
86.30953376834929
 20
168.1981427763787
 30
0.0
 11
86.30953376834929
 21
178.379185897051
 31
0.0
  0
ARC
  5
CF3
330
2
100
AcDbEntity
  8
HOJO
100
AcDbCircle
 10
86.55956376834945
 20
166.6170077376726
 30
0.0
 40
1.600781999999999
100
AcDbArc
 50
62.06288054473443
 51
141.3418685642105
  0
LINE
  5
CF4
330
2
100
AcDbEntity
  8
HOJO
100
AcDbLine
 10
87.18085576834926
 20
166.0923197376727
 30
0.0
 11
87.3095337683493
 21
166.0381372472375
 31
0.0
  0
LINE
  5
CF5
330
2
100
AcDbEntity
  8
HOJO
100
AcDbLine
 10
87.18085576834926
 20
168.0923197376726
 30
0.0
 11
87.3095337683493
 21
168.0381372472375
 31
0.0
  0
LINE
  5
CF6
330
2
100
AcDbEntity
  8
0
100
AcDbLine
 10
80.30953376834929
 20
183.379185897051
 30
0.0
 11
72.23616565233522
 21
183.379185897051
 31
0.0
  0
LINE
  5
CF7
330
2
100
AcDbEntity
  8
0
100
AcDbLine
 10
80.35487302657463
 20
185.379039063487
 30
0.0
 11
72.35404299818071
 21
186.0790209897692
 31
0.0
  0
LINE
  5
CF8
330
2
100
AcDbEntity
  8
0
100
AcDbLine
 10
80.30953376834929
 20
184.379185897051
 30
0.0
 11
72.26688725543306
 21
185.0828262916774
 31
0.0
  0
LINE
  5
CF9
330
2
100
AcDbEntity
  8
0
100
AcDbLine
 10
80.30953376834929
 20
184.379185897051
 30
0.0
 11
72.23616565233522
 21
184.379185897051
 31
0.0
  0
LINE
  5
CFA
330
2
100
AcDbEntity
  8
0
100
AcDbLine
 10
62.37466486871369
 20
186.7513394776274
 30
0.0
 11
72.33661184963136
 21
185.8797820501509
 31
0.0
  0
LINE
  5
CFB
330
2
100
AcDbEntity
  8
0
100
AcDbLine
 10
72.23616565233522
 20
183.879185897051
 30
0.0
 11
62.23616565233522
 21
183.879185897051
 31
0.0
  0
LINE
  5
CFC
330
2
100
AcDbEntity
  8
0
100
AcDbLine
 10
72.23616565233522
 20
184.179185897051
 30
0.0
 11
62.23616565233522
 21
184.179185897051
 31
0.0
  0
LINE
  5
CFD
330
2
100
AcDbEntity
  8
0
100
AcDbLine
 10
72.23616565233522
 20
183.579185897051
 30
0.0
 11
62.23616565233522
 21
183.579185897051
 31
0.0
  0
LINE
  5
CFE
330
2
100
AcDbEntity
  8
0
100
AcDbLine
 10
62.34851814588944
 20
186.4524810682
 30
0.0
 11
72.31046512680689
 21
185.5809236407233
 31
0.0
  0
LINE
  5
CFF
330
2
100
AcDbEntity
  8
0
100
AcDbLine
 10
62.32237142306519
 20
186.1536226587724
 30
0.0
 11
72.28431840398264
 21
185.2820652312959
 31
0.0
  0
LINE
  5
D00
330
2
100
AcDbEntity
  8
0
100
AcDbLine
 10
72.26688725543306
 20
185.0828262916775
 30
0.0
 11
72.35404299818071
 21
186.0790209897692
 31
0.0
  0
LINE
  5
D01
330
2
100
AcDbEntity
  8
0
100
AcDbLine
 10
72.23616565233522
 20
183.3791858970509
 30
0.0
 11
72.23616565233522
 21
184.379185897051
 31
0.0
  0
LINE
  5
D02
330
2
100
AcDbEntity
  8
0
100
AcDbLine
 10
126.2197847183319
 20
172.2227072661107
 30
0.0
 11
137.4718124137107
 21
168.2515983848827
 31
0.0
  0
LINE
  5
D03
330
2
100
AcDbEntity
  8
0
100
AcDbLine
 10
125.5541735487877
 20
170.3367163406349
 30
0.0
 11
136.806201244166
 21
166.3656074594069
 31
0.0
  0
LINE
  5
D04
330
2
100
AcDbEntity
  8
0
100
AcDbLine
 10
127.5510070574218
 20
175.9946891170623
 30
0.0
 11
138.8030347528006
 21
172.0235802358343
 31
0.0
  0
LINE
  5
D05
330
2
100
AcDbEntity
  8
0
100
AcDbLine
 10
126.8853958878776
 20
174.1086981915865
 30
0.0
 11
138.1374235832558
 21
170.1375893103585
 31
0.0
  0
LINE
  5
D06
330
2
100
AcDbEntity
  8
0
100
AcDbLine
 10
111.8095733644958
 20
179.3791858970511
 30
0.0
 11
150.2296956916357
 21
179.3791858970511
 31
0.0
  0
LINE
  5
D07
330
2
100
AcDbEntity
  8
0
100
AcDbLine
 10
111.8095933644957
 20
185.379185897051
 30
0.0
 11
150.2302190950335
 21
185.379185897051
 31
0.0
  0
ARC
  5
D08
330
2
100
AcDbEntity
  8
0
100
AcDbCircle
 10
111.8095945776807
 20
167.616956619533
 30
0.0
 40
11.00005121320405
100
AcDbArc
 50
90.0002430827012
 51
179.9998428472075
  0
ARC
  5
D09
330
2
100
AcDbEntity
  8
0
100
AcDbCircle
 10
112.2419501578896
 20
132.6168978311189
 30
0.0
 40
46.0
100
AcDbArc
 50
70.56084818740743
 51
90.0
  0
ARC
  5
D0A
330
2
100
AcDbEntity
  8
0
100
AcDbCircle
 10
111.8095933644957
 20
174.3791858970511
 30
0.0
 40
11.0
100
AcDbArc
 50
90.0
 51
180.0
  0
ARC
  5
D0B
330
2
100
AcDbEntity
  8
0
100
AcDbCircle
 10
111.8095733644958
 20
174.3791858970511
 30
0.0
 40
5.0
100
AcDbArc
 50
90.0
 51
131.9745634210959
  0
ARC
  5
D0C
330
2
100
AcDbEntity
  8
0
100
AcDbCircle
 10
111.8095945776807
 20
167.616956619533
 30
0.0
 40
9.000051213204052
100
AcDbArc
 50
90.0002430827012
 51
177.3934051283438
  0
ARC
  5
D0D
330
2
100
AcDbEntity
  8
0
100
AcDbCircle
 10
111.8095945776807
 20
167.616956619533
 30
0.0
 40
7.000051213204053
100
AcDbArc
 50
90.0002430827012
 51
179.9998428472075
  0
ARC
  5
D0E
330
2
100
AcDbEntity
  8
0
100
AcDbCircle
 10
111.8095945776807
 20
167.616956619533
 30
0.0
 40
5.000051213204053
100
AcDbArc
 50
90.0002430827012
 51
179.9998428472075
  0
LINE
  5
D0F
330
2
100
AcDbEntity
  8
HOJO
100
AcDbLine
 10
102.6808653644958
 20
166.0923197376727
 30
0.0
 11
104.9384643644958
 21
165.1417117376726
 31
0.0
  0
ARC
  5
D10
330
2
100
AcDbEntity
  8
HOJO
100
AcDbCircle
 10
102.0595733644958
 20
164.6170077376726
 30
0.0
 40
1.600781999999999
100
AcDbArc
 50
67.16467299999876
 51
141.3418685641826
  0
ARC
  5
D11
330
2
100
AcDbEntity
  8
HOJO
100
AcDbCircle
 10
105.5595733644957
 20
166.6170077376726
 30
0.0
 40
1.600781
100
AcDbArc
 50
247.1647030000001
 51
321.3401944016193
  0
ARC
  5
D12
330
2
100
AcDbEntity
  8
HOJO
100
AcDbCircle
 10
102.0595733644958
 20
166.6170077376726
 30
0.0
 40
1.600781999999999
100
AcDbArc
 50
67.16467299999876
 51
141.3418685642105
  0
LINE
  5
D13
330
2
100
AcDbEntity
  8
0
100
AcDbLine
 10
100.8095433644956
 20
174.3791858970511
 30
0.0
 11
100.8095433644956
 21
167.6169717423367
 31
0.0
  0
LINE
  5
D14
330
2
100
AcDbEntity
  8
0
100
AcDbLine
 10
100.8095433644956
 20
167.616956619533
 30
0.0
 11
100.8095433644956
 21
167.616956619533
 31
0.0
  0
ARC
  5
D15
330
2
100
AcDbEntity
  8
HOJO
100
AcDbCircle
 10
105.5595733644957
 20
168.6170077376726
 30
0.0
 40
1.600781
100
AcDbArc
 50
247.1647030000001
 51
321.3384755602879
  0
LINE
  5
D16
330
2
100
AcDbEntity
  8
0
100
AcDbLine
 10
104.8095433644956
 20
167.616956619533
 30
0.0
 11
104.8095433644956
 21
167.1959965482029
 31
0.0
  0
LINE
  5
D17
330
2
100
AcDbEntity
  8
HOJO
100
AcDbLine
 10
102.6808653644958
 20
168.0923197376726
 30
0.0
 11
104.9384643644958
 21
167.1417117376726
 31
0.0
  0
ARC
  5
D18
330
2
100
AcDbEntity
  8
0
100
AcDbCircle
 10
112.2419501578896
 20
132.6168978311189
 30
0.0
 40
44.0
100
AcDbArc
 50
70.56084818740743
 51
90.0
  0
ARC
  5
D19
330
2
100
AcDbEntity
  8
0
100
AcDbCircle
 10
112.2419501578896
 20
132.6168978311189
 30
0.0
 40
40.0
100
AcDbArc
 50
70.56084818740743
 51
90.0
  0
ARC
  5
D1A
330
2
100
AcDbEntity
  8
0
100
AcDbCircle
 10
112.2419501578896
 20
132.6168978311189
 30
0.0
 40
42.0
100
AcDbArc
 50
70.56084818740743
 51
90.0
  0
LINE
  5
D1B
330
2
100
AcDbEntity
  8
0
100
AcDbLine
 10
111.8094073298508
 20
174.6168978311189
 30
0.0
 11
112.2419501578896
 21
174.6168978311189
 31
0.0
  0
LINE
  5
D1C
330
2
100
AcDbEntity
  8
0
100
AcDbLine
 10
111.8094073298508
 20
176.6168978311189
 30
0.0
 11
112.2419501578896
 21
176.6168978311189
 31
0.0
  0
LINE
  5
D1D
330
2
100
AcDbEntity
  8
0
100
AcDbLine
 10
111.8094073298508
 20
178.6168978311189
 30
0.0
 11
112.2419501578896
 21
178.6168978311189
 31
0.0
  0
LINE
  5
D1E
330
2
100
AcDbEntity
  8
0
100
AcDbLine
 10
111.8094073298508
 20
172.6168978311189
 30
0.0
 11
112.2419501578896
 21
172.6168978311189
 31
0.0
  0
LINE
  5
D1F
330
2
100
AcDbEntity
  8
0
100
AcDbLine
 10
159.9904889181521
 20
178.1824895762677
 30
0.0
 11
159.9904889181521
 21
186.5745613443692
 31
0.0
  0
LINE
  5
D20
330
2
100
AcDbEntity
  8
0
100
AcDbLine
 10
157.2009838302842
 20
178.1954475499962
 30
0.0
 11
153.1338981582571
 21
179.129185897051
 31
0.0
  0
ARC
  5
D21
330
2
100
AcDbEntity
  8
0
100
AcDbCircle
 10
152.1152581436986
 20
209.7433987453501
 30
0.0
 40
42.0
100
AcDbArc
 50
250.5608481874074
 51
270.0
  0
ARC
  5
D22
330
2
100
AcDbEntity
  8
0
100
AcDbCircle
 10
152.1152581436986
 20
209.7433987453501
 30
0.0
 40
44.0
100
AcDbArc
 50
250.5608481874074
 51
270.0
  0
ARC
  5
D23
330
2
100
AcDbEntity
  8
0
100
AcDbCircle
 10
152.1152581436986
 20
209.7433987453501
 30
0.0
 40
46.0
100
AcDbArc
 50
250.5608481874074
 51
270.0
  0
ARC
  5
D24
330
2
100
AcDbEntity
  8
0
100
AcDbCircle
 10
152.1152581436986
 20
209.7433987453501
 30
0.0
 40
40.0
100
AcDbArc
 50
250.5608481874074
 51
270.0
  0
LINE
  5
D25
330
2
100
AcDbEntity
  8
0
100
AcDbLine
 10
152.5059025809482
 20
163.7433987453501
 30
0.0
 11
152.115258143689
 21
163.7433987453501
 31
0.0
  0
LINE
  5
D26
330
2
100
AcDbEntity
  8
0
100
AcDbLine
 10
152.5059025809482
 20
169.7433987453501
 30
0.0
 11
152.1152581436986
 21
169.7433987453501
 31
0.0
  0
LINE
  5
D27
330
2
100
AcDbEntity
  8
0
100
AcDbLine
 10
157.6221769731573
 20
178.3617361523856
 30
0.0
 11
159.7557592826187
 21
177.9855280256652
 31
0.0
  0
ARC
  5
D28
330
2
100
AcDbEntity
  8
0
100
AcDbCircle
 10
157.2904889181522
 20
178.5853050101605
 30
0.0
 40
0.4
100
AcDbArc
 50
257.0698677002801
 51
326.0187104207608
  0
ARC
  5
D29
330
2
100
AcDbEntity
  8
0
100
AcDbCircle
 10
159.7904889181522
 20
178.1824895762677
 30
0.0
 40
0.2
100
AcDbArc
 50
260.0000000000013
 51
0.0
  0
LINE
  5
D2A
330
2
100
AcDbEntity
  8
0
100
AcDbLine
 10
158.2044142794848
 20
186.7409545511553
 30
0.0
 11
153.1589178955323
 21
185.629185897051
 31
0.0
  0
LINE
  5
D2B
330
2
100
AcDbEntity
  8
0
100
AcDbLine
 10
150.2238682623437
 20
179.3291858970511
 30
0.0
 11
150.2238682623442
 21
185.4291858970511
 31
0.0
  0
LINE
  5
D2C
330
2
100
AcDbEntity
  8
0
100
AcDbLine
 10
150.423868262344
 20
179.129185897051
 30
0.0
 11
153.1338981582571
 21
179.129185897051
 31
0.0
  0
ARC
  5
D2D
330
2
100
AcDbEntity
  8
0
100
AcDbCircle
 10
150.423868262344
 20
179.3291858970511
 30
0.0
 40
0.2
100
AcDbArc
 50
180.0
 51
270.0
  0
LINE
  5
D2E
330
2
100
AcDbEntity
  8
0
100
AcDbLine
 10
150.423868262344
 20
185.6291858970511
 30
0.0
 11
153.1589178955323
 21
185.629185897051
 31
0.0
  0
ARC
  5
D2F
330
2
100
AcDbEntity
  8
0
100
AcDbCircle
 10
150.423868262344
 20
185.4291858970511
 30
0.0
 40
0.2
100
AcDbArc
 50
90.0
 51
180.0
  0
LINE
  5
D30
330
2
100
AcDbEntity
  8
0
100
AcDbLine
 10
158.6235260232369
 20
186.5718796228871
 30
0.0
 11
159.7557592826187
 21
186.7715228949717
 31
0.0
  0
ARC
  5
D31
330
2
100
AcDbEntity
  8
0
100
AcDbCircle
 10
158.2904889181522
 20
186.3503253707573
 30
0.0
 40
0.4
100
AcDbArc
 50
33.63399402201179
 51
102.4264747477321
  0
ARC
  5
D32
330
2
100
AcDbEntity
  8
0
100
AcDbCircle
 10
159.7904889181522
 20
186.5745613443692
 30
0.0
 40
0.2
100
AcDbArc
 50
0.0
 51
99.99999999999861
  0
LINE
  5
D33
330
2
100
AcDbEntity
  8
0
100
AcDbLine
 10
185.3687559065033
 20
178.6285254603183
 30
0.0
 11
185.3687559065033
 21
178.9785254603184
 31
0.0
  0
LINE
  5
D34
330
2
100
AcDbEntity
  8
0
100
AcDbLine
 10
180.3687559065033
 20
178.6285254603183
 30
0.0
 11
180.3687559065033
 21
178.7785254603183
 31
0.0
  0
LINE
  5
D35
330
2
100
AcDbEntity
  8
0
100
AcDbLine
 10
175.8687559065033
 20
188.6285254603184
 30
0.0
 11
175.8687559065033
 21
176.1285254603183
 31
0.0
  0
LINE
  5
D36
330
2
100
AcDbEntity
  8
0
100
AcDbLine
 10
177.8687559065033
 20
188.6285254603184
 30
0.0
 11
177.8687559065033
 21
176.1285254603183
 31
0.0
  0
LINE
  5
D37
330
2
100
AcDbEntity
  8
0
100
AcDbLine
 10
187.3687559065033
 20
188.6285254603184
 30
0.0
 11
187.3687559065033
 21
176.1285254603183
 31
0.0
  0
LINE
  5
D38
330
2
100
AcDbEntity
  8
0
100
AcDbLine
 10
187.3687559065033
 20
176.1285254603183
 30
0.0
 11
175.8687559065033
 21
176.1285254603183
 31
0.0
  0
LINE
  5
D39
330
2
100
AcDbEntity
  8
0
100
AcDbLine
 10
183.7687559065034
 20
176.3785254603183
 30
0.0
 11
180.4687559065032
 21
176.3785254603183
 31
0.0
  0
LINE
  5
D3A
330
2
100
AcDbEntity
  8
0
100
AcDbLine
 10
183.7687559065034
 20
178.3785254603183
 30
0.0
 11
180.4687559065032
 21
178.3785254603183
 31
0.0
  0
LINE
  5
D3B
330
2
100
AcDbEntity
  8
0
100
AcDbLine
 10
175.8687559065033
 20
176.7785254603184
 30
0.0
 11
169.5025383548495
 21
176.7785254603183
 31
0.0
  0
LINE
  5
D3C
330
2
100
AcDbEntity
  8
0
100
AcDbLine
 10
175.8687559065033
 20
177.9785254603184
 30
0.0
 11
169.6075247510812
 21
177.9785254603183
 31
0.0
  0
ARC
  5
D3D
330
2
100
AcDbEntity
  8
0
100
AcDbCircle
 10
169.6075247510812
 20
197.9785254603183
 30
0.0
 40
20.0
100
AcDbArc
 50
260.0000000000013
 51
270.0
  0
ARC
  5
D3E
330
2
100
AcDbEntity
  8
0
100
AcDbCircle
 10
169.5025383548495
 20
196.7785254603185
 30
0.0
 40
20.0
100
AcDbArc
 50
260.0000000000013
 51
270.0
  0
LINE
  5
D3F
330
2
100
AcDbEntity
  8
0
100
AcDbLine
 10
180.3687559065033
 20
178.6285254603183
 30
0.0
 11
180.3687559065033
 21
178.4785254603183
 31
0.0
  0
ARC
  5
D40
330
2
100
AcDbEntity
  8
0
100
AcDbCircle
 10
180.4687559065032
 20
178.4785254603183
 30
0.0
 40
0.1
100
AcDbArc
 50
180.0
 51
270.0
  0
LINE
  5
D41
330
2
100
AcDbEntity
  8
0
100
AcDbLine
 10
180.3687559065033
 20
176.2785254603183
 30
0.0
 11
180.3687559065033
 21
176.1285254603183
 31
0.0
  0
ARC
  5
D42
330
2
100
AcDbEntity
  8
0
100
AcDbCircle
 10
180.4687559065032
 20
176.2785254603183
 30
0.0
 40
0.1
100
AcDbArc
 50
90.0
 51
180.0
  0
LINE
  5
D43
330
2
100
AcDbEntity
  8
0
100
AcDbLine
 10
182.0059025809482
 20
165.7433987453501
 30
0.0
 11
182.0059025809482
 21
167.7433987453501
 31
0.0
  0
LINE
  5
D44
330
2
100
AcDbEntity
  8
0
100
AcDbLine
 10
186.9007663879378
 20
161.0353840299833
 30
0.0
 11
181.919792897479
 21
161.4711627437216
 31
0.0
  0
LINE
  5
D45
330
2
100
AcDbEntity
  8
0
100
AcDbLine
 10
186.9312708978996
 20
161.3840521743155
 30
0.0
 11
181.9502974074407
 21
161.8198308880537
 31
0.0
  0
LINE
  5
D46
330
2
100
AcDbEntity
  8
0
100
AcDbLine
 10
186.9617754078608
 20
161.7327203186476
 30
0.0
 11
181.9808019174024
 21
162.1684990323859
 31
0.0
  0
LINE
  5
D47
330
2
100
AcDbEntity
  8
0
100
AcDbLine
 10
186.9922799178225
 20
162.0813884629797
 30
0.0
 11
182.0113064273641
 21
162.5171671767179
 31
0.0
  0
LINE
  5
D48
330
2
100
AcDbEntity
  8
0
100
AcDbLine
 10
187.0396662746206
 20
162.4285796370942
 30
0.0
 11
182.0418109373258
 21
162.8658353210501
 31
0.0
  0
LINE
  5
D49
330
2
100
AcDbEntity
  8
0
100
AcDbLine
 10
181.8869175893933
 20
161.1728930092261
 30
0.0
 11
182.0612290748886
 21
163.1652824054095
 31
0.0
  0
LINE
  5
D4A
330
2
100
AcDbEntity
  8
0
100
AcDbLine
 10
181.8936461746547
 20
172.314493156406
 30
0.0
 11
182.0679576601501
 21
170.3221037602226
 31
0.0
  0
LINE
  5
D4B
330
2
100
AcDbEntity
  8
0
100
AcDbLine
 10
186.9007663879378
 20
172.4514134607168
 30
0.0
 11
181.919792897479
 21
172.0156347469784
 31
0.0
  0
LINE
  5
D4C
330
2
100
AcDbEntity
  8
0
100
AcDbLine
 10
187.0059025809482
 20
166.7433987453501
 30
0.0
 11
182.0059025809482
 21
166.7433987453501
 31
0.0
  0
LINE
  5
D4D
330
2
100
AcDbEntity
  8
0
100
AcDbLine
 10
187.0059025809482
 20
167.09339874535
 30
0.0
 11
182.0059025809482
 21
167.09339874535
 31
0.0
  0
LINE
  5
D4E
330
2
100
AcDbEntity
  8
0
100
AcDbLine
 10
187.0059025809482
 20
167.44339874535
 30
0.0
 11
182.0059025809482
 21
167.44339874535
 31
0.0
  0
LINE
  5
D4F
330
2
100
AcDbEntity
  8
0
100
AcDbLine
 10
187.0059025809482
 20
166.3933987453501
 30
0.0
 11
182.0059025809482
 21
166.3933987453501
 31
0.0
  0
LINE
  5
D50
330
2
100
AcDbEntity
  8
0
100
AcDbLine
 10
187.0059025809482
 20
166.0433987453501
 30
0.0
 11
182.0059025809482
 21
166.0433987453501
 31
0.0
  0
LINE
  5
D51
330
2
100
AcDbEntity
  8
0
100
AcDbLine
 10
186.9922799178225
 20
171.4054090277203
 30
0.0
 11
182.0113064273641
 21
170.9696303139821
 31
0.0
  0
LINE
  5
D52
330
2
100
AcDbEntity
  8
0
100
AcDbLine
 10
187.0396662746206
 20
171.0582178536059
 30
0.0
 11
182.0418109373258
 21
170.62096216965
 31
0.0
  0
LINE
  5
D53
330
2
100
AcDbEntity
  8
0
100
AcDbLine
 10
186.9617754078608
 20
171.7540771720525
 30
0.0
 11
181.9808019174024
 21
171.3182984583142
 31
0.0
  0
LINE
  5
D54
330
2
100
AcDbEntity
  8
0
100
AcDbLine
 10
186.9312708978996
 20
172.1027453163846
 30
0.0
 11
181.9502974074407
 21
171.6669666026463
 31
0.0
  0
LINE
  5
D55
330
2
100
AcDbEntity
  8
0
100
AcDbLine
 10
186.2687559065034
 20
178.1785254603184
 30
0.0
 11
185.4687559065032
 21
178.1785254603184
 31
0.0
  0
LINE
  5
D56
330
2
100
AcDbEntity
  8
0
100
AcDbLine
 10
186.2687559065034
 20
176.5785254603184
 30
0.0
 11
185.4687559065032
 21
176.5785254603184
 31
0.0
  0
LINE
  5
D57
330
2
100
AcDbEntity
  8
0
100
AcDbLine
 10
183.8687559065033
 20
178.2785254603183
 30
0.0
 11
183.8687559065033
 21
176.4785254603183
 31
0.0
  0
ARC
  5
D58
330
2
100
AcDbEntity
  8
0
100
AcDbCircle
 10
183.7687559065034
 20
178.2785254603183
 30
0.0
 40
0.1
100
AcDbArc
 50
0.0
 51
90.0
  0
LINE
  5
D59
330
2
100
AcDbEntity
  8
0
100
AcDbLine
 10
185.3687559065033
 20
178.6285254603183
 30
0.0
 11
185.3687559065033
 21
178.2785254603183
 31
0.0
  0
ARC
  5
D5A
330
2
100
AcDbEntity
  8
0
100
AcDbCircle
 10
185.4687559065032
 20
178.2785254603183
 30
0.0
 40
0.1
100
AcDbArc
 50
180.0
 51
270.0
  0
ARC
  5
D5B
330
2
100
AcDbEntity
  8
0
100
AcDbCircle
 10
183.7687559065034
 20
176.4785254603183
 30
0.0
 40
0.1
100
AcDbArc
 50
270.0
 51
0.0
  0
ARC
  5
D5C
330
2
100
AcDbEntity
  8
0
100
AcDbCircle
 10
185.4687559065032
 20
176.4785254603183
 30
0.0
 40
0.1
100
AcDbArc
 50
90.0
 51
180.0
  0
LINE
  5
D5D
330
2
100
AcDbEntity
  8
0
100
AcDbLine
 10
185.3687559065033
 20
176.1285254603183
 30
0.0
 11
185.3687559065033
 21
176.4785254603183
 31
0.0
  0
LINE
  5
D5E
330
2
100
AcDbEntity
  8
0
100
AcDbLine
 10
186.3687559065033
 20
178.0785254603184
 30
0.0
 11
186.3687559065033
 21
176.6785254603184
 31
0.0
  0
ARC
  5
D5F
330
2
100
AcDbEntity
  8
0
100
AcDbCircle
 10
186.2687559065034
 20
178.0785254603184
 30
0.0
 40
0.1
100
AcDbArc
 50
0.0
 51
90.0
  0
ARC
  5
D60
330
2
100
AcDbEntity
  8
0
100
AcDbCircle
 10
186.2687559065034
 20
176.6785254603184
 30
0.0
 40
0.1
100
AcDbArc
 50
270.0
 51
0.0
  0
LINE
  5
D61
330
2
100
AcDbEntity
  8
0
100
AcDbLine
 10
187.3687559065033
 20
188.6285254603184
 30
0.0
 11
175.8687559065033
 21
188.6285254603184
 31
0.0
  0
LINE
  5
D62
330
2
100
AcDbEntity
  8
0
100
AcDbLine
 10
183.7687559065034
 20
188.3785254603184
 30
0.0
 11
180.4687559065032
 21
188.3785254603184
 31
0.0
  0
LINE
  5
D63
330
2
100
AcDbEntity
  8
0
100
AcDbLine
 10
183.7687559065034
 20
185.8785254603183
 30
0.0
 11
180.4687559065032
 21
185.8785254603183
 31
0.0
  0
LINE
  5
D64
330
2
100
AcDbEntity
  8
0
100
AcDbLine
 10
183.7687559065034
 20
186.3785254603183
 30
0.0
 11
180.4687559065032
 21
186.3785254603183
 31
0.0
  0
LINE
  5
D65
330
2
100
AcDbEntity
  8
0
100
AcDbLine
 10
183.7687559065034
 20
183.3785254603183
 30
0.0
 11
180.4687559065032
 21
183.3785254603183
 31
0.0
  0
LINE
  5
D66
330
2
100
AcDbEntity
  8
0
100
AcDbLine
 10
183.7687559065034
 20
178.8785254603183
 30
0.0
 11
180.4687559065032
 21
178.8785254603183
 31
0.0
  0
LINE
  5
D67
330
2
100
AcDbEntity
  8
0
100
AcDbLine
 10
183.7687559065034
 20
180.8785254603183
 30
0.0
 11
180.4687559065032
 21
180.8785254603183
 31
0.0
  0
LINE
  5
D68
330
2
100
AcDbEntity
  8
0
100
AcDbLine
 10
183.7687559065034
 20
181.3785254603183
 30
0.0
 11
180.4687559065032
 21
181.3785254603183
 31
0.0
  0
LINE
  5
D69
330
2
100
AcDbEntity
  8
0
100
AcDbLine
 10
183.7687559065034
 20
183.8785254603183
 30
0.0
 11
180.4687559065032
 21
183.8785254603183
 31
0.0
  0
LINE
  5
D6A
330
2
100
AcDbEntity
  8
0
100
AcDbLine
 10
175.8687559065033
 20
184.2785254603183
 30
0.0
 11
168.0661539507959
 21
184.2785254603183
 31
0.0
  0
LINE
  5
D6B
330
2
100
AcDbEntity
  8
0
100
AcDbLine
 10
175.8687559065033
 20
185.4785254603182
 30
0.0
 11
168.0137608193058
 21
185.4785254603182
 31
0.0
  0
LINE
  5
D6C
330
2
100
AcDbEntity
  8
0
100
AcDbLine
 10
175.8687559065033
 20
186.7785254603183
 30
0.0
 11
169.6075247510798
 21
186.7785254603182
 31
0.0
  0
LINE
  5
D6D
330
2
100
AcDbEntity
  8
0
100
AcDbLine
 10
175.8687559065033
 20
187.9785254603183
 30
0.0
 11
169.502538354849
 21
187.9785254603183
 31
0.0
  0
LINE
  5
D6E
330
2
100
AcDbEntity
  8
0
100
AcDbLine
 10
175.8687559065033
 20
179.2785254603183
 30
0.0
 11
168.013760819309
 21
179.2785254603183
 31
0.0
  0
LINE
  5
D6F
330
2
100
AcDbEntity
  8
0
100
AcDbLine
 10
175.8687559065033
 20
180.4785254603183
 30
0.0
 11
168.0661539508005
 21
180.4785254603182
 31
0.0
  0
ARC
  5
D70
330
2
100
AcDbEntity
  8
0
100
AcDbCircle
 10
168.0661539508
 20
200.4785254603183
 30
0.0
 40
20.0
100
AcDbArc
 50
265.0000000000003
 51
270.0
  0
ARC
  5
D71
330
2
100
AcDbEntity
  8
0
100
AcDbCircle
 10
168.013760819309
 20
199.2785254603182
 30
0.0
 40
20.0
100
AcDbArc
 50
265.0000000000003
 51
270.0
  0
ARC
  5
D72
330
2
100
AcDbEntity
  8
0
100
AcDbCircle
 10
168.0661539507964
 20
164.2785254603183
 30
0.0
 40
20.0
100
AcDbArc
 50
90.0
 51
94.99999999999975
  0
ARC
  5
D73
330
2
100
AcDbEntity
  8
0
100
AcDbCircle
 10
169.502538354849
 20
167.9785254603183
 30
0.0
 40
20.0
100
AcDbArc
 50
90.0
 51
99.99999999999861
  0
ARC
  5
D74
330
2
100
AcDbEntity
  8
0
100
AcDbCircle
 10
169.6075247510802
 20
166.7785254603183
 30
0.0
 40
20.0
100
AcDbArc
 50
90.0
 51
99.99999999999861
  0
ARC
  5
D75
330
2
100
AcDbEntity
  8
0
100
AcDbCircle
 10
168.0137608193063
 20
165.4785254603182
 30
0.0
 40
20.0
100
AcDbArc
 50
90.0
 51
94.99999999999975
  0
ARC
  5
D76
330
2
100
AcDbEntity
  8
0
100
AcDbCircle
 10
180.4687559065032
 20
183.4785254603183
 30
0.0
 40
0.1
100
AcDbArc
 50
180.0
 51
270.0
  0
ARC
  5
D77
330
2
100
AcDbEntity
  8
0
100
AcDbCircle
 10
180.4687559065032
 20
180.9785254603184
 30
0.0
 40
0.1
100
AcDbArc
 50
180.0
 51
270.0
  0
LINE
  5
D78
330
2
100
AcDbEntity
  8
0
100
AcDbLine
 10
180.3687559065033
 20
180.9785254603184
 30
0.0
 11
180.3687559065033
 21
181.2785254603183
 31
0.0
  0
ARC
  5
D79
330
2
100
AcDbEntity
  8
0
100
AcDbCircle
 10
180.4687559065032
 20
181.2785254603183
 30
0.0
 40
0.1
100
AcDbArc
 50
90.0
 51
180.0
  0
ARC
  5
D7A
330
2
100
AcDbEntity
  8
0
100
AcDbCircle
 10
180.4687559065032
 20
178.7785254603183
 30
0.0
 40
0.1
100
AcDbArc
 50
90.0
 51
180.0
  0
ARC
  5
D7B
330
2
100
AcDbEntity
  8
0
100
AcDbCircle
 10
180.4687559065032
 20
183.7785254603183
 30
0.0
 40
0.1
100
AcDbArc
 50
90.0
 51
180.0
  0
LINE
  5
D7C
330
2
100
AcDbEntity
  8
0
100
AcDbLine
 10
180.3687559065033
 20
183.7785254603183
 30
0.0
 11
180.3687559065033
 21
183.4785254603183
 31
0.0
  0
ARC
  5
D7D
330
2
100
AcDbEntity
  8
0
100
AcDbCircle
 10
180.4687559065032
 20
188.4785254603183
 30
0.0
 40
0.1
100
AcDbArc
 50
180.0
 51
270.0
  0
LINE
  5
D7E
330
2
100
AcDbEntity
  8
0
100
AcDbLine
 10
180.3687559065033
 20
188.4785254603183
 30
0.0
 11
180.3687559065033
 21
188.6285254603184
 31
0.0
  0
LINE
  5
D7F
330
2
100
AcDbEntity
  8
0
100
AcDbLine
 10
180.3687559065033
 20
186.1285254603183
 30
0.0
 11
180.3687559065033
 21
185.9785254603183
 31
0.0
  0
ARC
  5
D80
330
2
100
AcDbEntity
  8
0
100
AcDbCircle
 10
180.4687559065032
 20
186.2785254603183
 30
0.0
 40
0.1
100
AcDbArc
 50
90.0
 51
180.0
  0
LINE
  5
D81
330
2
100
AcDbEntity
  8
0
100
AcDbLine
 10
180.3687559065033
 20
186.1285254603183
 30
0.0
 11
180.3687559065033
 21
186.2785254603183
 31
0.0
  0
ARC
  5
D82
330
2
100
AcDbEntity
  8
0
100
AcDbCircle
 10
180.4687559065032
 20
185.9785254603183
 30
0.0
 40
0.1
100
AcDbArc
 50
180.0
 51
270.0
  0
LINE
  5
D83
330
2
100
AcDbEntity
  8
0
100
AcDbLine
 10
186.3687559065033
 20
185.5785254603184
 30
0.0
 11
186.3687559065033
 21
184.1785254603184
 31
0.0
  0
LINE
  5
D84
330
2
100
AcDbEntity
  8
0
100
AcDbLine
 10
183.8687559065033
 20
185.7785254603183
 30
0.0
 11
183.8687559065033
 21
183.9785254603183
 31
0.0
  0
LINE
  5
D85
330
2
100
AcDbEntity
  8
0
100
AcDbLine
 10
186.2687559065034
 20
183.1785254603184
 30
0.0
 11
185.4687559065032
 21
183.1785254603184
 31
0.0
  0
LINE
  5
D86
330
2
100
AcDbEntity
  8
0
100
AcDbLine
 10
186.2687559065034
 20
181.5785254603184
 30
0.0
 11
185.4687559065032
 21
181.5785254603184
 31
0.0
  0
LINE
  5
D87
330
2
100
AcDbEntity
  8
0
100
AcDbLine
 10
186.2687559065034
 20
180.6785254603184
 30
0.0
 11
185.4687559065032
 21
180.6785254603184
 31
0.0
  0
LINE
  5
D88
330
2
100
AcDbEntity
  8
0
100
AcDbLine
 10
186.2687559065034
 20
179.0785254603184
 30
0.0
 11
185.4687559065032
 21
179.0785254603184
 31
0.0
  0
LINE
  5
D89
330
2
100
AcDbEntity
  8
0
100
AcDbLine
 10
186.2687559065034
 20
184.0785254603184
 30
0.0
 11
185.4687559065032
 21
184.0785254603184
 31
0.0
  0
LINE
  5
D8A
330
2
100
AcDbEntity
  8
0
100
AcDbLine
 10
185.3687559065033
 20
183.6285254603183
 30
0.0
 11
185.3687559065033
 21
183.2785254603183
 31
0.0
  0
LINE
  5
D8B
330
2
100
AcDbEntity
  8
0
100
AcDbLine
 10
183.8687559065033
 20
181.4785254603183
 30
0.0
 11
183.8687559065033
 21
182.3785254603183
 31
0.0
  0
LINE
  5
D8C
330
2
100
AcDbEntity
  8
0
100
AcDbLine
 10
183.8687559065033
 20
183.2785254603183
 30
0.0
 11
183.8687559065033
 21
182.3785254603183
 31
0.0
  0
ARC
  5
D8D
330
2
100
AcDbEntity
  8
0
100
AcDbCircle
 10
183.7687559065034
 20
183.2785254603183
 30
0.0
 40
0.1
100
AcDbArc
 50
0.0
 51
90.0
  0
ARC
  5
D8E
330
2
100
AcDbEntity
  8
0
100
AcDbCircle
 10
185.4687559065032
 20
183.2785254603183
 30
0.0
 40
0.1
100
AcDbArc
 50
180.0
 51
270.0
  0
ARC
  5
D8F
330
2
100
AcDbEntity
  8
0
100
AcDbCircle
 10
183.7687559065034
 20
180.7785254603183
 30
0.0
 40
0.1
100
AcDbArc
 50
0.0
 51
90.0
  0
ARC
  5
D90
330
2
100
AcDbEntity
  8
0
100
AcDbCircle
 10
183.7687559065034
 20
181.4785254603183
 30
0.0
 40
0.1
100
AcDbArc
 50
270.0
 51
0.0
  0
LINE
  5
D91
330
2
100
AcDbEntity
  8
0
100
AcDbLine
 10
185.3687559065033
 20
181.1285254603183
 30
0.0
 11
185.3687559065033
 21
181.4785254603183
 31
0.0
  0
ARC
  5
D92
330
2
100
AcDbEntity
  8
0
100
AcDbCircle
 10
185.4687559065032
 20
181.4785254603183
 30
0.0
 40
0.1
100
AcDbArc
 50
90.0
 51
180.0
  0
LINE
  5
D93
330
2
100
AcDbEntity
  8
0
100
AcDbLine
 10
185.3687559065033
 20
181.1285254603183
 30
0.0
 11
185.3687559065033
 21
180.7785254603183
 31
0.0
  0
ARC
  5
D94
330
2
100
AcDbEntity
  8
0
100
AcDbCircle
 10
185.4687559065032
 20
180.7785254603183
 30
0.0
 40
0.1
100
AcDbArc
 50
180.0
 51
270.0
  0
ARC
  5
D95
330
2
100
AcDbEntity
  8
0
100
AcDbCircle
 10
183.7687559065034
 20
178.9785254603184
 30
0.0
 40
0.1
100
AcDbArc
 50
270.0
 51
0.0
  0
ARC
  5
D96
330
2
100
AcDbEntity
  8
0
100
AcDbCircle
 10
185.4687559065032
 20
178.9785254603184
 30
0.0
 40
0.1
100
AcDbArc
 50
90.0
 51
180.0
  0
LINE
  5
D97
330
2
100
AcDbEntity
  8
0
100
AcDbLine
 10
183.8687559065033
 20
178.9785254603184
 30
0.0
 11
183.8687559065033
 21
180.7785254603183
 31
0.0
  0
ARC
  5
D98
330
2
100
AcDbEntity
  8
0
100
AcDbCircle
 10
183.7687559065034
 20
183.9785254603183
 30
0.0
 40
0.1
100
AcDbArc
 50
270.0
 51
0.0
  0
ARC
  5
D99
330
2
100
AcDbEntity
  8
0
100
AcDbCircle
 10
185.4687559065032
 20
183.9785254603183
 30
0.0
 40
0.1
100
AcDbArc
 50
90.0
 51
180.0
  0
LINE
  5
D9A
330
2
100
AcDbEntity
  8
0
100
AcDbLine
 10
185.3687559065033
 20
183.6285254603183
 30
0.0
 11
185.3687559065033
 21
183.9785254603183
 31
0.0
  0
LINE
  5
D9B
330
2
100
AcDbEntity
  8
0
100
AcDbLine
 10
186.3687559065033
 20
182.3785254603183
 30
0.0
 11
186.3687559065033
 21
181.6785254603183
 31
0.0
  0
LINE
  5
D9C
330
2
100
AcDbEntity
  8
0
100
AcDbLine
 10
186.3687559065033
 20
182.3785254603183
 30
0.0
 11
186.3687559065033
 21
183.0785254603184
 31
0.0
  0
ARC
  5
D9D
330
2
100
AcDbEntity
  8
0
100
AcDbCircle
 10
186.2687559065034
 20
183.0785254603184
 30
0.0
 40
0.1
100
AcDbArc
 50
0.0
 51
90.0
  0
ARC
  5
D9E
330
2
100
AcDbEntity
  8
0
100
AcDbCircle
 10
186.2687559065034
 20
180.5785254603184
 30
0.0
 40
0.1
100
AcDbArc
 50
0.0
 51
90.0
  0
ARC
  5
D9F
330
2
100
AcDbEntity
  8
0
100
AcDbCircle
 10
186.2687559065034
 20
181.6785254603183
 30
0.0
 40
0.1
100
AcDbArc
 50
270.0
 51
0.0
  0
ARC
  5
DA0
330
2
100
AcDbEntity
  8
0
100
AcDbCircle
 10
186.2687559065034
 20
179.1785254603183
 30
0.0
 40
0.1
100
AcDbArc
 50
270.0
 51
0.0
  0
LINE
  5
DA1
330
2
100
AcDbEntity
  8
0
100
AcDbLine
 10
186.3687559065033
 20
179.1785254603183
 30
0.0
 11
186.3687559065033
 21
180.5785254603184
 31
0.0
  0
ARC
  5
DA2
330
2
100
AcDbEntity
  8
0
100
AcDbCircle
 10
186.2687559065034
 20
184.1785254603184
 30
0.0
 40
0.1
100
AcDbArc
 50
270.0
 51
0.0
  0
LINE
  5
DA3
330
2
100
AcDbEntity
  8
0
100
AcDbLine
 10
186.2687559065034
 20
188.1785254603183
 30
0.0
 11
185.4687559065032
 21
188.1785254603183
 31
0.0
  0
LINE
  5
DA4
330
2
100
AcDbEntity
  8
0
100
AcDbLine
 10
186.2687559065034
 20
186.5785254603184
 30
0.0
 11
185.4687559065032
 21
186.5785254603184
 31
0.0
  0
LINE
  5
DA5
330
2
100
AcDbEntity
  8
0
100
AcDbLine
 10
186.2687559065034
 20
185.6785254603184
 30
0.0
 11
185.4687559065032
 21
185.6785254603184
 31
0.0
  0
ARC
  5
DA6
330
2
100
AcDbEntity
  8
0
100
AcDbCircle
 10
183.7687559065034
 20
188.2785254603182
 30
0.0
 40
0.1
100
AcDbArc
 50
0.0
 51
90.0
  0
LINE
  5
DA7
330
2
100
AcDbEntity
  8
0
100
AcDbLine
 10
185.3687559065033
 20
188.6285254603184
 30
0.0
 11
185.3687559065033
 21
188.2785254603182
 31
0.0
  0
ARC
  5
DA8
330
2
100
AcDbEntity
  8
0
100
AcDbCircle
 10
185.4687559065032
 20
188.2785254603182
 30
0.0
 40
0.1
100
AcDbArc
 50
180.0
 51
270.0
  0
LINE
  5
DA9
330
2
100
AcDbEntity
  8
0
100
AcDbLine
 10
185.3687559065033
 20
186.1285254603183
 30
0.0
 11
185.3687559065033
 21
185.7785254603183
 31
0.0
  0
ARC
  5
DAA
330
2
100
AcDbEntity
  8
0
100
AcDbCircle
 10
183.7687559065034
 20
186.4785254603184
 30
0.0
 40
0.1
100
AcDbArc
 50
270.0
 51
0.0
  0
ARC
  5
DAB
330
2
100
AcDbEntity
  8
0
100
AcDbCircle
 10
185.4687559065032
 20
186.4785254603184
 30
0.0
 40
0.1
100
AcDbArc
 50
90.0
 51
180.0
  0
LINE
  5
DAC
330
2
100
AcDbEntity
  8
0
100
AcDbLine
 10
185.3687559065033
 20
186.1285254603183
 30
0.0
 11
185.3687559065033
 21
186.4785254603184
 31
0.0
  0
ARC
  5
DAD
330
2
100
AcDbEntity
  8
0
100
AcDbCircle
 10
183.7687559065034
 20
185.7785254603183
 30
0.0
 40
0.1
100
AcDbArc
 50
0.0
 51
90.0
  0
LINE
  5
DAE
330
2
100
AcDbEntity
  8
0
100
AcDbLine
 10
183.8687559065033
 20
186.4785254603184
 30
0.0
 11
183.8687559065033
 21
188.2785254603182
 31
0.0
  0
ARC
  5
DAF
330
2
100
AcDbEntity
  8
0
100
AcDbCircle
 10
185.4687559065032
 20
185.7785254603183
 30
0.0
 40
0.1
100
AcDbArc
 50
180.0
 51
270.0
  0
ARC
  5
DB0
330
2
100
AcDbEntity
  8
0
100
AcDbCircle
 10
186.2687559065034
 20
188.0785254603184
 30
0.0
 40
0.1
100
AcDbArc
 50
0.0
 51
90.0
  0
ARC
  5
DB1
330
2
100
AcDbEntity
  8
0
100
AcDbCircle
 10
186.2687559065034
 20
186.6785254603183
 30
0.0
 40
0.1
100
AcDbArc
 50
270.0
 51
0.0
  0
LINE
  5
DB2
330
2
100
AcDbEntity
  8
0
100
AcDbLine
 10
186.3687559065033
 20
186.6785254603183
 30
0.0
 11
186.3687559065033
 21
188.0785254603184
 31
0.0
  0
ARC
  5
DB3
330
2
100
AcDbEntity
  8
0
100
AcDbCircle
 10
186.2687559065034
 20
185.5785254603184
 30
0.0
 40
0.1
100
AcDbArc
 50
0.0
 51
90.0
  0
LINE
  5
DB5
330
2
100
AcDbEntity
  8
CENTER
100
AcDbLine
 10
93.14702176834897
 20
320.40266238406
 30
0.0
 11
104.9520227683489
 21
320.40266238406
 31
0.0
  0
LINE
  5
DB7
330
2
100
AcDbEntity
  8
CENTER
100
AcDbLine
 10
93.14702176834918
 20
272.4026783840598
 30
0.0
 11
104.9520227683491
 21
272.4026783840598
 31
0.0
  0
LINE
  5
DB8
330
2
100
AcDbEntity
  8
0
100
AcDbLine
 10
98.30984462061577
 20
255.9070318176435
 30
0.0
 11
58.28344416185098
 21
256.2563369225895
 31
0.0
  0
LINE
  5
DB9
330
2
100
AcDbEntity
  8
0
100
AcDbLine
 10
98.30940291610353
 20
336.898304949856
 30
0.0
 11
87.30962376834826
 21
336.802311331506
 31
0.0
  0
LINE
  5
DBA
330
2
100
AcDbEntity
  8
0
100
AcDbLine
 10
55.30962376834839
 20
333.5491179304162
 30
0.0
 11
55.30962376834839
 21
259.2562226917828
 31
0.0
  0
ARC
  5
DBB
330
2
100
AcDbEntity
  8
0
100
AcDbCircle
 10
58.30962376834634
 20
259.256222691782
 30
0.0
 40
3.0
100
AcDbArc
 50
179.9999999999967
 51
269.4999999999954
  0
ARC
  5
DC5
330
2
100
AcDbEntity
  8
0
100
AcDbCircle
 10
58.30962376834839
 20
333.5491179304169
 30
0.0
 40
3.0
100
AcDbArc
 50
90.49999999999805
 51
180.0
  0
POINT
  5
DC6
330
2
100
AcDbEntity
  8
0
100
AcDbPoint
 10
55.30962376834839
 20
330.7026703110999
 30
0.0
  0
LINE
  5
DC7
330
2
100
AcDbEntity
  8
0
100
AcDbLine
 10
98.30962376834884
 20
276.4026783840598
 30
0.0
 11
98.30962376834907
 21
316.40266238406
 31
0.0
  0
SPLINE
  5
DC8
330
2
100
AcDbEntity
  8
HOJO
100
AcDbSpline
210
0.0
220
0.0
230
1.0
 70
     8
 71
     3
 72
    12
 73
     8
 74
     6
 42
0.0000000001
 43
0.0000000001
 44
0.0000000001
 40
0.0
 40
0.0
 40
0.0
 40
0.0
 40
1.684659730310349
 40
2.786160565551575
 40
4.550934817628674
 40
5.718899366607204
 40
6.335570522767257
 40
6.335570522767257
 40
6.335570522767257
 40
6.335570522767257
 10
114.9350032075864
 20
297.9026704297405
 30
0.0
 10
114.6580915993127
 20
298.453630243424
 30
0.0
 10
114.2001236255822
 20
299.3648305757344
 30
0.0
 10
115.0827482435198
 20
300.7018318077568
 30
0.0
 10
115.6448260813671
 20
302.0276512742266
 30
0.0
 10
115.1474165898888
 20
303.1618444828359
 30
0.0
 10
114.9317390603643
 20
303.7124215279639
 30
0.0
 10
114.8572128637255
 20
303.9026704297407
 30
0.0
 11
114.9350032075864
 21
297.9026704297405
 31
0.0
 11
114.4692613237047
 21
299.5216710179206
 31
0.0
 11
114.9309911600711
 21
300.5217258405409
 31
0.0
 11
115.4311987353598
 21
302.214126662574
 31
0.0
 11
115.0849011055269
 21
303.3295723758397
 31
0.0
 11
114.8572128637255
 21
303.9026704297407
 31
0.0
  0
ARC
  5
DC9
330
2
100
AcDbEntity
  8
0
100
AcDbCircle
 10
103.809623768349
 20
300.9026704297407
 30
0.0
 40
3.0
100
AcDbArc
 50
90.0
 51
270.0
  0
LINE
  5
DCA
330
2
100
AcDbEntity
  8
0
100
AcDbLine
 10
110.309623768349
 20
251.4026703840599
 30
0.0
 11
110.309623768349
 21
289.5026704297406
 31
0.0
  0
LINE
  5
DCB
330
2
100
AcDbEntity
  8
0
100
AcDbLine
 10
99.80962376834908
 20
268.4026783840598
 30
0.0
 11
99.80962376834931
 21
277.4026703840598
 31
0.0
  0
LINE
  5
DCC
330
2
100
AcDbEntity
  8
0
100
AcDbLine
 10
98.30962376834907
 20
252.1666024065601
 30
0.0
 11
98.30962376834907
 21
268.4026783840598
 31
0.0
  0
LINE
  5
DCD
330
2
100
AcDbEntity
  8
0
100
AcDbLine
 10
100.3096237683493
 20
251.4026703840599
 30
0.0
 11
110.309623768349
 21
251.4026703840599
 31
0.0
  0
ARC
  5
DCE
330
2
100
AcDbEntity
  8
0
100
AcDbCircle
 10
100.3096237683493
 20
254.4026703840598
 30
0.0
 40
3.0
100
AcDbArc
 50
228.1896851042157
 51
270.0
  0
LINE
  5
DCF
330
2
100
AcDbEntity
  8
0
100
AcDbLine
 10
100.809623768349
 20
267.4026783840598
 30
0.0
 11
110.309623768349
 21
267.4026783840598
 31
0.0
  0
LINE
  5
DD0
330
2
100
AcDbEntity
  8
0
100
AcDbLine
 10
98.80962376834908
 20
276.4026783840598
 30
0.0
 11
98.80962376834908
 21
268.4026783840598
 31
0.0
  0
ARC
  5
DD1
330
2
100
AcDbEntity
  8
0
100
AcDbCircle
 10
102.2096237683491
 20
272.4026783840598
 30
0.0
 40
6.5
100
AcDbArc
 50
146.9443049999971
 51
213.0556950000028
  0
LINE
  5
DD2
330
2
100
AcDbEntity
  8
0
100
AcDbLine
 10
98.80962376834908
 20
268.4026783840598
 30
0.0
 11
97.59982276834911
 21
268.4026783840598
 31
0.0
  0
ARC
  5
DD3
330
2
100
AcDbEntity
  8
0
100
AcDbCircle
 10
97.59982276834911
 20
269.4026783840598
 30
0.0
 40
1.0
100
AcDbArc
 50
213.0556950000028
 51
270.0
  0
ARC
  5
DD4
330
2
100
AcDbEntity
  8
0
100
AcDbCircle
 10
100.809623768349
 20
268.4026783840598
 30
0.0
 40
1.0
100
AcDbArc
 50
180.0
 51
270.0
  0
LINE
  5
DD5
330
2
100
AcDbEntity
  8
0
100
AcDbLine
 10
99.80962376834908
 20
268.6025683840598
 30
0.0
 11
98.80962376834908
 21
268.6025683840598
 31
0.0
  0
LINE
  5
DD6
330
2
100
AcDbEntity
  8
0
100
AcDbLine
 10
98.80962376834908
 20
276.4026783840598
 30
0.0
 11
97.59982276834911
 21
276.4026783840598
 31
0.0
  0
ARC
  5
DD7
330
2
100
AcDbEntity
  8
0
100
AcDbCircle
 10
97.59982276834911
 20
275.4026783840598
 30
0.0
 40
1.0
100
AcDbArc
 50
90.0
 51
146.9443049999971
  0
LINE
  5
DD8
330
2
100
AcDbEntity
  8
0
100
AcDbLine
 10
98.80962376834908
 20
276.2025663840598
 30
0.0
 11
99.80962376834908
 21
276.2025663840598
 31
0.0
  0
LINE
  5
DD9
330
2
100
AcDbEntity
  8
0
100
AcDbLine
 10
103.809623768349
 20
297.9026704297407
 30
0.0
 11
114.9350032075864
 21
297.9026704297405
 31
0.0
  0
LINE
  5
DDA
330
2
100
AcDbEntity
  8
0
100
AcDbLine
 10
103.8096237683493
 20
289.5026704297406
 30
0.0
 11
114.6325797795424
 21
289.5026704297406
 31
0.0
  0
LINE
  5
DDB
330
2
100
AcDbEntity
  8
0
100
AcDbLine
 10
103.8096237683493
 20
291.5026704297406
 30
0.0
 11
114.5383201860826
 21
291.5026704297406
 31
0.0
  0
LINE
  5
DDC
330
2
100
AcDbEntity
  8
0
100
AcDbLine
 10
102.0096237683493
 20
294.6026704297406
 30
0.0
 11
112.7383201860826
 21
294.6026704297406
 31
0.0
  0
LINE
  5
DDD
330
2
100
AcDbEntity
  8
0
100
AcDbLine
 10
102.0096237683493
 20
292.6026704297406
 30
0.0
 11
112.8325797795424
 21
292.6026704297406
 31
0.0
  0
ARC
  5
DDF
330
2
100
AcDbEntity
  8
0
100
AcDbCircle
 10
103.8096237683493
 20
291.9026704297406
 30
0.0
 40
3.25
100
AcDbArc
 50
176.1778378686729
 51
249.4781325999769
  0
ARC
  5
DE0
330
2
100
AcDbEntity
  8
0
100
AcDbCircle
 10
103.8096237683493
 20
290.5026704297406
 30
0.0
 40
1.0
100
AcDbArc
 50
90.0
 51
270.0
  0
LINE
  5
DE1
330
2
100
AcDbEntity
  8
0
100
AcDbLine
 10
103.8096237683493
 20
285.4026704297407
 30
0.0
 11
99.3096237683493
 21
285.3241226375637
 31
0.0
  0
LINE
  5
DE2
330
2
100
AcDbEntity
  8
0
100
AcDbLine
 10
102.309623768349
 20
285.3764877409867
 30
0.0
 11
102.309623768349
 21
277.402670338379
 31
0.0
  0
LINE
  5
DE3
330
2
100
AcDbEntity
  8
0
100
AcDbLine
 10
102.309623768349
 20
277.4026703840598
 30
0.0
 11
98.30962376834861
 21
277.4026703840598
 31
0.0
  0
LINE
  5
DE4
330
2
100
AcDbEntity
  8
0
100
AcDbLine
 10
102.309623768349
 20
277.402670338379
 30
0.0
 11
99.3096237683493
 21
277.402670338379
 31
0.0
  0
ARC
  5
DE5
330
2
100
AcDbEntity
  8
0
100
AcDbCircle
 10
99.30962376834907
 20
278.402670338379
 30
0.0
 40
1.0
100
AcDbArc
 50
180.0
 51
270.0
  0
LINE
  5
DE6
330
2
100
AcDbEntity
  8
0
100
AcDbLine
 10
103.8096237683493
 20
285.4026704297407
 30
0.0
 11
108.344523265052
 21
285.5610326097332
 31
0.0
  0
LINE
  5
DE7
330
2
100
AcDbEntity
  8
0
100
AcDbLine
 10
103.8096237683493
 20
288.5026704297406
 30
0.0
 11
103.8096237683493
 21
285.4026704297407
 31
0.0
  0
ARC
  5
DE8
330
2
100
AcDbEntity
  8
0
100
AcDbCircle
 10
103.8096237683493
 20
290.5026704297406
 30
0.0
 40
2.0
100
AcDbArc
 50
235.27293129542
 51
304.7270687045799
  0
ARC
  5
DE9
330
2
100
AcDbEntity
  8
0
100
AcDbCircle
 10
103.8096237683493
 20
291.9026704297406
 30
0.0
 40
3.25
100
AcDbArc
 50
290.521867400023
 51
312.3994733644467
  0
ARC
  5
DEA
330
2
100
AcDbEntity
  8
0
100
AcDbCircle
 10
108.3096237683492
 20
286.5604234367523
 30
0.0
 40
1.0
100
AcDbArc
 50
272.0000000000035
 51
0.0
  0
LINE
  5
DEB
330
2
100
AcDbEntity
  8
0
100
AcDbLine
 10
109.3096237683492
 20
289.5026704297405
 30
0.0
 11
109.3096237683492
 21
286.5604234367524
 31
0.0
  0
LINE
  5
DEC
330
2
100
AcDbEntity
  8
0
100
AcDbLine
 10
102.00962376835
 20
295.6026704297406
 30
0.0
 11
105.6096237683481
 21
295.6026704297406
 31
0.0
  0
LINE
  5
DED
330
2
100
AcDbEntity
  8
0
100
AcDbLine
 10
100.1912859128234
 20
292.7698154344611
 30
0.0
 11
100.566852552375
 21
292.1193149331299
 31
0.0
  0
ARC
  5
DEE
330
2
100
AcDbEntity
  8
0
100
AcDbCircle
 10
102.0096237683493
 20
293.6026704297406
 30
0.0
 40
1.0
100
AcDbArc
 50
90.0
 51
270.0
  0
ARC
  5
DEF
330
2
100
AcDbEntity
  8
0
100
AcDbCircle
 10
102.0096237683493
 20
293.6026704297406
 30
0.0
 40
2.0
100
AcDbArc
 50
89.99999999997395
 51
204.6092450239451
  0
LINE
  5
DF0
330
2
100
AcDbEntity
  8
0
100
AcDbLine
 10
110.3096237683492
 20
294.6026704297405
 30
0.0
 11
110.3096237683492
 21
297.9026704297405
 31
0.0
  0
LINE
  5
DF1
330
2
100
AcDbEntity
  8
0
100
AcDbLine
 10
109.3096237683483
 20
297.9026704297406
 30
0.0
 11
109.3096237683492
 21
294.6026704297406
 31
0.0
  0
LINE
  5
DF2
330
2
100
AcDbEntity
  8
0
100
AcDbLine
 10
103.809623768349
 20
297.9026704297407
 30
0.0
 11
103.809623768349
 21
295.6026704297407
 31
0.0
  0
ARC
  5
DF3
330
2
100
AcDbEntity
  8
0
100
AcDbCircle
 10
105.6096237683492
 20
293.6026704297406
 30
0.0
 40
2.0
100
AcDbArc
 50
30.00000000000054
 51
90.00000000002605
  0
LINE
  5
DF4
330
2
100
AcDbEntity
  8
0
100
AcDbLine
 10
110.309623768349
 20
292.6026704297407
 30
0.0
 11
110.309623768349
 21
291.5026704297406
 31
0.0
  0
LINE
  5
DF5
330
2
100
AcDbEntity
  8
0
100
AcDbLine
 10
109.3096237683492
 20
292.6026704297405
 30
0.0
 11
109.3096237683492
 21
291.5026704297406
 31
0.0
  0
LINE
  5
DF6
330
2
100
AcDbEntity
  8
0
100
AcDbLine
 10
107.3314604104058
 20
292.6026704297406
 30
0.0
 11
107.0523949843235
 21
292.1193149331299
 31
0.0
  0
LINE
  5
DF7
330
2
100
AcDbEntity
  8
0
100
AcDbLine
 10
107.3314604104058
 20
292.6026704297406
 30
0.0
 11
107.0523949843235
 21
292.1193149331299
 31
0.0
  0
ARC
  5
DF8
330
2
100
AcDbEntity
  8
0
100
AcDbCircle
 10
103.8096237683493
 20
291.9026704297406
 30
0.0
 40
3.25
100
AcDbArc
 50
352.930285957695
 51
3.822162131327067
  0
SPLINE
  5
DF9
330
2
100
AcDbEntity
  8
HOJO
100
AcDbSpline
210
0.0
220
0.0
230
1.0
 70
     8
 71
     3
 72
    10
 73
     6
 74
     4
 42
0.0000000001
 43
0.0000000001
 44
0.0000000001
 40
0.0
 40
0.0
 40
0.0
 40
0.0
 40
0.6971907634055975
 40
1.694952319108369
 40
2.335350738679098
 40
2.335350738679098
 40
2.335350738679098
 40
2.335350738679098
 10
114.6325797795423
 20
289.5026704297406
 30
0.0
 10
114.7997939216505
 20
289.7236554418643
 30
0.0
 10
115.2063110656379
 20
290.2608958622016
 30
0.0
 10
114.0300019548547
 20
290.7713429078745
 30
0.0
 10
114.395455209414
 20
291.2971277540508
 30
0.0
 10
114.5383201860825
 20
291.5026704297406
 30
0.0
 11
114.6325797795423
 21
289.5026704297406
 31
0.0
 11
114.9209922286716
 21
290.1374091317002
 31
0.0
 11
114.2916743611788
 21
290.9116746828471
 31
0.0
 11
114.5383201860825
 21
291.5026704297406
 31
0.0
  0
SPLINE
  5
DFA
330
2
100
AcDbEntity
  8
HOJO
100
AcDbSpline
210
0.0
220
0.0
230
1.0
 70
     8
 71
     3
 72
    10
 73
     6
 74
     4
 42
0.0000000001
 43
0.0000000001
 44
0.0000000001
 40
0.0
 40
0.0
 40
0.0
 40
0.0
 40
0.697190763405494
 40
1.694952319108353
 40
2.335350738679082
 40
2.335350738679082
 40
2.335350738679082
 40
2.335350738679082
 10
112.8325797795424
 20
292.6026704297406
 30
0.0
 10
112.9997939216506
 20
292.8236554418642
 30
0.0
 10
113.406311065638
 20
293.3608958622015
 30
0.0
 10
112.2300019548547
 20
293.8713429078745
 30
0.0
 10
112.595455209414
 20
294.397127754051
 30
0.0
 10
112.7383201860826
 20
294.6026704297406
 30
0.0
 11
112.8325797795424
 21
292.6026704297406
 31
0.0
 11
113.1209922286716
 21
293.2374091317001
 31
0.0
 11
112.4916743611789
 21
294.0116746828471
 31
0.0
 11
112.7383201860826
 21
294.6026704297406
 31
0.0
  0
LINE
  5
DFB
330
2
100
AcDbEntity
  8
0
100
AcDbLine
 10
98.30962376834907
 20
324.40266238406
 30
0.0
 11
98.30962376834907
 21
340.6387383615596
 31
0.0
  0
LINE
  5
DFC
330
2
100
AcDbEntity
  8
0
100
AcDbLine
 10
110.309623768349
 20
303.9026704297407
 30
0.0
 11
110.309623768349
 21
341.4026703840598
 31
0.0
  0
LINE
  5
DFD
330
2
100
AcDbEntity
  8
0
100
AcDbLine
 10
103.809623768349
 20
303.9026704297407
 30
0.0
 11
114.8572128637255
 21
303.9026704297407
 31
0.0
  0
LINE
  5
DFE
330
2
100
AcDbEntity
  8
0
100
AcDbLine
 10
99.80962376834908
 20
324.40266238406
 30
0.0
 11
99.80962376834908
 21
315.4026703840597
 31
0.0
  0
LINE
  5
DFF
330
2
100
AcDbEntity
  8
0
100
AcDbLine
 10
103.809623768349
 20
307.4026704297407
 30
0.0
 11
99.30962376834907
 21
307.4812182219176
 31
0.0
  0
LINE
  5
E00
330
2
100
AcDbEntity
  8
0
100
AcDbLine
 10
102.309623768349
 20
307.4288529357713
 30
0.0
 11
102.309623768349
 21
315.402670338379
 31
0.0
  0
LINE
  5
E01
330
2
100
AcDbEntity
  8
0
100
AcDbLine
 10
102.309623768349
 20
315.4026703840599
 30
0.0
 11
98.30962376834884
 21
315.4026703840597
 31
0.0
  0
ARC
  5
E02
330
2
100
AcDbEntity
  8
0
100
AcDbCircle
 10
99.30962376834907
 20
314.402670338379
 30
0.0
 40
1.0
100
AcDbArc
 50
90.0
 51
180.0
  0
LINE
  5
E03
330
2
100
AcDbEntity
  8
0
100
AcDbLine
 10
102.309623768349
 20
315.402670338379
 30
0.0
 11
99.30962376834907
 21
315.402670338379
 31
0.0
  0
LINE
  5
E04
330
2
100
AcDbEntity
  8
0
100
AcDbLine
 10
103.8101325132819
 20
307.4026615495648
 30
0.0
 11
108.3445232650516
 21
307.2443171353368
 31
0.0
  0
LINE
  5
E05
330
2
100
AcDbEntity
  8
0
100
AcDbLine
 10
103.809623768349
 20
307.4026704297407
 30
0.0
 11
103.809623768349
 21
303.9026704297407
 31
0.0
  0
LINE
  5
E06
330
2
100
AcDbEntity
  8
0
100
AcDbLine
 10
109.309623768349
 20
306.2449263083176
 30
0.0
 11
109.3096237683495
 21
303.9026704297407
 31
0.0
  0
ARC
  5
E07
330
2
100
AcDbEntity
  8
0
100
AcDbCircle
 10
108.309623768349
 20
306.2449263083176
 30
0.0
 40
1.0
100
AcDbArc
 50
0.0
 51
87.9999999999964
  0
LINE
  5
E08
330
2
100
AcDbEntity
  8
0
100
AcDbLine
 10
100.809623768349
 20
325.40266238406
 30
0.0
 11
110.309623768349
 21
325.40266238406
 31
0.0
  0
ARC
  5
E09
330
2
100
AcDbEntity
  8
0
100
AcDbCircle
 10
102.2096237683489
 20
320.40266238406
 30
0.0
 40
6.5
100
AcDbArc
 50
146.9443049999971
 51
213.0556950000028
  0
LINE
  5
E0A
330
2
100
AcDbEntity
  8
0
100
AcDbLine
 10
98.80962376834908
 20
316.40266238406
 30
0.0
 11
98.80962376834908
 21
324.40266238406
 31
0.0
  0
LINE
  5
E0B
330
2
100
AcDbEntity
  8
0
100
AcDbLine
 10
98.80962376834908
 20
316.40266238406
 30
0.0
 11
97.59982276834888
 21
316.40266238406
 31
0.0
  0
ARC
  5
E0C
330
2
100
AcDbEntity
  8
0
100
AcDbCircle
 10
97.59982276834888
 20
317.40266238406
 30
0.0
 40
1.0
100
AcDbArc
 50
213.0556950000028
 51
270.0
  0
LINE
  5
E0D
330
2
100
AcDbEntity
  8
0
100
AcDbLine
 10
98.80962376834908
 20
316.60277438406
 30
0.0
 11
99.80962376834908
 21
316.60277438406
 31
0.0
  0
LINE
  5
E0E
330
2
100
AcDbEntity
  8
0
100
AcDbLine
 10
98.80962376834908
 20
324.40266238406
 30
0.0
 11
97.59982276834888
 21
324.40266238406
 31
0.0
  0
ARC
  5
E0F
330
2
100
AcDbEntity
  8
0
100
AcDbCircle
 10
97.59982276834888
 20
323.40266238406
 30
0.0
 40
1.0
100
AcDbArc
 50
90.0
 51
146.9443049999971
  0
LINE
  5
E10
330
2
100
AcDbEntity
  8
0
100
AcDbLine
 10
99.80962376834908
 20
324.20277238406
 30
0.0
 11
98.80962376834908
 21
324.20277238406
 31
0.0
  0
ARC
  5
E11
330
2
100
AcDbEntity
  8
0
100
AcDbCircle
 10
100.809623768349
 20
324.40266238406
 30
0.0
 40
1.0
100
AcDbArc
 50
90.0
 51
180.0
  0
LINE
  5
E12
330
2
100
AcDbEntity
  8
0
100
AcDbLine
 10
100.3096237683493
 20
341.4026703840598
 30
0.0
 11
110.309623768349
 21
341.4026703840598
 31
0.0
  0
ARC
  5
E13
330
2
100
AcDbEntity
  8
0
100
AcDbCircle
 10
100.3096237683493
 20
338.4026703840599
 30
0.0
 40
3.0
100
AcDbArc
 50
90.0
 51
131.8103148957842
  0
LINE
  5
1A32
330
2
100
AcDbEntity
  8
0
100
AcDbLine
 10
86.30962376834828
 20
315.5981273690069
 30
0.0
 11
86.30962376834828
 21
342.318981014306
 31
0.0
  0
LINE
  5
1A33
330
2
100
AcDbEntity
  8
0
100
AcDbLine
 10
87.30962376834828
 20
316.598127369007
 30
0.0
 11
87.30962376834828
 21
341.2479102293989
 31
0.0
  0
LINE
  5
1A34
330
2
100
AcDbEntity
  8
0
100
AcDbLine
 10
85.30962376834827
 20
316.598127369007
 30
0.0
 11
85.30962376834827
 21
342.338200265865
 31
0.0
  0
ARC
  5
1B13
330
2
100
AcDbEntity
  8
0
100
AcDbCircle
 10
86.30962376834828
 20
316.598127369007
 30
0.0
 40
1.000000000000056
100
AcDbArc
 50
180.0
 51
0.0
  0
SPLINE
  5
1BDB
330
2
100
AcDbEntity
  8
HOJO
100
AcDbSpline
210
0.0
220
0.0
230
1.0
 70
     8
 71
     3
 72
    10
 73
     6
 74
     0
 42
0.0000000001
 43
0.0000000001
 40
0.0613843116224887
 40
0.0613843116224887
 40
0.0613843116224887
 40
0.0613843116224887
 40
0.4721425064489786
 40
1.037679944361044
 40
1.199019778825058
 40
1.199019778825058
 40
1.199019778825058
 40
1.199019778825058
 10
87.30962376834828
 20
341.2479102293989
 30
0.0
 10
87.19507943935878
 20
341.113405552462
 30
0.0
 10
86.92760380140725
 20
340.837504978186
 30
0.0
 10
86.71764309370633
 20
341.4488924573136
 30
0.0
 10
86.38093111974626
 20
341.3087168422342
 30
0.0
 10
86.309623768351
 20
341.2671294809595
 30
0.0
  0
SPLINE
  5
1BDC
330
2
100
AcDbEntity
  8
HOJO
100
AcDbSpline
210
0.0
220
0.0
230
1.0
 70
     8
 71
     3
 72
    10
 73
     6
 74
     0
 42
0.0000000001
 43
0.0000000001
 40
0.0613843116224887
 40
0.0613843116224887
 40
0.0613843116224887
 40
0.0613843116224887
 40
0.4721425064489786
 40
1.037679944361044
 40
1.199019778825058
 40
1.199019778825058
 40
1.199019778825058
 40
1.199019778825058
 10
86.30962376834828
 20
342.318981014306
 30
0.0
 10
86.19507943935877
 20
342.184476337369
 30
0.0
 10
85.92760380140726
 20
341.9085757630928
 30
0.0
 10
85.71764309370633
 20
342.5199632422207
 30
0.0
 10
85.38093111974626
 20
342.379787627141
 30
0.0
 10
85.309623768351
 20
342.3382002658666
 30
0.0
  0
LINE
  5
1BDF
330
2
100
AcDbEntity
  8
0
100
AcDbLine
 10
85.30962376834827
 20
336.7848575959246
 30
0.0
 11
58.28344416185325
 21
336.5490036996095
 31
0.0
  0
ENDSEC
  0
SECTION
  2
OBJECTS
  0
DICTIONARY
  5
7
330
0
100
AcDbDictionary
  3
ACAD_GROUP
350
75
  3
ACAD_LAYOUT
350
61
  3
ACAD_MLINESTYLE
350
76
  3
ACAD_PLOTSETTINGS
350
77
  3
ACAD_PLOTSTYLENAME
350
6
  3
ACADDIM
350
480
  3
ACDBHEADERROUNDTRIPXREC
350
1C26
  3
ACDBVARIABLEDICTIONARY
350
102
  3
DWGPROPS
350
3D2
  0
DICTIONARY
  5
1C47
330
2
100
AcDbDictionary
280
     1
  3
ACAD_LAYOUTSELFREF
360
1C48
  0
DICTIONARY
  5
1C49
330
1C20
100
AcDbDictionary
280
     1
  3
ACAD_LAYOUTSELFREF
360
1C4A
  0
DICTIONARY
  5
75
102
{ACAD_REACTORS
330
7
102
}
330
7
100
AcDbDictionary
  0
DICTIONARY
  5
61
102
{ACAD_REACTORS
330
7
102
}
330
7
100
AcDbDictionary
  0
DICTIONARY
  5
76
102
{ACAD_REACTORS
330
7
102
}
330
7
100
AcDbDictionary
  3
STANDARD
350
78
  0
DICTIONARY
  5
77
102
{ACAD_REACTORS
330
7
102
}
330
7
100
AcDbDictionary
  0
ACDBDICTIONARYWDFLT
  5
6
102
{ACAD_REACTORS
330
7
102
}
330
7
100
AcDbDictionary
281
     1
  3
Normal
350
5
100
AcDbDictionaryWithDefault
340
5
  0
XRECORD
  5
480
102
{ACAD_REACTORS
330
7
102
}
330
7
100
AcDbXrecord
 90
   990106
  3

 60
     0
 61
     0
 62
     1
 63
     3
 64
     1
 65
     0
 66
     0
 67
     3
 68
     1
 69
     0
 70
     0
 71
     0
 72
     0
 40
0.0
170
     2
340
0
  0
DICTIONARY
  5
1C26
102
{ACAD_REACTORS
330
7
102
}
330
7
100
AcDbDictionary
  3
CEPSNTYPE
350
1C30
  3
DIMSTYLEDATA
350
1C34
  3
FINGERPRINTGUID
350
1C31
  3
HYPERLINKBASE
350
1C29
  3
INSUNITS
350
1C2F
  3
LAYOUTDICT
350
1C2B
  3
LWETCUNION
350
1C2E
  3
PLOTSETDICT
350
1C2C
  3
PLOTSTYLNAMDICT
350
1C2D
  3
PSVPSCALE
350
1C33
  3
PUCSBASE
350
1C37
  3
PUCSORGBACK
350
1C3D
  3
PUCSORGBOTTOM
350
1C39
  3
PUCSORGFRONT
350
1C3C
  3
PUCSORGLEFT
350
1C3A
  3
PUCSORGRIGHT
350
1C3B
  3
PUCSORGTOP
350
1C38
  3
PUCSORTHOREF
350
1C35
  3
PUCSORTHOVIEW
350
1C36
  3
STYLESHEET
350
1C2A
  3
TSTACKALIGN
350
1C27
  3
TSTACKSIZE
350
1C28
  3
UCSBASE
350
1C40
  3
UCSORGBACK
350
1C46
  3
UCSORGBOTTOM
350
1C42
  3
UCSORGFRONT
350
1C45
  3
UCSORGLEFT
350
1C43
  3
UCSORGRIGHT
350
1C44
  3
UCSORGTOP
350
1C41
  3
UCSORTHOREF
350
1C3E
  3
UCSORTHOVIEW
350
1C3F
  3
VERSIONGUID
350
1C32
  0
DICTIONARY
  5
102
102
{ACAD_REACTORS
330
7
102
}
330
7
100
AcDbDictionary
  3
DIMASSOC
350
103
  0
XRECORD
  5
3D2
102
{ACAD_REACTORS
330
7
102
}
330
7
100
AcDbXrecord
  1
DWGPROPS COOKIE
  2

  3

  4

  6

  7

  8

  9

300
=
301
=
302
=
303
=
304
=
305
=
306
=
307
=
308
=
309
=
 40
0.5353330671296296
 41
2452052.431989363
 42
2453406.550756377
  1

 90
        0
  0
XRECORD
  5
1C48
102
{ACAD_REACTORS
330
1C47
102
}
330
1C47
100
AcDbXrecord
340
2
  0
XRECORD
  5
1C4A
102
{ACAD_REACTORS
330
1C49
102
}
330
1C49
100
AcDbXrecord
340
1C20
  0
MLINESTYLE
  5
78
102
{ACAD_REACTORS
330
76
102
}
330
76
100
AcDbMlineStyle
  2
STANDARD
 70
     0
  3

 62
     0
 51
90.0
 52
90.0
 71
     2
 49
0.5
 62
   256
  6
BYLAYER
 49
-0.5
 62
   256
  6
BYLAYER
  0
ACDBPLACEHOLDER
  5
5
102
{ACAD_REACTORS
330
6
102
}
330
6
100
AcDbPlaceHolder
280
     0
  0
XRECORD
  5
1C30
102
{ACAD_REACTORS
330
1C26
102
}
330
1C26
100
AcDbXrecord
 90
        0
  0
XRECORD
  5
1C34
102
{ACAD_REACTORS
330
1C26
102
}
330
1C26
100
AcDbXrecord
1000
DSTYLE
1002
{
1070
   179
 70
     2
1070
   277
 70
     6
1002
}
  0
XRECORD
  5
1C31
102
{ACAD_REACTORS
330
1C26
102
}
330
1C26
100
AcDbXrecord
  1
{6385560B-F4B1-4644-A7C2-A3E32AC3D232}
  0
XRECORD
  5
1C29
102
{ACAD_REACTORS
330
1C26
102
}
330
1C26
100
AcDbXrecord
  1

  0
XRECORD
  5
1C2F
102
{ACAD_REACTORS
330
1C26
102
}
330
1C26
100
AcDbXrecord
 90
        0
  0
XRECORD
  5
1C2B
102
{ACAD_REACTORS
330
1C26
102
}
330
1C26
100
AcDbXrecord
340
61
  0
XRECORD
  5
1C2E
102
{ACAD_REACTORS
330
1C26
102
}
330
1C26
100
AcDbXrecord
 90
    10781
  0
XRECORD
  5
1C2C
102
{ACAD_REACTORS
330
1C26
102
}
330
1C26
100
AcDbXrecord
340
77
  0
XRECORD
  5
1C2D
102
{ACAD_REACTORS
330
1C26
102
}
330
1C26
100
AcDbXrecord
340
6
  0
XRECORD
  5
1C33
102
{ACAD_REACTORS
330
1C26
102
}
330
1C26
100
AcDbXrecord
 40
0.0
  0
XRECORD
  5
1C37
102
{ACAD_REACTORS
330
1C26
102
}
330
1C26
100
AcDbXrecord
340
0
  0
XRECORD
  5
1C3D
102
{ACAD_REACTORS
330
1C26
102
}
330
1C26
100
AcDbXrecord
 10
0.0
 20
0.0
 30
0.0
  0
XRECORD
  5
1C39
102
{ACAD_REACTORS
330
1C26
102
}
330
1C26
100
AcDbXrecord
 10
0.0
 20
0.0
 30
0.0
  0
XRECORD
  5
1C3C
102
{ACAD_REACTORS
330
1C26
102
}
330
1C26
100
AcDbXrecord
 10
0.0
 20
0.0
 30
0.0
  0
XRECORD
  5
1C3A
102
{ACAD_REACTORS
330
1C26
102
}
330
1C26
100
AcDbXrecord
 10
0.0
 20
0.0
 30
0.0
  0
XRECORD
  5
1C3B
102
{ACAD_REACTORS
330
1C26
102
}
330
1C26
100
AcDbXrecord
 10
0.0
 20
0.0
 30
0.0
  0
XRECORD
  5
1C38
102
{ACAD_REACTORS
330
1C26
102
}
330
1C26
100
AcDbXrecord
 10
0.0
 20
0.0
 30
0.0
  0
XRECORD
  5
1C35
102
{ACAD_REACTORS
330
1C26
102
}
330
1C26
100
AcDbXrecord
340
0
  0
XRECORD
  5
1C36
102
{ACAD_REACTORS
330
1C26
102
}
330
1C26
100
AcDbXrecord
 70
     0
  0
XRECORD
  5
1C2A
102
{ACAD_REACTORS
330
1C26
102
}
330
1C26
100
AcDbXrecord
  1
Sekkei.ctb
  0
XRECORD
  5
1C27
102
{ACAD_REACTORS
330
1C26
102
}
330
1C26
100
AcDbXrecord
 90
        1
  0
XRECORD
  5
1C28
102
{ACAD_REACTORS
330
1C26
102
}
330
1C26
100
AcDbXrecord
 90
       70
  0
XRECORD
  5
1C40
102
{ACAD_REACTORS
330
1C26
102
}
330
1C26
100
AcDbXrecord
340
0
  0
XRECORD
  5
1C46
102
{ACAD_REACTORS
330
1C26
102
}
330
1C26
100
AcDbXrecord
 10
0.0
 20
0.0
 30
0.0
  0
XRECORD
  5
1C42
102
{ACAD_REACTORS
330
1C26
102
}
330
1C26
100
AcDbXrecord
 10
0.0
 20
0.0
 30
0.0
  0
XRECORD
  5
1C45
102
{ACAD_REACTORS
330
1C26
102
}
330
1C26
100
AcDbXrecord
 10
0.0
 20
0.0
 30
0.0
  0
XRECORD
  5
1C43
102
{ACAD_REACTORS
330
1C26
102
}
330
1C26
100
AcDbXrecord
 10
0.0
 20
0.0
 30
0.0
  0
XRECORD
  5
1C44
102
{ACAD_REACTORS
330
1C26
102
}
330
1C26
100
AcDbXrecord
 10
0.0
 20
0.0
 30
0.0
  0
XRECORD
  5
1C41
102
{ACAD_REACTORS
330
1C26
102
}
330
1C26
100
AcDbXrecord
 10
0.0
 20
0.0
 30
0.0
  0
XRECORD
  5
1C3E
102
{ACAD_REACTORS
330
1C26
102
}
330
1C26
100
AcDbXrecord
340
0
  0
XRECORD
  5
1C3F
102
{ACAD_REACTORS
330
1C26
102
}
330
1C26
100
AcDbXrecord
 70
     0
  0
XRECORD
  5
1C32
102
{ACAD_REACTORS
330
1C26
102
}
330
1C26
100
AcDbXrecord
  1
{7E30DA25-93BB-461C-A59E-D4356D32A58B}
  0
DICTIONARYVAR
  5
103
102
{ACAD_REACTORS
330
102
102
}
330
102
100
DictionaryVariables
280
     0
  1
1
  0
ENDSEC
  0
EOF
