  0
SECTION
  2
HEADER
  9
$ACADVER
  1
AC1014
  9
$ACADMAINTVER
 70
     9
  9
$DWGCODEPAGE
  3
ANSI_932
  9
$INSBASE
 10
0.0
 20
0.0
 30
0.0
  9
$EXTMIN
 10
29.97205927990467
 20
18.03109771686161
 30
0.0
  9
$EXTMAX
 10
508.1170618391666
 20
420.8796848338086
 30
0.0
  9
$LIMMIN
 10
0.0
 20
0.0
  9
$LIMMAX
 10
297.0
 20
210.0
  9
$ORTHOMODE
 70
     0
  9
$REGENMODE
 70
     1
  9
$FILLMODE
 70
     1
  9
$QTEXTMODE
 70
     0
  9
$MIRRTEXT
 70
     0
  9
$DRAGMODE
 70
     2
  9
$LTSCALE
 40
3.0
  9
$OSMODE
 70
    37
  9
$ATTMODE
 70
     1
  9
$TEXTSIZE
 40
9.0
  9
$TRACEWID
 40
1.0
  9
$TEXTSTYLE
  7
STANDARD
  9
$CLAYER
  8
0
  9
$CELTYPE
  6
BYLAYER
  9
$CECOLOR
 62
   256
  9
$CELTSCALE
 40
1.0
  9
$DELOBJ
 70
     1
  9
$DISPSILH
 70
     0
  9
$DIMSCALE
 40
3.0
  9
$DIMASZ
 40
1.8
  9
$DIMEXO
 40
0.625
  9
$DIMDLI
 40
3.75
  9
$DIMRND
 40
0.0
  9
$DIMDLE
 40
0.0
  9
$DIMEXE
 40
0.8
  9
$DIMTP
 40
0.0
  9
$DIMTM
 40
0.0
  9
$DIMTXT
 40
1.8
  9
$DIMCEN
 40
2.5
  9
$DIMTSZ
 40
0.0
  9
$DIMTOL
 70
     0
  9
$DIMLIM
 70
     0
  9
$DIMTIH
 70
     0
  9
$DIMTOH
 70
     0
  9
$DIMSE1
 70
     0
  9
$DIMSE2
 70
     0
  9
$DIMTAD
 70
     1
  9
$DIMZIN
 70
     8
  9
$DIMBLK
  1

  9
$DIMASO
 70
     1
  9
$DIMSHO
 70
     1
  9
$DIMPOST
  1

  9
$DIMAPOST
  1

  9
$DIMALT
 70
     0
  9
$DIMALTD
 70
     4
  9
$DIMALTF
 40
0.0394
  9
$DIMLFAC
 40
1.0
  9
$DIMTOFL
 70
     1
  9
$DIMTVP
 40
0.0
  9
$DIMTIX
 70
     0
  9
$DIMSOXD
 70
     0
  9
$DIMSAH
 70
     0
  9
$DIMBLK1
  1

  9
$DIMBLK2
  1

  9
$DIMSTYLE
  2
STANDARD
  9
$DIMCLRD
 70
     0
  9
$DIMCLRE
 70
     0
  9
$DIMCLRT
 70
     0
  9
$DIMTFAC
 40
1.0
  9
$DIMGAP
 40
0.75
  9
$DIMJUST
 70
     0
  9
$DIMSD1
 70
     0
  9
$DIMSD2
 70
     0
  9
$DIMTOLJ
 70
     1
  9
$DIMTZIN
 70
     0
  9
$DIMALTZ
 70
     0
  9
$DIMALTTZ
 70
     0
  9
$DIMFIT
 70
     3
  9
$DIMUPT
 70
     0
  9
$DIMUNIT
 70
     8
  9
$DIMDEC
 70
     2
  9
$DIMTDEC
 70
     2
  9
$DIMALTU
 70
     8
  9
$DIMALTTD
 70
     4
  9
$DIMTXSTY
  7
STANDARD
  9
$DIMAUNIT
 70
     0
  9
$LUNITS
 70
     2
  9
$LUPREC
 70
     3
  9
$SKETCHINC
 40
1.0
  9
$FILLETRAD
 40
10.0
  9
$AUNITS
 70
     0
  9
$AUPREC
 70
     2
  9
$MENU
  1
.
  9
$ELEVATION
 40
0.0
  9
$PELEVATION
 40
0.0
  9
$THICKNESS
 40
0.0
  9
$LIMCHECK
 70
     0
  9
$BLIPMODE
 70
     0
  9
$CHAMFERA
 40
0.0
  9
$CHAMFERB
 40
0.0
  9
$CHAMFERC
 40
20.0
  9
$CHAMFERD
 40
0.0
  9
$SKPOLY
 70
     0
  9
$TDCREATE
 40
2453692.552748113
  9
$TDUPDATE
 40
2454501.561720555
  9
$TDINDWG
 40
0.0658653472
  9
$TDUSRTIMER
 40
0.0658653472
  9
$USRTIMER
 70
     1
  9
$ANGBASE
 50
0.0
  9
$ANGDIR
 70
     0
  9
$PDMODE
 70
     0
  9
$PDSIZE
 40
-10.0
  9
$PLINEWID
 40
0.0
  9
$COORDS
 70
     0
  9
$SPLFRAME
 70
     0
  9
$SPLINETYPE
 70
     6
  9
$SPLINESEGS
 70
     8
  9
$ATTDIA
 70
     0
  9
$ATTREQ
 70
     1
  9
$HANDLING
 70
-16383
  9
$HANDSEED
  5
440B
  9
$SURFTAB1
 70
     6
  9
$SURFTAB2
 70
     6
  9
$SURFTYPE
 70
     6
  9
$SURFU
 70
     6
  9
$SURFV
 70
     6
  9
$UCSNAME
  2

  9
$UCSORG
 10
0.0
 20
0.0
 30
0.0
  9
$UCSXDIR
 10
1.0
 20
0.0
 30
0.0
  9
$UCSYDIR
 10
0.0
 20
1.0
 30
0.0
  9
$PUCSNAME
  2

  9
$PUCSORG
 10
0.0
 20
0.0
 30
0.0
  9
$PUCSXDIR
 10
1.0
 20
0.0
 30
0.0
  9
$PUCSYDIR
 10
0.0
 20
1.0
 30
0.0
  9
$USERI1
 70
     0
  9
$USERI2
 70
     0
  9
$USERI3
 70
     0
  9
$USERI4
 70
     0
  9
$USERI5
 70
     0
  9
$USERR1
 40
0.0
  9
$USERR2
 40
0.0
  9
$USERR3
 40
0.0
  9
$USERR4
 40
0.0
  9
$USERR5
 40
0.0
  9
$WORLDVIEW
 70
     1
  9
$SHADEDGE
 70
     3
  9
$SHADEDIF
 70
    70
  9
$TILEMODE
 70
     1
  9
$MAXACTVP
 70
    48
  9
$PINSBASE
 10
0.0
 20
0.0
 30
0.0
  9
$PLIMCHECK
 70
     0
  9
$PEXTMIN
 10
0.0
 20
0.0
 30
0.0
  9
$PEXTMAX
 10
0.0
 20
0.0
 30
0.0
  9
$PLIMMIN
 10
0.0
 20
0.0
  9
$PLIMMAX
 10
12.0
 20
9.0
  9
$UNITMODE
 70
     0
  9
$VISRETAIN
 70
     1
  9
$PLINEGEN
 70
     0
  9
$PSLTSCALE
 70
     1
  9
$TREEDEPTH
 70
  3020
  9
$PICKSTYLE
 70
     1
  9
$CMLSTYLE
  2
STANDARD
  9
$CMLJUST
 70
     0
  9
$CMLSCALE
 40
1.0
  9
$PROXYGRAPHICS
 70
     1
  9
$MEASUREMENT
 70
     0
  0
ENDSEC
  0
SECTION
  2
CLASSES
  0
CLASS
  1
DICTIONARYVAR
  2
AcDbDictionaryVar
  3
AutoCAD 2000
 90
        0
280
     0
281
     0
  0
CLASS
  1
ACDBDICTIONARYWDFLT
  2
AcDbDictionaryWithDefault
  3
AutoCAD 2000
 90
        0
280
     0
281
     0
  0
CLASS
  1
ACDBPLACEHOLDER
  2
AcDbPlaceHolder
  3
AutoCAD 2000
 90
        0
280
     0
281
     0
  0
CLASS
  1
LAYOUT
  2
AcDbLayout
  3
AutoCAD 2000
 90
        0
280
     0
281
     0
  0
CLASS
  1
MATERIAL
  2
AcDbMaterial
  3
ObjectDBX Classes
 90
     1153
280
     0
281
     0
  0
CLASS
  1
VISUALSTYLE
  2
AcDbVisualStyle
  3
ObjectDBX Classes
 90
     4095
280
     0
281
     0
  0
CLASS
  1
TABLESTYLE
  2
AcDbTableStyle
  3
ObjectDBX Classes
 90
     4095
280
     0
281
     0
  0
CLASS
  1
SCALE
  2
AcDbScale
  3
ObjectDBX Classes
 90
     1153
280
     0
281
     0
  0
CLASS
  1
MLEADERSTYLE
  2
AcDbMLeaderStyle
  3
ACDB_MLEADERSTYLE_CLASS
 90
     4095
280
     0
281
     0
  0
CLASS
  1
SORTENTSTABLE
  2
AcDbSortentsTable
  3
AutoCAD 2000
 90
        0
280
     0
281
     0
  0
CLASS
  1
CELLSTYLEMAP
  2
AcDbCellStyleMap
  3
ObjectDBX Classes
 90
     1152
280
     0
281
     0
  0
CLASS
  1
ACAD_PROXY_OBJECT_WRAPPER
  2
AcDbProxyObjectWrapper
  3
AutoCAD 2000
 90
        0
280
     0
281
     0
  0
CLASS
  1
LONG_TRANSACTION
  2
AcDbLongTransaction
  3
AutoCAD 2000
 90
        0
280
     0
281
     0
  0
CLASS
  1
LWPOLYLINE
  2
AcDbPolyline
  3
AutoCAD 2000
 90
        0
280
     0
281
     1
  0
CLASS
  1
HATCH
  2
AcDbHatch
  3
AutoCAD 2000
 90
        0
280
     0
281
     1
  0
CLASS
  1
XRECORD
  2
AcDbXrecord
  3
AutoCAD 2000
 90
        0
280
     0
281
     0
  0
ENDSEC
  0
SECTION
  2
TABLES
  0
TABLE
  2
VPORT
  5
6E
102
{ACAD_XDICTIONARY
360
436D
102
}
330
0
100
AcDbSymbolTable
 70
     2
  0
VPORT
  5
43E5
330
6E
100
AcDbSymbolTableRecord
100
AcDbViewportTableRecord
  2
*ACTIVE
 70
     0
 10
0.0
 20
0.0
 11
1.0
 21
1.0
 12
291.7741671927115
 22
219.4468587573545
 13
0.0
 23
0.0
 14
10.0
 24
10.0
 15
10.0
 25
10.0
 16
0.0
 26
0.0
 36
1.0
 17
0.0
 27
0.0
 37
0.0
 40
405.6197263798684
 41
1.763038548752834
 42
50.0
 43
0.0
 44
0.0
 50
0.0
 51
0.0
 71
     0
 72
   100
 73
     1
 74
     3
 75
     0
 76
     0
 77
     0
 78
     0
  0
ENDTAB
  0
TABLE
  2
LTYPE
  5
69
330
0
100
AcDbSymbolTable
 70
     4
  0
LTYPE
  5
6A
330
69
100
AcDbSymbolTableRecord
100
AcDbLinetypeTableRecord
  2
BYBLOCK
 70
     0
  3

 72
    65
 73
     0
 40
0.0
  0
LTYPE
  5
6B
330
69
100
AcDbSymbolTableRecord
100
AcDbLinetypeTableRecord
  2
BYLAYER
 70
     0
  3

 72
    65
 73
     0
 40
0.0
  0
LTYPE
  5
8
330
69
100
AcDbSymbolTableRecord
100
AcDbLinetypeTableRecord
  2
CONTINUOUS
 70
     0
  3
Solid line
 72
    65
 73
     0
 40
0.0
  0
LTYPE
  5
27C
330
69
100
AcDbSymbolTableRecord
100
AcDbLinetypeTableRecord
  2
SEKKEI_A2_
 70
     0
  3
center(A2)  ____ _ ____ _ ____ _ ____ _ ____ _ 
 72
    65
 73
     4
 40
14.28749999999999
 49
9.525
 74
     0
 49
-1.587499999999999
 74
     0
 49
1.587499999999999
 74
     0
 49
-1.587499999999999
 74
     0
  0
LTYPE
  5
2B4
330
69
100
AcDbSymbolTableRecord
100
AcDbLinetypeTableRecord
  2
HIDDEN2
 70
     0
  3
Hidden (.5x) _ _ _ _ _ _ _ _ _ _ _ _ _ _ _ _ _
 72
    65
 73
     2
 40
4.762499999999999
 49
3.174999999999999
 74
     0
 49
-1.587499999999999
 74
     0
  0
LTYPE
  5
48F
330
69
100
AcDbSymbolTableRecord
100
AcDbLinetypeTableRecord
  2
SEKKEI_H
 70
     0
  3
Hidden-S _ _ _ _ _ _ _ _ _ _ _ _ _ _ _ _ _
 72
    65
 73
     2
 40
2.381249999999999
 49
1.587499999999999
 74
     0
 49
-0.79375
 74
     0
  0
ENDTAB
  0
TABLE
  2
LAYER
  5
66
102
{ACAD_XDICTIONARY
360
3E01
102
}
330
0
100
AcDbSymbolTable
 70
     9
  0
LAYER
  5
5E
102
{ACAD_XDICTIONARY
360
4353
102
}
330
66
100
AcDbSymbolTableRecord
100
AcDbLayerTableRecord
  2
0
 70
     0
 62
     7
  6
CONTINUOUS
  0
LAYER
  5
3E
102
{ACAD_XDICTIONARY
360
4355
102
}
330
66
100
AcDbSymbolTableRecord
100
AcDbLayerTableRecord
  2
CENTER
 70
     0
 62
     3
  6
SEKKEI_A2_
  0
LAYER
  5
2B5
102
{ACAD_XDICTIONARY
360
435B
102
}
330
66
100
AcDbSymbolTableRecord
100
AcDbLayerTableRecord
  2
HIDS
 70
     0
 62
     1
  6
HIDDEN2
  0
LAYER
  5
2BA
102
{ACAD_XDICTIONARY
360
435D
102
}
330
66
100
AcDbSymbolTableRecord
100
AcDbLayerTableRecord
  2
HOJO
 70
     0
 62
     4
  6
CONTINUOUS
  0
LAYER
  5
3FA
102
{ACAD_XDICTIONARY
360
4361
102
}
330
66
100
AcDbSymbolTableRecord
100
AcDbLayerTableRecord
  2
TITLE
 70
     0
 62
     4
  6
CONTINUOUS
  0
ENDTAB
  0
TABLE
  2
STYLE
  5
67
330
0
100
AcDbSymbolTable
 70
     2
  0
STYLE
  5
16
330
67
100
AcDbSymbolTableRecord
100
AcDbTextStyleTableRecord
  2
STANDARD
 70
     0
 40
0.0
 41
1.0
 50
0.0
 71
     0
 42
9.0
  3
simplex.shx
  4
extfont.shx
  0
ENDTAB
  0
TABLE
  2
VIEW
  5
6C
330
0
100
AcDbSymbolTable
 70
     0
  0
ENDTAB
  0
TABLE
  2
UCS
  5
6D
330
0
100
AcDbSymbolTable
 70
     0
  0
ENDTAB
  0
TABLE
  2
APPID
  5
70
330
0
100
AcDbSymbolTable
 70
     5
  0
APPID
  5
71
330
70
100
AcDbSymbolTableRecord
100
AcDbRegAppTableRecord
  2
ACAD
 70
     0
  0
APPID
  5
B76
330
70
100
AcDbSymbolTableRecord
100
AcDbRegAppTableRecord
  2
CONTENTBLOCKICON
 70
     0
  0
APPID
  5
B77
330
70
100
AcDbSymbolTableRecord
100
AcDbRegAppTableRecord
  2
CONTENTTABDATA
 70
     0
  0
APPID
  5
B78
330
70
100
AcDbSymbolTableRecord
100
AcDbRegAppTableRecord
  2
CONTENTCURRENTTAB
 70
     0
  0
APPID
  5
3DFE
330
70
100
AcDbSymbolTableRecord
100
AcDbRegAppTableRecord
  2
ACAD_MLEADERVER
 70
     0
  0
ENDTAB
  0
TABLE
  2
DIMSTYLE
  5
72
330
0
100
AcDbSymbolTable
 70
     1
  0
DIMSTYLE
105
73
330
72
100
AcDbSymbolTableRecord
100
AcDbDimStyleTableRecord
  2
STANDARD
 70
     0
  3

  4

  5

  6

  7

 40
3.0
 41
1.8
 42
0.625
 43
3.75
 44
0.8
 45
0.0
 46
0.0
 47
0.0
 48
0.0
140
1.8
141
2.5
142
0.0
143
0.0394
144
1.0
145
0.0
146
1.0
147
0.75
 71
     0
 72
     0
 73
     0
 74
     0
 75
     0
 76
     0
 77
     1
 78
     8
170
     0
171
     4
172
     1
173
     0
174
     0
175
     0
176
     0
177
     0
178
     0
270
     8
271
     2
272
     2
273
     8
274
     4
340
16
275
     0
280
     0
281
     0
282
     0
283
     1
284
     0
285
     0
286
     0
287
     3
288
     0
  0
ENDTAB
  0
TABLE
  2
BLOCK_RECORD
  5
1
330
0
100
AcDbSymbolTable
 70
    44
  0
BLOCK_RECORD
  5
2
102
{ACAD_XDICTIONARY
360
4407
102
}
330
1
100
AcDbSymbolTableRecord
100
AcDbBlockTableRecord
  2
*MODEL_SPACE
  0
BLOCK_RECORD
  5
43E0
102
{ACAD_XDICTIONARY
360
4409
102
}
330
1
100
AcDbSymbolTableRecord
100
AcDbBlockTableRecord
  2
*PAPER_SPACE
  0
ENDTAB
  0
ENDSEC
  0
SECTION
  2
BLOCKS
  0
BLOCK
  5
5D
330
2
100
AcDbEntity
  8
0
100
AcDbBlockBegin
  2
*MODEL_SPACE
 70
     0
 10
0.0
 20
0.0
 30
0.0
  3
*MODEL_SPACE
  1

  0
ENDBLK
  5
5F
330
2
100
AcDbEntity
  8
0
100
AcDbBlockEnd
  0
BLOCK
  5
43E2
330
43E0
100
AcDbEntity
 67
     1
  8
0
100
AcDbBlockBegin
  2
*PAPER_SPACE
 70
     0
 10
0.0
 20
0.0
 30
0.0
  3
*PAPER_SPACE
  1

  0
ENDBLK
  5
43E3
330
43E0
100
AcDbEntity
 67
     1
  8
0
100
AcDbBlockEnd
  0
ENDSEC
  0
SECTION
  2
ENTITIES
  0
LINE
  5
748
330
2
100
AcDbEntity
  8
CENTER
100
AcDbLine
 10
29.97205927990467
 20
123.7703871439779
 30
0.0
 11
224.8359621143048
 21
123.7703871439779
 31
0.0
  0
LINE
  5
81A
330
2
100
AcDbEntity
  8
0
100
AcDbLine
 10
331.2068758391665
 20
174.5247051439779
 30
0.0
 11
370.1170308391665
 21
152.0604907541248
 31
0.0
  0
LINE
  5
81B
330
2
100
AcDbEntity
  8
0
100
AcDbLine
 10
334.1976588391667
 20
179.725828143978
 30
0.0
 11
370.1170308391665
 21
158.9886453452308
 31
0.0
  0
LINE
  5
81C
330
2
100
AcDbEntity
  8
0
100
AcDbLine
 10
338.7068758391665
 20
187.514867143978
 30
0.0
 11
370.1170308391665
 21
169.3808774501154
 31
0.0
  0
LINE
  5
81D
330
2
100
AcDbEntity
  8
0
100
AcDbLine
 10
335.6976588391667
 20
182.3239071439779
 30
0.0
 11
370.1170308391665
 21
162.4526750186813
 31
0.0
  0
LINE
  5
81E
330
2
100
AcDbEntity
  8
0
100
AcDbLine
 10
331.8420041410869
 20
176.4670741550509
 30
0.0
 11
370.1170308391665
 21
154.369868543064
 31
0.0
  0
LINE
  5
81F
330
2
100
AcDbEntity
  8
0
100
AcDbLine
 10
333.5714060558432
 20
177.7780215575773
 30
0.0
 11
370.1170308391665
 21
156.6792463320032
 31
0.0
  0
LINE
  5
820
330
2
100
AcDbEntity
  8
0
100
AcDbLine
 10
334.453780690048
 20
181.3099948835569
 30
0.0
 11
370.1170308391665
 21
160.7206778559731
 31
0.0
  0
LINE
  5
821
330
2
100
AcDbEntity
  8
0
100
AcDbLine
 10
335.2747604576681
 20
181.9907103629671
 30
0.0
 11
370.1170308391665
 21
161.875366196468
 31
0.0
  0
LINE
  5
822
330
2
100
AcDbEntity
  8
0
100
AcDbLine
 10
334.0983490507583
 20
180.360506424519
 30
0.0
 11
370.1170308391665
 21
159.5659895154781
 31
0.0
  0
LINE
  5
823
330
2
100
AcDbEntity
  8
CENTER
100
AcDbLine
 10
360.1170308391665
 20
123.7703871439779
 30
0.0
 11
508.1170618391666
 21
123.7703871439779
 31
0.0
  0
LINE
  5
824
330
2
100
AcDbEntity
  8
0
100
AcDbLine
 10
222.335962114305
 20
115.770387143978
 30
0.0
 11
222.335962114305
 21
164.7703871439779
 31
0.0
  0
LINE
  5
827
330
2
100
AcDbEntity
  8
0
100
AcDbLine
 10
149.8358701143048
 20
181.2703871439779
 30
0.0
 11
149.8358701143048
 21
66.27038714397798
 31
0.0
  0
LINE
  5
828
330
2
100
AcDbEntity
  8
0
100
AcDbLine
 10
208.3358701143048
 20
61.42763614397797
 30
0.0
 11
208.3358701143048
 21
187.0384081439779
 31
0.0
  0
LINE
  5
829
330
2
100
AcDbEntity
  8
0
100
AcDbLine
 10
218.3358701143048
 20
60.77038714397798
 30
0.0
 11
218.3358701143048
 21
187.7703871439779
 31
0.0
  0
LINE
  5
82B
330
2
100
AcDbEntity
  8
0
100
AcDbLine
 10
164.3360531143049
 20
186.270109143978
 30
0.0
 11
164.3358091143048
 21
62.270269143978
 31
0.0
  0
LINE
  5
82C
330
2
100
AcDbEntity
  8
0
100
AcDbLine
 10
149.8358701143048
 20
181.2703871439779
 30
0.0
 11
149.8358701143048
 21
66.27038714397798
 31
0.0
  0
LINE
  5
82D
330
2
100
AcDbEntity
  8
0
100
AcDbLine
 10
158.3358701143048
 20
184.129445143978
 30
0.0
 11
158.3356721143048
 21
64.41124914397795
 31
0.0
  0
LINE
  5
82E
330
2
100
AcDbEntity
  8
0
100
AcDbLine
 10
164.3360681143047
 20
186.270109143978
 30
0.0
 11
164.3358701143048
 21
62.270269143978
 31
0.0
  0
LINE
  5
82F
330
2
100
AcDbEntity
  8
0
100
AcDbLine
 10
167.9876951143047
 20
84.27026914397799
 30
0.0
 11
206.5831841143047
 21
85.28084314397796
 31
0.0
  0
LINE
  5
830
330
2
100
AcDbEntity
  8
0
100
AcDbLine
 10
208.3358701143048
 20
61.47038814397797
 30
0.0
 11
164.8357781143048
 21
62.26130014397796
 31
0.0
  0
LINE
  5
831
330
2
100
AcDbEntity
  8
0
100
AcDbLine
 10
167.9834381143049
 20
70.270269143978
 30
0.0
 11
205.2726381143048
 21
69.29407214397798
 31
0.0
  0
LINE
  5
833
330
2
100
AcDbEntity
  8
0
100
AcDbLine
 10
149.8358701143048
 20
66.27038714397798
 30
0.0
 11
158.3356721143048
 21
66.27038714397798
 31
0.0
  0
LINE
  5
837
330
2
100
AcDbEntity
  8
0
100
AcDbLine
 10
164.3358701143048
 20
62.77038714397798
 30
0.0
 11
164.8357941143047
 21
62.26166314397795
 31
0.0
  0
ARC
  5
838
330
2
100
AcDbEntity
  8
0
100
AcDbCircle
 10
160.3358701143048
 20
64.41124914397795
 30
0.0
 40
2.0
100
AcDbArc
 50
180.0
 51
267.9999999999996
  0
LINE
  5
839
330
2
100
AcDbEntity
  8
0
100
AcDbLine
 10
164.3358701143048
 20
62.27038714397798
 30
0.0
 11
160.2660761143048
 21
62.41246514397801
 31
0.0
  0
LINE
  5
83A
330
2
100
AcDbEntity
  8
0
100
AcDbLine
 10
163.4608701143048
 20
70.270269143978
 30
0.0
 11
159.7108701143048
 21
70.270269143978
 31
0.0
  0
LINE
  5
840
330
2
100
AcDbEntity
  8
0
100
AcDbLine
 10
163.4608701143048
 20
84.27026914397799
 30
0.0
 11
159.7108701143048
 21
84.27026914397799
 31
0.0
  0
LINE
  5
844
330
2
100
AcDbEntity
  8
CENTER
100
AcDbLine
 10
205.2922301143049
 20
69.27038714397799
 30
0.0
 11
221.5853511143048
 21
69.27038714397799
 31
0.0
  0
LINE
  5
845
330
2
100
AcDbEntity
  8
0
100
AcDbLine
 10
217.8359311143048
 20
60.27911114397801
 30
0.0
 11
209.3184141143047
 21
60.42778514397799
 31
0.0
  0
ARC
  5
846
330
2
100
AcDbEntity
  8
0
100
AcDbCircle
 10
209.3358701143048
 20
61.42763614397797
 30
0.0
 40
1.0
100
AcDbArc
 50
180.0
 51
268.9999999999998
  0
LINE
  5
847
330
2
100
AcDbEntity
  8
0
100
AcDbLine
 10
218.3358701143048
 20
60.77038714397798
 30
0.0
 11
217.8359311143048
 21
60.27911114397801
 31
0.0
  0
LINE
  5
848
330
2
100
AcDbEntity
  8
HIDS
  6
SEKKEI_H
100
AcDbLine
 10
208.3358701143048
 20
73.57038714397794
 30
0.0
 11
218.3358701143048
 21
73.57038714397794
 31
0.0
  0
LINE
  5
849
330
2
100
AcDbEntity
  8
HIDS
  6
SEKKEI_H
100
AcDbLine
 10
208.3358701143048
 20
64.97038714397797
 30
0.0
 11
218.3358701143048
 21
64.97038714397797
 31
0.0
  0
LINE
  5
84A
330
2
100
AcDbEntity
  8
0
100
AcDbLine
 10
218.3358701143049
 20
115.2703871439779
 30
0.0
 11
221.835962114305
 21
115.270387143978
 31
0.0
  0
LINE
  5
84B
330
2
100
AcDbEntity
  8
0
100
AcDbLine
 10
221.835962114305
 20
115.270387143978
 30
0.0
 11
222.335962114305
 21
115.770387143978
 31
0.0
  0
LINE
  5
855
330
2
100
AcDbEntity
  8
0
100
AcDbLine
 10
208.3358701143048
 20
187.0384081439779
 30
0.0
 11
164.8357941143047
 21
186.279111143978
 31
0.0
  0
LINE
  5
872
330
2
100
AcDbEntity
  8
0
100
AcDbLine
 10
149.8358701143048
 20
181.2703871439779
 30
0.0
 11
158.3358701143048
 21
181.2703871439779
 31
0.0
  0
LINE
  5
876
330
2
100
AcDbEntity
  8
0
100
AcDbLine
 10
164.3358701143048
 20
186.2703871439779
 30
0.0
 11
160.2660761143048
 21
186.128228143978
 31
0.0
  0
ARC
  5
877
330
2
100
AcDbEntity
  8
0
100
AcDbCircle
 10
160.3358701143048
 20
184.129445143978
 30
0.0
 40
2.0
100
AcDbArc
 50
92.00028200000081
 51
180.0
  0
LINE
  5
878
330
2
100
AcDbEntity
  8
0
100
AcDbLine
 10
164.8357941143047
 20
186.279111143978
 30
0.0
 11
164.3358701143048
 21
185.7703871439779
 31
0.0
  0
LINE
  5
8AA
330
2
100
AcDbEntity
  8
0
100
AcDbLine
 10
224.3360841143049
 20
131.2703871439779
 30
0.0
 11
254.3360841143049
 21
131.2703871439779
 31
0.0
  0
LINE
  5
8AB
330
2
100
AcDbEntity
  8
0
100
AcDbLine
 10
224.3360841143049
 20
149.270328143978
 30
0.0
 11
254.3360841143049
 21
149.2703871439779
 31
0.0
  0
LINE
  5
8AC
330
2
100
AcDbEntity
  8
0
100
AcDbLine
 10
230.3360841143049
 20
137.2703871439779
 30
0.0
 11
254.3360841143049
 21
137.2703871439779
 31
0.0
  0
LINE
  5
8AD
330
2
100
AcDbEntity
  8
0
100
AcDbLine
 10
230.3360841143049
 20
143.2703871439779
 30
0.0
 11
254.3360841143049
 21
143.2703871439779
 31
0.0
  0
LINE
  5
8AE
330
2
100
AcDbEntity
  8
CENTER
100
AcDbLine
 10
203.3358701143048
 20
140.2703871439779
 30
0.0
 11
259.3360761143047
 21
140.2703871439779
 31
0.0
  0
LINE
  5
8AF
330
2
100
AcDbEntity
  8
0
100
AcDbLine
 10
224.3360841143049
 20
150.2703871439779
 30
0.0
 11
224.3360841143049
 21
130.2703871439779
 31
0.0
  0
LINE
  5
8B0
330
2
100
AcDbEntity
  8
0
100
AcDbLine
 10
222.3360841143049
 20
130.2703871439779
 30
0.0
 11
224.3360841143049
 21
130.2703871439779
 31
0.0
  0
ARC
  5
8B1
330
2
100
AcDbEntity
  8
0
100
AcDbCircle
 10
230.3360841143049
 20
140.2703871439779
 30
0.0
 40
3.0
100
AcDbArc
 50
90.0
 51
270.0
  0
LINE
  5
8B2
330
2
100
AcDbEntity
  8
0
 48
0.1
100
AcDbLine
 10
218.3358701143048
 20
165.2703871439779
 30
0.0
 11
221.835962114305
 21
165.2703871439779
 31
0.0
  0
LINE
  5
8B3
330
2
100
AcDbEntity
  8
0
100
AcDbLine
 10
222.3360841143049
 20
150.2703871439779
 30
0.0
 11
224.3360841143049
 21
150.2703871439779
 31
0.0
  0
LINE
  5
8B4
330
2
100
AcDbEntity
  8
0
100
AcDbLine
 10
221.835962114305
 20
165.2703871439779
 30
0.0
 11
222.335962114305
 21
164.7703871439779
 31
0.0
  0
LINE
  5
8B5
330
2
100
AcDbEntity
  8
0
100
AcDbLine
 10
254.3360841143049
 20
149.2703871439779
 30
0.0
 11
254.3360841143049
 21
131.2703871439779
 31
0.0
  0
LINE
  5
8B6
330
2
100
AcDbEntity
  8
CENTER
100
AcDbLine
 10
204.7947321143047
 20
179.2703871439779
 30
0.0
 11
220.7147461143048
 21
179.2703871439779
 31
0.0
  0
LINE
  5
8B7
330
2
100
AcDbEntity
  8
HIDS
  6
SEKKEI_H
100
AcDbLine
 10
208.3358701143048
 20
174.970387143978
 30
0.0
 11
218.3358701143048
 21
174.970387143978
 31
0.0
  0
LINE
  5
8B8
330
2
100
AcDbEntity
  8
0
100
AcDbLine
 10
209.3184141143047
 20
188.1129851439779
 30
0.0
 11
217.8359311143048
 21
188.2616591439779
 31
0.0
  0
LINE
  5
8B9
330
2
100
AcDbEntity
  8
HIDS
  6
SEKKEI_H
100
AcDbLine
 10
208.3358701143048
 20
183.5703871439779
 30
0.0
 11
218.3358701143048
 21
183.5703871439779
 31
0.0
  0
LINE
  5
8BA
330
2
100
AcDbEntity
  8
0
100
AcDbLine
 10
208.3358701143048
 20
187.113138143978
 30
0.0
 11
208.3358701143048
 21
187.0384081439779
 31
0.0
  0
ARC
  5
8BB
330
2
100
AcDbEntity
  8
0
100
AcDbCircle
 10
209.3358701143048
 20
187.113138143978
 30
0.0
 40
1.0
100
AcDbArc
 50
91.00000000000013
 51
180.0
  0
LINE
  5
8BC
330
2
100
AcDbEntity
  8
0
100
AcDbLine
 10
217.8359311143048
 20
188.2616591439779
 30
0.0
 11
218.3358701143048
 21
187.7703871439779
 31
0.0
  0
LINE
  5
908
330
2
100
AcDbEntity
  8
HOJO
100
AcDbLine
 10
331.7308628391665
 20
176.3828251439779
 30
0.0
 11
333.6830718391666
 21
177.8626681439779
 31
0.0
  0
ARC
  5
909
330
2
100
AcDbEntity
  8
HOJO
100
AcDbCircle
 10
332.6980558391667
 20
175.1072061439779
 30
0.0
 40
1.600781999999999
100
AcDbArc
 50
127.1647030000012
 51
201.3401949999996
  0
ARC
  5
90A
330
2
100
AcDbEntity
  8
HOJO
100
AcDbCircle
 10
332.7158778391665
 20
179.138288143978
 30
0.0
 40
1.600781
100
AcDbArc
 50
307.1646999999992
 51
21.34008999999932
  0
ARC
  5
90B
330
2
100
AcDbEntity
  8
HOJO
100
AcDbCircle
 10
335.7161001850504
 20
184.3340096320533
 30
0.0
 40
1.600781
100
AcDbArc
 50
307.1647000000018
 51
21.34008999999932
  0
LINE
  5
90C
330
2
100
AcDbEntity
  8
HOJO
100
AcDbLine
 10
334.7310851850504
 20
181.5785466320532
 30
0.0
 11
335.2747604576681
 21
181.9907103629671
 31
0.0
  0
LINE
  5
90D
330
2
100
AcDbEntity
  8
HOJO
100
AcDbLine
 10
335.7070900769808
 20
182.3184622359235
 30
0.0
 11
336.6830801850503
 21
183.0583666320532
 31
0.0
  0
ARC
  5
90E
330
2
100
AcDbEntity
  8
HOJO
100
AcDbCircle
 10
335.6980951850502
 20
180.3029276320532
 30
0.0
 40
1.600781999999999
100
AcDbArc
 50
127.1647029999988
 51
177.938673985111
  0
ARC
  5
90F
330
2
100
AcDbEntity
  8
HOJO
100
AcDbCircle
 10
338.6981528148521
 20
185.4990708991344
 30
0.0
 40
1.600781999999999
100
AcDbArc
 50
127.1647029999988
 51
201.3401950000027
  0
LINE
  5
910
330
2
100
AcDbEntity
  8
HOJO
100
AcDbLine
 10
337.731142814852
 20
186.7746898991344
 30
0.0
 11
338.7072260961615
 21
187.5146649304983
 31
0.0
  0
LINE
  5
911
330
2
100
AcDbEntity
  8
0
100
AcDbLine
 10
493.1170618391665
 20
88.06931414397798
 30
0.0
 11
493.1170618391665
 21
158.4002661439779
 31
0.0
  0
LINE
  5
912
330
2
100
AcDbEntity
  8
0
100
AcDbLine
 10
375.1170308391665
 20
88.06931414397798
 30
0.0
 11
375.1170308391665
 21
160.471334143978
 31
0.0
  0
CIRCLE
  5
913
330
2
100
AcDbEntity
  8
0
100
AcDbCircle
 10
434.1170618391665
 20
140.270143143978
 30
0.0
 40
25.0
  0
LINE
  5
914
330
2
100
AcDbEntity
  8
CENTER
100
AcDbLine
 10
434.1170618391665
 20
198.270326143978
 30
0.0
 11
434.1170618391665
 21
50.27032614397796
 31
0.0
  0
LINE
  5
915
330
2
100
AcDbEntity
  8
CENTER
100
AcDbLine
 10
379.1170308391665
 20
186.0703261439779
 30
0.0
 11
379.1170308391665
 21
62.47032614397795
 31
0.0
  0
LINE
  5
916
330
2
100
AcDbEntity
  8
CENTER
100
AcDbLine
 10
489.1170618391665
 20
186.0703261439779
 30
0.0
 11
489.1170618391665
 21
62.47032614397795
 31
0.0
  0
LINE
  5
917
330
2
100
AcDbEntity
  8
0
100
AcDbLine
 10
370.1170308391665
 20
69.27032614397797
 30
0.0
 11
370.1170308391665
 21
179.270326143978
 31
0.0
  0
LINE
  5
918
330
2
100
AcDbEntity
  8
0
100
AcDbLine
 10
498.1170618391665
 20
69.27032614397797
 30
0.0
 11
498.1170618391665
 21
179.270326143978
 31
0.0
  0
ARC
  5
919
330
2
100
AcDbEntity
  8
0
100
AcDbCircle
 10
489.1170618391665
 20
69.27032614397797
 30
0.0
 40
9.0
100
AcDbArc
 50
270.0
 51
0.0
  0
LINE
  5
91A
330
2
100
AcDbEntity
  8
CENTER
100
AcDbLine
 10
372.3170308391666
 20
69.27032614397797
 30
0.0
 11
495.9170618391665
 21
69.27032614397797
 31
0.0
  0
LINE
  5
91B
330
2
100
AcDbEntity
  8
0
100
AcDbLine
 10
489.1170618391665
 20
60.27032614397796
 30
0.0
 11
379.1170308391665
 21
60.27032614397796
 31
0.0
  0
LINE
  5
91C
330
2
100
AcDbEntity
  8
0
100
AcDbLine
 10
470.3180508391667
 20
65.27032614397796
 30
0.0
 11
397.9160428391667
 21
65.27032614397796
 31
0.0
  0
LINE
  5
91D
330
2
100
AcDbEntity
  8
0
100
AcDbLine
 10
394.3804898391665
 20
66.73479214397798
 30
0.0
 11
376.5815088391666
 21
84.53378014397799
 31
0.0
  0
CIRCLE
  5
91E
330
2
100
AcDbEntity
  8
0
100
AcDbCircle
 10
379.1170308391665
 20
69.27032614397797
 30
0.0
 40
4.299999999999999
  0
ARC
  5
91F
330
2
100
AcDbEntity
  8
0
100
AcDbCircle
 10
379.1170308391665
 20
69.27032614397797
 30
0.0
 40
9.0
100
AcDbArc
 50
180.0
 51
270.0
  0
ARC
  5
920
330
2
100
AcDbEntity
  8
0
100
AcDbCircle
 10
397.9160428391667
 20
70.27032614397796
 30
0.0
 40
5.0
100
AcDbArc
 50
225.0
 51
270.0
  0
ARC
  5
921
330
2
100
AcDbEntity
  8
0
100
AcDbCircle
 10
380.1170308391665
 20
88.06931414397798
 30
0.0
 40
5.0
100
AcDbArc
 50
180.0
 51
225.0
  0
LINE
  5
922
330
2
100
AcDbEntity
  8
0
100
AcDbLine
 10
473.8535728391666
 20
66.73479214397798
 30
0.0
 11
491.6525838391664
 21
84.53378014397799
 31
0.0
  0
ARC
  5
923
330
2
100
AcDbEntity
  8
0
100
AcDbCircle
 10
470.3180508391667
 20
70.27032614397796
 30
0.0
 40
5.0
100
AcDbArc
 50
270.0
 51
315.0
  0
CIRCLE
  5
924
330
2
100
AcDbEntity
  8
0
100
AcDbCircle
 10
489.1170618391665
 20
69.27032614397797
 30
0.0
 40
4.299999999999999
  0
ARC
  5
925
330
2
100
AcDbEntity
  8
0
100
AcDbCircle
 10
488.1170618391665
 20
88.06931414397798
 30
0.0
 40
5.0
100
AcDbArc
 50
315.0
 51
0.0
  0
ARC
  5
926
330
2
100
AcDbEntity
  8
0
100
AcDbCircle
 10
489.1170618391665
 20
179.270326143978
 30
0.0
 40
9.0
100
AcDbArc
 50
0.0
 51
90.0
  0
LINE
  5
927
330
2
100
AcDbEntity
  8
CENTER
100
AcDbLine
 10
397.7185346891877
 20
140.270143143978
 30
0.0
 11
470.5155889891454
 21
140.270143143978
 31
0.0
  0
CIRCLE
  5
928
330
2
100
AcDbEntity
  8
0
100
AcDbCircle
 10
434.1170618391665
 20
140.2703241439779
 30
0.0
 40
17.5
  0
CIRCLE
  5
929
330
2
100
AcDbEntity
  8
0
100
AcDbCircle
 10
434.1170618391665
 20
140.2703241439779
 30
0.0
 40
17.5
  0
LINE
  5
92A
330
2
100
AcDbEntity
  8
CENTER
100
AcDbLine
 10
372.3170308391666
 20
179.270326143978
 30
0.0
 11
495.9170618391665
 21
179.270326143978
 31
0.0
  0
LINE
  5
92B
330
2
100
AcDbEntity
  8
0
100
AcDbLine
 10
489.1170618391665
 20
188.270326143978
 30
0.0
 11
379.1170308391665
 21
188.270326143978
 31
0.0
  0
ARC
  5
92C
330
2
100
AcDbEntity
  8
0
100
AcDbCircle
 10
434.1170618391665
 20
140.2703871439779
 30
0.0
 40
9.0
100
AcDbArc
 50
199.4728999999988
 51
160.530395999999
  0
LINE
  5
92D
330
2
100
AcDbEntity
  8
0
100
AcDbLine
 10
470.3180508391667
 20
183.270326143978
 30
0.0
 11
397.9160428391667
 21
183.270326143978
 31
0.0
  0
LINE
  5
92E
330
2
100
AcDbEntity
  8
0
100
AcDbLine
 10
376.5815088391666
 20
164.006868143978
 30
0.0
 11
394.3804898391665
 21
181.805860143978
 31
0.0
  0
ARC
  5
92F
330
2
100
AcDbEntity
  8
0
100
AcDbCircle
 10
380.1170308391665
 20
160.471334143978
 30
0.0
 40
5.0
100
AcDbArc
 50
135.0
 51
180.0
  0
LINE
  5
930
330
2
100
AcDbEntity
  8
0
100
AcDbLine
 10
422.6168478391667
 20
137.2701431439779
 30
0.0
 11
428.6170618391666
 21
137.2701431439779
 31
0.0
  0
LINE
  5
931
330
2
100
AcDbEntity
  8
0
100
AcDbLine
 10
422.6168478391667
 20
143.2701431439779
 30
0.0
 11
428.6170618391666
 21
143.2701431439779
 31
0.0
  0
LINE
  5
932
330
2
100
AcDbEntity
  8
0
100
AcDbLine
 10
422.6168478391667
 20
143.2701431439779
 30
0.0
 11
422.6168478391667
 21
137.2701431439779
 31
0.0
  0
LINE
  5
933
330
2
100
AcDbEntity
  8
0
100
AcDbLine
 10
428.6170618391666
 20
143.2701431439779
 30
0.0
 11
428.6170618391666
 21
137.2701431439779
 31
0.0
  0
CIRCLE
  5
934
330
2
100
AcDbEntity
  8
0
100
AcDbCircle
 10
379.1170308391665
 20
179.270326143978
 30
0.0
 40
4.299999999999999
  0
ARC
  5
935
330
2
100
AcDbEntity
  8
0
100
AcDbCircle
 10
379.1170308391665
 20
179.270326143978
 30
0.0
 40
9.0
100
AcDbArc
 50
90.0
 51
180.0
  0
ARC
  5
936
330
2
100
AcDbEntity
  8
0
100
AcDbCircle
 10
397.9160428391667
 20
178.270326143978
 30
0.0
 40
5.0
100
AcDbArc
 50
90.0
 51
135.0
  0
LINE
  5
937
330
2
100
AcDbEntity
  8
0
100
AcDbLine
 10
490.1881068391665
 20
165.471334143978
 30
0.0
 11
473.8535728391666
 21
181.805860143978
 31
0.0
  0
ARC
  5
938
330
2
100
AcDbEntity
  8
0
100
AcDbCircle
 10
483.1170618391666
 20
158.4002661439779
 30
0.0
 40
10.0
100
AcDbArc
 50
0.0
 51
45.0
  0
ARC
  5
939
330
2
100
AcDbEntity
  8
0
100
AcDbCircle
 10
470.3180508391667
 20
178.270326143978
 30
0.0
 40
5.0
100
AcDbArc
 50
45.0
 51
90.0
  0
CIRCLE
  5
93A
330
2
100
AcDbEntity
  8
0
100
AcDbCircle
 10
489.1170618391665
 20
179.270326143978
 30
0.0
 40
4.299999999999999
  0
TEXT
  5
93B
330
2
100
AcDbEntity
  8
TITLE
100
AcDbText
 10
41.64314590940364
 20
20.63722069151856
 30
0.0
 40
9.0
  1
VGKD18-5～30N200
100
AcDbText
  0
MTEXT
  5
94D
330
2
100
AcDbEntity
  8
TITLE
100
AcDbMText
 10
176.2398059900992
 20
33.11589771686161
 30
0.0
 40
5.6568
 41
23.355513
 71
     1
 72
     5
  1
L2\PL4
1001
ACAD
1000
MTEXTBEGIN
1070
    73
1070
     1
1070
    44
1040
1.0
1070
    74
1070
     0
1000
MTEXTEND
1000
MTEXTBEGIN
1070
    73
1070
     1
1070
    44
1040
1.0
1070
    74
1070
     0
1000
MTEXTEND
  0
LINE
  5
994
330
2
100
AcDbEntity
  8
0
100
AcDbLine
 10
218.335886114305
 20
293.3884128338086
 30
0.0
 11
218.335886114305
 21
420.3884128338086
 31
0.0
  0
LINE
  5
995
330
2
100
AcDbEntity
  8
0
100
AcDbLine
 10
208.335871114305
 20
420.2224888338086
 30
0.0
 11
208.335886114305
 21
293.5543068338086
 31
0.0
  0
LINE
  5
996
330
2
100
AcDbEntity
  8
0
100
AcDbLine
 10
164.3358861143051
 20
415.8884128338086
 30
0.0
 11
164.3358861143051
 21
297.8884128338086
 31
0.0
  0
LINE
  5
997
330
2
100
AcDbEntity
  8
0
100
AcDbLine
 10
158.3358861143051
 20
414.5290988338087
 30
0.0
 11
158.3358861143051
 21
299.2476968338086
 31
0.0
  0
LINE
  5
998
330
2
100
AcDbEntity
  8
0
100
AcDbLine
 10
149.835825114305
 20
414.3884738338086
 30
0.0
 11
149.8359471143051
 21
299.3884128338086
 31
0.0
  0
LINE
  5
999
330
2
100
AcDbEntity
  8
CENTER
100
AcDbLine
 10
262.3360841143051
 20
356.8884128338086
 30
0.0
 11
29.97205927990467
 21
356.8884128338086
 31
0.0
  0
LINE
  5
99A
330
2
100
AcDbEntity
  8
0
100
AcDbLine
 10
222.3359781143051
 20
332.3884128338086
 30
0.0
 11
222.3359781143051
 21
381.3884128338086
 31
0.0
  0
LINE
  5
99B
330
2
100
AcDbEntity
  8
0
100
AcDbLine
 10
208.8271581143051
 20
293.0543678338086
 30
0.0
 11
217.835962114305
 21
292.8971408338086
 31
0.0
  0
LINE
  5
99C
330
2
100
AcDbEntity
  8
HIDS
  6
SEKKEI_H
100
AcDbLine
 10
218.335886114305
 20
297.5883948338086
 30
0.0
 11
208.335886114305
 21
297.5883948338086
 31
0.0
  0
LINE
  5
99D
330
2
100
AcDbEntity
  8
CENTER
100
AcDbLine
 10
223.335886114305
 20
301.8884128338086
 30
0.0
 11
203.3358762140426
 21
301.8884128338086
 31
0.0
  0
LINE
  5
99E
330
2
100
AcDbEntity
  8
HIDS
  6
SEKKEI_H
100
AcDbLine
 10
218.335886114305
 20
306.1884008338086
 30
0.0
 11
208.335886114305
 21
306.1884008338086
 31
0.0
  0
LINE
  5
99F
330
2
100
AcDbEntity
  8
0
100
AcDbLine
 10
208.335886114305
 20
297.1203768338085
 30
0.0
 11
164.8358101143051
 21
297.8796848338086
 31
0.0
  0
LINE
  5
9A0
330
2
100
AcDbEntity
  8
0
100
AcDbLine
 10
149.8358861143051
 20
299.3884128338086
 30
0.0
 11
157.8244111143051
 21
299.3884128338086
 31
0.0
  0
LINE
  5
9A1
330
2
100
AcDbEntity
  8
0
100
AcDbLine
 10
160.266077114305
 20
298.0305338338086
 30
0.0
 11
164.3358861143051
 21
297.8884128338086
 31
0.0
  0
ARC
  5
9A2
330
2
100
AcDbEntity
  8
0
100
AcDbCircle
 10
157.8244111143051
 20
298.3884128338086
 30
0.0
 40
1.0
100
AcDbArc
 50
33.15920999999948
 51
90.0
  0
ARC
  5
9A3
330
2
100
AcDbEntity
  8
0
100
AcDbCircle
 10
160.3358861143051
 20
300.0293128338086
 30
0.0
 40
2.0
100
AcDbArc
 50
213.1592099999994
 51
267.9999920000003
  0
LINE
  5
9A4
330
2
100
AcDbEntity
  8
0
100
AcDbLine
 10
164.3358861143051
 20
298.3884128338086
 30
0.0
 11
164.8358101143051
 21
297.8796848338086
 31
0.0
  0
ARC
  5
9A5
330
2
100
AcDbEntity
  8
0
100
AcDbCircle
 10
208.835886114305
 20
293.5543068338086
 30
0.0
 40
0.5
100
AcDbArc
 50
180.0
 51
268.9999999999982
  0
LINE
  5
9A6
330
2
100
AcDbEntity
  8
0
100
AcDbLine
 10
218.335886114305
 20
293.3884128338086
 30
0.0
 11
217.835962114305
 21
292.8971408338086
 31
0.0
  0
LINE
  5
9A7
330
2
100
AcDbEntity
  8
0
100
AcDbLine
 10
221.8359781143051
 20
331.8884128338086
 30
0.0
 11
218.335871114305
 21
331.8884128338086
 31
0.0
  0
LINE
  5
9A8
330
2
100
AcDbEntity
  8
0
100
AcDbLine
 10
222.3359781143051
 20
332.3884128338086
 30
0.0
 11
221.8359781143051
 21
331.8884128338086
 31
0.0
  0
LINE
  5
9A9
330
2
100
AcDbEntity
  8
0
100
AcDbLine
 10
224.336084114305
 20
366.8884128338086
 30
0.0
 11
224.336084114305
 21
346.8884128338086
 31
0.0
  0
LINE
  5
9AA
330
2
100
AcDbEntity
  8
0
100
AcDbLine
 10
254.3360841143049
 20
365.8884128338086
 30
0.0
 11
254.3360841143049
 21
345.3884128338086
 31
0.0
  0
LINE
  5
9AB
330
2
100
AcDbEntity
  8
0
100
AcDbLine
 10
227.3360841143051
 20
348.4033968338086
 30
0.0
 11
254.3360841143049
 21
348.4033968338086
 31
0.0
  0
LINE
  5
9AC
330
2
100
AcDbEntity
  8
0
100
AcDbLine
 10
227.3360841143051
 20
345.3884128338086
 30
0.0
 11
254.3360841143049
 21
345.3884128338086
 31
0.0
  0
LINE
  5
9AD
330
2
100
AcDbEntity
  8
0
100
AcDbLine
 10
224.336084114305
 20
347.8884128338086
 30
0.0
 11
227.3360841143051
 21
347.8884128338086
 31
0.0
  0
LINE
  5
9AE
330
2
100
AcDbEntity
  8
0
100
AcDbLine
 10
222.3360841143051
 20
346.8884128338086
 30
0.0
 11
224.336084114305
 21
346.8884128338086
 31
0.0
  0
LINE
  5
9AF
330
2
100
AcDbEntity
  8
0
100
AcDbLine
 10
227.3360841143051
 20
348.4033968338086
 30
0.0
 11
227.3360841143051
 21
345.3884128338086
 31
0.0
  0
LINE
  5
9B0
330
2
100
AcDbEntity
  8
0
100
AcDbLine
 10
224.336084114305
 20
365.8883518338086
 30
0.0
 11
254.3360841143049
 21
365.8884128338086
 31
0.0
  0
LINE
  5
9B1
330
2
100
AcDbEntity
  8
0
100
AcDbLine
 10
222.3360841143051
 20
366.8884128338086
 30
0.0
 11
224.336084114305
 21
366.8884128338086
 31
0.0
  0
LINE
  5
9B2
330
2
100
AcDbEntity
  8
0
100
AcDbLine
 10
221.8359781143051
 20
381.8884128338086
 30
0.0
 11
218.335886114305
 21
381.8884128338086
 31
0.0
  0
LINE
  5
9B3
330
2
100
AcDbEntity
  8
0
100
AcDbLine
 10
221.8359781143051
 20
381.8884128338086
 30
0.0
 11
222.3359781143051
 21
381.3884128338086
 31
0.0
  0
LINE
  5
9B4
330
2
100
AcDbEntity
  8
0
100
AcDbLine
 10
208.8271581143051
 20
420.7224278338086
 30
0.0
 11
217.835962114305
 21
420.8796848338086
 31
0.0
  0
LINE
  5
9B5
330
2
100
AcDbEntity
  8
HIDS
  6
SEKKEI_H
100
AcDbLine
 10
218.335886114305
 20
416.1884008338086
 30
0.0
 11
208.335871114305
 21
416.1884008338086
 31
0.0
  0
LINE
  5
9B6
330
2
100
AcDbEntity
  8
CENTER
100
AcDbLine
 10
223.335886114305
 20
411.8884128338086
 30
0.0
 11
203.3358714734712
 21
411.8884128338086
 31
0.0
  0
LINE
  5
9B7
330
2
100
AcDbEntity
  8
HIDS
  6
SEKKEI_H
100
AcDbLine
 10
218.335886114305
 20
407.5883948338087
 30
0.0
 11
208.335886114305
 21
407.5883948338087
 31
0.0
  0
LINE
  5
9B8
330
2
100
AcDbEntity
  8
0
100
AcDbLine
 10
208.335871114305
 20
416.6564188338086
 30
0.0
 11
164.8358101143051
 21
415.8971408338086
 31
0.0
  0
LINE
  5
9B9
330
2
100
AcDbEntity
  8
0
100
AcDbLine
 10
149.8358861143051
 20
414.3884128338085
 30
0.0
 11
157.8244111143051
 21
414.3884128338085
 31
0.0
  0
LINE
  5
9BA
330
2
100
AcDbEntity
  8
0
100
AcDbLine
 10
160.266077114305
 20
415.7462928338086
 30
0.0
 11
164.3358861143051
 21
415.8884128338086
 31
0.0
  0
ARC
  5
9BB
330
2
100
AcDbEntity
  8
0
100
AcDbCircle
 10
160.3358861143051
 20
413.7475138338086
 30
0.0
 40
2.0
100
AcDbArc
 50
92.00000799999966
 51
146.8407900000005
  0
ARC
  5
9BC
330
2
100
AcDbEntity
  8
0
100
AcDbCircle
 10
157.8244111143051
 20
415.3884128338086
 30
0.0
 40
1.0
100
AcDbArc
 50
270.0
 51
326.8407900000005
  0
LINE
  5
9BD
330
2
100
AcDbEntity
  8
0
100
AcDbLine
 10
164.3358861143051
 20
415.3884128338086
 30
0.0
 11
164.8358101143051
 21
415.8971408338086
 31
0.0
  0
ARC
  5
9BE
330
2
100
AcDbEntity
  8
0
100
AcDbCircle
 10
208.835871114305
 20
420.2224888338086
 30
0.0
 40
0.5
100
AcDbArc
 50
90.9999999999985
 51
180.0
  0
LINE
  5
9BF
330
2
100
AcDbEntity
  8
0
100
AcDbLine
 10
217.835962114305
 20
420.8796848338086
 30
0.0
 11
218.335886114305
 21
420.3884128338086
 31
0.0
  0
LINE
  5
3EED
330
2
100
AcDbEntity
  8
0
100
AcDbLine
 10
139.8358901143371
 20
352.7807973483413
 30
0.0
 11
139.8358901143376
 21
300.7150118338086
 31
0.0
  0
LINE
  5
3EEE
330
2
100
AcDbEntity
  8
0
100
AcDbLine
 10
82.33592511433744
 20
407.7806637689013
 30
0.0
 11
82.33592511433744
 21
323.8876650952952
 31
0.0
  0
LINE
  5
3EEF
330
2
100
AcDbEntity
  8
0
100
AcDbLine
 10
38.33572460341793
 20
394.0668108338086
 30
0.0
 11
38.33665751455805
 21
319.7653173878966
 31
0.0
  0
LINE
  5
3EF0
330
2
100
AcDbEntity
  8
0
100
AcDbLine
 10
68.33598511433774
 20
316.4921469319819
 30
0.0
 11
41.31231760341779
 21
316.7086148338087
 31
0.0
  0
ARC
  5
3EF1
330
2
100
AcDbEntity
  8
0
100
AcDbCircle
 10
41.33612160341795
 20
319.7086148338087
 30
0.0
 40
3.0
100
AcDbArc
 50
180.0
 51
269.5405269999959
  0
LINE
  5
3EF2
330
2
100
AcDbEntity
  8
0
100
AcDbLine
 10
96.03586811433775
 20
314.1123641353729
 30
0.0
 11
138.1596701143373
 21
313.7447318338085
 31
0.0
  0
LINE
  5
3EF3
330
2
100
AcDbEntity
  8
0
100
AcDbLine
 10
96.03586811433752
 20
309.1826588508752
 30
0.0
 11
138.1596701143373
 21
308.8150138338087
 31
0.0
  0
LINE
  5
3EF4
330
2
100
AcDbEntity
  8
0
100
AcDbLine
 10
139.3402691143373
 20
306.1013108338088
 30
0.0
 11
96.59041974137426
 21
306.4744170586038
 31
0.0
  0
LINE
  5
3EF5
330
2
100
AcDbEntity
  8
0
100
AcDbLine
 10
92.83592511433743
 20
305.985389814032
 30
0.0
 11
138.1596701143373
 21
305.5898138338088
 31
0.0
  0
LINE
  5
3EF6
330
2
100
AcDbEntity
  8
0
100
AcDbLine
 10
96.85332025335856
 20
307.5912344030296
 30
0.0
 11
139.3402691143373
 21
307.9620138338086
 31
0.0
  0
LINE
  5
3EF7
330
2
100
AcDbEntity
  8
0
100
AcDbLine
 10
97.22655195890183
 20
312.5732841319461
 30
0.0
 11
138.8446681143373
 21
312.9365318338086
 31
0.0
  0
LINE
  5
3EF8
330
2
100
AcDbEntity
  8
0
100
AcDbLine
 10
138.8446681143373
 20
310.9649318338087
 30
0.0
 11
97.18518887512528
 21
311.3284244363528
 31
0.0
  0
LINE
  5
3EF9
330
2
100
AcDbEntity
  8
0
100
AcDbLine
 10
139.8358901143374
 20
302.7811128338087
 30
0.0
 11
90.33592511433743
 21
303.2130533983036
 31
0.0
  0
LINE
  5
3EFA
330
2
100
AcDbEntity
  8
0
100
AcDbLine
 10
139.8358901143374
 20
301.1091118338085
 30
0.0
 11
90.33592511433743
 21
301.5411307870417
 31
0.0
  0
LINE
  5
3EFB
330
2
100
AcDbEntity
  8
0
100
AcDbLine
 10
90.33592511433743
 20
304.041988433011
 30
0.0
 11
139.8358901143374
 21
304.4740148338087
 31
0.0
  0
LINE
  5
3EFC
330
2
100
AcDbEntity
  8
0
100
AcDbLine
 10
138.8446681143373
 20
317.2197118338085
 30
0.0
 11
89.33592511433744
 21
317.6517148338086
 31
0.0
  0
LINE
  5
3EFD
330
2
100
AcDbEntity
  8
0
100
AcDbLine
 10
89.33592511433744
 20
318.8184318338087
 30
0.0
 11
138.8446681143373
 21
319.2505348338086
 31
0.0
  0
LINE
  5
3EFE
330
2
100
AcDbEntity
  8
0
100
AcDbLine
 10
89.33588611433743
 20
326.2757328338088
 30
0.0
 11
138.8444841143373
 21
326.7077528338086
 31
0.0
  0
LINE
  5
3EFF
330
2
100
AcDbEntity
  8
0
100
AcDbLine
 10
138.8444841143373
 20
324.3807908338087
 30
0.0
 11
89.33588611433743
 21
324.8127938338088
 31
0.0
  0
LINE
  5
3F00
330
2
100
AcDbEntity
  8
0
100
AcDbLine
 10
88.46768611433754
 20
327.7409518338085
 30
0.0
 11
138.1594871143374
 21
327.3071728338086
 31
0.0
  0
LINE
  5
3F01
330
2
100
AcDbEntity
  8
0
100
AcDbLine
 10
88.46780511433735
 20
320.4055138338087
 30
0.0
 11
138.1596701143373
 21
319.9719318338088
 31
0.0
  0
ARC
  5
3F02
330
2
100
AcDbEntity
  8
0
100
AcDbCircle
 10
96.83586711433759
 20
309.5911582485641
 30
0.0
 40
2.0
100
AcDbArc
 50
180.0
 51
270.5000019488311
  0
LINE
  5
3F03
330
2
100
AcDbEntity
  8
0
100
AcDbLine
 10
94.83586711433758
 20
309.5911582485641
 30
0.0
 11
94.83586711433735
 21
308.2443496501646
 31
0.0
  0
LINE
  5
3F04
330
2
100
AcDbEntity
  8
0
100
AcDbLine
 10
90.33592511433743
 20
296.3395645931568
 30
0.0
 11
90.33592511433743
 21
311.8650283275569
 31
0.0
  0
LINE
  5
3F05
330
2
100
AcDbEntity
  8
0
100
AcDbLine
 10
84.33592511433744
 20
296.1716849168565
 30
0.0
 11
84.33592511433744
 21
311.8650283275569
 31
0.0
  0
LINE
  5
3F06
330
2
100
AcDbEntity
  8
0
100
AcDbLine
 10
92.83592511433743
 20
317.0459658332329
 30
0.0
 11
92.83592511433743
 21
304.3900781163045
 31
0.0
  0
SPLINE
  5
3F07
330
2
100
AcDbEntity
  8
HOJO
100
AcDbSpline
210
0.0
220
0.0
230
1.0
 70
     8
 71
     3
 72
    10
 73
     6
 74
     4
 42
0.0000000001
 43
0.0000000001
 44
0.0000000001
 40
0.0
 40
0.0
 40
0.0
 40
0.0
 40
2.063057496465506
 40
5.25746680811693
 40
6.976405309929111
 40
6.976405309929111
 40
6.976405309929111
 40
6.976405309929111
 10
84.33592511433744
 20
296.1716849168565
 30
0.0
 10
84.91858156744376
 20
296.7461251371966
 30
0.0
 10
86.40341510600958
 20
298.21002054334
 30
0.0
 10
88.32682321397395
 20
294.8193447490184
 30
0.0
 10
89.8152113745454
 20
295.9455580172812
 30
0.0
 10
90.33592511433743
 20
296.3395645931568
 30
0.0
 11
84.33592511433744
 21
296.1716849168565
 31
0.0
 11
86.07845275149793
 21
297.2761321394319
 31
0.0
 11
88.79015661395214
 21
295.5876674484429
 31
0.0
 11
90.33592511433743
 21
296.3395645931568
 31
0.0
  0
LINE
  5
3F08
330
2
100
AcDbEntity
  8
0
100
AcDbLine
 10
82.33591295981739
 20
303.9411958437615
 30
0.0
 11
84.33592511433744
 21
303.9411958437613
 31
0.0
  0
LINE
  5
3F09
330
2
100
AcDbEntity
  8
0
100
AcDbLine
 10
90.33592511433743
 20
304.3900781163045
 30
0.0
 11
92.83592511433743
 21
304.3900781163045
 31
0.0
  0
ARC
  5
3F0A
330
2
100
AcDbEntity
  8
0
100
AcDbCircle
 10
96.60586711433735
 20
308.2443496501646
 30
0.0
 40
1.77
100
AcDbArc
 50
180.0
 51
269.4999545134775
  0
LINE
  5
3F0B
330
2
100
AcDbEntity
  8
0
100
AcDbLine
 10
81.33588611433765
 20
316.388013720149
 30
0.0
 11
70.33598511433774
 21
316.4761263158506
 31
0.0
  0
LINE
  5
3F0C
330
2
100
AcDbEntity
  8
0
100
AcDbLine
 10
85.83592511433744
 20
323.887665095295
 30
0.0
 11
85.83592511433744
 21
315.2436315068976
 31
0.0
  0
ARC
  5
3F0D
330
2
100
AcDbEntity
  8
0
100
AcDbCircle
 10
88.9661271143375
 20
320.5942308338087
 30
0.0
 40
1.673817999999999
100
AcDbArc
 50
207.4174040000065
 51
231.3923950000056
  0
LINE
  5
3F0E
330
2
100
AcDbEntity
  8
0
100
AcDbLine
 10
87.33592511433744
 20
319.2488138338087
 30
0.0
 11
87.33592511433744
 21
320.4154328338085
 31
0.0
  0
ARC
  5
3F0F
330
2
100
AcDbEntity
  8
0
100
AcDbCircle
 10
89.1900051143375
 20
320.8745118338088
 30
0.0
 40
2.032614
100
AcDbArc
 50
231.3923950000056
 51
251.6983030000046
  0
LINE
  5
3F10
330
2
100
AcDbEntity
  8
0
100
AcDbLine
 10
82.33592511433744
 20
315.2436315068976
 30
0.0
 11
92.83592511433743
 21
315.2436315068976
 31
0.0
  0
ELLIPSE
  5
3F11
330
2
100
AcDbEntity
  8
0
100
AcDbEllipse
 10
87.33592511433744
 20
311.8650283275569
 30
0.0
 11
-3.0
 21
0.0
 31
0.0
210
0.0
220
0.0
230
1.0
 40
0.5083333333333448
 41
3.141592653589793
 42
6.283185307179586
  0
ARC
  5
3F12
330
2
100
AcDbEntity
  8
0
100
AcDbCircle
 10
97.20586711433771
 20
314.9431938638147
 30
0.0
 40
2.37
100
AcDbArc
 50
180.0
 51
270.5000714515918
  0
LINE
  5
3F13
330
2
100
AcDbEntity
  8
0
100
AcDbLine
 10
94.83586711433758
 20
313.6983342258645
 30
0.0
 11
94.83586711433758
 21
314.9431938638147
 31
0.0
  0
ARC
  5
3F14
330
2
100
AcDbEntity
  8
0
100
AcDbCircle
 10
97.20586711433794
 20
313.6983342258645
 30
0.0
 40
2.37
100
AcDbArc
 50
180.0
 51
269.5000882417261
  0
LINE
  5
3F15
330
2
100
AcDbEntity
  8
0
100
AcDbLine
 10
85.83592511433744
 20
317.0459658332329
 30
0.0
 11
92.83592511433743
 21
317.0459658332329
 31
0.0
  0
ARC
  5
3F16
330
2
100
AcDbEntity
  8
0
100
AcDbCircle
 10
88.9661271143375
 20
319.4275138338086
 30
0.0
 40
1.673817999999999
100
AcDbArc
 50
207.4174040000065
 51
231.3923950000056
  0
ARC
  5
3F17
330
2
100
AcDbEntity
  8
0
100
AcDbCircle
 10
89.1900051143375
 20
319.7079128338086
 30
0.0
 40
2.032614
100
AcDbArc
 50
231.3923950000056
 51
251.6983030000046
  0
ARC
  5
3F18
330
2
100
AcDbEntity
  8
0
100
AcDbCircle
 10
88.62158711433744
 20
319.2488138338087
 30
0.0
 40
1.285679
100
AcDbArc
 50
180.0
 51
207.4174040000065
  0
ARC
  5
3F19
330
2
100
AcDbEntity
  8
0
100
AcDbCircle
 10
89.33592511433744
 20
320.1490138338085
 30
0.0
 40
2.497222
100
AcDbArc
 50
251.6983030000046
 51
270.0
  0
ARC
  5
3F1A
330
2
100
AcDbEntity
  8
0
100
AcDbCircle
 10
89.33592511433744
 20
321.3156128338086
 30
0.0
 40
2.497222
100
AcDbArc
 50
251.6983030000046
 51
270.0
  0
LINE
  5
3F1B
330
2
100
AcDbEntity
  8
0
100
AcDbLine
 10
82.33592511433744
 20
323.8876650952952
 30
0.0
 11
85.83592511433721
 21
323.887665095295
 31
0.0
  0
LINE
  5
3F1C
330
2
100
AcDbEntity
  8
0
100
AcDbLine
 10
81.8359129598175
 20
322.8876650952952
 30
0.0
 11
85.83592511433744
 21
322.887665095295
 31
0.0
  0
ARC
  5
3F1D
330
2
100
AcDbEntity
  8
0
100
AcDbCircle
 10
88.62158711433744
 20
320.4154328338085
 30
0.0
 40
1.285679
100
AcDbArc
 50
180.0
 51
207.4174040000065
  0
ARC
  5
3F1E
330
2
100
AcDbEntity
  8
0
100
AcDbCircle
 10
88.43786611433733
 20
327.7507728338087
 30
0.0
 40
1.102084999999999
100
AcDbArc
 50
180.0
 51
209.3200990000181
  0
ARC
  5
3F1F
330
2
100
AcDbEntity
  8
0
100
AcDbCircle
 10
88.43786611433733
 20
326.2877738338088
 30
0.0
 40
1.102084999999999
100
AcDbArc
 50
180.0
 51
209.3200990000181
  0
ARC
  5
3F20
330
2
100
AcDbEntity
  8
0
100
AcDbCircle
 10
89.15168611433728
 20
328.3755938338085
 30
0.0
 40
2.072293999999999
100
AcDbArc
 50
233.5906980000061
 51
253.0127030000071
  0
ARC
  5
3F21
330
2
100
AcDbEntity
  8
0
100
AcDbCircle
 10
89.15168611433728
 20
326.9125728338085
 30
0.0
 40
2.072293999999999
100
AcDbArc
 50
233.5906980000061
 51
253.0127030000071
  0
ARC
  5
3F22
330
2
100
AcDbEntity
  8
0
100
AcDbCircle
 10
88.8696651143373
 20
326.5303728338085
 30
0.0
 40
1.597306999999999
100
AcDbArc
 50
209.3200990000181
 51
233.5906980000061
  0
ARC
  5
3F23
330
2
100
AcDbEntity
  8
0
100
AcDbCircle
 10
89.33588611433743
 20
327.5156118338086
 30
0.0
 40
2.702782
100
AcDbArc
 50
253.0127030000071
 51
270.0
  0
ARC
  5
3F24
330
2
100
AcDbEntity
  8
0
100
AcDbCircle
 10
89.33588611433743
 20
328.9786128338087
 30
0.0
 40
2.702782
100
AcDbArc
 50
253.0127030000071
 51
270.0
  0
ARC
  5
3F25
330
2
100
AcDbEntity
  8
0
100
AcDbCircle
 10
88.8696651143373
 20
327.9931528338088
 30
0.0
 40
1.597306999999999
100
AcDbArc
 50
209.3200990000181
 51
233.5906980000061
  0
LINE
  5
3F26
330
2
100
AcDbEntity
  8
0
100
AcDbLine
 10
87.33588611433743
 20
326.2877738338088
 30
0.0
 11
87.33588611433743
 21
327.7507728338087
 31
0.0
  0
LINE
  5
3F27
330
2
100
AcDbEntity
  8
0
100
AcDbLine
 10
149.8358861143374
 20
299.6384128338086
 30
0.0
 11
140.8273681143373
 21
299.7151108338087
 31
0.0
  0
ARC
  5
3F28
330
2
100
AcDbEntity
  8
0
100
AcDbCircle
 10
140.8358901143374
 20
300.7150118338086
 30
0.0
 40
1.0
100
AcDbArc
 50
180.0
 51
269.5122069999976
  0
ARC
  5
3F29
330
2
100
AcDbEntity
  8
0
100
AcDbCircle
 10
139.3358901143374
 20
308.4620138338086
 30
0.0
 40
0.5
100
AcDbArc
 50
270.5000000000045
 51
0.0
  0
ARC
  5
3F2A
330
2
100
AcDbEntity
  8
0
100
AcDbCircle
 10
139.3358901143374
 20
305.6013108338088
 30
0.0
 40
0.5
100
AcDbArc
 50
0.0
 51
89.49999999999542
  0
ARC
  5
3F2B
330
2
100
AcDbEntity
  8
0
100
AcDbCircle
 10
138.8358901143374
 20
320.2504128338087
 30
0.0
 40
1.0
100
AcDbArc
 50
270.5000000000045
 51
0.0
  0
ARC
  5
3F2C
330
2
100
AcDbEntity
  8
0
100
AcDbCircle
 10
138.8358901143374
 20
309.9649318338088
 30
0.0
 40
1.0
100
AcDbArc
 50
0.0
 51
89.49999999999542
  0
ARC
  5
3F2D
330
2
100
AcDbEntity
  8
0
100
AcDbCircle
 10
138.8358901143374
 20
313.9364128338088
 30
0.0
 40
1.0
100
AcDbArc
 50
270.5000000000045
 51
0.0
  0
ARC
  5
3F2E
330
2
100
AcDbEntity
  8
0
100
AcDbCircle
 10
138.8358901143374
 20
316.2197118338085
 30
0.0
 40
1.0
100
AcDbArc
 50
0.0
 51
89.49999999999542
  0
ARC
  5
3F2F
330
2
100
AcDbEntity
  8
0
100
AcDbCircle
 10
138.8358861143374
 20
323.3807908338087
 30
0.0
 40
1.0
100
AcDbArc
 50
0.0
 51
89.49999999999542
  0
ARC
  5
3F30
330
2
100
AcDbEntity
  8
0
100
AcDbCircle
 10
138.8358861143374
 20
327.7077528338086
 30
0.0
 40
1.0
100
AcDbArc
 50
270.4999999999915
 51
0.0
  0
LINE
  5
3F31
330
2
100
AcDbEntity
  8
0
100
AcDbLine
 10
81.33567994283271
 20
397.3880114753979
 30
0.0
 11
41.31173860341777
 21
397.0668108338086
 31
0.0
  0
ARC
  5
3F32
330
2
100
AcDbEntity
  8
0
100
AcDbCircle
 10
41.33572460341793
 20
394.0668108338086
 30
0.0
 40
3.0
100
AcDbArc
 50
90.45947300000403
 51
180.0
  0
LINE
  5
3F33
330
2
100
AcDbEntity
  8
0
100
AcDbLine
 10
139.8358901143371
 20
413.0618138338085
 30
0.0
 11
139.8358901143374
 21
360.996028319276
 31
0.0
  0
ARC
  5
3F34
330
2
100
AcDbEntity
  8
0
100
AcDbCircle
 10
89.33592511433744
 20
410.2269138338088
 30
0.0
 40
2.0
100
AcDbArc
 50
90.50000000000457
 51
180.0
  0
LINE
  5
3F35
330
2
100
AcDbEntity
  8
0
100
AcDbLine
 10
87.33588611433743
 20
370.8320168338086
 30
0.0
 11
87.33588611433743
 21
368.9490808338086
 31
0.0
  0
LINE
  5
3F36
330
2
100
AcDbEntity
  8
0
100
AcDbLine
 10
138.8446153765403
 20
362.7536236769328
 30
0.0
 11
89.33588611433743
 21
362.3214325310669
 31
0.0
  0
LINE
  5
3F37
330
2
100
AcDbEntity
  8
0
100
AcDbLine
 10
139.8358861143374
 20
360.9960282843576
 30
0.0
 11
87.33588611433743
 21
360.537724556993
 31
0.0
  0
LINE
  5
3F38
330
2
100
AcDbEntity
  8
0
100
AcDbLine
 10
89.33588611433743
 20
370.0904388338085
 30
0.0
 11
138.8444841143373
 21
369.6584328338085
 31
0.0
  0
LINE
  5
3F39
330
2
100
AcDbEntity
  8
0
100
AcDbLine
 10
88.46768611433754
 20
368.9588468338088
 30
0.0
 11
138.1594871143374
 21
369.3926848338087
 31
0.0
  0
LINE
  5
3F3A
330
2
100
AcDbEntity
  8
0
100
AcDbLine
 10
138.8446153765401
 20
351.0232019906847
 30
0.0
 11
89.33588611433743
 21
351.4553931365505
 31
0.0
  0
LINE
  5
3F3B
330
2
100
AcDbEntity
  8
0
100
AcDbLine
 10
139.8358861143374
 20
352.7807973832596
 30
0.0
 11
87.33588611433743
 21
353.2391011106244
 31
0.0
  0
LINE
  5
3F3C
330
2
100
AcDbEntity
  8
0
100
AcDbLine
 10
138.8444841143373
 20
341.3712008338088
 30
0.0
 11
89.33588611433743
 21
341.8033908338088
 31
0.0
  0
LINE
  5
3F3D
330
2
100
AcDbEntity
  8
0
100
AcDbLine
 10
89.33588611433743
 20
343.6863868338086
 30
0.0
 11
138.8444841143373
 21
344.1183928338086
 31
0.0
  0
LINE
  5
3F3E
330
2
100
AcDbEntity
  8
0
100
AcDbLine
 10
88.46768611433754
 20
344.8179788338088
 30
0.0
 11
138.1594871143374
 21
344.3841408338087
 31
0.0
  0
LINE
  5
3F3F
330
2
100
AcDbEntity
  8
0
100
AcDbLine
 10
138.8444841143373
 20
332.5053528338087
 30
0.0
 11
89.33588611433743
 21
332.9376128338085
 31
0.0
  0
LINE
  5
3F40
330
2
100
AcDbEntity
  8
0
100
AcDbLine
 10
89.33588611433743
 20
334.6500128338088
 30
0.0
 11
138.8444841143373
 21
335.0820128338086
 31
0.0
  0
LINE
  5
3F41
330
2
100
AcDbEntity
  8
0
100
AcDbLine
 10
88.46768611433754
 20
335.9615328338086
 30
0.0
 11
138.1594871143374
 21
335.5279338338086
 31
0.0
  0
LINE
  5
3F42
330
2
100
AcDbEntity
  8
0
100
AcDbLine
 10
81.33588611433765
 20
334.0036098918287
 30
0.0
 11
82.33592511433744
 21
334.003609891829
 31
0.0
  0
LINE
  5
3F43
330
2
100
AcDbEntity
  8
0
100
AcDbLine
 10
87.33588611433743
 20
334.2591328338087
 30
0.0
 11
87.33588611433743
 21
335.9715328338088
 31
0.0
  0
ARC
  5
3F44
330
2
100
AcDbEntity
  8
0
100
AcDbCircle
 10
88.75888611433721
 20
334.5914118338086
 30
0.0
 40
1.518545999999999
100
AcDbArc
 50
212.0805969999979
 51
236.5428999999854
  0
ARC
  5
3F45
330
2
100
AcDbEntity
  8
0
100
AcDbCircle
 10
88.22848511433722
 20
334.2591328338087
 30
0.0
 40
0.8926999999999999
100
AcDbArc
 50
180.0
 51
212.0805969999979
  0
ARC
  5
3F46
330
2
100
AcDbEntity
  8
0
100
AcDbCircle
 10
89.10748711433734
 20
335.1190128338087
 30
0.0
 40
2.150825999999999
100
AcDbArc
 50
236.5428999999854
 51
254.6921010000034
  0
ARC
  5
3F47
330
2
100
AcDbEntity
  8
0
100
AcDbCircle
 10
89.33588611433743
 20
335.9535928338086
 30
0.0
 40
3.016093999999999
100
AcDbArc
 50
254.6921010000034
 51
270.0
  0
ARC
  5
3F48
330
2
100
AcDbEntity
  8
0
100
AcDbCircle
 10
88.75888611433721
 20
336.3039328338086
 30
0.0
 40
1.518545999999999
100
AcDbArc
 50
212.0805969999979
 51
236.5428999999854
  0
ARC
  5
3F49
330
2
100
AcDbEntity
  8
0
100
AcDbCircle
 10
89.10748711433734
 20
336.8314138338087
 30
0.0
 40
2.150825999999999
100
AcDbArc
 50
236.5428999999854
 51
254.6921010000034
  0
ARC
  5
3F4A
330
2
100
AcDbEntity
  8
0
100
AcDbCircle
 10
88.22848511433722
 20
335.9715328338088
 30
0.0
 40
0.8926999999999999
100
AcDbArc
 50
180.0
 51
212.0805969999979
  0
ARC
  5
3F4B
330
2
100
AcDbEntity
  8
0
100
AcDbCircle
 10
89.33588611433743
 20
337.6660008338085
 30
0.0
 40
3.016093999999999
100
AcDbArc
 50
254.6921010000034
 51
270.0
  0
ARC
  5
3F4C
330
2
100
AcDbEntity
  8
0
100
AcDbCircle
 10
88.64328611433757
 20
345.2851408338087
 30
0.0
 40
1.455952
100
AcDbArc
 50
215.9710999999959
 51
240.2855990000014
  0
ARC
  5
3F4D
330
2
100
AcDbEntity
  8
0
100
AcDbCircle
 10
88.01306511433722
 20
344.8277448338085
 30
0.0
 40
0.6772650000000001
100
AcDbArc
 50
180.0
 51
215.9710999999959
  0
ARC
  5
3F4E
330
2
100
AcDbEntity
  8
0
100
AcDbCircle
 10
88.01306511433722
 20
342.9448088338085
 30
0.0
 40
0.6772650000000001
100
AcDbArc
 50
180.0
 51
215.9710999999959
  0
ARC
  5
3F4F
330
2
100
AcDbEntity
  8
0
100
AcDbCircle
 10
88.64328611433757
 20
343.4022068338085
 30
0.0
 40
1.455952
100
AcDbArc
 50
215.9710999999959
 51
240.2855990000014
  0
ARC
  5
3F50
330
2
100
AcDbEntity
  8
0
100
AcDbCircle
 10
89.06128711433757
 20
344.1343848338088
 30
0.0
 40
2.298955999999999
100
AcDbArc
 50
240.2855990000014
 51
256.6994019999928
  0
LINE
  5
3F51
330
2
100
AcDbEntity
  8
0
100
AcDbLine
 10
87.33588611433743
 20
342.9448088338085
 30
0.0
 11
87.33588611433743
 21
344.8277448338085
 31
0.0
  0
ARC
  5
3F52
330
2
100
AcDbEntity
  8
0
100
AcDbCircle
 10
89.06128711433757
 20
346.0173808338085
 30
0.0
 40
2.298955999999999
100
AcDbArc
 50
240.2855990000014
 51
256.6994019999928
  0
ARC
  5
3F53
330
2
100
AcDbEntity
  8
0
100
AcDbCircle
 10
89.33588611433743
 20
345.2961888338086
 30
0.0
 40
3.492887999999999
100
AcDbArc
 50
256.6994019999928
 51
270.0
  0
ARC
  5
3F54
330
2
100
AcDbEntity
  8
0
100
AcDbCircle
 10
89.33588611433743
 20
347.1791848338089
 30
0.0
 40
3.492887999999999
100
AcDbArc
 50
256.6994019999928
 51
270.0
  0
LINE
  5
3F55
330
2
100
AcDbEntity
  8
0
100
AcDbLine
 10
86.0359061143372
 20
361.6384128338086
 30
0.0
 11
86.0359061143372
 21
352.1384128338086
 31
0.0
  0
ARC
  5
3F56
330
2
100
AcDbEntity
  8
0
100
AcDbCircle
 10
90.33588611433742
 20
356.8884128338086
 30
0.0
 40
8.0
100
AcDbArc
 50
147.6076050000002
 51
212.3923949999997
  0
LINE
  5
3F57
330
2
100
AcDbEntity
  8
0
100
AcDbLine
 10
87.33588611433743
 20
351.3935085064517
 30
0.0
 11
87.33588611433743
 21
362.3884128338086
 31
0.0
  0
LINE
  5
3F58
330
2
100
AcDbEntity
  8
0
100
AcDbLine
 10
86.0359061143372
 20
352.1384128338086
 30
0.0
 11
84.42508511433743
 21
352.1384128338086
 31
0.0
  0
LINE
  5
3F59
330
2
100
AcDbEntity
  8
0
100
AcDbLine
 10
83.33588611433743
 20
351.3935085064517
 30
0.0
 11
87.33588611433743
 21
351.3935085064517
 31
0.0
  0
ARC
  5
3F5A
330
2
100
AcDbEntity
  8
0
100
AcDbCircle
 10
83.33588611433743
 20
350.3935085064517
 30
0.0
 40
1.0
100
AcDbArc
 50
90.0
 51
180.0
  0
ARC
  5
3F5B
330
2
100
AcDbEntity
  8
0
100
AcDbCircle
 10
84.42508511433743
 20
353.1384128338086
 30
0.0
 40
1.0
100
AcDbArc
 50
212.3923949999997
 51
270.0
  0
LINE
  5
3F5C
330
2
100
AcDbEntity
  8
0
100
AcDbLine
 10
87.33588611433743
 20
352.0807948338088
 30
0.0
 11
87.33588611433743
 21
354.0504008338089
 31
0.0
  0
LINE
  5
3F5D
330
2
100
AcDbEntity
  8
0
100
AcDbLine
 10
86.0359061143372
 20
352.2883728338088
 30
0.0
 11
87.33588611433743
 21
352.2883728338088
 31
0.0
  0
LINE
  5
3F5E
330
2
100
AcDbEntity
  8
0
100
AcDbLine
 10
86.0359061143372
 20
361.6384128338086
 30
0.0
 11
84.42508511433743
 21
361.6384128338086
 31
0.0
  0
LINE
  5
3F5F
330
2
100
AcDbEntity
  8
0
100
AcDbLine
 10
83.33588611433743
 20
362.3884128338086
 30
0.0
 11
87.33588611433743
 21
362.3884128338086
 31
0.0
  0
ARC
  5
3F60
330
2
100
AcDbEntity
  8
0
100
AcDbCircle
 10
83.33588611433743
 20
363.3884128338086
 30
0.0
 40
1.0
100
AcDbArc
 50
180.0
 51
270.0
  0
ARC
  5
3F61
330
2
100
AcDbEntity
  8
0
100
AcDbCircle
 10
84.42508511433743
 20
360.6384128338086
 30
0.0
 40
1.0
100
AcDbArc
 50
90.0
 51
147.6076050000002
  0
LINE
  5
3F62
330
2
100
AcDbEntity
  8
0
100
AcDbLine
 10
86.0359061143372
 20
361.4881928338086
 30
0.0
 11
87.33588611433743
 21
361.4881928338086
 31
0.0
  0
ARC
  5
3F63
330
2
100
AcDbEntity
  8
0
100
AcDbCircle
 10
88.64328611433757
 20
368.4916848338088
 30
0.0
 40
1.455952
100
AcDbArc
 50
119.7144009999985
 51
144.028900000004
  0
ARC
  5
3F64
330
2
100
AcDbEntity
  8
0
100
AcDbCircle
 10
88.01306511433722
 20
368.9490808338086
 30
0.0
 40
0.6772650000000001
100
AcDbArc
 50
144.028900000004
 51
180.0
  0
ARC
  5
3F65
330
2
100
AcDbEntity
  8
0
100
AcDbCircle
 10
89.06128711433757
 20
367.7594448338086
 30
0.0
 40
2.298955999999999
100
AcDbArc
 50
103.3005980000071
 51
119.7144009999985
  0
ARC
  5
3F66
330
2
100
AcDbEntity
  8
0
100
AcDbCircle
 10
89.33588611433743
 20
366.5976408338087
 30
0.0
 40
3.492887999999999
100
AcDbArc
 50
90.0
 51
103.3005980000071
  0
ARC
  5
3F67
330
2
100
AcDbEntity
  8
0
100
AcDbCircle
 10
138.8358861143374
 20
331.5053528338087
 30
0.0
 40
1.0
100
AcDbArc
 50
0.0
 51
89.49999999999542
  0
ARC
  5
3F68
330
2
100
AcDbEntity
  8
0
100
AcDbCircle
 10
138.8358861143374
 20
336.0820128338086
 30
0.0
 40
1.0
100
AcDbArc
 50
270.4999999999915
 51
0.0
  0
ARC
  5
3F69
330
2
100
AcDbEntity
  8
0
100
AcDbCircle
 10
138.8358861143374
 20
345.1183928338086
 30
0.0
 40
1.0
100
AcDbArc
 50
270.4999999999915
 51
0.0
  0
ARC
  5
3F6A
330
2
100
AcDbEntity
  8
0
100
AcDbCircle
 10
138.8358861143374
 20
340.3713838338087
 30
0.0
 40
1.0
100
AcDbArc
 50
0.0
 51
89.49999999999542
  0
ARC
  5
3F6B
330
2
100
AcDbEntity
  8
0
100
AcDbCircle
 10
138.8358861143374
 20
368.6584328338085
 30
0.0
 40
1.0
100
AcDbArc
 50
0.0
 51
89.49999999999542
  0
LINE
  5
3F6C
330
2
100
AcDbEntity
  8
0
100
AcDbLine
 10
138.8446681143373
 20
402.8118938338089
 30
0.0
 11
89.33592511433744
 21
402.3799138338087
 31
0.0
  0
LINE
  5
3F6D
330
2
100
AcDbEntity
  8
0
100
AcDbLine
 10
88.46780511433735
 20
404.5281148338087
 30
0.0
 11
138.1596701143373
 21
404.9618118338087
 31
0.0
  0
LINE
  5
3F6E
330
2
100
AcDbEntity
  8
0
100
AcDbLine
 10
89.35336511433751
 20
409.7434128338086
 30
0.0
 11
139.8358901143374
 21
409.3028108338087
 31
0.0
  0
LINE
  5
3F6F
330
2
100
AcDbEntity
  8
0
100
AcDbLine
 10
139.8358901143374
 20
410.9957128338087
 30
0.0
 11
89.31846511433741
 21
410.5548938338087
 31
0.0
  0
LINE
  5
3F70
330
2
100
AcDbEntity
  8
0
100
AcDbLine
 10
89.33592511433744
 20
406.2511948338087
 30
0.0
 11
139.3402691143373
 21
405.8148118338087
 31
0.0
  0
LINE
  5
3F71
330
2
100
AcDbEntity
  8
0
100
AcDbLine
 10
139.3402691143373
 20
407.6755148338088
 30
0.0
 11
89.33592511433744
 21
407.2390938338087
 31
0.0
  0
LINE
  5
3F72
330
2
100
AcDbEntity
  8
0
100
AcDbLine
 10
88.46780511433735
 20
407.7533118338087
 30
0.0
 11
138.1596701143373
 21
408.1870118338088
 31
0.0
  0
LINE
  5
3F73
330
2
100
AcDbEntity
  8
0
100
AcDbLine
 10
138.8444841143373
 20
381.2714728338087
 30
0.0
 11
89.33588611433743
 21
380.8392128338086
 31
0.0
  0
LINE
  5
3F74
330
2
100
AcDbEntity
  8
0
100
AcDbLine
 10
89.33592511433744
 20
394.9583938338087
 30
0.0
 11
138.8446681143373
 21
394.5262908338086
 31
0.0
  0
LINE
  5
3F75
330
2
100
AcDbEntity
  8
0
100
AcDbLine
 10
138.8446681143373
 20
396.5571138338086
 30
0.0
 11
89.33592511433744
 21
396.1251108338087
 31
0.0
  0
LINE
  5
3F76
330
2
100
AcDbEntity
  8
0
100
AcDbLine
 10
89.33592511433744
 20
401.2724118338087
 30
0.0
 11
138.8446681143373
 21
400.8402938338088
 31
0.0
  0
LINE
  5
3F77
330
2
100
AcDbEntity
  8
0
100
AcDbLine
 10
88.46780511433735
 20
393.3713118338087
 30
0.0
 11
138.1596701143373
 21
393.8048938338088
 31
0.0
  0
LINE
  5
3F78
330
2
100
AcDbEntity
  8
0
100
AcDbLine
 10
88.46780511433735
 20
399.5984118338087
 30
0.0
 11
138.1596701143373
 21
400.0320938338086
 31
0.0
  0
LINE
  5
3F79
330
2
100
AcDbEntity
  8
0
100
AcDbLine
 10
89.33588611433743
 20
387.5010928338088
 30
0.0
 11
138.8444841143373
 21
387.0690728338086
 31
0.0
  0
LINE
  5
3F7A
330
2
100
AcDbEntity
  8
0
100
AcDbLine
 10
138.8444841143373
 20
389.3960348338087
 30
0.0
 11
89.33588611433743
 21
388.9640318338088
 31
0.0
  0
LINE
  5
3F7B
330
2
100
AcDbEntity
  8
0
100
AcDbLine
 10
88.46768611433754
 20
386.0358738338086
 30
0.0
 11
138.1594871143374
 21
386.4696528338086
 31
0.0
  0
LINE
  5
3F7C
330
2
100
AcDbEntity
  8
0
100
AcDbLine
 10
138.8444841143373
 20
372.4056248338088
 30
0.0
 11
89.33588611433743
 21
371.9734348338088
 31
0.0
  0
LINE
  5
3F7D
330
2
100
AcDbEntity
  8
0
100
AcDbLine
 10
89.33588611433743
 20
379.1268128338088
 30
0.0
 11
138.8444841143373
 21
378.6948128338085
 31
0.0
  0
LINE
  5
3F7E
330
2
100
AcDbEntity
  8
0
100
AcDbLine
 10
88.46768611433754
 20
377.8152928338085
 30
0.0
 11
138.1594871143374
 21
378.2488918338085
 31
0.0
  0
ARC
  5
3F7F
330
2
100
AcDbEntity
  8
0
100
AcDbCircle
 10
89.10748711433734
 20
378.6578128338087
 30
0.0
 40
2.150825999999999
100
AcDbArc
 50
105.3078989999965
 51
123.4570999999897
  0
ARC
  5
3F80
330
2
100
AcDbEntity
  8
0
100
AcDbCircle
 10
88.64328611433757
 20
370.3746188338086
 30
0.0
 40
1.455952
100
AcDbArc
 50
119.7144009999985
 51
144.028900000004
  0
ARC
  5
3F81
330
2
100
AcDbEntity
  8
0
100
AcDbCircle
 10
88.01306511433722
 20
370.8320168338086
 30
0.0
 40
0.6772650000000001
100
AcDbArc
 50
144.028900000004
 51
180.0
  0
ARC
  5
3F82
330
2
100
AcDbEntity
  8
0
100
AcDbCircle
 10
89.06128711433757
 20
369.6424408338089
 30
0.0
 40
2.298955999999999
100
AcDbArc
 50
103.3005980000071
 51
119.7144009999985
  0
ARC
  5
3F83
330
2
100
AcDbEntity
  8
0
100
AcDbCircle
 10
89.33588611433743
 20
368.4806368338086
 30
0.0
 40
3.492887999999999
100
AcDbArc
 50
90.0
 51
103.3005980000071
  0
ARC
  5
3F84
330
2
100
AcDbEntity
  8
0
100
AcDbCircle
 10
88.22848511433722
 20
379.5176928338087
 30
0.0
 40
0.8926999999999999
100
AcDbArc
 50
147.919403000002
 51
180.0
  0
ARC
  5
3F85
330
2
100
AcDbEntity
  8
0
100
AcDbCircle
 10
88.75888611433721
 20
379.1854138338087
 30
0.0
 40
1.518545999999999
100
AcDbArc
 50
123.4570999999897
 51
147.919403000002
  0
ARC
  5
3F86
330
2
100
AcDbEntity
  8
0
100
AcDbCircle
 10
88.75888611433721
 20
377.4728928338086
 30
0.0
 40
1.518545999999999
100
AcDbArc
 50
123.4570999999897
 51
147.919403000002
  0
ARC
  5
3F87
330
2
100
AcDbEntity
  8
0
100
AcDbCircle
 10
89.10748711433734
 20
376.9454118338087
 30
0.0
 40
2.150825999999999
100
AcDbArc
 50
105.3078989999965
 51
123.4570999999897
  0
ARC
  5
3F88
330
2
100
AcDbEntity
  8
0
100
AcDbCircle
 10
88.22848511433722
 20
377.8052928338088
 30
0.0
 40
0.8926999999999999
100
AcDbArc
 50
147.919403000002
 51
180.0
  0
LINE
  5
3F89
330
2
100
AcDbEntity
  8
0
100
AcDbLine
 10
87.33588611433743
 20
379.5176928338087
 30
0.0
 11
87.33588611433743
 21
377.8052928338088
 31
0.0
  0
ARC
  5
3F8A
330
2
100
AcDbEntity
  8
0
100
AcDbCircle
 10
89.33588611433743
 20
376.1108248338087
 30
0.0
 40
3.016093999999999
100
AcDbArc
 50
90.0
 51
105.3078989999965
  0
ARC
  5
3F8B
330
2
100
AcDbEntity
  8
0
100
AcDbCircle
 10
89.33588611433743
 20
377.8232328338085
 30
0.0
 40
3.016093999999999
100
AcDbArc
 50
90.0
 51
105.3078989999965
  0
ARC
  5
3F8C
330
2
100
AcDbEntity
  8
0
100
AcDbCircle
 10
88.8696651143373
 20
387.2464528338086
 30
0.0
 40
1.597306999999999
100
AcDbArc
 50
126.4093019999938
 51
150.6799009999818
  0
ARC
  5
3F8D
330
2
100
AcDbEntity
  8
0
100
AcDbCircle
 10
88.43786611433733
 20
387.4890518338088
 30
0.0
 40
1.102084999999999
100
AcDbArc
 50
150.6799009999818
 51
180.0
  0
ARC
  5
3F8E
330
2
100
AcDbEntity
  8
0
100
AcDbCircle
 10
88.8696651143373
 20
385.7836728338088
 30
0.0
 40
1.597306999999999
100
AcDbArc
 50
126.4093019999938
 51
150.6799009999818
  0
LINE
  5
3F8F
330
2
100
AcDbEntity
  8
0
100
AcDbLine
 10
87.33588611433743
 20
387.4890518338088
 30
0.0
 11
87.33588611433743
 21
386.0260528338085
 31
0.0
  0
ARC
  5
3F90
330
2
100
AcDbEntity
  8
0
100
AcDbCircle
 10
88.43786611433733
 20
386.0260528338085
 30
0.0
 40
1.102084999999999
100
AcDbArc
 50
150.6799009999818
 51
180.0
  0
ARC
  5
3F91
330
2
100
AcDbEntity
  8
0
100
AcDbCircle
 10
89.15168611433728
 20
385.4012318338086
 30
0.0
 40
2.072293999999999
100
AcDbArc
 50
106.9872969999928
 51
126.4093019999938
  0
ARC
  5
3F92
330
2
100
AcDbEntity
  8
0
100
AcDbCircle
 10
89.15168611433728
 20
386.8642528338087
 30
0.0
 40
2.072293999999999
100
AcDbArc
 50
106.9872969999928
 51
126.4093019999938
  0
ARC
  5
3F93
330
2
100
AcDbEntity
  8
0
100
AcDbCircle
 10
89.33588611433743
 20
384.7982128338087
 30
0.0
 40
2.702782
100
AcDbArc
 50
90.0
 51
106.9872969999928
  0
ARC
  5
3F94
330
2
100
AcDbEntity
  8
0
100
AcDbCircle
 10
89.33588611433743
 20
386.2612138338086
 30
0.0
 40
2.702782
100
AcDbArc
 50
90.0
 51
106.9872969999928
  0
ARC
  5
3F95
330
2
100
AcDbEntity
  8
0
100
AcDbCircle
 10
89.21896511433738
 20
399.2384108338087
 30
0.0
 40
2.014202
100
AcDbArc
 50
109.2256930000037
 51
130.0950930000073
  0
ARC
  5
3F96
330
2
100
AcDbEntity
  8
0
100
AcDbCircle
 10
88.76154511433743
 20
400.6960108338087
 30
0.0
 40
1.425637
100
AcDbArc
 50
153.8036960000015
 51
180.0
  0
ARC
  5
3F97
330
2
100
AcDbEntity
  8
0
100
AcDbCircle
 10
89.1900051143375
 20
394.0689128338087
 30
0.0
 40
2.032614
100
AcDbArc
 50
108.3016969999953
 51
128.6076049999943
  0
ARC
  5
3F98
330
2
100
AcDbEntity
  8
0
100
AcDbCircle
 10
89.33592511433744
 20
393.6278118338086
 30
0.0
 40
2.497222
100
AcDbArc
 50
90.0
 51
108.3016969999953
  0
ARC
  5
3F99
330
2
100
AcDbEntity
  8
0
100
AcDbCircle
 10
89.1900051143375
 20
392.9023138338088
 30
0.0
 40
2.032614
100
AcDbArc
 50
108.3016969999953
 51
128.6076049999943
  0
ARC
  5
3F9A
330
2
100
AcDbEntity
  8
0
100
AcDbCircle
 10
88.62158711433744
 20
394.5280118338087
 30
0.0
 40
1.285679
100
AcDbArc
 50
152.5825959999934
 51
180.0
  0
LINE
  5
3F9B
330
2
100
AcDbEntity
  8
0
100
AcDbLine
 10
87.33592511433744
 20
394.5280118338087
 30
0.0
 11
87.33592511433744
 21
393.3613928338086
 31
0.0
  0
ARC
  5
3F9C
330
2
100
AcDbEntity
  8
0
100
AcDbCircle
 10
88.62158711433744
 20
393.3613928338086
 30
0.0
 40
1.285679
100
AcDbArc
 50
152.5825959999934
 51
180.0
  0
ARC
  5
3F9D
330
2
100
AcDbEntity
  8
0
100
AcDbCircle
 10
88.9661271143375
 20
393.1825948338087
 30
0.0
 40
1.673817999999999
100
AcDbArc
 50
128.6076049999943
 51
152.5825959999934
  0
ARC
  5
3F9E
330
2
100
AcDbEntity
  8
0
100
AcDbCircle
 10
88.9661271143375
 20
394.3493118338087
 30
0.0
 40
1.673817999999999
100
AcDbArc
 50
128.6076049999943
 51
152.5825959999934
  0
ARC
  5
3F9F
330
2
100
AcDbEntity
  8
0
100
AcDbCircle
 10
89.33592511433744
 20
392.4612128338087
 30
0.0
 40
2.497222
100
AcDbArc
 50
90.0
 51
108.3016969999953
  0
ARC
  5
3FA0
330
2
100
AcDbEntity
  8
0
100
AcDbCircle
 10
88.76154511433743
 20
399.5884938338087
 30
0.0
 40
1.425637
100
AcDbArc
 50
153.8036960000015
 51
180.0
  0
LINE
  5
3FA1
330
2
100
AcDbEntity
  8
0
100
AcDbLine
 10
87.33592511433744
 20
400.6960108338087
 30
0.0
 11
87.33592511433744
 21
399.5884938338087
 31
0.0
  0
ARC
  5
3FA2
330
2
100
AcDbEntity
  8
0
100
AcDbCircle
 10
89.03914511433731
 20
399.4519118338089
 30
0.0
 40
1.735008
100
AcDbArc
 50
130.0950930000073
 51
153.8036960000015
  0
LINE
  5
3FA3
330
2
100
AcDbEntity
  8
0
100
AcDbLine
 10
84.33588611433743
 20
409.7681738338087
 30
0.0
 11
87.33588611433743
 21
409.7681738338087
 31
0.0
  0
ARC
  5
3FA4
330
2
100
AcDbEntity
  8
0
100
AcDbCircle
 10
84.33588611433743
 20
407.7681738338087
 30
0.0
 40
2.0
100
AcDbArc
 50
90.0
 51
180.0
  0
LINE
  5
3FA5
330
2
100
AcDbEntity
  8
0
100
AcDbLine
 10
84.33588611433743
 20
409.7681738338087
 30
0.0
 11
85.47630711433749
 21
409.7681738338087
 31
0.0
  0
ARC
  5
3FA6
330
2
100
AcDbEntity
  8
0
100
AcDbCircle
 10
89.08202511433751
 20
405.3924148338087
 30
0.0
 40
1.771906
100
AcDbArc
 50
130.9078980000093
 51
154.4499970000083
  0
ARC
  5
3FA7
330
2
100
AcDbEntity
  8
0
100
AcDbCircle
 10
89.33592511433744
 20
403.9483108338085
 30
0.0
 40
2.302912
100
AcDbArc
 50
90.0
 51
109.743195
  0
ARC
  5
3FA8
330
2
100
AcDbEntity
  8
0
100
AcDbCircle
 10
89.21896511433738
 20
400.3458938338087
 30
0.0
 40
2.014202
100
AcDbArc
 50
109.2256930000037
 51
130.0950930000073
  0
ARC
  5
3FA9
330
2
100
AcDbEntity
  8
0
100
AcDbCircle
 10
89.33592511433744
 20
400.0105138338088
 30
0.0
 40
2.369364
100
AcDbArc
 50
90.0
 51
109.2256930000037
  0
LINE
  5
3FAA
330
2
100
AcDbEntity
  8
0
100
AcDbLine
 10
87.33592511433744
 20
405.5062148338087
 30
0.0
 11
87.33592511433744
 21
404.5182118338089
 31
0.0
  0
ARC
  5
3FAB
330
2
100
AcDbEntity
  8
0
100
AcDbCircle
 10
89.08202511433751
 20
404.4045148338086
 30
0.0
 40
1.771906
100
AcDbArc
 50
130.9078980000093
 51
154.4499970000083
  0
ARC
  5
3FAC
330
2
100
AcDbEntity
  8
0
100
AcDbCircle
 10
88.84404511433741
 20
404.5182118338089
 30
0.0
 40
1.508124
100
AcDbArc
 50
154.4499970000083
 51
180.0
  0
ARC
  5
3FAD
330
2
100
AcDbEntity
  8
0
100
AcDbCircle
 10
89.23592511433753
 20
404.2268148338089
 30
0.0
 40
2.006931999999999
100
AcDbArc
 50
109.743195
 51
130.9078980000093
  0
ARC
  5
3FAE
330
2
100
AcDbEntity
  8
0
100
AcDbCircle
 10
88.84404511433741
 20
405.5062148338087
 30
0.0
 40
1.508124
100
AcDbArc
 50
154.4499970000083
 51
180.0
  0
ARC
  5
3FAF
330
2
100
AcDbEntity
  8
0
100
AcDbCircle
 10
89.03914511433731
 20
400.5595138338087
 30
0.0
 40
1.735008
100
AcDbArc
 50
130.0950930000073
 51
153.8036960000015
  0
ARC
  5
3FB0
330
2
100
AcDbEntity
  8
0
100
AcDbCircle
 10
89.33592511433744
 20
398.9030118338087
 30
0.0
 40
2.369364
100
AcDbArc
 50
90.0
 51
109.2256930000037
  0
LINE
  5
3FB1
330
2
100
AcDbEntity
  8
0
100
AcDbLine
 10
87.33592511433744
 20
408.5550118338087
 30
0.0
 11
87.33592511433744
 21
407.7434128338086
 31
0.0
  0
LINE
  5
3FB2
330
2
100
AcDbEntity
  8
0
100
AcDbLine
 10
87.33592511433744
 20
409.7682118338089
 30
0.0
 11
87.33592511433744
 21
410.2269138338088
 31
0.0
  0
ARC
  5
3FB3
330
2
100
AcDbEntity
  8
0
100
AcDbCircle
 10
89.23592511433753
 20
405.2148138338088
 30
0.0
 40
2.006931999999999
100
AcDbArc
 50
109.743195
 51
130.9078980000093
  0
ARC
  5
3FB4
330
2
100
AcDbEntity
  8
0
100
AcDbCircle
 10
89.33592511433744
 20
404.9362108338086
 30
0.0
 40
2.302912
100
AcDbArc
 50
90.0
 51
109.743195
  0
ARC
  5
3FB5
330
2
100
AcDbEntity
  8
0
100
AcDbCircle
 10
89.33592511433744
 20
407.7434128338086
 30
0.0
 40
2.0
100
AcDbArc
 50
89.49999999999542
 51
180.0
  0
ARC
  5
3FB6
330
2
100
AcDbEntity
  8
0
100
AcDbCircle
 10
89.33592511433744
 20
408.5550118338087
 30
0.0
 40
2.0
100
AcDbArc
 50
90.50000000000457
 51
180.0
  0
ARC
  5
3FB7
330
2
100
AcDbEntity
  8
0
100
AcDbCircle
 10
138.8358861143374
 20
373.4054418338087
 30
0.0
 40
1.0
100
AcDbArc
 50
270.4999999999915
 51
0.0
  0
ARC
  5
3FB8
330
2
100
AcDbEntity
  8
0
100
AcDbCircle
 10
138.8358861143374
 20
377.6948128338085
 30
0.0
 40
1.0
100
AcDbArc
 50
0.0
 51
89.49999999999542
  0
ARC
  5
3FB9
330
2
100
AcDbEntity
  8
0
100
AcDbCircle
 10
138.8358861143374
 20
382.2714728338087
 30
0.0
 40
1.0
100
AcDbArc
 50
270.4999999999915
 51
0.0
  0
ARC
  5
3FBA
330
2
100
AcDbEntity
  8
0
100
AcDbCircle
 10
138.8358861143374
 20
386.0690728338086
 30
0.0
 40
1.0
100
AcDbArc
 50
0.0
 51
89.49999999999542
  0
ARC
  5
3FBB
330
2
100
AcDbEntity
  8
0
100
AcDbCircle
 10
138.8358861143374
 20
390.3960348338086
 30
0.0
 40
1.0
100
AcDbArc
 50
270.4999999999915
 51
0.0
  0
ARC
  5
3FBC
330
2
100
AcDbEntity
  8
0
100
AcDbCircle
 10
138.8358901143374
 20
393.5264128338087
 30
0.0
 40
1.0
100
AcDbArc
 50
0.0
 51
89.49999999999542
  0
ARC
  5
3FBD
330
2
100
AcDbEntity
  8
0
100
AcDbCircle
 10
138.8358901143374
 20
397.5571138338086
 30
0.0
 40
1.0
100
AcDbArc
 50
270.5000000000045
 51
0.0
  0
ARC
  5
3FBE
330
2
100
AcDbEntity
  8
0
100
AcDbCircle
 10
138.8358901143374
 20
399.8404128338088
 30
0.0
 40
1.0
100
AcDbArc
 50
0.0
 51
89.49999999999542
  0
ARC
  5
3FBF
330
2
100
AcDbEntity
  8
0
100
AcDbCircle
 10
139.3358901143374
 20
405.3148118338087
 30
0.0
 40
0.5
100
AcDbArc
 50
0.0
 51
89.49999999999542
  0
ARC
  5
3FC0
330
2
100
AcDbEntity
  8
0
100
AcDbCircle
 10
138.8358901143374
 20
403.8118938338088
 30
0.0
 40
1.0
100
AcDbArc
 50
270.5000000000045
 51
0.0
  0
ARC
  5
3FC1
330
2
100
AcDbEntity
  8
0
100
AcDbCircle
 10
139.3358901143374
 20
408.1755148338088
 30
0.0
 40
0.5
100
AcDbArc
 50
270.5000000000045
 51
0.0
  0
LINE
  5
3FC2
330
2
100
AcDbEntity
  8
0
100
AcDbLine
 10
139.8358901143374
 20
412.6677138338086
 30
0.0
 11
89.31846511433741
 21
412.2268148338089
 31
0.0
  0
LINE
  5
3FC3
330
2
100
AcDbEntity
  8
0
100
AcDbLine
 10
149.8358861143374
 20
414.1384128338086
 30
0.0
 11
140.8273681143373
 21
414.0617148338087
 31
0.0
  0
ARC
  5
3FC4
330
2
100
AcDbEntity
  8
0
100
AcDbCircle
 10
140.8358901143374
 20
413.0618138338085
 30
0.0
 40
1.0
100
AcDbArc
 50
90.48779300000241
 51
180.0
  0
LINE
  5
3FC5
330
2
100
AcDbEntity
  8
0
100
AcDbLine
 10
70.33598511433763
 20
311.9709648041798
 30
0.0
 11
70.33598511433763
 21
321.8970685439492
 31
0.0
  0
LINE
  5
3FC6
330
2
100
AcDbEntity
  8
0
100
AcDbLine
 10
69.33598511433763
 20
311.9901840557385
 30
0.0
 11
69.33598511433763
 21
322.8970685439492
 31
0.0
  0
LINE
  5
3FC7
330
2
100
AcDbEntity
  8
0
100
AcDbLine
 10
68.33598511433763
 20
313.0612548406456
 30
0.0
 11
68.33598511433763
 21
321.8970685439492
 31
0.0
  0
SPLINE
  5
3FC8
330
2
100
AcDbEntity
  8
HOJO
100
AcDbSpline
210
0.0
220
0.0
230
1.0
 70
     8
 71
     3
 72
    10
 73
     6
 74
     0
 42
0.0000000001
 43
0.0000000001
 40
0.0613843116224887
 40
0.0613843116224887
 40
0.0613843116224887
 40
0.0613843116224887
 40
0.4721425064489786
 40
1.037679944361044
 40
1.199019778825058
 40
1.199019778825058
 40
1.199019778825058
 40
1.199019778825058
 10
69.33598511433763
 20
311.9901840557385
 30
0.0
 10
69.45052944332712
 20
312.1246887326758
 30
0.0
 10
69.71800508127865
 20
312.400589306952
 30
0.0
 10
69.92796578897969
 20
311.7892018278241
 30
0.0
 10
70.26467776293976
 20
311.9293774429038
 30
0.0
 10
70.33598511433502
 20
311.9709648041782
 30
0.0
  0
SPLINE
  5
3FC9
330
2
100
AcDbEntity
  8
HOJO
100
AcDbSpline
210
0.0
220
0.0
230
1.0
 70
     8
 71
     3
 72
    10
 73
     6
 74
     0
 42
0.0000000001
 43
0.0000000001
 40
0.0613843116224887
 40
0.0613843116224887
 40
0.0613843116224887
 40
0.0613843116224887
 40
0.4721425064489786
 40
1.037679944361044
 40
1.199019778825058
 40
1.199019778825058
 40
1.199019778825058
 40
1.199019778825058
 10
68.33598511433763
 20
313.0612548406456
 30
0.0
 10
68.45052944332713
 20
313.1957595175829
 30
0.0
 10
68.71800508127865
 20
313.4716600918591
 30
0.0
 10
68.92796578897969
 20
312.860272612731
 30
0.0
 10
69.26467776293975
 20
313.0004482278109
 30
0.0
 10
69.33598511433501
 20
313.0420355890853
 30
0.0
  0
ARC
  5
3FCA
330
2
100
AcDbEntity
  8
0
100
AcDbCircle
 10
69.33598511433763
 20
321.8970685439492
 30
0.0
 40
1.0
100
AcDbArc
 50
0.0
 51
180.0
  0
LINE
  5
3FCB
330
2
100
AcDbEntity
  8
0
100
AcDbLine
 10
82.33592511433744
 20
398.3883893643863
 30
0.0
 11
81.3358861143377
 21
397.7217673671423
 31
0.0
  0
LINE
  5
3FCC
330
2
100
AcDbEntity
  8
0
100
AcDbLine
 10
81.3358861143377
 20
397.7217673671423
 30
0.0
 11
81.3358861143376
 21
316.0550583004751
 31
0.0
  0
LINE
  5
3FCD
330
2
100
AcDbEntity
  8
0
100
AcDbLine
 10
81.83590898983856
 20
334.003609891829
 30
0.0
 11
81.8359129598175
 21
322.8876650952952
 31
0.0
  0
LINE
  5
3FCE
330
2
100
AcDbEntity
  8
0
100
AcDbLine
 10
81.8359129598175
 20
315.7217424053856
 30
0.0
 11
81.3358861143376
 21
316.0550583004751
 31
0.0
  0
LINE
  5
3FCF
330
2
100
AcDbEntity
  8
0
100
AcDbLine
 10
81.8359129598175
 20
322.8876650952952
 30
0.0
 11
81.83591295981745
 21
304.4411958437615
 31
0.0
  0
ARC
  5
3FD0
330
2
100
AcDbEntity
  8
0
100
AcDbCircle
 10
82.33591295981744
 20
304.4411958437615
 30
0.0
 40
0.5
100
AcDbArc
 50
180.0
 51
269.9999999999934
  0
ARC
  5
4187
330
2
100
AcDbEntity
  8
0
100
AcDbCircle
 10
138.8358701143048
 20
157.2780281439781
 30
0.0
 40
1.0
100
AcDbArc
 50
270.4999999999915
 51
0.0
  0
LINE
  5
4188
330
2
100
AcDbEntity
  8
0
100
AcDbLine
 10
92.8358891143049
 20
160.546647143978
 30
0.0
 11
92.83590811430498
 21
140.1055581439779
 31
0.0
  0
LINE
  5
4189
330
2
100
AcDbEntity
  8
0
100
AcDbLine
 10
84.33585048840484
 20
197.1966572584075
 30
0.0
 11
84.33583069610575
 21
145.2107234732974
 31
0.0
  0
LINE
  5
418A
330
2
100
AcDbEntity
  8
0
100
AcDbLine
 10
70.33596911430516
 20
143.9722348029958
 30
0.0
 11
70.33596911430516
 21
197.6109160737807
 31
0.0
  0
LINE
  5
418B
330
2
100
AcDbEntity
  8
0
100
AcDbLine
 10
69.33596911430516
 20
142.9722348029958
 30
0.0
 11
69.33596911430516
 21
197.7778205758967
 31
0.0
  0
LINE
  5
418C
330
2
100
AcDbEntity
  8
0
100
AcDbLine
 10
68.33596911430515
 20
143.9722348029958
 30
0.0
 11
68.33596911430515
 21
197.196649541855
 31
0.0
  0
LINE
  5
418D
330
2
100
AcDbEntity
  8
0
100
AcDbLine
 10
90.335892114305
 20
145.2106815204133
 30
0.0
 11
90.33589211430523
 21
197.1967078837578
 31
0.0
  0
LINE
  5
418E
330
2
100
AcDbEntity
  8
0
100
AcDbLine
 10
86.33585218979181
 20
197.617861017245
 30
0.0
 11
86.33583035047662
 21
144.5877061236832
 31
0.0
  0
LINE
  5
418F
330
2
100
AcDbEntity
  8
0
100
AcDbLine
 10
88.33586039331668
 20
196.7757168639495
 30
0.0
 11
88.33589323323042
 21
144.5876973252242
 31
0.0
  0
LINE
  5
4190
330
2
100
AcDbEntity
  8
0
100
AcDbLine
 10
139.8358701143048
 20
180.9331261439778
 30
0.0
 11
139.8358701143048
 21
98.77648714397805
 31
0.0
  0
LINE
  5
4191
330
2
100
AcDbEntity
  8
0
100
AcDbLine
 10
38.33596911430515
 20
86.59118814397805
 30
0.0
 11
38.33596911430515
 21
160.9494681439779
 31
0.0
  0
LINE
  5
4192
330
2
100
AcDbEntity
  8
0
100
AcDbLine
 10
81.33593111430503
 20
83.27038714397799
 30
0.0
 11
41.31187111430484
 21
83.59130614397798
 31
0.0
  0
ARC
  5
4193
330
2
100
AcDbEntity
  8
0
100
AcDbCircle
 10
41.33596911430515
 20
86.59118814397805
 30
0.0
 40
3.0
100
AcDbArc
 50
180.0
 51
269.5404969999922
  0
ARC
  5
4194
330
2
100
AcDbEntity
  8
0
100
AcDbCircle
 10
139.3358701143048
 20
75.34398814397803
 30
0.0
 40
0.5
100
AcDbArc
 50
270.4999999999915
 51
0.0
  0
ARC
  5
4195
330
2
100
AcDbEntity
  8
0
100
AcDbCircle
 10
89.08200911430515
 20
76.25428514397794
 30
0.0
 40
1.771906
100
AcDbArc
 50
205.5500029999923
 51
229.0921019999911
  0
LINE
  5
4196
330
2
100
AcDbEntity
  8
0
100
AcDbLine
 10
87.33590811430497
 20
75.152585143978
 30
0.0
 11
87.33590811430497
 21
76.14058814397793
 31
0.0
  0
LINE
  5
4197
330
2
100
AcDbEntity
  8
0
100
AcDbLine
 10
82.33590811430497
 20
72.89058814397794
 30
0.0
 11
82.33590811430497
 21
82.27038714397798
 31
0.0
  0
LINE
  5
4198
330
2
100
AcDbEntity
  8
0
100
AcDbLine
 10
139.8358701143048
 20
91.20408814397791
 30
0.0
 11
139.8358701143048
 21
67.59698614397797
 31
0.0
  0
LINE
  5
4199
330
2
100
AcDbEntity
  8
0
100
AcDbLine
 10
89.33590811430496
 20
74.40760514397783
 30
0.0
 11
139.3402721143048
 21
74.84398814397803
 31
0.0
  0
LINE
  5
419A
330
2
100
AcDbEntity
  8
0
100
AcDbLine
 10
139.3402721143048
 20
72.98328514397798
 30
0.0
 11
89.33590811430496
 21
73.41970614397808
 31
0.0
  0
LINE
  5
419B
330
2
100
AcDbEntity
  8
0
100
AcDbLine
 10
88.46780911430517
 20
72.90548814397784
 30
0.0
 11
138.159669114305
 21
72.47178814397802
 31
0.0
  0
LINE
  5
419C
330
2
100
AcDbEntity
  8
0
100
AcDbLine
 10
89.353368114305
 20
70.91538714397796
 30
0.0
 11
139.8358701143048
 21
71.35598914397809
 31
0.0
  0
LINE
  5
419D
330
2
100
AcDbEntity
  8
0
100
AcDbLine
 10
139.8358701143048
 20
69.66308714397786
 30
0.0
 11
89.31844811430494
 21
70.10390614397801
 31
0.0
  0
LINE
  5
419E
330
2
100
AcDbEntity
  8
0
100
AcDbLine
 10
139.8358701143048
 20
67.99108614397795
 30
0.0
 11
89.31844811430494
 21
68.43198514397812
 31
0.0
  0
LINE
  5
419F
330
2
100
AcDbEntity
  8
0
100
AcDbLine
 10
84.33590811430496
 20
70.89058814397794
 30
0.0
 11
87.33590811430497
 21
70.89058814397794
 31
0.0
  0
LINE
  5
41A0
330
2
100
AcDbEntity
  8
0
100
AcDbLine
 10
84.33590811430496
 20
70.89058814397794
 30
0.0
 11
85.47636911430492
 21
70.89058814397794
 31
0.0
  0
ARC
  5
41A1
330
2
100
AcDbEntity
  8
0
100
AcDbCircle
 10
84.33590811430496
 20
72.89058814397794
 30
0.0
 40
2.0
100
AcDbArc
 50
180.0
 51
270.0
  0
ARC
  5
41A2
330
2
100
AcDbEntity
  8
0
100
AcDbCircle
 10
89.33590811430496
 20
70.43188614397803
 30
0.0
 40
2.0
100
AcDbArc
 50
180.0
 51
269.5000000000084
  0
ARC
  5
41A3
330
2
100
AcDbEntity
  8
0
100
AcDbCircle
 10
89.33590811430496
 20
72.10378814397785
 30
0.0
 40
2.0
100
AcDbArc
 50
180.0
 51
269.5000000000084
  0
ARC
  5
41A4
330
2
100
AcDbEntity
  8
0
100
AcDbCircle
 10
88.84402911430482
 20
75.152585143978
 30
0.0
 40
1.508124
100
AcDbArc
 50
180.0
 51
205.5500029999923
  0
ARC
  5
41A5
330
2
100
AcDbEntity
  8
0
100
AcDbCircle
 10
89.08200911430515
 20
75.26638514397785
 30
0.0
 40
1.771906
100
AcDbArc
 50
205.5500029999923
 51
229.0921019999911
  0
ARC
  5
41A6
330
2
100
AcDbEntity
  8
0
100
AcDbCircle
 10
89.23590911430494
 20
75.44398614397795
 30
0.0
 40
2.006931999999999
100
AcDbArc
 50
229.0921019999911
 51
250.2568050000004
  0
ARC
  5
41A7
330
2
100
AcDbEntity
  8
0
100
AcDbCircle
 10
89.23590911430494
 20
76.43198514397813
 30
0.0
 40
2.006931999999999
100
AcDbArc
 50
229.0921019999911
 51
250.2568050000004
  0
LINE
  5
41A8
330
2
100
AcDbEntity
  8
0
100
AcDbLine
 10
87.33590811430497
 20
72.10378814397785
 30
0.0
 11
87.33590811430497
 21
72.91538714397796
 31
0.0
  0
ARC
  5
41A9
330
2
100
AcDbEntity
  8
0
100
AcDbCircle
 10
89.33590811430496
 20
75.72258914397792
 30
0.0
 40
2.302912
100
AcDbArc
 50
250.2568050000004
 51
270.0
  0
ARC
  5
41AA
330
2
100
AcDbEntity
  8
0
100
AcDbCircle
 10
89.33590811430496
 20
76.710489143978
 30
0.0
 40
2.302912
100
AcDbArc
 50
250.2568050000004
 51
270.0
  0
ARC
  5
41AB
330
2
100
AcDbEntity
  8
0
100
AcDbCircle
 10
87.52158811430502
 20
70.49778914397797
 30
0.0
 40
0.185701
100
AcDbArc
 50
180.0
 51
225.3820040000035
  0
ARC
  5
41AC
330
2
100
AcDbEntity
  8
0
100
AcDbCircle
 10
87.52158811430502
 20
70.49778914397797
 30
0.0
 40
0.185701
100
AcDbArc
 50
134.6179959999964
 51
180.0
  0
LINE
  5
41AD
330
2
100
AcDbEntity
  8
0
100
AcDbLine
 10
87.33590811430497
 20
70.89058814397794
 30
0.0
 11
87.33590811430497
 21
70.43188614397803
 31
0.0
  0
ARC
  5
41AE
330
2
100
AcDbEntity
  8
0
100
AcDbCircle
 10
89.33590811430496
 20
72.91538714397796
 30
0.0
 40
2.0
100
AcDbArc
 50
180.0
 51
270.4999999999915
  0
LINE
  5
41AF
330
2
100
AcDbEntity
  8
0
100
AcDbLine
 10
149.8358701143048
 20
66.52038714397798
 30
0.0
 11
140.8273481143052
 21
66.59708514397784
 31
0.0
  0
ARC
  5
41B0
330
2
100
AcDbEntity
  8
0
100
AcDbCircle
 10
140.8358701143048
 20
67.59698614397797
 30
0.0
 40
1.0
100
AcDbArc
 50
180.0
 51
269.5122069999976
  0
ARC
  5
41B1
330
2
100
AcDbEntity
  8
0
100
AcDbCircle
 10
139.3358701143048
 20
72.48328514397798
 30
0.0
 40
0.5
100
AcDbArc
 50
0.0
 51
89.49999999999542
  0
LINE
  5
41B2
330
2
100
AcDbEntity
  8
0
100
AcDbLine
 10
82.33590811430497
 20
174.770406143978
 30
0.0
 11
82.33590811430497
 21
165.8408915477625
 31
0.0
  0
LINE
  5
41B3
330
2
100
AcDbEntity
  8
0
100
AcDbLine
 10
82.33590811430492
 20
131.9900831439783
 30
0.0
 11
82.33590811430497
 21
82.27038714397798
 31
0.0
  0
LINE
  5
41B4
330
2
100
AcDbEntity
  8
0
100
AcDbLine
 10
89.33590811430496
 20
110.568287143978
 30
0.0
 11
138.8446511143048
 21
111.000287143978
 31
0.0
  0
LINE
  5
41B5
330
2
100
AcDbEntity
  8
0
100
AcDbLine
 10
138.8446511143048
 20
108.2531871439779
 30
0.0
 11
89.33590811430496
 21
108.6851971439779
 31
0.0
  0
LINE
  5
41B6
330
2
100
AcDbEntity
  8
0
100
AcDbLine
 10
89.12003011430499
 20
102.9426071439779
 30
0.0
 11
137.7137691143049
 21
103.3666871439779
 31
0.0
  0
LINE
  5
41B7
330
2
100
AcDbEntity
  8
0
100
AcDbLine
 10
139.8358701143048
 20
98.77648714397805
 30
0.0
 11
88.34462811430478
 21
98.32708714397808
 31
0.0
  0
LINE
  5
41B8
330
2
100
AcDbEntity
  8
0
100
AcDbLine
 10
88.46780911430517
 20
111.6997871439779
 30
0.0
 11
138.159669114305
 21
111.2661871439781
 31
0.0
  0
LINE
  5
41B9
330
2
100
AcDbEntity
  8
0
100
AcDbLine
 10
89.33590811430496
 20
85.70040614397788
 30
0.0
 11
138.8446511143048
 21
86.13250914397799
 31
0.0
  0
LINE
  5
41BA
330
2
100
AcDbEntity
  8
0
100
AcDbLine
 10
138.8446511143048
 20
84.10168614397793
 30
0.0
 11
89.33590811430496
 21
84.53368914397804
 31
0.0
  0
LINE
  5
41BB
330
2
100
AcDbEntity
  8
0
100
AcDbLine
 10
139.8358701143048
 20
91.20408814397791
 30
0.0
 11
88.3271681143052
 21
91.65358914397797
 31
0.0
  0
LINE
  5
41BC
330
2
100
AcDbEntity
  8
0
100
AcDbLine
 10
88.46780911430517
 20
87.28748814397789
 30
0.0
 11
138.159669114305
 21
86.85390614397801
 31
0.0
  0
LINE
  5
41BD
330
2
100
AcDbEntity
  8
0
100
AcDbLine
 10
89.33590811430496
 20
79.38638814397785
 30
0.0
 11
138.8446511143048
 21
79.81850614397803
 31
0.0
  0
LINE
  5
41BE
330
2
100
AcDbEntity
  8
0
100
AcDbLine
 10
138.8446511143048
 20
77.84690614397795
 30
0.0
 11
89.33590811430496
 21
78.27888614397801
 31
0.0
  0
LINE
  5
41BF
330
2
100
AcDbEntity
  8
0
100
AcDbLine
 10
88.46780911430517
 20
76.13068514397804
 30
0.0
 11
138.159669114305
 21
75.6969881439781
 31
0.0
  0
LINE
  5
41C0
330
2
100
AcDbEntity
  8
0
100
AcDbLine
 10
88.46780911430517
 20
81.06038814397805
 30
0.0
 11
138.159669114305
 21
80.62670614397797
 31
0.0
  0
LINE
  5
41C1
330
2
100
AcDbEntity
  8
0
100
AcDbLine
 10
87.33590811430497
 20
93.71830714397805
 30
0.0
 11
87.33590811430497
 21
98.31828614397814
 31
0.0
  0
ARC
  5
41C2
330
2
100
AcDbEntity
  8
0
100
AcDbCircle
 10
90.33590811430498
 20
98.31828614397814
 30
0.0
 40
8.0
100
AcDbArc
 50
147.6076049999995
 51
212.3923950000004
  0
LINE
  5
41C3
330
2
100
AcDbEntity
  8
0
100
AcDbLine
 10
86.03587111430499
 20
103.0682861439781
 30
0.0
 11
86.03587111430499
 21
93.56828614397812
 31
0.0
  0
LINE
  5
41C4
330
2
100
AcDbEntity
  8
0
100
AcDbLine
 10
87.33590811430497
 20
98.31828614397814
 30
0.0
 11
87.33590811430497
 21
92.65348814397787
 31
0.0
  0
ARC
  5
41C5
330
2
100
AcDbEntity
  8
0
100
AcDbCircle
 10
88.62156811430498
 20
86.13078814397789
 30
0.0
 40
1.285679
100
AcDbArc
 50
180.0
 51
207.4174040000058
  0
ARC
  5
41C6
330
2
100
AcDbEntity
  8
0
100
AcDbCircle
 10
89.03912811430485
 20
81.20688814397812
 30
0.0
 40
1.735008
100
AcDbArc
 50
206.1963039999984
 51
229.9049069999926
  0
LINE
  5
41C7
330
2
100
AcDbEntity
  8
0
100
AcDbLine
 10
87.33590811430497
 20
79.96278914397811
 30
0.0
 11
87.33590811430497
 21
81.07030614397803
 31
0.0
  0
ARC
  5
41C8
330
2
100
AcDbEntity
  8
0
100
AcDbCircle
 10
88.84402911430482
 20
76.14058814397793
 30
0.0
 40
1.508124
100
AcDbArc
 50
180.0
 51
205.5500029999923
  0
ARC
  5
41C9
330
2
100
AcDbEntity
  8
0
100
AcDbCircle
 10
88.76152911430484
 20
79.96278914397811
 30
0.0
 40
1.425637
100
AcDbArc
 50
180.0
 51
206.1963039999984
  0
ARC
  5
41CA
330
2
100
AcDbEntity
  8
0
100
AcDbCircle
 10
89.21896811430508
 20
81.42038914397785
 30
0.0
 40
2.014202
100
AcDbArc
 50
229.9049069999926
 51
250.7743069999967
  0
ARC
  5
41CB
330
2
100
AcDbEntity
  8
0
100
AcDbCircle
 10
89.21896811430508
 20
80.31290614397807
 30
0.0
 40
2.014202
100
AcDbArc
 50
229.9049069999926
 51
250.7743069999967
  0
ARC
  5
41CC
330
2
100
AcDbEntity
  8
0
100
AcDbCircle
 10
89.03912811430485
 20
80.09928614397807
 30
0.0
 40
1.735008
100
AcDbArc
 50
206.1963039999984
 51
229.9049069999926
  0
ARC
  5
41CD
330
2
100
AcDbEntity
  8
0
100
AcDbCircle
 10
89.33590811430496
 20
80.64828614397805
 30
0.0
 40
2.369364
100
AcDbArc
 50
250.7743069999967
 51
270.0
  0
ARC
  5
41CE
330
2
100
AcDbEntity
  8
0
100
AcDbCircle
 10
89.33590811430496
 20
81.75578814397789
 30
0.0
 40
2.369364
100
AcDbArc
 50
250.7743069999967
 51
270.0
  0
ARC
  5
41CF
330
2
100
AcDbEntity
  8
0
100
AcDbCircle
 10
89.18998811430503
 20
86.58988714397805
 30
0.0
 40
2.032614
100
AcDbArc
 50
231.3923950000056
 51
251.6983030000044
  0
ARC
  5
41D0
330
2
100
AcDbEntity
  8
0
100
AcDbCircle
 10
88.96610711430515
 20
86.30948814397806
 30
0.0
 40
1.673817999999999
100
AcDbArc
 50
207.4174040000058
 51
231.3923950000056
  0
ARC
  5
41D1
330
2
100
AcDbEntity
  8
0
100
AcDbCircle
 10
89.33590811430496
 20
87.03098814397794
 30
0.0
 40
2.497222
100
AcDbArc
 50
251.6983030000044
 51
270.0
  0
ARC
  5
41D2
330
2
100
AcDbEntity
  8
0
100
AcDbCircle
 10
88.76152911430484
 20
81.07030614397803
 30
0.0
 40
1.425637
100
AcDbArc
 50
180.0
 51
206.1963039999984
  0
LINE
  5
41D3
330
2
100
AcDbEntity
  8
0
100
AcDbLine
 10
86.03587111430499
 20
93.56828614397812
 30
0.0
 11
84.42511111430496
 21
93.56828614397812
 31
0.0
  0
LINE
  5
41D4
330
2
100
AcDbEntity
  8
0
100
AcDbLine
 10
87.33590811430497
 20
93.49618714397792
 30
0.0
 11
83.33590811430497
 21
93.49618714397792
 31
0.0
  0
ARC
  5
41D5
330
2
100
AcDbEntity
  8
0
100
AcDbCircle
 10
84.42511111430496
 20
94.56828614397812
 30
0.0
 40
1.0
100
AcDbArc
 50
212.3923950000004
 51
270.0
  0
ARC
  5
41D6
330
2
100
AcDbEntity
  8
0
100
AcDbCircle
 10
83.33590811430497
 20
94.49618714397791
 30
0.0
 40
1.0
100
AcDbArc
 50
180.0
 51
270.0
  0
ARC
  5
41D7
330
2
100
AcDbEntity
  8
0
100
AcDbCircle
 10
88.62156811430498
 20
87.29740714397797
 30
0.0
 40
1.285679
100
AcDbArc
 50
180.0
 51
207.4174040000058
  0
ARC
  5
41D8
330
2
100
AcDbEntity
  8
0
100
AcDbCircle
 10
88.96610711430515
 20
87.47620514397789
 30
0.0
 40
1.673817999999999
100
AcDbArc
 50
207.4174040000058
 51
231.3923950000056
  0
ARC
  5
41D9
330
2
100
AcDbEntity
  8
0
100
AcDbCircle
 10
89.18998811430503
 20
87.75648614397795
 30
0.0
 40
2.032614
100
AcDbArc
 50
231.3923950000056
 51
251.6983030000044
  0
LINE
  5
41DA
330
2
100
AcDbEntity
  8
0
100
AcDbLine
 10
87.33590811430497
 20
86.13078814397789
 30
0.0
 11
87.33590811430497
 21
87.29740714397797
 31
0.0
  0
ARC
  5
41DB
330
2
100
AcDbEntity
  8
0
100
AcDbCircle
 10
89.33590811430496
 20
88.19758714397806
 30
0.0
 40
2.497222
100
AcDbArc
 50
251.6983030000044
 51
270.0
  0
LINE
  5
41DC
330
2
100
AcDbEntity
  8
0
100
AcDbLine
 10
86.03587111430499
 20
93.71830714397805
 30
0.0
 11
87.33590811430497
 21
93.71830714397805
 31
0.0
  0
ARC
  5
41DD
330
2
100
AcDbEntity
  8
0
100
AcDbCircle
 10
88.33590811430497
 20
92.65348814397787
 30
0.0
 40
1.0
100
AcDbArc
 50
180.0
 51
269.5000000000084
  0
LINE
  5
41DE
330
2
100
AcDbEntity
  8
0
100
AcDbLine
 10
86.03587111430499
 20
103.0682861439781
 30
0.0
 11
84.42511111430496
 21
103.0682861439781
 31
0.0
  0
LINE
  5
41DF
330
2
100
AcDbEntity
  8
CENTER
100
AcDbLine
 10
79.83590811430497
 20
98.31828614397814
 30
0.0
 11
89.83590811430497
 21
98.31828614397814
 31
0.0
  0
LINE
  5
41E0
330
2
100
AcDbEntity
  8
0
100
AcDbLine
 10
87.33590811430497
 20
103.009187143978
 30
0.0
 11
83.33590811430497
 21
103.009187143978
 31
0.0
  0
ARC
  5
41E1
330
2
100
AcDbEntity
  8
0
100
AcDbCircle
 10
84.42511111430496
 20
102.0682861439781
 30
0.0
 40
1.0
100
AcDbArc
 50
90.0
 51
147.6076049999995
  0
ARC
  5
41E2
330
2
100
AcDbEntity
  8
0
100
AcDbCircle
 10
83.33590811430497
 20
104.009187143978
 30
0.0
 40
1.0
100
AcDbArc
 50
180.0
 51
270.0
  0
LINE
  5
41E3
330
2
100
AcDbEntity
  8
0
100
AcDbLine
 10
87.33590811430497
 20
98.31828614397814
 30
0.0
 11
87.33590811430497
 21
102.9269881439781
 31
0.0
  0
LINE
  5
41E4
330
2
100
AcDbEntity
  8
0
100
AcDbLine
 10
87.33590811430497
 20
102.9182871439779
 30
0.0
 11
87.33590811430497
 21
98.31828614397814
 31
0.0
  0
ARC
  5
41E5
330
2
100
AcDbEntity
  8
0
100
AcDbCircle
 10
88.33590811430497
 20
99.32708714397808
 30
0.0
 40
1.0
100
AcDbArc
 50
180.0
 51
270.4999999999915
  0
LINE
  5
41E6
330
2
100
AcDbEntity
  8
0
100
AcDbLine
 10
86.03587111430499
 20
102.9182871439779
 30
0.0
 11
87.33590811430497
 21
102.9182871439779
 31
0.0
  0
LINE
  5
41E7
330
2
100
AcDbEntity
  8
0
100
AcDbLine
 10
87.33590811430497
 20
109.8266871439779
 30
0.0
 11
87.33590811430497
 21
111.7096871439779
 31
0.0
  0
ARC
  5
41E8
330
2
100
AcDbEntity
  8
0
100
AcDbCircle
 10
88.64336911430484
 20
112.167087143978
 30
0.0
 40
1.455952
100
AcDbArc
 50
215.9710999999966
 51
240.2855990000014
  0
ARC
  5
41E9
330
2
100
AcDbEntity
  8
0
100
AcDbCircle
 10
89.06120811430502
 20
111.0161871439781
 30
0.0
 40
2.298955999999999
100
AcDbArc
 50
240.2855990000014
 51
256.6994019999928
  0
ARC
  5
41EA
330
2
100
AcDbEntity
  8
0
100
AcDbCircle
 10
88.64336911430484
 20
110.2840871439779
 30
0.0
 40
1.455952
100
AcDbArc
 50
215.9710999999966
 51
240.2855990000014
  0
ARC
  5
41EB
330
2
100
AcDbEntity
  8
0
100
AcDbCircle
 10
88.01318811430485
 20
109.8266871439779
 30
0.0
 40
0.6772650000000001
100
AcDbArc
 50
180.0
 51
215.9710999999966
  0
ARC
  5
41EC
330
2
100
AcDbEntity
  8
0
100
AcDbCircle
 10
89.06120811430502
 20
112.8991871439779
 30
0.0
 40
2.298955999999999
100
AcDbArc
 50
240.2855990000014
 51
256.6994019999928
  0
ARC
  5
41ED
330
2
100
AcDbEntity
  8
0
100
AcDbCircle
 10
89.33590811430496
 20
112.1780871439779
 30
0.0
 40
3.492887999999999
100
AcDbArc
 50
256.6994019999928
 51
270.0
  0
ARC
  5
41EE
330
2
100
AcDbEntity
  8
0
100
AcDbCircle
 10
89.33590811430496
 20
114.0611891439779
 30
0.0
 40
3.492887999999999
100
AcDbArc
 50
256.6994019999928
 51
270.0
  0
ARC
  5
41EF
330
2
100
AcDbEntity
  8
0
100
AcDbCircle
 10
88.01318811430485
 20
111.7096871439779
 30
0.0
 40
0.6772650000000001
100
AcDbArc
 50
180.0
 51
215.9710999999966
  0
ARC
  5
41F0
330
2
100
AcDbEntity
  8
0
100
AcDbCircle
 10
138.8358701143048
 20
80.81838714397798
 30
0.0
 40
1.0
100
AcDbArc
 50
270.4999999999915
 51
0.0
  0
ARC
  5
41F1
330
2
100
AcDbEntity
  8
0
100
AcDbCircle
 10
138.8358701143048
 20
76.84690614397794
 30
0.0
 40
1.0
100
AcDbArc
 50
0.0
 51
89.49999999999542
  0
ARC
  5
41F2
330
2
100
AcDbEntity
  8
0
100
AcDbCircle
 10
138.8358701143048
 20
83.10168614397793
 30
0.0
 40
1.0
100
AcDbArc
 50
0.0
 51
89.49999999999542
  0
ARC
  5
41F3
330
2
100
AcDbEntity
  8
0
100
AcDbCircle
 10
138.8358701143048
 20
87.13238714397807
 30
0.0
 40
1.0
100
AcDbArc
 50
270.4999999999915
 51
0.0
  0
ARC
  5
41F4
330
2
100
AcDbEntity
  8
0
100
AcDbCircle
 10
138.8358701143048
 20
112.000287143978
 30
0.0
 40
1.0
100
AcDbArc
 50
270.4999999999915
 51
0.0
  0
ARC
  5
41F5
330
2
100
AcDbEntity
  8
0
100
AcDbCircle
 10
138.8358701143048
 20
107.2531871439779
 30
0.0
 40
1.0
100
AcDbArc
 50
0.0
 51
89.49999999999542
  0
LINE
  5
41F6
330
2
100
AcDbEntity
  8
0
100
AcDbLine
 10
138.8446511143048
 20
139.2875971439779
 30
0.0
 11
89.33590811430496
 21
138.8554871439779
 31
0.0
  0
LINE
  5
41F7
330
2
100
AcDbEntity
  8
0
100
AcDbLine
 10
89.33590811430496
 20
136.9724871439779
 30
0.0
 11
138.8446511143048
 21
136.5403871439779
 31
0.0
  0
LINE
  5
41F8
330
2
100
AcDbEntity
  8
0
100
AcDbLine
 10
138.8446511143048
 20
156.2780281439781
 30
0.0
 11
96.81834911430508
 21
155.9113291439779
 31
0.0
  0
LINE
  5
41F9
330
2
100
AcDbEntity
  8
0
100
AcDbLine
 10
96.853368114305
 20
154.3174071439779
 30
0.0
 11
138.8446511143048
 21
153.9509461439778
 31
0.0
  0
LINE
  5
41FA
330
2
100
AcDbEntity
  8
0
100
AcDbLine
 10
138.8446511143048
 20
148.1534071439779
 30
0.0
 11
96.81834911430508
 21
147.7865861439781
 31
0.0
  0
LINE
  5
41FB
330
2
100
AcDbEntity
  8
0
100
AcDbLine
 10
96.853368114305
 20
145.9432861439781
 30
0.0
 11
138.8446511143048
 21
145.576886143978
 31
0.0
  0
LINE
  5
41FC
330
2
100
AcDbEntity
  8
0
100
AcDbLine
 10
96.03584811430494
 20
152.983907143978
 30
0.0
 11
138.159669114305
 21
153.351507143978
 31
0.0
  0
LINE
  5
41FD
330
2
100
AcDbEntity
  8
0
100
AcDbLine
 10
96.03584811430494
 20
144.7631871439779
 30
0.0
 11
138.159669114305
 21
145.1307861439781
 31
0.0
  0
LINE
  5
41FE
330
2
100
AcDbEntity
  8
0
100
AcDbLine
 10
138.8446511143048
 20
117.5906831439778
 30
0.0
 11
89.33590811430496
 21
118.022797143978
 31
0.0
  0
LINE
  5
41FF
330
2
100
AcDbEntity
  8
0
100
AcDbLine
 10
138.8446511143048
 20
129.9499991439778
 30
0.0
 11
89.33590811430496
 21
129.5179911439781
 31
0.0
  0
LINE
  5
4200
330
2
100
AcDbEntity
  8
0
100
AcDbLine
 10
89.33590811430496
 20
127.548295143978
 30
0.0
 11
138.8446511143048
 21
127.116289143978
 31
0.0
  0
LINE
  5
4201
330
2
100
AcDbEntity
  8
0
100
AcDbLine
 10
88.46780911430517
 20
126.6181971439779
 30
0.0
 11
138.159669114305
 21
127.051895143978
 31
0.0
  0
LINE
  5
4202
330
2
100
AcDbEntity
  8
0
100
AcDbLine
 10
89.33590811430496
 20
119.9923871439779
 30
0.0
 11
138.8446511143048
 21
120.4244851439779
 31
0.0
  0
LINE
  5
4203
330
2
100
AcDbEntity
  8
0
100
AcDbLine
 10
88.46780911430517
 20
120.9224871439779
 30
0.0
 11
138.159669114305
 21
120.4888931439779
 31
0.0
  0
LINE
  5
4204
330
2
100
AcDbEntity
  8
0
100
AcDbLine
 10
88.46780911430517
 20
135.840897143978
 30
0.0
 11
138.159669114305
 21
136.274597143978
 31
0.0
  0
ARC
  5
4205
330
2
100
AcDbEntity
  8
0
100
AcDbCircle
 10
89.06120811430502
 20
134.641497143978
 30
0.0
 40
2.298955999999999
100
AcDbArc
 50
103.3005979999939
 51
119.7144009999985
  0
LINE
  5
4206
330
2
100
AcDbEntity
  8
0
100
AcDbLine
 10
85.83590811430497
 20
131.9900831439781
 30
0.0
 11
85.83590811430497
 21
141.494047143978
 31
0.0
  0
LINE
  5
4207
330
2
100
AcDbEntity
  8
0
100
AcDbLine
 10
87.33590811430497
 20
137.7140971439779
 30
0.0
 11
87.33590811430497
 21
135.8309971439779
 31
0.0
  0
LINE
  5
4208
330
2
100
AcDbEntity
  8
0
100
AcDbLine
 10
81.33587011430496
 20
125.387163848758
 30
0.0
 11
82.33590811430497
 21
125.7633681439778
 31
0.0
  0
ARC
  5
4209
330
2
100
AcDbEntity
  8
0
100
AcDbCircle
 10
89.01698811430481
 20
120.6285871439781
 30
0.0
 40
2.575074
100
AcDbArc
 50
244.8269960000018
 51
258.9837039999939
  0
ARC
  5
420A
330
2
100
AcDbEntity
  8
0
100
AcDbCircle
 10
88.53334911430478
 20
119.5994891439781
 30
0.0
 40
1.437988999999999
100
AcDbArc
 50
221.3905940000004
 51
244.8269960000018
  0
ARC
  5
420B
330
2
100
AcDbEntity
  8
0
100
AcDbCircle
 10
87.81084911430491
 20
118.9626931439778
 30
0.0
 40
0.4749410000000001
100
AcDbArc
 50
180.0
 51
221.3905940000004
  0
ARC
  5
420C
330
2
100
AcDbEntity
  8
0
100
AcDbCircle
 10
87.81084911430491
 20
120.932391143978
 30
0.0
 40
0.4749410000000001
100
AcDbArc
 50
180.0
 51
221.3905940000004
  0
ARC
  5
420D
330
2
100
AcDbEntity
  8
0
100
AcDbCircle
 10
88.53334911430478
 20
121.569093143978
 30
0.0
 40
1.437988999999999
100
AcDbArc
 50
221.3905940000004
 51
244.8269960000018
  0
ARC
  5
420E
330
2
100
AcDbEntity
  8
0
100
AcDbCircle
 10
89.01698811430481
 20
122.5981921439778
 30
0.0
 40
2.575074
100
AcDbArc
 50
244.8269960000018
 51
258.9837039999939
  0
LINE
  5
420F
330
2
100
AcDbEntity
  8
0
100
AcDbLine
 10
87.33590811430497
 20
118.9626931439778
 30
0.0
 11
87.33590811430497
 21
120.932391143978
 31
0.0
  0
ARC
  5
4210
330
2
100
AcDbEntity
  8
0
100
AcDbCircle
 10
89.33590811430496
 20
122.2666941439778
 30
0.0
 40
4.243937999999999
100
AcDbArc
 50
258.9837039999939
 51
270.0
  0
ARC
  5
4211
330
2
100
AcDbEntity
  8
0
100
AcDbCircle
 10
89.33590811430496
 20
124.2363901439779
 30
0.0
 40
4.243937999999999
100
AcDbArc
 50
258.9837039999939
 51
270.0
  0
LINE
  5
4212
330
2
100
AcDbEntity
  8
0
100
AcDbLine
 10
82.33590811430497
 20
131.9900831439781
 30
0.0
 11
85.83590811430497
 21
131.9900831439781
 31
0.0
  0
LINE
  5
4213
330
2
100
AcDbEntity
  8
0
100
AcDbLine
 10
81.83590811430496
 20
133.065843143978
 30
0.0
 11
85.83590811430497
 21
133.065843143978
 31
0.0
  0
LINE
  5
4214
330
2
100
AcDbEntity
  8
0
100
AcDbLine
 10
87.33590811430497
 20
128.5779891439778
 30
0.0
 11
87.33590811430497
 21
126.6083831439779
 31
0.0
  0
ARC
  5
4215
330
2
100
AcDbEntity
  8
0
100
AcDbCircle
 10
89.01698811430481
 20
124.9424911439779
 30
0.0
 40
2.575074
100
AcDbArc
 50
101.0162959999943
 51
115.172996999995
  0
ARC
  5
4216
330
2
100
AcDbEntity
  8
0
100
AcDbCircle
 10
88.53334911430478
 20
125.9715891439779
 30
0.0
 40
1.437988999999999
100
AcDbArc
 50
115.172996999995
 51
138.6094059999995
  0
ARC
  5
4217
330
2
100
AcDbEntity
  8
0
100
AcDbCircle
 10
87.81084911430491
 20
126.6083831439779
 30
0.0
 40
0.4749410000000001
100
AcDbArc
 50
138.6094059999995
 51
180.0
  0
ARC
  5
4218
330
2
100
AcDbEntity
  8
0
100
AcDbCircle
 10
89.33590811430496
 20
123.304399143978
 30
0.0
 40
4.243937999999999
100
AcDbArc
 50
90.0
 51
101.0162959999943
  0
ARC
  5
4219
330
2
100
AcDbEntity
  8
0
100
AcDbCircle
 10
87.81084911430491
 20
128.5779891439778
 30
0.0
 40
0.4749410000000001
100
AcDbArc
 50
138.6094059999995
 51
180.0
  0
ARC
  5
421A
330
2
100
AcDbEntity
  8
0
100
AcDbCircle
 10
88.53334911430478
 20
127.941193143978
 30
0.0
 40
1.437988999999999
100
AcDbArc
 50
115.172996999995
 51
138.6094059999995
  0
ARC
  5
421B
330
2
100
AcDbEntity
  8
0
100
AcDbCircle
 10
89.01698811430481
 20
126.912095143978
 30
0.0
 40
2.575074
100
AcDbArc
 50
101.0162959999943
 51
115.172996999995
  0
ARC
  5
421C
330
2
100
AcDbEntity
  8
0
100
AcDbCircle
 10
89.33590811430496
 20
125.2739881439778
 30
0.0
 40
4.243937999999999
100
AcDbArc
 50
90.0
 51
101.0162959999943
  0
ARC
  5
421D
330
2
100
AcDbEntity
  8
0
100
AcDbCircle
 10
88.64336911430484
 20
135.3736871439779
 30
0.0
 40
1.455952
100
AcDbArc
 50
119.7144009999985
 51
144.0289000000033
  0
ARC
  5
421E
330
2
100
AcDbEntity
  8
0
100
AcDbCircle
 10
88.01318811430485
 20
135.8309971439779
 30
0.0
 40
0.6772650000000001
100
AcDbArc
 50
144.0289000000033
 51
180.0
  0
ARC
  5
421F
330
2
100
AcDbEntity
  8
0
100
AcDbCircle
 10
96.83585111430478
 20
145.7866871439779
 30
0.0
 40
2.0
100
AcDbArc
 50
90.50050399998985
 51
180.0
  0
ELLIPSE
  5
4220
330
2
100
AcDbEntity
  8
0
100
AcDbEllipse
 10
87.33589631692813
 20
146.3001819327561
 30
0.0
 11
-3.799999999999954
 21
0.0
 31
0.0
210
0.0
220
0.0
230
1.0
 40
0.4671183654701858
 41
5.669169374492924
 42
6.43876547018897
  0
ELLIPSE
  5
4221
330
2
100
AcDbEntity
  8
0
100
AcDbEllipse
 10
87.33589631692813
 20
146.3001819327561
 30
0.0
 11
-3.799999999999954
 21
0.0
 31
0.0
210
0.0
220
0.0
230
1.0
 40
0.4671183654701858
 41
6.43876547018897
 42
10.03879389346605
  0
LINE
  5
4222
330
2
100
AcDbEntity
  8
0
100
AcDbLine
 10
81.83590811430496
 20
141.494047143978
 30
0.0
 11
92.83590811430498
 21
141.494047143978
 31
0.0
  0
LINE
  5
4223
330
2
100
AcDbEntity
  8
0
100
AcDbLine
 10
85.83590811430497
 20
140.1055581439779
 30
0.0
 11
92.83590811430498
 21
140.1055581439779
 31
0.0
  0
ARC
  5
4224
330
2
100
AcDbEntity
  8
0
100
AcDbCircle
 10
88.01318811430485
 20
137.7140971439779
 30
0.0
 40
0.6772650000000001
100
AcDbArc
 50
144.0289000000033
 51
180.0
  0
ARC
  5
4225
330
2
100
AcDbEntity
  8
0
100
AcDbCircle
 10
88.64336911430484
 20
137.256687143978
 30
0.0
 40
1.455952
100
AcDbArc
 50
119.7144009999985
 51
144.0289000000033
  0
ARC
  5
4226
330
2
100
AcDbEntity
  8
0
100
AcDbCircle
 10
89.06120811430502
 20
136.524487143978
 30
0.0
 40
2.298955999999999
100
AcDbArc
 50
103.3005979999939
 51
119.7144009999985
  0
ARC
  5
4227
330
2
100
AcDbEntity
  8
0
100
AcDbCircle
 10
89.33590811430496
 20
135.362597143978
 30
0.0
 40
3.492887999999999
100
AcDbArc
 50
90.0
 51
103.3005979999939
  0
ARC
  5
4228
330
2
100
AcDbEntity
  8
0
100
AcDbCircle
 10
89.33590811430496
 20
133.4795851439779
 30
0.0
 40
3.492887999999999
100
AcDbArc
 50
90.0
 51
103.3005979999939
  0
ARC
  5
4229
330
2
100
AcDbEntity
  8
0
100
AcDbCircle
 10
96.83585111430478
 20
143.9433871439779
 30
0.0
 40
2.0
100
AcDbArc
 50
89.50031300000169
 51
180.0
  0
LINE
  5
422A
330
2
100
AcDbEntity
  8
0
100
AcDbLine
 10
94.83585111430476
 20
145.7866871439779
 30
0.0
 11
94.83585111430476
 21
143.9433871439779
 31
0.0
  0
ELLIPSE
  5
422B
330
2
100
AcDbEntity
  8
0
100
AcDbEllipse
 10
87.33589631692813
 20
146.8001819327561
 30
0.0
 11
-3.25
 21
0.0
 31
0.0
210
0.0
220
0.0
230
1.0
 40
0.5461691657962994
 41
5.888445830483655
 42
5.984282078621657
  0
ELLIPSE
  5
422C
330
2
100
AcDbEntity
  8
0
100
AcDbEllipse
 10
87.33589631692813
 20
146.8001819327561
 30
0.0
 11
-3.25
 21
0.0
 31
0.0
210
0.0
220
0.0
230
1.0
 40
0.5461691657962994
 41
3.440495882147722
 42
3.536387135374309
  0
ARC
  5
422D
330
2
100
AcDbEntity
  8
0
100
AcDbCircle
 10
96.83585111430478
 20
152.3175271439781
 30
0.0
 40
2.0
100
AcDbArc
 50
89.50034299999911
 51
180.0
  0
LINE
  5
422E
330
2
100
AcDbEntity
  8
0
100
AcDbLine
 10
94.83585111430476
 20
153.911407143978
 30
0.0
 11
94.83574811430491
 21
152.3175271439781
 31
0.0
  0
ARC
  5
422F
330
2
100
AcDbEntity
  8
0
100
AcDbCircle
 10
96.83585111430478
 20
153.911407143978
 30
0.0
 40
2.0
100
AcDbArc
 50
90.50047299999476
 51
180.0
  0
ARC
  5
4230
330
2
100
AcDbEntity
  8
0
100
AcDbCircle
 10
138.8358701143048
 20
135.5404971439779
 30
0.0
 40
1.0
100
AcDbArc
 50
0.0
 51
89.49999999999542
  0
ARC
  5
4231
330
2
100
AcDbEntity
  8
0
100
AcDbCircle
 10
138.8358701143048
 20
126.116289143978
 30
0.0
 40
1.0
100
AcDbArc
 50
0.0
 51
89.49999999999542
  0
ARC
  5
4232
330
2
100
AcDbEntity
  8
0
100
AcDbCircle
 10
138.8358701143048
 20
121.4243931439779
 30
0.0
 40
1.0
100
AcDbArc
 50
270.4999999999915
 51
0.0
  0
ARC
  5
4233
330
2
100
AcDbEntity
  8
0
100
AcDbCircle
 10
138.8358701143048
 20
116.590791143978
 30
0.0
 40
1.0
100
AcDbArc
 50
0.0
 51
89.49999999999542
  0
ARC
  5
4234
330
2
100
AcDbEntity
  8
0
100
AcDbCircle
 10
138.8358701143048
 20
130.9499991439778
 30
0.0
 40
1.0
100
AcDbArc
 50
270.4999999999915
 51
0.0
  0
ARC
  5
4235
330
2
100
AcDbEntity
  8
0
100
AcDbCircle
 10
138.8358701143048
 20
140.287498143978
 30
0.0
 40
1.0
100
AcDbArc
 50
270.4999999999915
 51
0.0
  0
ARC
  5
4236
330
2
100
AcDbEntity
  8
0
100
AcDbCircle
 10
138.8358701143048
 20
144.576886143978
 30
0.0
 40
1.0
100
AcDbArc
 50
0.0
 51
89.49999999999542
  0
ARC
  5
4237
330
2
100
AcDbEntity
  8
0
100
AcDbCircle
 10
138.8358701143048
 20
149.153287143978
 30
0.0
 40
1.0
100
AcDbArc
 50
270.4999999999915
 51
0.0
  0
ARC
  5
4238
330
2
100
AcDbEntity
  8
0
100
AcDbCircle
 10
138.8358701143048
 20
152.951007143978
 30
0.0
 40
1.0
100
AcDbArc
 50
0.0
 51
89.49999999999542
  0
LINE
  5
4239
330
2
100
AcDbEntity
  8
0
100
AcDbLine
 10
55.26260099829108
 20
226.5330555326506
 30
0.0
 11
45.26260099829108
 21
226.5330555326506
 31
0.0
  0
LINE
  5
423A
330
2
100
AcDbEntity
  8
0
100
AcDbLine
 10
55.26260099829108
 20
226.8330555326505
 30
0.0
 11
45.26260099829108
 21
226.8330555326505
 31
0.0
  0
LINE
  5
423B
330
2
100
AcDbEntity
  8
0
100
AcDbLine
 10
55.26260099829108
 20
226.2330555326506
 30
0.0
 11
45.26260099829108
 21
226.2330555326506
 31
0.0
  0
LINE
  5
423C
330
2
100
AcDbEntity
  8
0
100
AcDbLine
 10
45.3749534918453
 20
229.1063507037997
 30
0.0
 11
55.33690047276252
 21
228.2347932763229
 31
0.0
  0
LINE
  5
423D
330
2
100
AcDbEntity
  8
0
100
AcDbLine
 10
45.40110021466955
 20
229.405209113227
 30
0.0
 11
55.36304719558677
 21
228.5336516857504
 31
0.0
  0
LINE
  5
423E
330
2
100
AcDbEntity
  8
0
100
AcDbLine
 10
45.34880676902105
 20
228.8074922943719
 30
0.0
 11
55.31075374993827
 21
227.9359348668953
 31
0.0
  0
LINE
  5
423F
330
2
100
AcDbEntity
  8
0
100
AcDbLine
 10
68.33596911430515
 20
164.1661383160434
 30
0.0
 11
41.31187111430484
 21
163.9493881439779
 31
0.0
  0
ARC
  5
4240
330
2
100
AcDbEntity
  8
0
100
AcDbCircle
 10
41.33596911430515
 20
160.9494681439779
 30
0.0
 40
3.0
100
AcDbArc
 50
90.45947299999101
 51
180.0
  0
LINE
  5
4241
330
2
100
AcDbEntity
  8
0
100
AcDbLine
 10
160.5322071094716
 20
210.3972683809497
 30
0.0
 11
135.6415626722133
 21
210.3972683809497
 31
0.0
  0
LINE
  5
4242
330
2
100
AcDbEntity
  8
0
100
AcDbLine
 10
136.1195289952889
 20
210.3972683809497
 30
0.0
 11
160.6132886982147
 21
212.5401946820838
 31
0.0
  0
LINE
  5
4243
330
2
100
AcDbEntity
  8
0
100
AcDbLine
 10
136.0322071094716
 20
212.3972683809497
 30
0.0
 11
160.4389772127194
 21
214.5325840782674
 31
0.0
  0
LINE
  5
4244
330
2
100
AcDbEntity
  8
0
100
AcDbLine
 10
160.5322071094716
 20
208.3972683809497
 30
0.0
 11
135.6415626722129
 21
208.3972683809497
 31
0.0
  0
LINE
  5
4245
330
2
100
AcDbEntity
  8
0
100
AcDbLine
 10
136.0322071094716
 20
206.3972683809497
 30
0.0
 11
160.4322486274579
 21
204.2625413585639
 31
0.0
  0
LINE
  5
4246
330
2
100
AcDbEntity
  8
0
100
AcDbLine
 10
136.1195289952889
 20
208.3972683809497
 30
0.0
 11
160.6065601129532
 21
206.2549307547473
 31
0.0
  0
ARC
  5
4247
330
2
100
AcDbEntity
  8
0
100
AcDbCircle
 10
148.1338292796045
 20
240.6323950959178
 30
0.0
 40
20.0
100
AcDbArc
 50
259.9999999999931
 51
270.0
  0
ARC
  5
4248
330
2
100
AcDbEntity
  8
0
100
AcDbCircle
 10
148.0288428833729
 20
239.4323950959178
 30
0.0
 40
20.0
100
AcDbArc
 50
259.9999999999931
 51
270.0
  0
LINE
  5
4249
330
2
100
AcDbEntity
  8
0
100
AcDbLine
 10
154.3950604350267
 20
225.632395095918
 30
0.0
 11
138.5167934466754
 21
225.632395095918
 31
0.0
  0
LINE
  5
424A
330
2
100
AcDbEntity
  8
0
100
AcDbLine
 10
154.3950604350267
 20
224.432395095918
 30
0.0
 11
138.5167934466754
 21
224.4323950959178
 31
0.0
  0
ARC
  5
424B
330
2
100
AcDbEntity
  8
0
100
AcDbCircle
 10
148.1338292796036
 20
209.4323950959178
 30
0.0
 40
20.0
100
AcDbArc
 50
90.0
 51
100.0000000000067
  0
ARC
  5
424C
330
2
100
AcDbEntity
  8
0
100
AcDbCircle
 10
148.0288428833724
 20
210.632395095918
 30
0.0
 40
20.0
100
AcDbArc
 50
90.0
 51
100.0000000000067
  0
ARC
  5
424D
330
2
100
AcDbEntity
  8
0
100
AcDbCircle
 10
146.5924584793234
 20
243.1323950959178
 30
0.0
 40
20.0
100
AcDbArc
 50
265.0000000000002
 51
270.0
  0
ARC
  5
424E
330
2
100
AcDbEntity
  8
0
100
AcDbCircle
 10
146.5400653478324
 20
241.9323950959177
 30
0.0
 40
20.0
100
AcDbArc
 50
265.0000000000002
 51
270.0
  0
ARC
  5
424F
330
2
100
AcDbEntity
  8
0
100
AcDbCircle
 10
146.5400653478296
 20
208.1323950959178
 30
0.0
 40
20.0
100
AcDbArc
 50
90.0
 51
94.99999999999982
  0
ARC
  5
4250
330
2
100
AcDbEntity
  8
0
100
AcDbCircle
 10
146.5924584793198
 20
206.9323950959177
 30
0.0
 40
20.0
100
AcDbArc
 50
90.0
 51
94.99999999999982
  0
ARC
  5
4251
330
2
100
AcDbEntity
  8
0
100
AcDbCircle
 10
135.641562672222
 20
252.3972683809497
 30
0.0
 40
46.0
100
AcDbArc
 50
250.5608481874007
 51
270.0
  0
LINE
  5
4252
330
2
100
AcDbEntity
  8
0
100
AcDbLine
 10
90.335892114305
 20
199.1967078837578
 30
0.0
 11
90.335892114305
 21
210.2709017454619
 31
0.0
  0
LINE
  5
4253
330
2
100
AcDbEntity
  8
0
100
AcDbLine
 10
86.33585860526057
 20
210.2583035058414
 30
0.0
 11
86.33585320486179
 21
199.6178605898293
 31
0.0
  0
LINE
  5
4254
330
2
100
AcDbEntity
  8
0
100
AcDbLine
 10
88.33584988847666
 20
210.270831297851
 30
0.0
 11
88.33585883648003
 21
198.7757175194871
 31
0.0
  0
LINE
  5
4255
330
2
100
AcDbEntity
  8
0
100
AcDbLine
 10
84.33586226556338
 20
217.0330614757903
 30
0.0
 11
84.33585262881582
 21
199.1966599342035
 31
0.0
  0
LINE
  5
4256
330
2
100
AcDbEntity
  8
0
100
AcDbLine
 10
70.33596911430516
 20
199.6109160737805
 30
0.0
 11
70.33596911430516
 21
221.0330555326506
 31
0.0
  0
LINE
  5
4257
330
2
100
AcDbEntity
  8
0
100
AcDbLine
 10
69.33596911430516
 20
199.7778205758965
 30
0.0
 11
69.33596911430516
 21
221.0330555326506
 31
0.0
  0
LINE
  5
4258
330
2
100
AcDbEntity
  8
0
100
AcDbLine
 10
68.33596911430515
 20
199.1966495418548
 30
0.0
 11
68.33596911430515
 21
221.0330555326506
 31
0.0
  0
ARC
  5
4259
330
2
100
AcDbEntity
  8
0
100
AcDbCircle
 10
135.641562672222
 20
252.3972683809497
 30
0.0
 40
44.0
100
AcDbArc
 50
250.5608481874007
 51
270.0
  0
LINE
  5
425A
330
2
100
AcDbEntity
  8
0
100
AcDbLine
 10
92.8358891143049
 20
160.291349143978
 30
0.0
 11
138.159669114305
 21
160.6869061439778
 31
0.0
  0
LINE
  5
425B
330
2
100
AcDbEntity
  8
0
100
AcDbLine
 10
139.8358701143048
 20
177.8777061439779
 30
0.0
 11
90.33590811430498
 21
177.4457261439778
 31
0.0
  0
LINE
  5
425C
330
2
100
AcDbEntity
  8
0
100
AcDbLine
 10
139.3402721143048
 20
174.557447143978
 30
0.0
 11
90.3358891143049
 21
174.129789143978
 31
0.0
  0
LINE
  5
425D
330
2
100
AcDbEntity
  8
0
100
AcDbLine
 10
90.3358891143049
 20
173.1244061439778
 30
0.0
 11
139.3402721143048
 21
172.696805143978
 31
0.0
  0
LINE
  5
425E
330
2
100
AcDbEntity
  8
0
100
AcDbLine
 10
138.8446511143048
 20
169.6939251439779
 30
0.0
 11
90.3358891143049
 21
169.2706461439779
 31
0.0
  0
LINE
  5
425F
330
2
100
AcDbEntity
  8
0
100
AcDbLine
 10
90.3358891143049
 20
168.1455851439779
 30
0.0
 11
138.8446511143048
 21
167.7223071439779
 31
0.0
  0
LINE
  5
4260
330
2
100
AcDbEntity
  8
0
100
AcDbLine
 10
90.3358891143049
 20
176.6167461439781
 30
0.0
 11
139.8358701143048
 21
176.184827143978
 31
0.0
  0
LINE
  5
4261
330
2
100
AcDbEntity
  8
0
100
AcDbLine
 10
90.3358891143049
 20
174.651628143978
 30
0.0
 11
138.159669114305
 21
175.068925143978
 31
0.0
  0
LINE
  5
4262
330
2
100
AcDbEntity
  8
0
100
AcDbLine
 10
90.3358891143049
 20
171.426408143978
 30
0.0
 11
138.159669114305
 21
171.8437051439779
 31
0.0
  0
LINE
  5
4263
330
2
100
AcDbEntity
  8
0
100
AcDbLine
 10
138.8446511143048
 20
163.4391071439781
 30
0.0
 11
90.3358891143049
 21
163.015767143978
 31
0.0
  0
LINE
  5
4264
330
2
100
AcDbEntity
  8
0
100
AcDbLine
 10
90.3358891143049
 20
161.831605143978
 30
0.0
 11
138.8446511143048
 21
161.4083461439781
 31
0.0
  0
LINE
  5
4265
330
2
100
AcDbEntity
  8
0
100
AcDbLine
 10
90.3358891143049
 20
166.4966861439779
 30
0.0
 11
138.159669114305
 21
166.9140261439778
 31
0.0
  0
LINE
  5
4266
330
2
100
AcDbEntity
  8
0
100
AcDbLine
 10
149.8358701143048
 20
181.020406143978
 30
0.0
 11
90.3358891143049
 21
180.5011081439778
 31
0.0
  0
ARC
  5
4267
330
2
100
AcDbEntity
  8
0
100
AcDbCircle
 10
90.33590811430498
 20
174.770406143978
 30
0.0
 40
8.0
100
AcDbArc
 50
138.5910030000031
 51
180.0
  0
LINE
  5
4268
330
2
100
AcDbEntity
  8
0
100
AcDbLine
 10
81.33593111430503
 20
164.270406143978
 30
0.0
 11
70.33596911430516
 21
164.182179567231
 31
0.0
  0
LINE
  5
4269
330
2
100
AcDbEntity
  8
0
100
AcDbLine
 10
81.83590811430496
 20
160.546647143978
 30
0.0
 11
84.33587011430484
 21
160.546647143978
 31
0.0
  0
LINE
  5
426A
330
2
100
AcDbEntity
  8
0
100
AcDbLine
 10
82.83590811430498
 20
165.9748661439779
 30
0.0
 11
84.33587011430484
 21
165.9748661439779
 31
0.0
  0
ARC
  5
426B
330
2
100
AcDbEntity
  8
0
100
AcDbCircle
 10
82.83590811430498
 20
164.9748661439779
 30
0.0
 40
1.0
100
AcDbArc
 50
90.0
 51
180.0
  0
LINE
  5
426C
330
2
100
AcDbEntity
  8
0
100
AcDbLine
 10
90.3358891143049
 20
160.546647143978
 30
0.0
 11
92.8358891143049
 21
160.546647143978
 31
0.0
  0
ARC
  5
426D
330
2
100
AcDbEntity
  8
0
100
AcDbCircle
 10
84.33593111430502
 20
174.2397851439781
 30
0.0
 40
2.0
100
AcDbArc
 50
90.0
 51
180.0
  0
ARC
  5
426E
330
2
100
AcDbEntity
  8
HOJO
100
AcDbCircle
 10
69.58599911430486
 20
196.1966855371906
 30
0.0
 40
1.600781999999999
100
AcDbArc
 50
62.0628805447326
 51
141.3418685641803
  0
ARC
  5
426F
330
2
100
AcDbEntity
  8
HOJO
100
AcDbCircle
 10
69.58599911430486
 20
198.1966855371906
 30
0.0
 40
1.600781999999999
100
AcDbArc
 50
62.0628805447326
 51
141.3418685642128
  0
ARC
  5
4270
330
2
100
AcDbEntity
  8
HOJO
100
AcDbCircle
 10
85.58590380752788
 20
196.1967224050926
 30
0.0
 40
1.600781999999999
100
AcDbArc
 50
67.16467300000388
 51
141.3436203206141
  0
ARC
  5
4271
330
2
100
AcDbEntity
  8
HOJO
100
AcDbCircle
 10
89.08590380752787
 20
198.1967224050926
 30
0.0
 40
1.600781
100
AcDbArc
 50
247.1647030000065
 51
321.3410092286221
  0
LINE
  5
4272
330
2
100
AcDbEntity
  8
HOJO
100
AcDbLine
 10
86.20719580752767
 20
197.6720344050926
 30
0.0
 11
88.46479480752771
 21
196.7214264050925
 31
0.0
  0
ARC
  5
4273
330
2
100
AcDbEntity
  8
HOJO
100
AcDbCircle
 10
85.58590380752788
 20
198.1967224050926
 30
0.0
 40
1.600781999999999
100
AcDbArc
 50
67.16467300000388
 51
141.343558403885
  0
ARC
  5
4274
330
2
100
AcDbEntity
  8
HOJO
100
AcDbCircle
 10
89.08590380752787
 20
200.1967224050926
 30
0.0
 40
1.600781
100
AcDbArc
 50
247.1647030000065
 51
321.3401944016193
  0
LINE
  5
4275
330
2
100
AcDbEntity
  8
HOJO
100
AcDbLine
 10
86.20719580752767
 20
199.6720344050926
 30
0.0
 11
88.46479480752771
 21
198.7214264050925
 31
0.0
  0
ARC
  5
4276
330
2
100
AcDbEntity
  8
0
100
AcDbCircle
 10
138.8358701143048
 20
166.7223071439779
 30
0.0
 40
1.0
100
AcDbArc
 50
0.0
 51
89.49999999999542
  0
ARC
  5
4277
330
2
100
AcDbEntity
  8
0
100
AcDbCircle
 10
138.8358701143048
 20
160.4083461439781
 30
0.0
 40
1.0
100
AcDbArc
 50
0.0
 51
89.49999999999542
  0
ARC
  5
4278
330
2
100
AcDbEntity
  8
0
100
AcDbCircle
 10
138.8358701143048
 20
164.4390461439779
 30
0.0
 40
1.0
100
AcDbArc
 50
270.4999999999915
 51
0.0
  0
ARC
  5
4279
330
2
100
AcDbEntity
  8
0
100
AcDbCircle
 10
139.3358701143048
 20
172.1968051439779
 30
0.0
 40
0.5
100
AcDbArc
 50
0.0
 51
89.49999999999542
  0
ARC
  5
427A
330
2
100
AcDbEntity
  8
0
100
AcDbCircle
 10
138.8358701143048
 20
170.6939251439779
 30
0.0
 40
1.0
100
AcDbArc
 50
270.4999999999915
 51
0.0
  0
ARC
  5
427B
330
2
100
AcDbEntity
  8
0
100
AcDbCircle
 10
139.3358701143048
 20
175.0574471439781
 30
0.0
 40
0.5
100
AcDbArc
 50
270.4999999999915
 51
0.0
  0
LINE
  5
427C
330
2
100
AcDbEntity
  8
0
100
AcDbLine
 10
136.0322071094716
 20
206.3972683809497
 30
0.0
 11
135.6415626722124
 21
206.3972683809497
 31
0.0
  0
ARC
  5
427D
330
2
100
AcDbEntity
  8
0
100
AcDbCircle
 10
95.76825468641311
 20
175.2707674667185
 30
0.0
 40
40.0
100
AcDbArc
 50
70.56084818740075
 51
90.0
  0
LINE
  5
427E
330
2
100
AcDbEntity
  8
0
100
AcDbLine
 10
95.33587789301931
 20
222.0330555326506
 30
0.0
 11
128.7560002201595
 21
222.0330555326506
 31
0.0
  0
LINE
  5
427F
330
2
100
AcDbEntity
  8
0
100
AcDbLine
 10
95.33586226556201
 20
228.0330555326504
 30
0.0
 11
128.7565236235569
 21
228.0330555326506
 31
0.0
  0
ARC
  5
4280
330
2
100
AcDbEntity
  8
0
100
AcDbCircle
 10
95.76825468641311
 20
175.2707674667185
 30
0.0
 40
42.0
100
AcDbArc
 50
70.56084818740075
 51
90.0
  0
ARC
  5
4281
330
2
100
AcDbEntity
  8
0
100
AcDbCircle
 10
95.76825468641311
 20
175.2707674667185
 30
0.0
 40
46.0
100
AcDbArc
 50
70.56084818740075
 51
90.0
  0
ARC
  5
4282
330
2
100
AcDbEntity
  8
0
100
AcDbCircle
 10
95.76825468641311
 20
175.2707674667185
 30
0.0
 40
44.0
100
AcDbArc
 50
70.56084818740075
 51
90.0
  0
ARC
  5
4283
330
2
100
AcDbEntity
  8
0
100
AcDbCircle
 10
95.33586226556201
 20
217.0330555326504
 30
0.0
 40
11.0
100
AcDbArc
 50
90.0
 51
179.9999690439179
  0
LINE
  5
4284
330
2
100
AcDbEntity
  8
0
100
AcDbLine
 10
63.3813083725305
 20
228.0329086990866
 30
0.0
 11
55.38047834413657
 21
228.7328906253687
 31
0.0
  0
LINE
  5
4285
330
2
100
AcDbEntity
  8
0
100
AcDbLine
 10
55.29332260138892
 20
227.7366959272771
 30
0.0
 11
55.38047834413657
 21
228.7328906253687
 31
0.0
  0
ARC
  5
4286
330
2
100
AcDbEntity
  8
0
100
AcDbCircle
 10
63.33596911430515
 20
221.0330555326506
 30
0.0
 40
7.0
100
AcDbArc
 50
0.0
 51
89.62889052766749
  0
LINE
  5
4287
330
2
100
AcDbEntity
  8
0
100
AcDbLine
 10
63.33596911430515
 20
226.0330555326506
 30
0.0
 11
55.26260099829108
 21
226.0330555326506
 31
0.0
  0
LINE
  5
4288
330
2
100
AcDbEntity
  8
0
100
AcDbLine
 10
63.33596911430515
 20
227.0330555326506
 30
0.0
 11
55.29332260138892
 21
227.7366959272771
 31
0.0
  0
LINE
  5
4289
330
2
100
AcDbEntity
  8
0
100
AcDbLine
 10
63.33596911430515
 20
227.0330555326506
 30
0.0
 11
55.26260099829108
 21
227.0330555326506
 31
0.0
  0
LINE
  5
428A
330
2
100
AcDbEntity
  8
0
100
AcDbLine
 10
55.26260099829108
 20
226.0330555326504
 30
0.0
 11
55.26260099829108
 21
227.0330555326506
 31
0.0
  0
ARC
  5
428B
330
2
100
AcDbEntity
  8
0
100
AcDbCircle
 10
63.33596911430515
 20
221.0330555326506
 30
0.0
 40
5.0
100
AcDbArc
 50
0.0
 51
90.0
  0
ARC
  5
428C
330
2
100
AcDbEntity
  8
0
100
AcDbCircle
 10
63.33596911430515
 20
221.0330555326506
 30
0.0
 40
6.0
100
AcDbArc
 50
0.0
 51
90.0
  0
ARC
  5
428D
330
2
100
AcDbEntity
  8
0
100
AcDbCircle
 10
95.33589769523644
 20
210.2708296614506
 30
0.0
 40
7.000047806854717
100
AcDbArc
 50
90.00012915873288
 51
179.9996881827295
  0
ARC
  5
428E
330
2
100
AcDbEntity
  8
0
100
AcDbCircle
 10
95.33589769523644
 20
210.2708296614506
 30
0.0
 40
9.000047806854716
100
AcDbArc
 50
90.00012915873288
 51
179.9996881827295
  0
ARC
  5
428F
330
2
100
AcDbEntity
  8
0
100
AcDbCircle
 10
95.33589769523644
 20
210.2708296614506
 30
0.0
 40
11.00004780685471
100
AcDbArc
 50
90.00012915873288
 51
179.9996881827295
  0
ARC
  5
4290
330
2
100
AcDbEntity
  8
0
100
AcDbCircle
 10
95.33586783708608
 20
210.2709017454619
 30
0.0
 40
4.999975722839786
100
AcDbArc
 50
89.99988476693856
 51
180.0002781972234
  0
LINE
  5
4291
330
2
100
AcDbEntity
  8
0
100
AcDbLine
 10
95.33571185837411
 20
217.2707674667185
 30
0.0
 11
95.76825468641311
 21
217.2707674667185
 31
0.0
  0
LINE
  5
4292
330
2
100
AcDbEntity
  8
0
100
AcDbLine
 10
95.33571185837411
 20
215.2707674667185
 30
0.0
 11
95.76825468641311
 21
215.2707674667185
 31
0.0
  0
ARC
  5
4293
330
2
100
AcDbEntity
  8
0
100
AcDbCircle
 10
95.33587789301931
 20
217.0330555326506
 30
0.0
 40
5.0
100
AcDbArc
 50
90.0
 51
131.9745559601705
  0
LINE
  5
4294
330
2
100
AcDbEntity
  8
0
100
AcDbLine
 10
95.33571185837411
 20
221.2707674667185
 30
0.0
 11
95.76825468641311
 21
221.2707674667185
 31
0.0
  0
LINE
  5
4295
330
2
100
AcDbEntity
  8
0
100
AcDbLine
 10
95.33571185837411
 20
219.2707674667185
 30
0.0
 11
95.76825468641311
 21
219.2707674667185
 31
0.0
  0
LINE
  5
4296
330
2
100
AcDbEntity
  8
0
100
AcDbLine
 10
136.7307188080082
 20
229.3948241867548
 30
0.0
 11
131.6852224240561
 21
228.2830555326506
 31
0.0
  0
LINE
  5
4297
330
2
100
AcDbEntity
  8
0
100
AcDbLine
 10
138.5167934466754
 20
228.0451844418475
 30
0.0
 11
144.6608657262651
 21
229.1285501561619
 31
0.0
  0
LINE
  5
4298
330
2
100
AcDbEntity
  8
0
100
AcDbLine
 10
138.5167934466754
 20
220.8363592118673
 30
0.0
 11
138.5167934466754
 21
229.2284309799687
 31
0.0
  0
ARC
  5
4299
330
2
100
AcDbEntity
  8
0
100
AcDbCircle
 10
135.641562672222
 20
252.3972683809497
 30
0.0
 40
40.0
100
AcDbArc
 50
250.5608481874007
 51
270.0
  0
ARC
  5
429A
330
2
100
AcDbEntity
  8
0
100
AcDbCircle
 10
135.641562672222
 20
252.3972683809497
 30
0.0
 40
42.0
100
AcDbArc
 50
250.5608481874007
 51
270.0
  0
LINE
  5
429B
330
2
100
AcDbEntity
  8
0
100
AcDbLine
 10
111.0773115859457
 20
218.6485587526616
 30
0.0
 11
122.3293392813239
 21
214.6774498714339
 31
0.0
  0
LINE
  5
429C
330
2
100
AcDbEntity
  8
0
100
AcDbLine
 10
110.411700416401
 20
216.762567827186
 30
0.0
 11
121.6637281117792
 21
212.791458945958
 31
0.0
  0
LINE
  5
429D
330
2
100
AcDbEntity
  8
0
100
AcDbLine
 10
109.7460892468558
 20
214.8765769017103
 30
0.0
 11
120.9981169422341
 21
210.9054680204821
 31
0.0
  0
LINE
  5
429E
330
2
100
AcDbEntity
  8
0
100
AcDbLine
 10
109.0804780773111
 20
212.9905859762345
 30
0.0
 11
120.3325057726893
 21
209.0194770950065
 31
0.0
  0
LINE
  5
429F
330
2
100
AcDbEntity
  8
0
100
AcDbLine
 10
136.0322071094716
 20
212.3972683809497
 30
0.0
 11
135.641562672222
 21
212.3972683809497
 31
0.0
  0
LINE
  5
42A0
330
2
100
AcDbEntity
  8
0
100
AcDbLine
 10
135.7272883588076
 20
220.8493171855956
 30
0.0
 11
131.6602026867805
 21
221.7830555326506
 31
0.0
  0
LINE
  5
42A1
330
2
100
AcDbEntity
  8
0
100
AcDbLine
 10
128.7501727908676
 20
221.9830555326506
 30
0.0
 11
128.7501727908676
 21
228.0830555326506
 31
0.0
  0
LINE
  5
42A2
330
2
100
AcDbEntity
  8
0
100
AcDbLine
 10
128.9501727908674
 20
221.7830555326506
 30
0.0
 11
131.6602026867805
 21
221.7830555326506
 31
0.0
  0
ARC
  5
42A3
330
2
100
AcDbEntity
  8
0
100
AcDbCircle
 10
128.9501727908674
 20
221.9830555326506
 30
0.0
 40
0.2
100
AcDbArc
 50
180.0
 51
270.0
  0
LINE
  5
42A4
330
2
100
AcDbEntity
  8
0
100
AcDbLine
 10
128.9501727908674
 20
228.2830555326508
 30
0.0
 11
131.6852224240557
 21
228.2830555326506
 31
0.0
  0
ARC
  5
42A5
330
2
100
AcDbEntity
  8
0
100
AcDbCircle
 10
128.9501727908674
 20
228.0830555326506
 30
0.0
 40
0.2
100
AcDbArc
 50
90.0
 51
180.0
  0
LINE
  5
42A6
330
2
100
AcDbEntity
  8
0
100
AcDbLine
 10
144.8493436243703
 20
223.2085011340829
 30
0.0
 11
138.5167934466754
 21
223.7625274858402
 31
0.0
  0
LINE
  5
42A7
330
2
100
AcDbEntity
  8
0
100
AcDbLine
 10
138.5137549972779
 20
220.801629576334
 30
0.0
 11
144.5558793300343
 21
219.7362400356737
 31
0.0
  0
LINE
  5
42A8
330
2
100
AcDbEntity
  8
0
100
AcDbLine
 10
138.5167934466754
 20
222.0196057499883
 30
0.0
 11
144.6608657262655
 21
220.9362400356737
 31
0.0
  0
LINE
  5
42A9
330
2
100
AcDbEntity
  8
0
100
AcDbLine
 10
144.7969504928793
 20
222.0085011340829
 30
0.0
 11
138.5167934466754
 21
222.5579436807883
 31
0.0
  0
LINE
  5
42AA
330
2
100
AcDbEntity
  8
0
100
AcDbLine
 10
136.1484815016807
 20
221.0156057879852
 30
0.0
 11
138.2820638111421
 21
220.6393976612648
 31
0.0
  0
ARC
  5
42AB
330
2
100
AcDbEntity
  8
0
100
AcDbCircle
 10
135.8167934466756
 20
221.2391746457601
 30
0.0
 40
0.4
100
AcDbArc
 50
257.0698677002802
 51
326.0187104207677
  0
ARC
  5
42AC
330
2
100
AcDbEntity
  8
0
100
AcDbCircle
 10
138.3167934466756
 20
220.8363592118673
 30
0.0
 40
0.2
100
AcDbArc
 50
259.9999999999931
 51
0.0
  0
LINE
  5
42AD
330
2
100
AcDbEntity
  8
0
100
AcDbLine
 10
144.8493436243662
 20
226.8562890577527
 30
0.0
 11
138.5167934466754
 21
226.3022627059958
 31
0.0
  0
LINE
  5
42AE
330
2
100
AcDbEntity
  8
0
100
AcDbLine
 10
144.7969504928765
 20
228.0562890577527
 30
0.0
 11
138.5167934466754
 21
227.5068465110477
 31
0.0
  0
LINE
  5
42AF
330
2
100
AcDbEntity
  8
0
100
AcDbLine
 10
138.5137549972779
 20
229.263160615502
 30
0.0
 11
144.5558793300339
 21
230.3285501561621
 31
0.0
  0
LINE
  5
42B0
330
2
100
AcDbEntity
  8
0
100
AcDbLine
 10
137.1498305517603
 20
229.2257492584866
 30
0.0
 11
138.2820638111421
 21
229.4253925305712
 31
0.0
  0
ARC
  5
42B1
330
2
100
AcDbEntity
  8
0
100
AcDbCircle
 10
136.8167934466756
 20
229.0041950063568
 30
0.0
 40
0.4
100
AcDbArc
 50
33.63399402201766
 51
102.4264747477324
  0
ARC
  5
42B2
330
2
100
AcDbEntity
  8
0
100
AcDbCircle
 10
138.3167934466756
 20
229.2284309799687
 30
0.0
 40
0.2
100
AcDbArc
 50
0.0
 51
100.0000000000067
  0
LINE
  5
42B3
330
2
100
AcDbEntity
  8
0
100
AcDbLine
 10
165.5849973126853
 20
205.518227986432
 30
0.0
 11
160.5871419753905
 21
205.9554836703877
 31
0.0
  0
LINE
  5
42B4
330
2
100
AcDbEntity
  8
0
100
AcDbLine
 10
165.5376109558876
 20
205.1710368123175
 30
0.0
 11
160.5566374654288
 21
205.6068155260556
 31
0.0
  0
LINE
  5
42B5
330
2
100
AcDbEntity
  8
0
100
AcDbLine
 10
165.4460974260025
 20
204.1250323793212
 30
0.0
 11
160.4651239355437
 21
204.5608110930595
 31
0.0
  0
LINE
  5
42B6
330
2
100
AcDbEntity
  8
0
100
AcDbLine
 10
165.4766019359642
 20
204.4737005236533
 30
0.0
 11
160.4956284455054
 21
204.9094792373916
 31
0.0
  0
LINE
  5
42B7
330
2
100
AcDbEntity
  8
0
100
AcDbLine
 10
165.5071064459259
 20
204.8223686679854
 30
0.0
 11
160.5261329554671
 21
205.2581473817237
 31
0.0
  0
ARC
  5
42B8
330
2
100
AcDbEntity
  8
0
100
AcDbCircle
 10
158.9950604350266
 20
228.632395095918
 30
0.0
 40
0.1
100
AcDbArc
 50
180.0
 51
270.0
  0
LINE
  5
42B9
330
2
100
AcDbEntity
  8
0
100
AcDbLine
 10
163.8950604350267
 20
228.7823950959179
 30
0.0
 11
163.8950604350267
 21
228.4323950959178
 31
0.0
  0
LINE
  5
42BA
330
2
100
AcDbEntity
  8
0
100
AcDbLine
 10
154.3950604350267
 20
231.2823950959179
 30
0.0
 11
154.3950604350267
 21
218.7823950959179
 31
0.0
  0
LINE
  5
42BB
330
2
100
AcDbEntity
  8
0
100
AcDbLine
 10
156.3950604350267
 20
231.2823950959179
 30
0.0
 11
156.3950604350267
 21
218.7823950959179
 31
0.0
  0
LINE
  5
42BC
330
2
100
AcDbEntity
  8
0
100
AcDbLine
 10
165.8950604350267
 20
231.2823950959179
 30
0.0
 11
165.8950604350267
 21
218.7823950959179
 31
0.0
  0
LINE
  5
42BD
330
2
100
AcDbEntity
  8
0
100
AcDbLine
 10
165.8950604350267
 20
231.2823950959179
 30
0.0
 11
165.8950604350267
 21
218.7823950959179
 31
0.0
  0
LINE
  5
42BE
330
2
100
AcDbEntity
  8
0
100
AcDbLine
 10
165.5322071094716
 20
209.3972683809496
 30
0.0
 11
160.5322071094716
 21
209.3972683809496
 31
0.0
  0
LINE
  5
42BF
330
2
100
AcDbEntity
  8
0
100
AcDbLine
 10
165.5322071094716
 20
209.0472683809498
 30
0.0
 11
160.5322071094716
 21
209.0472683809498
 31
0.0
  0
LINE
  5
42C0
330
2
100
AcDbEntity
  8
0
100
AcDbLine
 10
165.5322071094716
 20
209.7472683809495
 30
0.0
 11
160.5322071094716
 21
209.7472683809495
 31
0.0
  0
LINE
  5
42C1
330
2
100
AcDbEntity
  8
0
100
AcDbLine
 10
165.5322071094716
 20
210.0972683809495
 30
0.0
 11
160.5322071094716
 21
210.0972683809495
 31
0.0
  0
LINE
  5
42C2
330
2
100
AcDbEntity
  8
0
100
AcDbLine
 10
165.5322071094716
 20
208.6972683809496
 30
0.0
 11
160.5322071094716
 21
208.6972683809496
 31
0.0
  0
LINE
  5
42C3
330
2
100
AcDbEntity
  8
0
100
AcDbLine
 10
160.5322071094716
 20
208.3972683809497
 30
0.0
 11
160.5322071094716
 21
210.3972683809497
 31
0.0
  0
LINE
  5
42C4
330
2
100
AcDbEntity
  8
0
100
AcDbLine
 10
165.5849973126853
 20
213.2763087754671
 30
0.0
 11
160.5871419753905
 21
212.8390530915111
 31
0.0
  0
LINE
  5
42C5
330
2
100
AcDbEntity
  8
0
100
AcDbLine
 10
165.5376109558876
 20
213.6234999495818
 30
0.0
 11
160.5566374654288
 21
213.1877212358435
 31
0.0
  0
LINE
  5
42C6
330
2
100
AcDbEntity
  8
0
100
AcDbLine
 10
165.4460974260025
 20
214.6695043825779
 30
0.0
 11
160.4651239355437
 21
214.2337256688396
 31
0.0
  0
LINE
  5
42C7
330
2
100
AcDbEntity
  8
0
100
AcDbLine
 10
165.5071064459259
 20
213.9721680939136
 30
0.0
 11
160.5261329554671
 21
213.5363893801754
 31
0.0
  0
LINE
  5
42C8
330
2
100
AcDbEntity
  8
0
100
AcDbLine
 10
165.4766019359642
 20
214.320836238246
 30
0.0
 11
160.4956284455054
 21
213.8850575245077
 31
0.0
  0
LINE
  5
42C9
330
2
100
AcDbEntity
  8
0
100
AcDbLine
 10
162.2950604350268
 20
221.5323950959179
 30
0.0
 11
158.9950604350266
 21
221.5323950959179
 31
0.0
  0
LINE
  5
42CA
330
2
100
AcDbEntity
  8
0
100
AcDbLine
 10
162.2950604350268
 20
223.5323950959179
 30
0.0
 11
158.9950604350266
 21
223.5323950959179
 31
0.0
  0
LINE
  5
42CB
330
2
100
AcDbEntity
  8
0
100
AcDbLine
 10
162.2950604350268
 20
224.0323950959179
 30
0.0
 11
158.9950604350266
 21
224.0323950959179
 31
0.0
  0
LINE
  5
42CC
330
2
100
AcDbEntity
  8
0
100
AcDbLine
 10
162.2950604350268
 20
226.0323950959179
 30
0.0
 11
158.9950604350266
 21
226.0323950959179
 31
0.0
  0
LINE
  5
42CD
330
2
100
AcDbEntity
  8
0
100
AcDbLine
 10
162.2950604350268
 20
226.5323950959179
 30
0.0
 11
158.9950604350266
 21
226.5323950959179
 31
0.0
  0
LINE
  5
42CE
330
2
100
AcDbEntity
  8
0
100
AcDbLine
 10
162.2950604350268
 20
228.5323950959179
 30
0.0
 11
158.9950604350266
 21
228.5323950959179
 31
0.0
  0
LINE
  5
42CF
330
2
100
AcDbEntity
  8
0
100
AcDbLine
 10
162.2950604350268
 20
221.0323950959179
 30
0.0
 11
158.9950604350266
 21
221.0323950959179
 31
0.0
  0
LINE
  5
42D0
330
2
100
AcDbEntity
  8
0
100
AcDbLine
 10
162.2950604350268
 20
219.0323950959179
 30
0.0
 11
158.9950604350266
 21
219.0323950959179
 31
0.0
  0
LINE
  5
42D1
330
2
100
AcDbEntity
  8
0
100
AcDbLine
 10
165.8950604350267
 20
218.7823950959179
 30
0.0
 11
154.3950604350267
 21
218.7823950959179
 31
0.0
  0
LINE
  5
42D2
330
2
100
AcDbEntity
  8
0
100
AcDbLine
 10
154.3950604350267
 20
221.9323950959178
 30
0.0
 11
146.5400653478324
 21
221.9323950959178
 31
0.0
  0
LINE
  5
42D3
330
2
100
AcDbEntity
  8
0
100
AcDbLine
 10
154.3950604350267
 20
223.132395095918
 30
0.0
 11
146.5924584793239
 21
223.1323950959178
 31
0.0
  0
LINE
  5
42D4
330
2
100
AcDbEntity
  8
0
100
AcDbLine
 10
154.3950604350267
 20
220.632395095918
 30
0.0
 11
148.1338292796045
 21
220.6323950959178
 31
0.0
  0
LINE
  5
42D5
330
2
100
AcDbEntity
  8
0
100
AcDbLine
 10
154.3950604350267
 20
219.432395095918
 30
0.0
 11
148.0288428833729
 21
219.4323950959177
 31
0.0
  0
LINE
  5
42D6
330
2
100
AcDbEntity
  8
0
100
AcDbLine
 10
158.8950604350267
 20
221.2823950959179
 30
0.0
 11
158.8950604350267
 21
221.4323950959177
 31
0.0
  0
ARC
  5
42D7
330
2
100
AcDbEntity
  8
0
100
AcDbCircle
 10
158.9950604350266
 20
221.4323950959177
 30
0.0
 40
0.1
100
AcDbArc
 50
90.0
 51
180.0
  0
ARC
  5
42D8
330
2
100
AcDbEntity
  8
0
100
AcDbCircle
 10
158.9950604350266
 20
221.132395095918
 30
0.0
 40
0.1
100
AcDbArc
 50
180.0
 51
270.0
  0
LINE
  5
42D9
330
2
100
AcDbEntity
  8
0
100
AcDbLine
 10
158.8950604350267
 20
218.9323950959177
 30
0.0
 11
158.8950604350267
 21
218.7823950959179
 31
0.0
  0
ARC
  5
42DA
330
2
100
AcDbEntity
  8
0
100
AcDbCircle
 10
158.9950604350266
 20
218.9323950959177
 30
0.0
 40
0.1
100
AcDbArc
 50
90.0
 51
180.0
  0
LINE
  5
42DB
330
2
100
AcDbEntity
  8
0
100
AcDbLine
 10
158.8950604350267
 20
221.2823950959179
 30
0.0
 11
158.8950604350267
 21
221.132395095918
 31
0.0
  0
LINE
  5
42DC
330
2
100
AcDbEntity
  8
0
100
AcDbLine
 10
154.3950604350267
 20
226.9323950959178
 30
0.0
 11
146.5924584793193
 21
226.9323950959178
 31
0.0
  0
LINE
  5
42DD
330
2
100
AcDbEntity
  8
0
100
AcDbLine
 10
154.3950604350267
 20
228.1323950959178
 30
0.0
 11
146.5400653478292
 21
228.1323950959178
 31
0.0
  0
ARC
  5
42DE
330
2
100
AcDbEntity
  8
0
100
AcDbCircle
 10
158.9950604350266
 20
223.632395095918
 30
0.0
 40
0.1
100
AcDbArc
 50
180.0
 51
270.0
  0
LINE
  5
42DF
330
2
100
AcDbEntity
  8
0
100
AcDbLine
 10
158.8950604350267
 20
223.632395095918
 30
0.0
 11
158.8950604350267
 21
223.9323950959178
 31
0.0
  0
ARC
  5
42E0
330
2
100
AcDbEntity
  8
0
100
AcDbCircle
 10
158.9950604350266
 20
223.9323950959178
 30
0.0
 40
0.1
100
AcDbArc
 50
90.0
 51
180.0
  0
ARC
  5
42E1
330
2
100
AcDbEntity
  8
0
100
AcDbCircle
 10
158.9950604350266
 20
226.4323950959178
 30
0.0
 40
0.1
100
AcDbArc
 50
90.0
 51
180.0
  0
LINE
  5
42E2
330
2
100
AcDbEntity
  8
0
100
AcDbLine
 10
158.8950604350267
 20
226.4323950959178
 30
0.0
 11
158.8950604350267
 21
226.132395095918
 31
0.0
  0
ARC
  5
42E3
330
2
100
AcDbEntity
  8
0
100
AcDbCircle
 10
158.9950604350266
 20
226.132395095918
 30
0.0
 40
0.1
100
AcDbArc
 50
180.0
 51
270.0
  0
LINE
  5
42E4
330
2
100
AcDbEntity
  8
0
100
AcDbLine
 10
163.8950604350267
 20
223.7823950959179
 30
0.0
 11
163.8950604350267
 21
223.4323950959177
 31
0.0
  0
ARC
  5
42E5
330
2
100
AcDbEntity
  8
0
100
AcDbCircle
 10
162.2950604350268
 20
223.4323950959177
 30
0.0
 40
0.1
100
AcDbArc
 50
0.0
 51
90.0
  0
LINE
  5
42E6
330
2
100
AcDbEntity
  8
0
100
AcDbLine
 10
164.7950604350268
 20
223.3323950959178
 30
0.0
 11
163.9950604350266
 21
223.3323950959178
 31
0.0
  0
LINE
  5
42E7
330
2
100
AcDbEntity
  8
0
100
AcDbLine
 10
164.7950604350268
 20
221.7323950959179
 30
0.0
 11
163.9950604350266
 21
221.7323950959179
 31
0.0
  0
ARC
  5
42E8
330
2
100
AcDbEntity
  8
0
100
AcDbCircle
 10
163.9950604350266
 20
223.4323950959177
 30
0.0
 40
0.1
100
AcDbArc
 50
180.0
 51
270.0
  0
ARC
  5
42E9
330
2
100
AcDbEntity
  8
0
100
AcDbCircle
 10
163.9950604350266
 20
221.632395095918
 30
0.0
 40
0.1
100
AcDbArc
 50
90.0
 51
180.0
  0
LINE
  5
42EA
330
2
100
AcDbEntity
  8
0
100
AcDbLine
 10
163.8950604350267
 20
221.2823950959179
 30
0.0
 11
163.8950604350267
 21
221.632395095918
 31
0.0
  0
ARC
  5
42EB
330
2
100
AcDbEntity
  8
0
100
AcDbCircle
 10
164.7950604350268
 20
223.2323950959179
 30
0.0
 40
0.1
100
AcDbArc
 50
0.0
 51
90.0
  0
ARC
  5
42EC
330
2
100
AcDbEntity
  8
0
100
AcDbCircle
 10
164.7950604350268
 20
221.8323950959178
 30
0.0
 40
0.1
100
AcDbArc
 50
270.0
 51
0.0
  0
LINE
  5
42ED
330
2
100
AcDbEntity
  8
0
100
AcDbLine
 10
164.8950604350267
 20
221.8323950959178
 30
0.0
 11
164.8950604350267
 21
223.2323950959179
 31
0.0
  0
ARC
  5
42EE
330
2
100
AcDbEntity
  8
0
100
AcDbCircle
 10
162.2950604350268
 20
221.632395095918
 30
0.0
 40
0.1
100
AcDbArc
 50
270.0
 51
0.0
  0
LINE
  5
42EF
330
2
100
AcDbEntity
  8
0
100
AcDbLine
 10
162.3950604350267
 20
221.632395095918
 30
0.0
 11
162.3950604350267
 21
223.4323950959177
 31
0.0
  0
ARC
  5
42F0
330
2
100
AcDbEntity
  8
0
100
AcDbCircle
 10
162.2950604350268
 20
220.9323950959177
 30
0.0
 40
0.1
100
AcDbArc
 50
0.0
 51
90.0
  0
LINE
  5
42F1
330
2
100
AcDbEntity
  8
0
100
AcDbLine
 10
164.7950604350268
 20
220.8323950959178
 30
0.0
 11
163.9950604350266
 21
220.8323950959178
 31
0.0
  0
ARC
  5
42F2
330
2
100
AcDbEntity
  8
0
100
AcDbCircle
 10
163.9950604350266
 20
220.9323950959177
 30
0.0
 40
0.1
100
AcDbArc
 50
180.0
 51
270.0
  0
ARC
  5
42F3
330
2
100
AcDbEntity
  8
0
100
AcDbCircle
 10
164.7950604350268
 20
220.7323950959179
 30
0.0
 40
0.1
100
AcDbArc
 50
0.0
 51
90.0
  0
ARC
  5
42F4
330
2
100
AcDbEntity
  8
0
100
AcDbCircle
 10
162.2950604350268
 20
219.132395095918
 30
0.0
 40
0.1
100
AcDbArc
 50
270.0
 51
0.0
  0
LINE
  5
42F5
330
2
100
AcDbEntity
  8
0
100
AcDbLine
 10
164.7950604350268
 20
219.2323950959179
 30
0.0
 11
163.9950604350266
 21
219.2323950959179
 31
0.0
  0
ARC
  5
42F6
330
2
100
AcDbEntity
  8
0
100
AcDbCircle
 10
163.9950604350266
 20
219.132395095918
 30
0.0
 40
0.1
100
AcDbArc
 50
90.0
 51
180.0
  0
LINE
  5
42F7
330
2
100
AcDbEntity
  8
0
100
AcDbLine
 10
163.8950604350267
 20
218.7823950959179
 30
0.0
 11
163.8950604350267
 21
219.132395095918
 31
0.0
  0
ARC
  5
42F8
330
2
100
AcDbEntity
  8
0
100
AcDbCircle
 10
164.7950604350268
 20
219.3323950959178
 30
0.0
 40
0.1
100
AcDbArc
 50
270.0
 51
0.0
  0
LINE
  5
42F9
330
2
100
AcDbEntity
  8
0
100
AcDbLine
 10
162.3950604350267
 20
220.9323950959177
 30
0.0
 11
162.3950604350267
 21
219.132395095918
 31
0.0
  0
LINE
  5
42FA
330
2
100
AcDbEntity
  8
0
100
AcDbLine
 10
164.8950604350267
 20
220.7323950959179
 30
0.0
 11
164.8950604350267
 21
219.3323950959178
 31
0.0
  0
LINE
  5
42FB
330
2
100
AcDbEntity
  8
0
100
AcDbLine
 10
163.8950604350267
 20
221.2823950959179
 30
0.0
 11
163.8950604350267
 21
220.9323950959177
 31
0.0
  0
LINE
  5
42FC
330
2
100
AcDbEntity
  8
0
100
AcDbLine
 10
164.8950604350267
 20
225.0323950959179
 30
0.0
 11
164.8950604350267
 21
224.3323950959179
 31
0.0
  0
LINE
  5
42FD
330
2
100
AcDbEntity
  8
0
100
AcDbLine
 10
162.3950604350267
 20
224.132395095918
 30
0.0
 11
162.3950604350267
 21
225.0323950959179
 31
0.0
  0
LINE
  5
42FE
330
2
100
AcDbEntity
  8
0
100
AcDbLine
 10
164.7950604350268
 20
224.2323950959179
 30
0.0
 11
163.9950604350266
 21
224.2323950959179
 31
0.0
  0
LINE
  5
42FF
330
2
100
AcDbEntity
  8
0
100
AcDbLine
 10
163.8950604350267
 20
223.7823950959179
 30
0.0
 11
163.8950604350267
 21
224.132395095918
 31
0.0
  0
ARC
  5
4300
330
2
100
AcDbEntity
  8
0
100
AcDbCircle
 10
163.9950604350266
 20
224.132395095918
 30
0.0
 40
0.1
100
AcDbArc
 50
90.0
 51
180.0
  0
ARC
  5
4301
330
2
100
AcDbEntity
  8
0
100
AcDbCircle
 10
164.7950604350268
 20
224.3323950959179
 30
0.0
 40
0.1
100
AcDbArc
 50
270.0
 51
0.0
  0
ARC
  5
4302
330
2
100
AcDbEntity
  8
0
100
AcDbCircle
 10
162.2950604350268
 20
224.132395095918
 30
0.0
 40
0.1
100
AcDbArc
 50
270.0
 51
0.0
  0
LINE
  5
4303
330
2
100
AcDbEntity
  8
0
100
AcDbLine
 10
163.8950604350267
 20
226.2823950959179
 30
0.0
 11
163.8950604350267
 21
225.9323950959177
 31
0.0
  0
LINE
  5
4304
330
2
100
AcDbEntity
  8
0
100
AcDbLine
 10
164.7950604350268
 20
225.8323950959178
 30
0.0
 11
163.9950604350266
 21
225.8323950959178
 31
0.0
  0
ARC
  5
4305
330
2
100
AcDbEntity
  8
0
100
AcDbCircle
 10
163.9950604350266
 20
225.9323950959177
 30
0.0
 40
0.1
100
AcDbArc
 50
180.0
 51
270.0
  0
LINE
  5
4306
330
2
100
AcDbEntity
  8
0
100
AcDbLine
 10
164.7950604350268
 20
228.3323950959178
 30
0.0
 11
163.9950604350266
 21
228.3323950959178
 31
0.0
  0
LINE
  5
4307
330
2
100
AcDbEntity
  8
0
100
AcDbLine
 10
164.7950604350268
 20
226.732395095918
 30
0.0
 11
163.9950604350266
 21
226.732395095918
 31
0.0
  0
ARC
  5
4308
330
2
100
AcDbEntity
  8
0
100
AcDbCircle
 10
163.9950604350266
 20
226.632395095918
 30
0.0
 40
0.1
100
AcDbArc
 50
90.0
 51
180.0
  0
LINE
  5
4309
330
2
100
AcDbEntity
  8
0
100
AcDbLine
 10
163.8950604350267
 20
226.2823950959179
 30
0.0
 11
163.8950604350267
 21
226.632395095918
 31
0.0
  0
ARC
  5
430A
330
2
100
AcDbEntity
  8
0
100
AcDbCircle
 10
163.9950604350266
 20
228.4323950959178
 30
0.0
 40
0.1
100
AcDbArc
 50
180.0
 51
270.0
  0
ARC
  5
430B
330
2
100
AcDbEntity
  8
0
100
AcDbCircle
 10
164.7950604350268
 20
228.2323950959179
 30
0.0
 40
0.1
100
AcDbArc
 50
0.0
 51
90.0
  0
LINE
  5
430C
330
2
100
AcDbEntity
  8
0
100
AcDbLine
 10
164.8950604350267
 20
228.2323950959179
 30
0.0
 11
164.8950604350267
 21
226.8323950959179
 31
0.0
  0
ARC
  5
430D
330
2
100
AcDbEntity
  8
0
100
AcDbCircle
 10
164.7950604350268
 20
226.8323950959179
 30
0.0
 40
0.1
100
AcDbArc
 50
270.0
 51
0.0
  0
LINE
  5
430E
330
2
100
AcDbEntity
  8
0
100
AcDbLine
 10
164.8950604350267
 20
225.0323950959179
 30
0.0
 11
164.8950604350267
 21
225.7323950959179
 31
0.0
  0
ARC
  5
430F
330
2
100
AcDbEntity
  8
0
100
AcDbCircle
 10
164.7950604350268
 20
225.7323950959179
 30
0.0
 40
0.1
100
AcDbArc
 50
0.0
 51
90.0
  0
ARC
  5
4310
330
2
100
AcDbEntity
  8
0
100
AcDbCircle
 10
162.2950604350268
 20
225.9323950959177
 30
0.0
 40
0.1
100
AcDbArc
 50
0.0
 51
90.0
  0
ARC
  5
4311
330
2
100
AcDbEntity
  8
0
100
AcDbCircle
 10
162.2950604350268
 20
226.632395095918
 30
0.0
 40
0.1
100
AcDbArc
 50
270.0
 51
0.0
  0
ARC
  5
4312
330
2
100
AcDbEntity
  8
0
100
AcDbCircle
 10
162.2950604350268
 20
228.4323950959178
 30
0.0
 40
0.1
100
AcDbArc
 50
0.0
 51
90.0
  0
LINE
  5
4313
330
2
100
AcDbEntity
  8
0
100
AcDbLine
 10
162.3950604350267
 20
228.4323950959178
 30
0.0
 11
162.3950604350267
 21
226.632395095918
 31
0.0
  0
LINE
  5
4314
330
2
100
AcDbEntity
  8
0
100
AcDbLine
 10
162.3950604350267
 20
225.9323950959177
 30
0.0
 11
162.3950604350267
 21
225.0323950959179
 31
0.0
  0
LINE
  5
4315
330
2
100
AcDbEntity
  8
0
100
AcDbLine
 10
162.2950604350268
 20
231.0323950959179
 30
0.0
 11
158.9950604350266
 21
231.0323950959179
 31
0.0
  0
LINE
  5
4316
330
2
100
AcDbEntity
  8
0
100
AcDbLine
 10
162.2950604350268
 20
229.0323950959179
 30
0.0
 11
158.9950604350266
 21
229.0323950959179
 31
0.0
  0
LINE
  5
4317
330
2
100
AcDbEntity
  8
0
100
AcDbLine
 10
165.8950604350267
 20
231.2823950959179
 30
0.0
 11
154.3950604350267
 21
231.2823950959179
 31
0.0
  0
LINE
  5
4318
330
2
100
AcDbEntity
  8
0
100
AcDbLine
 10
154.3950604350267
 20
230.632395095918
 30
0.0
 11
148.0288428833724
 21
230.632395095918
 31
0.0
  0
LINE
  5
4319
330
2
100
AcDbEntity
  8
0
100
AcDbLine
 10
154.3950604350267
 20
229.4323950959177
 30
0.0
 11
148.1338292796032
 21
229.4323950959177
 31
0.0
  0
LINE
  5
431A
330
2
100
AcDbEntity
  8
0
100
AcDbLine
 10
158.8950604350267
 20
231.132395095918
 30
0.0
 11
158.8950604350267
 21
231.2823950959179
 31
0.0
  0
ARC
  5
431B
330
2
100
AcDbEntity
  8
0
100
AcDbCircle
 10
158.9950604350266
 20
231.132395095918
 30
0.0
 40
0.1
100
AcDbArc
 50
180.0
 51
270.0
  0
LINE
  5
431C
330
2
100
AcDbEntity
  8
0
100
AcDbLine
 10
158.8950604350267
 20
228.7823950959179
 30
0.0
 11
158.8950604350267
 21
228.632395095918
 31
0.0
  0
ARC
  5
431D
330
2
100
AcDbEntity
  8
0
100
AcDbCircle
 10
158.9950604350266
 20
228.9323950959178
 30
0.0
 40
0.1
100
AcDbArc
 50
90.0
 51
180.0
  0
LINE
  5
431E
330
2
100
AcDbEntity
  8
0
100
AcDbLine
 10
158.8950604350267
 20
228.7823950959179
 30
0.0
 11
158.8950604350267
 21
228.9323950959178
 31
0.0
  0
LINE
  5
431F
330
2
100
AcDbEntity
  8
0
100
AcDbLine
 10
164.7950604350268
 20
230.8323950959179
 30
0.0
 11
163.9950604350266
 21
230.8323950959179
 31
0.0
  0
LINE
  5
4320
330
2
100
AcDbEntity
  8
0
100
AcDbLine
 10
163.8950604350267
 20
231.2823950959179
 30
0.0
 11
163.8950604350267
 21
230.9323950959178
 31
0.0
  0
ARC
  5
4321
330
2
100
AcDbEntity
  8
0
100
AcDbCircle
 10
163.9950604350266
 20
230.9323950959178
 30
0.0
 40
0.1
100
AcDbArc
 50
180.0
 51
270.0
  0
ARC
  5
4322
330
2
100
AcDbEntity
  8
0
100
AcDbCircle
 10
164.7950604350268
 20
230.7323950959179
 30
0.0
 40
0.1
100
AcDbArc
 50
0.0
 51
90.0
  0
ARC
  5
4323
330
2
100
AcDbEntity
  8
0
100
AcDbCircle
 10
162.2950604350268
 20
230.9323950959178
 30
0.0
 40
0.1
100
AcDbArc
 50
0.0
 51
90.0
  0
LINE
  5
4324
330
2
100
AcDbEntity
  8
0
100
AcDbLine
 10
164.7950604350268
 20
229.2323950959179
 30
0.0
 11
163.9950604350266
 21
229.2323950959179
 31
0.0
  0
ARC
  5
4325
330
2
100
AcDbEntity
  8
0
100
AcDbCircle
 10
163.9950604350266
 20
229.132395095918
 30
0.0
 40
0.1
100
AcDbArc
 50
90.0
 51
180.0
  0
LINE
  5
4326
330
2
100
AcDbEntity
  8
0
100
AcDbLine
 10
163.8950604350267
 20
228.7823950959179
 30
0.0
 11
163.8950604350267
 21
229.132395095918
 31
0.0
  0
ARC
  5
4327
330
2
100
AcDbEntity
  8
0
100
AcDbCircle
 10
164.7950604350268
 20
229.3323950959178
 30
0.0
 40
0.1
100
AcDbArc
 50
270.0
 51
0.0
  0
ARC
  5
4328
330
2
100
AcDbEntity
  8
0
100
AcDbCircle
 10
162.2950604350268
 20
229.132395095918
 30
0.0
 40
0.1
100
AcDbArc
 50
270.0
 51
0.0
  0
LINE
  5
4329
330
2
100
AcDbEntity
  8
0
100
AcDbLine
 10
164.8950604350267
 20
229.3323950959178
 30
0.0
 11
164.8950604350267
 21
230.7323950959179
 31
0.0
  0
LINE
  5
432A
330
2
100
AcDbEntity
  8
0
100
AcDbLine
 10
162.3950604350267
 20
229.132395095918
 30
0.0
 11
162.3950604350267
 21
230.9323950959178
 31
0.0
  0
LINE
  5
432B
330
2
100
AcDbEntity
  8
0
100
AcDbLine
 10
160.4389772127194
 20
214.5325840782674
 30
0.0
 11
160.6132886982147
 21
212.5401946820838
 31
0.0
  0
LINE
  5
432C
330
2
100
AcDbEntity
  8
0
100
AcDbLine
 10
160.4322486274579
 20
204.2625413585639
 30
0.0
 11
160.6065601129532
 21
206.2549307547473
 31
0.0
  0
ARC
  5
432D
330
2
100
AcDbEntity
  8
0
100
AcDbCircle
 10
69.33596911430516
 20
143.9722348029958
 30
0.0
 40
1.0
100
AcDbArc
 50
180.0
 51
0.0
  0
LINE
  5
432E
330
2
100
AcDbEntity
  8
0
100
AcDbLine
 10
82.33590811430508
 20
82.27041127999626
 30
0.0
 11
81.33587011430501
 21
82.9370326106445
 31
0.0
  0
LINE
  5
432F
330
2
100
AcDbEntity
  8
0
100
AcDbLine
 10
81.83590811430491
 20
164.9370650079596
 30
0.0
 11
81.33587011430501
 21
164.6037416773114
 31
0.0
  0
LINE
  5
4330
330
2
100
AcDbEntity
  8
0
100
AcDbLine
 10
81.33587011430501
 20
164.6037416773114
 30
0.0
 11
81.33587011430501
 21
82.9370326106445
 31
0.0
  0
LINE
  5
4331
330
2
100
AcDbEntity
  8
0
100
AcDbLine
 10
81.83590811430496
 20
164.9748661439779
 30
0.0
 11
81.83590811430496
 21
125.5752731439778
 31
0.0
  0
ENDSEC
  0
SECTION
  2
OBJECTS
  0
DICTIONARY
  5
7
330
0
100
AcDbDictionary
  3
ACAD_COLOR
350
3DD7
  3
ACAD_GROUP
350
75
  3
ACAD_LAYOUT
350
61
  3
ACAD_MATERIAL
350
3DAD
  3
ACAD_MLEADERSTYLE
350
3DFC
  3
ACAD_MLINESTYLE
350
76
  3
ACAD_PLOTSETTINGS
350
77
  3
ACAD_PLOTSTYLENAME
350
6
  3
ACAD_SCALELIST
350
3DDA
  3
ACAD_TABLESTYLE
350
3DD8
  3
ACAD_VISUALSTYLE
350
3DC6
  3
ACADDIM
350
480
  3
ACDB_RECOMPOSE_DATA
350
4365
  3
ACDBHEADERROUNDTRIPXREC
350
43E6
  3
ACDBVARIABLEDICTIONARY
350
102
  3
DWGPROPS
350
4366
  0
DICTIONARY
  5
436D
330
6E
100
AcDbDictionary
280
     1
  3
ACAD_XREC_ROUNDTRIP
360
436E
  0
DICTIONARY
  5
3E01
330
66
100
AcDbDictionary
280
     1
  3
ACAD_LAYERSTATES
360
3E02
  0
DICTIONARY
  5
4353
330
5E
100
AcDbDictionary
280
     1
  3
ACAD_XREC_ROUNDTRIP
360
4369
  3
ADSK_XREC_LAYER_RECONCILED
360
4354
  0
DICTIONARY
  5
4355
330
3E
100
AcDbDictionary
280
     1
  3
ACAD_XREC_ROUNDTRIP
360
4368
  3
ADSK_XREC_LAYER_RECONCILED
360
4356
  0
DICTIONARY
  5
435B
330
2B5
100
AcDbDictionary
280
     1
  3
ACAD_XREC_ROUNDTRIP
360
4374
  3
ADSK_XREC_LAYER_RECONCILED
360
435C
  0
DICTIONARY
  5
435D
330
2BA
100
AcDbDictionary
280
     1
  3
ACAD_XREC_ROUNDTRIP
360
4375
  3
ADSK_XREC_LAYER_RECONCILED
360
435E
  0
DICTIONARY
  5
4361
330
3FA
100
AcDbDictionary
280
     1
  3
ACAD_XREC_ROUNDTRIP
360
4377
  3
ADSK_XREC_LAYER_RECONCILED
360
4362
  0
DICTIONARY
  5
4407
330
2
100
AcDbDictionary
280
     1
  3
ACAD_LAYOUTSELFREF
360
4408
  0
DICTIONARY
  5
4409
330
43E0
100
AcDbDictionary
280
     1
  3
ACAD_LAYOUTSELFREF
360
440A
  0
DICTIONARY
  5
3DD7
102
{ACAD_REACTORS
330
7
102
}
330
7
100
AcDbDictionary
  0
DICTIONARY
  5
75
102
{ACAD_REACTORS
330
7
102
}
330
7
100
AcDbDictionary
  0
DICTIONARY
  5
61
102
{ACAD_REACTORS
330
7
102
}
330
7
100
AcDbDictionary
  0
DICTIONARY
  5
3DAD
102
{ACAD_REACTORS
330
7
102
}
330
7
100
AcDbDictionary
  3
BYBLOCK
350
3DB6
  3
BYLAYER
350
3DAE
  3
GLOBAL
350
3DBE
  0
DICTIONARY
  5
3DFC
102
{ACAD_REACTORS
330
7
102
}
330
7
100
AcDbDictionary
  3
STANDARD
350
3DFD
  0
DICTIONARY
  5
76
102
{ACAD_REACTORS
330
7
102
}
330
7
100
AcDbDictionary
  3
STANDARD
350
78
  0
DICTIONARY
  5
77
102
{ACAD_REACTORS
330
7
102
}
330
7
100
AcDbDictionary
  0
ACDBDICTIONARYWDFLT
  5
6
102
{ACAD_REACTORS
330
7
102
}
330
7
100
AcDbDictionary
281
     1
  3
Normal
350
5
100
AcDbDictionaryWithDefault
340
5
  0
DICTIONARY
  5
3DDA
102
{ACAD_REACTORS
330
7
102
}
330
7
100
AcDbDictionary
  3
A0
350
3DDB
  3
A1
350
3DDC
  3
A2
350
3DDD
  3
A3
350
3DDE
  3
A4
350
3DDF
  3
A5
350
3DE0
  3
A6
350
3DE1
  3
A7
350
3DE2
  3
A8
350
3DE3
  3
A9
350
3DE4
  3
B0
350
3DE5
  3
B1
350
3DE6
  3
B2
350
3DE7
  3
B3
350
3DE8
  3
B4
350
3DE9
  3
B5
350
3DEA
  3
B6
350
3DEB
  3
B7
350
3DEC
  3
B8
350
3DED
  3
B9
350
3DEE
  3
C0
350
3DEF
  3
C1
350
3DF0
  3
C2
350
3DF1
  3
C3
350
3DF2
  3
C4
350
3DF3
  3
C5
350
3DF4
  3
C6
350
3DF5
  3
C7
350
3DF6
  3
C8
350
3DF7
  3
C9
350
3DF8
  3
D0
350
3DF9
  3
D1
350
3DFA
  3
D2
350
3DFB
  0
DICTIONARY
  5
3DD8
102
{ACAD_REACTORS
330
7
102
}
330
7
100
AcDbDictionary
  3
STANDARD
350
3DD9
  0
DICTIONARY
  5
3DC6
102
{ACAD_REACTORS
330
7
102
}
330
7
100
AcDbDictionary
  3
2DWIREFRAME
350
3DCC
  3
3D_HIDDEN
350
3DCE
  3
3DWIREFRAME
350
3DCD
  3
BASIC
350
3DCB
  3
BRIGHTEN
350
3DD2
  3
COLORCHANGE
350
3DD6
  3
CONCEPTUAL
350
3DCF
  3
DIM
350
3DD1
  3
FACEPATTERN
350
3DD5
  3
FLAT
350
3DC7
  3
FLATWITHEDGES
350
3DC8
  3
GOURAUD
350
3DC9
  3
GOURAUDWITHEDGES
350
3DCA
  3
LINEPATTERN
350
3DD4
  3
REALISTIC
350
3DD0
  3
THICKEN
350
3DD3
  0
XRECORD
  5
480
102
{ACAD_REACTORS
330
7
102
}
330
7
100
AcDbXrecord
 90
   990106
  3

 60
     0
 61
     0
 62
     1
 63
     3
 64
     1
 65
     0
 66
     0
 67
     3
 68
     1
 69
     0
 70
     0
 71
     0
 72
     0
 40
0.0
170
     2
340
0
  0
XRECORD
  5
4365
102
{ACAD_REACTORS
330
7
102
}
330
7
100
AcDbXrecord
 90
        1
330
3DD9
  0
DICTIONARY
  5
43E6
102
{ACAD_REACTORS
330
7
102
}
330
7
100
AcDbDictionary
  3
CEPSNTYPE
350
43F0
  3
DIMSTYLEDATA
350
43F4
  3
FINGERPRINTGUID
350
43F1
  3
HYPERLINKBASE
350
43E9
  3
INSUNITS
350
43EF
  3
LAYOUTDICT
350
43EB
  3
LWETCUNION
350
43EE
  3
PLOTSETDICT
350
43EC
  3
PLOTSTYLNAMDICT
350
43ED
  3
PSVPSCALE
350
43F3
  3
PUCSBASE
350
43F7
  3
PUCSORGBACK
350
43FD
  3
PUCSORGBOTTOM
350
43F9
  3
PUCSORGFRONT
350
43FC
  3
PUCSORGLEFT
350
43FA
  3
PUCSORGRIGHT
350
43FB
  3
PUCSORGTOP
350
43F8
  3
PUCSORTHOREF
350
43F5
  3
PUCSORTHOVIEW
350
43F6
  3
STYLESHEET
350
43EA
  3
TSTACKALIGN
350
43E7
  3
TSTACKSIZE
350
43E8
  3
UCSBASE
350
4400
  3
UCSORGBACK
350
4406
  3
UCSORGBOTTOM
350
4402
  3
UCSORGFRONT
350
4405
  3
UCSORGLEFT
350
4403
  3
UCSORGRIGHT
350
4404
  3
UCSORGTOP
350
4401
  3
UCSORTHOREF
350
43FE
  3
UCSORTHOVIEW
350
43FF
  3
VERSIONGUID
350
43F2
  0
DICTIONARY
  5
102
102
{ACAD_REACTORS
330
7
102
}
330
7
100
AcDbDictionary
  3
CANNOSCALE
350
4380
  3
CMLEADERSTYLE
350
437F
  3
CTABLESTYLE
350
437E
  3
DIMASSOC
350
103
  3
INDEXCTL
350
4382
  3
SORTENTS
350
4381
  0
XRECORD
  5
4366
102
{ACAD_REACTORS
330
7
102
}
330
7
100
AcDbXrecord
  1
DWGPROPS COOKIE
  2

  3

  4

  6

  7

  8
ymorima
  9

300
=
301
=
302
=
303
=
304
=
305
=
306
=
307
=
308
=
309
=
 40
0.0655533912037037
 41
2453692.552748113
 42
2454501.410299838
  1

 90
        0
  0
XRECORD
  5
436E
102
{ACAD_REACTORS
330
436D
102
}
330
436D
100
AcDbXrecord
102
VTR_0.000_0.000_1.000_1.000_VISUALSTYLE
340
3DCC
102
VTR_0.000_0.000_1.000_1.000_GRIDDISPLAY
 70
     3
102
VTR_0.000_0.000_1.000_1.000_GRIDMAJOR
 70
     5
102
VTR_0.000_0.000_1.000_1.000_DEFAULTLIGHTING
280
     1
102
VTR_0.000_0.000_1.000_1.000_DEFAULTLIGHTINGTYPE
 70
     1
102
VTR_0.000_0.000_1.000_1.000_BRIGHTNESS
141
0.0
102
VTR_0.000_0.000_1.000_1.000_CONTRAST
142
0.0
  0
DICTIONARY
  5
3E02
102
{ACAD_REACTORS
330
3E01
102
}
330
3E01
100
AcDbDictionary
  0
XRECORD
  5
4369
102
{ACAD_REACTORS
330
4353
102
}
330
4353
100
AcDbXrecord
102
MATERIAL
340
3DBE
  0
XRECORD
  5
4354
102
{ACAD_REACTORS
330
4353
102
}
330
4353
100
AcDbXrecord
290
     1
  0
XRECORD
  5
4368
102
{ACAD_REACTORS
330
4355
102
}
330
4355
100
AcDbXrecord
102
MATERIAL
340
3DBE
  0
XRECORD
  5
4356
102
{ACAD_REACTORS
330
4355
102
}
330
4355
100
AcDbXrecord
290
     1
  0
XRECORD
  5
4374
102
{ACAD_REACTORS
330
435B
102
}
330
435B
100
AcDbXrecord
102
MATERIAL
340
3DBE
  0
XRECORD
  5
435C
102
{ACAD_REACTORS
330
435B
102
}
330
435B
100
AcDbXrecord
290
     1
  0
XRECORD
  5
4375
102
{ACAD_REACTORS
330
435D
102
}
330
435D
100
AcDbXrecord
102
MATERIAL
340
3DBE
  0
XRECORD
  5
435E
102
{ACAD_REACTORS
330
435D
102
}
330
435D
100
AcDbXrecord
290
     1
  0
XRECORD
  5
4377
102
{ACAD_REACTORS
330
4361
102
}
330
4361
100
AcDbXrecord
102
MATERIAL
340
3DBE
  0
XRECORD
  5
4362
102
{ACAD_REACTORS
330
4361
102
}
330
4361
100
AcDbXrecord
290
     1
  0
XRECORD
  5
4408
102
{ACAD_REACTORS
330
4407
102
}
330
4407
100
AcDbXrecord
340
2
  0
XRECORD
  5
440A
102
{ACAD_REACTORS
330
4409
102
}
330
4409
100
AcDbXrecord
340
43E0
  0
ACAD_PROXY_OBJECT
  5
3DB6
102
{ACAD_XDICTIONARY
360
3DB7
102
}
102
{ACAD_REACTORS
330
3DAD
102
}
330
3DAD
100
AcDbProxyObject
 90
      499
 91
      511
 93
     1340
310
42109E509B1BD8DAC02004014080404555555555555953FAA155555555555654FEA9AA400014080404555555555555953FAA155555555555654FEA9AA400000000000000E03F4080404555555555555953FAA155555555555654FEA9AA4014080404555555555555953FAA155555555555654FEA9AA4010201011555555555
310
55654FEA8555555555555953FAA6A9005020101155555555555654FEA8555555555555953FAA6A9000
 94
        0
1001
ACAD
1000
AcadProxyRoundTripData
1071
      504
1071
   655383
1070
     0
  0
ACAD_PROXY_OBJECT
  5
3DAE
102
{ACAD_XDICTIONARY
360
3DAF
102
}
102
{ACAD_REACTORS
330
3DAD
102
}
330
3DAD
100
AcDbProxyObject
 90
      499
 91
      511
 93
     1340
310
42109E53185E595C802004014080404555555555555953FAA155555555555654FEA9AA400014080404555555555555953FAA155555555555654FEA9AA400000000000000E03F4080404555555555555953FAA155555555555654FEA9AA4014080404555555555555953FAA155555555555654FEA9AA4010201011555555555
310
55654FEA8555555555555953FAA6A9005020101155555555555654FEA8555555555555953FAA6A9000
 94
        0
1001
ACAD
1000
AcadProxyRoundTripData
1071
      504
1071
   655383
1070
     0
  0
ACAD_PROXY_OBJECT
  5
3DBE
102
{ACAD_XDICTIONARY
360
3DBF
102
}
102
{ACAD_REACTORS
330
3DAD
102
}
330
3DAD
100
AcDbProxyObject
 90
      499
 91
      511
 93
     1332
310
41D1DB1BD8985B002004014080404555555555555953FAA155555555555654FEA9AA400014080404555555555555953FAA155555555555654FEA9AA400000000000000E03F4080404555555555555953FAA155555555555654FEA9AA4014080404555555555555953FAA155555555555654FEA9AA401020101155555555555
310
654FEA8555555555555953FAA6A9005020101155555555555654FEA8555555555555953FAA6A9000
 94
        0
1001
ACAD
1000
AcadProxyRoundTripData
1071
      504
1071
   655383
1070
     0
  0
ACAD_PROXY_OBJECT
  5
3DFD
102
{ACAD_REACTORS
330
3DFC
102
}
330
3DFC
100
AcDbProxyObject
 90
      499
 91
      511
 93
      618
310
40901902A4063FBFFFFFE056BD1B81E855B9FC0AD7A3703D0AD73F4254DD185B99185C990000AD7A3703D0AC73F90141901A02B5E8DC0F42B1CFC02B5E8DC0F42B1CFE5764000000000000300FC6
340
6A
340
0
340
16
340
0
 94
        0
1001
ACAD_MLEADERVER
1070
     2
1001
ACAD
1000
AcadProxyRoundTripData
1071
      508
1071
   655383
1070
     0
  0
MLINESTYLE
  5
78
102
{ACAD_REACTORS
330
76
102
}
330
76
100
AcDbMlineStyle
  2
STANDARD
 70
     0
  3

 62
     0
 51
90.0
 52
90.0
 71
     2
 49
0.5
 62
   256
  6
BYLAYER
 49
-0.5
 62
   256
  6
BYLAYER
  0
ACDBPLACEHOLDER
  5
5
102
{ACAD_REACTORS
330
6
102
}
330
6
100
AcDbPlaceHolder
280
     0
  0
ACAD_PROXY_OBJECT
  5
3DDB
102
{ACAD_REACTORS
330
3DDA
102
}
330
3DDA
100
AcDbProxyObject
 90
      499
 91
      511
 93
       49
310
904313A3100598
 94
        0
1001
ACAD
1000
AcadProxyRoundTripData
1071
      507
1071
   655383
1070
     0
  0
ACAD_PROXY_OBJECT
  5
3DDC
102
{ACAD_REACTORS
330
3DDA
102
}
330
3DDA
100
AcDbProxyObject
 90
      499
 91
      511
 93
      113
310
904313A3200400000000000000406B
 94
        0
1001
ACAD
1000
AcadProxyRoundTripData
1071
      507
1071
   655383
1070
     0
  0
ACAD_PROXY_OBJECT
  5
3DDD
102
{ACAD_REACTORS
330
3DDA
102
}
330
3DDA
100
AcDbProxyObject
 90
      499
 91
      511
 93
      113
310
904313A3400400000000000010406B
 94
        0
1001
ACAD
1000
AcadProxyRoundTripData
1071
      507
1071
   655383
1070
     0
  0
ACAD_PROXY_OBJECT
  5
3DDE
102
{ACAD_REACTORS
330
3DDA
102
}
330
3DDA
100
AcDbProxyObject
 90
      499
 91
      511
 93
      113
310
904313A3500400000000000014406B
 94
        0
1001
ACAD
1000
AcadProxyRoundTripData
1071
      507
1071
   655383
1070
     0
  0
ACAD_PROXY_OBJECT
  5
3DDF
102
{ACAD_REACTORS
330
3DDA
102
}
330
3DDA
100
AcDbProxyObject
 90
      499
 91
      511
 93
      113
310
904313A3800400000000000020406B
 94
        0
1001
ACAD
1000
AcadProxyRoundTripData
1071
      507
1071
   655383
1070
     0
  0
ACAD_PROXY_OBJECT
  5
3DE0
102
{ACAD_REACTORS
330
3DDA
102
}
330
3DDA
100
AcDbProxyObject
 90
      499
 91
      511
 93
      121
310
905313A3130004000000000000244051
 94
        0
1001
ACAD
1000
AcadProxyRoundTripData
1071
      507
1071
   655383
1070
     0
  0
ACAD_PROXY_OBJECT
  5
3DE1
102
{ACAD_REACTORS
330
3DDA
102
}
330
3DDA
100
AcDbProxyObject
 90
      499
 91
      511
 93
      121
310
905313A3136004000000000000304051
 94
        0
1001
ACAD
1000
AcadProxyRoundTripData
1071
      507
1071
   655383
1070
     0
  0
ACAD_PROXY_OBJECT
  5
3DE2
102
{ACAD_REACTORS
330
3DDA
102
}
330
3DDA
100
AcDbProxyObject
 90
      499
 91
      511
 93
      121
310
905313A3230004000000000000344051
 94
        0
1001
ACAD
1000
AcadProxyRoundTripData
1071
      507
1071
   655383
1070
     0
  0
ACAD_PROXY_OBJECT
  5
3DE3
102
{ACAD_REACTORS
330
3DDA
102
}
330
3DDA
100
AcDbProxyObject
 90
      499
 91
      511
 93
      121
310
905313A33300040000000000003E4051
 94
        0
1001
ACAD
1000
AcadProxyRoundTripData
1071
      507
1071
   655383
1070
     0
  0
ACAD_PROXY_OBJECT
  5
3DE4
102
{ACAD_REACTORS
330
3DDA
102
}
330
3DDA
100
AcDbProxyObject
 90
      499
 91
      511
 93
      121
310
905313A3430004000000000000444051
 94
        0
1001
ACAD
1000
AcadProxyRoundTripData
1071
      507
1071
   655383
1070
     0
  0
ACAD_PROXY_OBJECT
  5
3DE5
102
{ACAD_REACTORS
330
3DDA
102
}
330
3DDA
100
AcDbProxyObject
 90
      499
 91
      511
 93
      121
310
905313A3530004000000000000494051
 94
        0
1001
ACAD
1000
AcadProxyRoundTripData
1071
      507
1071
   655383
1070
     0
  0
ACAD_PROXY_OBJECT
  5
3DE6
102
{ACAD_REACTORS
330
3DDA
102
}
330
3DDA
100
AcDbProxyObject
 90
      499
 91
      511
 93
      129
310
906313A313030004000000000000594038
 94
        0
1001
ACAD
1000
AcadProxyRoundTripData
1071
      507
1071
   655383
1070
     0
  0
ACAD_PROXY_OBJECT
  5
3DE7
102
{ACAD_REACTORS
330
3DDA
102
}
330
3DDA
100
AcDbProxyObject
 90
      499
 91
      511
 93
      113
310
904323A31000000000000000010159
 94
        0
1001
ACAD
1000
AcadProxyRoundTripData
1071
      507
1071
   655383
1070
     0
  0
ACAD_PROXY_OBJECT
  5
3DE8
102
{ACAD_REACTORS
330
3DDA
102
}
330
3DDA
100
AcDbProxyObject
 90
      499
 91
      511
 93
      113
310
904343A31000000000000000410159
 94
        0
1001
ACAD
1000
AcadProxyRoundTripData
1071
      507
1071
   655383
1070
     0
  0
ACAD_PROXY_OBJECT
  5
3DE9
102
{ACAD_REACTORS
330
3DDA
102
}
330
3DDA
100
AcDbProxyObject
 90
      499
 91
      511
 93
      113
310
904383A31000000000000000810159
 94
        0
1001
ACAD
1000
AcadProxyRoundTripData
1071
      507
1071
   655383
1070
     0
  0
ACAD_PROXY_OBJECT
  5
3DEA
102
{ACAD_REACTORS
330
3DDA
102
}
330
3DDA
100
AcDbProxyObject
 90
      499
 91
      511
 93
      121
310
90531303A31000000000000000910140
 94
        0
1001
ACAD
1000
AcadProxyRoundTripData
1071
      507
1071
   655383
1070
     0
  0
ACAD_PROXY_OBJECT
  5
3DEB
102
{ACAD_REACTORS
330
3DDA
102
}
330
3DDA
100
AcDbProxyObject
 90
      499
 91
      511
 93
      129
310
9063130303A31000000000000001650138
 94
        0
1001
ACAD
1000
AcadProxyRoundTripData
1071
      507
1071
   655383
1070
     0
  0
ACAD_PROXY_OBJECT
  5
3DEC
102
{ACAD_REACTORS
330
3DDA
102
}
330
3DDA
100
AcDbProxyObject
 90
      499
 91
      511
 93
      265
310
90F312F31323822203D2031272D302200000000000000200FC00000000000028402B
 94
        0
1001
ACAD
1000
AcadProxyRoundTripData
1071
      507
1071
   655383
1070
     0
  0
ACAD_PROXY_OBJECT
  5
3DED
102
{ACAD_REACTORS
330
3DDA
102
}
330
3DDA
100
AcDbProxyObject
 90
      499
 91
      511
 93
      257
310
90E312F363422203D2031272D302200000000000000240FC000000000000284040
 94
        0
1001
ACAD
1000
AcadProxyRoundTripData
1071
      507
1071
   655383
1070
     0
  0
ACAD_PROXY_OBJECT
  5
3DEE
102
{ACAD_REACTORS
330
3DDA
102
}
330
3DDA
100
AcDbProxyObject
 90
      499
 91
      511
 93
      257
310
90E312F333222203D2031272D302200000000000000280FC000000000000284040
 94
        0
1001
ACAD
1000
AcadProxyRoundTripData
1071
      507
1071
   655383
1070
     0
  0
ACAD_PROXY_OBJECT
  5
3DEF
102
{ACAD_REACTORS
330
3DDA
102
}
330
3DDA
100
AcDbProxyObject
 90
      499
 91
      511
 93
      257
310
90E312F313622203D2031272D3022000000000000002C0FC000000000000284040
 94
        0
1001
ACAD
1000
AcadProxyRoundTripData
1071
      507
1071
   655383
1070
     0
  0
ACAD_PROXY_OBJECT
  5
3DF0
102
{ACAD_REACTORS
330
3DDA
102
}
330
3DDA
100
AcDbProxyObject
 90
      499
 91
      511
 93
      257
310
90E332F333222203D2031272D3022000000000000002E0FC000000000000284040
 94
        0
1001
ACAD
1000
AcadProxyRoundTripData
1071
      507
1071
   655383
1070
     0
  0
ACAD_PROXY_OBJECT
  5
3DF1
102
{ACAD_REACTORS
330
3DDA
102
}
330
3DDA
100
AcDbProxyObject
 90
      499
 91
      511
 93
      249
310
90D312F3822203D2031272D302200000000000000300FC000000000000284040
 94
        0
1001
ACAD
1000
AcadProxyRoundTripData
1071
      507
1071
   655383
1070
     0
  0
ACAD_PROXY_OBJECT
  5
3DF2
102
{ACAD_REACTORS
330
3DDA
102
}
330
3DDA
100
AcDbProxyObject
 90
      499
 91
      511
 93
      257
310
90E332F313622203D2031272D302200000000000000320FC000000000000284040
 94
        0
1001
ACAD
1000
AcadProxyRoundTripData
1071
      507
1071
   655383
1070
     0
  0
ACAD_PROXY_OBJECT
  5
3DF3
102
{ACAD_REACTORS
330
3DDA
102
}
330
3DDA
100
AcDbProxyObject
 90
      499
 91
      511
 93
      249
310
90D312F3422203D2031272D302200000000000000340FC000000000000284040
 94
        0
1001
ACAD
1000
AcadProxyRoundTripData
1071
      507
1071
   655383
1070
     0
  0
ACAD_PROXY_OBJECT
  5
3DF4
102
{ACAD_REACTORS
330
3DDA
102
}
330
3DDA
100
AcDbProxyObject
 90
      499
 91
      511
 93
      249
310
90D332F3822203D2031272D302200000000000000360FC000000000000284040
 94
        0
1001
ACAD
1000
AcadProxyRoundTripData
1071
      507
1071
   655383
1070
     0
  0
ACAD_PROXY_OBJECT
  5
3DF5
102
{ACAD_REACTORS
330
3DDA
102
}
330
3DDA
100
AcDbProxyObject
 90
      499
 91
      511
 93
      249
310
90D312F3222203D2031272D302200000000000000380FC000000000000284040
 94
        0
1001
ACAD
1000
AcadProxyRoundTripData
1071
      507
1071
   655383
1070
     0
  0
ACAD_PROXY_OBJECT
  5
3DF6
102
{ACAD_REACTORS
330
3DDA
102
}
330
3DDA
100
AcDbProxyObject
 90
      499
 91
      511
 93
      249
310
90D332F3422203D2031272D3022000000000000003A0FC000000000000284040
 94
        0
1001
ACAD
1000
AcadProxyRoundTripData
1071
      507
1071
   655383
1070
     0
  0
ACAD_PROXY_OBJECT
  5
3DF7
102
{ACAD_REACTORS
330
3DDA
102
}
330
3DDA
100
AcDbProxyObject
 90
      499
 91
      511
 93
      169
310
90B3122203D2031272D3022004000000000000284020
 94
        0
1001
ACAD
1000
AcadProxyRoundTripData
1071
      507
1071
   655383
1070
     0
  0
ACAD_PROXY_OBJECT
  5
3DF8
102
{ACAD_REACTORS
330
3DDA
102
}
330
3DDA
100
AcDbProxyObject
 90
      499
 91
      511
 93
      265
310
90F312D312F3222203D2031272D3022000000000000003E0FC00000000000028402B
 94
        0
1001
ACAD
1000
AcadProxyRoundTripData
1071
      507
1071
   655383
1070
     0
  0
ACAD_PROXY_OBJECT
  5
3DF9
102
{ACAD_REACTORS
330
3DDA
102
}
330
3DDA
100
AcDbProxyObject
 90
      499
 91
      511
 93
      233
310
90B3322203D2031272D30220000000000000002100000000000000284000
 94
        0
1001
ACAD
1000
AcadProxyRoundTripData
1071
      507
1071
   655383
1070
     0
  0
ACAD_PROXY_OBJECT
  5
3DFA
102
{ACAD_REACTORS
330
3DDA
102
}
330
3DDA
100
AcDbProxyObject
 90
      499
 91
      511
 93
      233
310
90B3622203D2031272D30220000000000000006100000000000000284000
 94
        0
1001
ACAD
1000
AcadProxyRoundTripData
1071
      507
1071
   655383
1070
     0
  0
ACAD_PROXY_OBJECT
  5
3DFB
102
{ACAD_REACTORS
330
3DDA
102
}
330
3DDA
100
AcDbProxyObject
 90
      499
 91
      511
 93
      257
310
90E31272D3022203D2031272D3022000000000000000A100000000000000284040
 94
        0
1001
ACAD
1000
AcadProxyRoundTripData
1071
      507
1071
   655383
1070
     0
  0
ACAD_PROXY_OBJECT
  5
3DD9
102
{ACAD_XDICTIONARY
360
4363
102
}
102
{ACAD_REACTORS
330
3DD8
102
}
330
3DD8
100
AcDbProxyObject
 90
      499
 91
      511
 93
     1849
310
4254DD185B99185C990028B81E85EB51B8AE3F2E07A17AD46E2B8FC02B5E8DC0F42B1CFD028000000C1008070000C3001FDFF8000000C1003FBFF000000182007F7FE00000030400FEFFC00000060801FDFF8000000C1003FBFF00000018200000000000000681FA0B0000001820100E000186003FBFF000000182007F7FE0
310
0000030400FEFFC00000060801FDFF8000000C1003FBFF000000182007F7FE000000304000AD7A3703D0AC73F4160000003040201C00030C007F7FE00000030400FEFFC00000060801FDFF8000000C1003FBFF000000182007F7FE00000030400FEFFC000000608000
340
16
340
16
340
16
 94
        0
1001
ACAD
1000
AcadProxyRoundTripData
1071
      506
1071
   655383
1070
     0
  0
ACAD_PROXY_OBJECT
  5
3DCC
102
{ACAD_REACTORS
330
3DC6
102
}
330
3DC6
100
AcDbProxyObject
 90
      499
 91
      511
 93
      444
310
430C9915DA5C99599C985B59401049028333333333333E3BF0000000000000FB0107901411070040501600405405064090741402480A0340
 94
        0
1001
ACAD
1000
AcDbSavedByObjectVersion
1070
     0
1000
AcadProxyRoundTripData
1071
      505
1071
   655383
1070
     0
  0
ACAD_PROXY_OBJECT
  5
3DCE
102
{ACAD_REACTORS
330
3DC6
102
}
330
3DC6
100
AcDbProxyObject
 90
      499
 91
      511
 93
      508
310
428CD108121A5919195B8010640502408333333333333E3BF0000000000000FB01079024090700405020000000000001110200405405064090740C02480A0340
 94
        0
1001
ACAD
1000
AcDbSavedByObjectVersion
1070
     0
1000
AcadProxyRoundTripData
1071
      505
1071
   655383
1070
     0
  0
ACAD_PROXY_OBJECT
  5
3DCD
102
{ACAD_REACTORS
330
3DC6
102
}
330
3DC6
100
AcDbProxyObject
 90
      499
 91
      511
 93
      444
310
430CD915DA5C99599C985B59401059028333333333333E3BF0000000000000FB0107901411070040501600405405064090741402480A0340
 94
        0
1001
ACAD
1000
AcDbSavedByObjectVersion
1070
     0
1000
AcadProxyRoundTripData
1071
      505
1071
   655383
1070
     0
  0
ACAD_PROXY_OBJECT
  5
3DCB
102
{ACAD_REACTORS
330
3DC6
102
}
330
3DC6
100
AcDbProxyObject
 90
      499
 91
      511
 93
      396
310
4190985CDA58C0107406404333333333333E3BF0000000000000FB0107A41107004050150841D405064090741402480A0356
 94
        0
1001
ACAD
1000
AcDbSavedByObjectVersion
1070
     0
1000
AcadProxyRoundTripData
1071
      505
1071
   655383
1070
     0
  0
ACAD_PROXY_OBJECT
  5
3DD2
102
{ACAD_REACTORS
330
3DC6
102
}
330
3DC6
100
AcDbProxyObject
 90
      499
 91
      511
 93
      436
310
42509C9A59DA1D195B8010C409028333333333333E3BF0000000000000FB010790141107004050150841D405064090741402480A029956
 94
        0
1001
ACAD
1000
AcDbSavedByObjectVersion
1070
     0
1000
AcadProxyRoundTripData
1071
      505
1071
   655383
1070
     0
  0
ACAD_PROXY_OBJECT
  5
3DD6
102
{ACAD_REACTORS
330
3DC6
102
}
330
3DC6
100
AcDbProxyObject
 90
      499
 91
      511
 93
      460
310
4310DBDB1BDC90DA185B99D9401104090240C333333333333E3BF0000000000000FB0108901411070040501508421405064090741402480A0354
 94
        0
1001
ACAD
1000
AcDbSavedByObjectVersion
1070
     0
1000
AcadProxyRoundTripData
1071
      505
1071
   655383
1070
     0
  0
ACAD_PROXY_OBJECT
  5
3DCF
102
{ACAD_REACTORS
330
3DC6
102
}
330
3DC6
100
AcDbProxyObject
 90
      499
 91
      511
 93
      508
310
42D0DBDB98D95C1D1D585B0010940D028333333333333E3BF0000000000000FB0107902409070040501000000000000111010841D405064090740C02480A0340
 94
        0
1001
ACAD
1000
AcDbSavedByObjectVersion
1070
     0
1000
AcadProxyRoundTripData
1071
      505
1071
   655383
1070
     0
  0
ACAD_PROXY_OBJECT
  5
3DD1
102
{ACAD_REACTORS
330
3DC6
102
}
330
3DC6
100
AcDbProxyObject
 90
      499
 91
      511
 93
      420
310
41111A5B4010B409028333333333333E3BF0000000000000FB010790141107004050150841D405064090741402480A02677FFFFFDB
 94
        0
1001
ACAD
1000
AcDbSavedByObjectVersion
1070
     0
1000
AcadProxyRoundTripData
1071
      505
1071
   655383
1070
     0
  0
ACAD_PROXY_OBJECT
  5
3DD5
102
{ACAD_REACTORS
330
3DC6
102
}
330
3DC6
100
AcDbProxyObject
 90
      499
 91
      511
 93
      452
310
43119858D95C185D1D195C9B8010F409028333333333333E3BF0000000000000FB010790141107004050150841D405064090741402480A0350
 94
        0
1001
ACAD
1000
AcDbSavedByObjectVersion
1070
     0
1000
AcadProxyRoundTripData
1071
      505
1071
   655383
1070
     0
  0
ACAD_PROXY_OBJECT
  5
3DC7
102
{ACAD_REACTORS
330
3DC6
102
}
330
3DC6
100
AcDbProxyObject
 90
      499
 91
      511
 93
      396
310
41519B185D00240901404333333333333E3BF0000000000000F9010740A41107004050150841D405064090741402480A1B55
 94
        0
1001
ACAD
1000
AcDbSavedByObjectVersion
1070
     0
1000
AcadProxyRoundTripData
1071
      505
1071
   655383
1070
     0
  0
ACAD_PROXY_OBJECT
  5
3DC8
102
{ACAD_REACTORS
330
3DC6
102
}
330
3DC6
100
AcDbProxyObject
 90
      499
 91
      511
 93
      484
310
43919B185D15DA5D1A115919D95CC010140901404333333333333E3BF0000000000000F9010740901411070040501600405405064090741402480A1B50
 94
        0
1001
ACAD
1000
AcDbSavedByObjectVersion
1070
     0
1000
AcadProxyRoundTripData
1071
      505
1071
   655383
1070
     0
  0
ACAD_PROXY_OBJECT
  5
3DC9
102
{ACAD_REACTORS
330
3DC6
102
}
330
3DC6
100
AcDbProxyObject
 90
      499
 91
      511
 93
      420
310
4211DBDD5C985D590010240902404333333333333E3BF0000000000000F9010740A411070040501641D405064090741402480A1B50
 94
        0
1001
ACAD
1000
AcDbSavedByObjectVersion
1070
     0
1000
AcadProxyRoundTripData
1071
      505
1071
   655383
1070
     0
  0
ACAD_PROXY_OBJECT
  5
3DCA
102
{ACAD_REACTORS
330
3DC6
102
}
330
3DC6
100
AcDbProxyObject
 90
      499
 91
      511
 93
      508
310
4451DBDD5C985D5915DA5D1A115919D95CC010340902404333333333333E3BF0000000000000F9010740901411070040501600405405064090741402480A1B50
 94
        0
1001
ACAD
1000
AcDbSavedByObjectVersion
1070
     0
1000
AcadProxyRoundTripData
1071
      505
1071
   655383
1070
     0
  0
ACAD_PROXY_OBJECT
  5
3DD4
102
{ACAD_REACTORS
330
3DC6
102
}
330
3DC6
100
AcDbProxyObject
 90
      499
 91
      511
 93
      452
310
43131A5B995C185D1D195C9B8010E409028333333333333E3BF0000000000000FB010790141107004050750841D405064090741402483A0350
 94
        0
1001
ACAD
1000
AcDbSavedByObjectVersion
1070
     0
1000
AcadProxyRoundTripData
1071
      505
1071
   655383
1070
     0
  0
ACAD_PROXY_OBJECT
  5
3DD0
102
{ACAD_REACTORS
330
3DC6
102
}
330
3DC6
100
AcDbProxyObject
 90
      499
 91
      511
 93
      428
310
429499585B1A5CDD1A58C0108409028333333333333E3BF0000000000000FB01079019070040501508421405064090741402480A1B45
 94
        0
1001
ACAD
1000
AcDbSavedByObjectVersion
1070
     0
1000
AcadProxyRoundTripData
1071
      505
1071
   655383
1070
     0
  0
ACAD_PROXY_OBJECT
  5
3DD3
102
{ACAD_REACTORS
330
3DC6
102
}
330
3DC6
100
AcDbProxyObject
 90
      499
 91
      511
 93
      420
310
42151A1A58DAD95B8010D409028333333333333E3BF0000000000000FB010790141107004050150C41D405064090741402480A0352
 94
        0
1001
ACAD
1000
AcDbSavedByObjectVersion
1070
     0
1000
AcadProxyRoundTripData
1071
      505
1071
   655383
1070
     0
  0
XRECORD
  5
43F0
102
{ACAD_REACTORS
330
43E6
102
}
330
43E6
100
AcDbXrecord
 90
        0
  0
XRECORD
  5
43F4
102
{ACAD_REACTORS
330
43E6
102
}
330
43E6
100
AcDbXrecord
1000
DSTYLE
1002
{
1070
   179
 70
     2
1070
   277
 70
     6
1002
}
  0
XRECORD
  5
43F1
102
{ACAD_REACTORS
330
43E6
102
}
330
43E6
100
AcDbXrecord
  1
{6385560B-F4B1-4644-A7C2-A3E32AC3D232}
  0
XRECORD
  5
43E9
102
{ACAD_REACTORS
330
43E6
102
}
330
43E6
100
AcDbXrecord
  1

  0
XRECORD
  5
43EF
102
{ACAD_REACTORS
330
43E6
102
}
330
43E6
100
AcDbXrecord
 90
        0
  0
XRECORD
  5
43EB
102
{ACAD_REACTORS
330
43E6
102
}
330
43E6
100
AcDbXrecord
340
61
  0
XRECORD
  5
43EE
102
{ACAD_REACTORS
330
43E6
102
}
330
43E6
100
AcDbXrecord
 90
    10781
  0
XRECORD
  5
43EC
102
{ACAD_REACTORS
330
43E6
102
}
330
43E6
100
AcDbXrecord
340
77
  0
XRECORD
  5
43ED
102
{ACAD_REACTORS
330
43E6
102
}
330
43E6
100
AcDbXrecord
340
6
  0
XRECORD
  5
43F3
102
{ACAD_REACTORS
330
43E6
102
}
330
43E6
100
AcDbXrecord
 40
0.0
  0
XRECORD
  5
43F7
102
{ACAD_REACTORS
330
43E6
102
}
330
43E6
100
AcDbXrecord
340
0
  0
XRECORD
  5
43FD
102
{ACAD_REACTORS
330
43E6
102
}
330
43E6
100
AcDbXrecord
 10
0.0
 20
0.0
 30
0.0
  0
XRECORD
  5
43F9
102
{ACAD_REACTORS
330
43E6
102
}
330
43E6
100
AcDbXrecord
 10
0.0
 20
0.0
 30
0.0
  0
XRECORD
  5
43FC
102
{ACAD_REACTORS
330
43E6
102
}
330
43E6
100
AcDbXrecord
 10
0.0
 20
0.0
 30
0.0
  0
XRECORD
  5
43FA
102
{ACAD_REACTORS
330
43E6
102
}
330
43E6
100
AcDbXrecord
 10
0.0
 20
0.0
 30
0.0
  0
XRECORD
  5
43FB
102
{ACAD_REACTORS
330
43E6
102
}
330
43E6
100
AcDbXrecord
 10
0.0
 20
0.0
 30
0.0
  0
XRECORD
  5
43F8
102
{ACAD_REACTORS
330
43E6
102
}
330
43E6
100
AcDbXrecord
 10
0.0
 20
0.0
 30
0.0
  0
XRECORD
  5
43F5
102
{ACAD_REACTORS
330
43E6
102
}
330
43E6
100
AcDbXrecord
340
0
  0
XRECORD
  5
43F6
102
{ACAD_REACTORS
330
43E6
102
}
330
43E6
100
AcDbXrecord
 70
     0
  0
XRECORD
  5
43EA
102
{ACAD_REACTORS
330
43E6
102
}
330
43E6
100
AcDbXrecord
  1
Sekkei.ctb
  0
XRECORD
  5
43E7
102
{ACAD_REACTORS
330
43E6
102
}
330
43E6
100
AcDbXrecord
 90
        1
  0
XRECORD
  5
43E8
102
{ACAD_REACTORS
330
43E6
102
}
330
43E6
100
AcDbXrecord
 90
       70
  0
XRECORD
  5
4400
102
{ACAD_REACTORS
330
43E6
102
}
330
43E6
100
AcDbXrecord
340
0
  0
XRECORD
  5
4406
102
{ACAD_REACTORS
330
43E6
102
}
330
43E6
100
AcDbXrecord
 10
0.0
 20
0.0
 30
0.0
  0
XRECORD
  5
4402
102
{ACAD_REACTORS
330
43E6
102
}
330
43E6
100
AcDbXrecord
 10
0.0
 20
0.0
 30
0.0
  0
XRECORD
  5
4405
102
{ACAD_REACTORS
330
43E6
102
}
330
43E6
100
AcDbXrecord
 10
0.0
 20
0.0
 30
0.0
  0
XRECORD
  5
4403
102
{ACAD_REACTORS
330
43E6
102
}
330
43E6
100
AcDbXrecord
 10
0.0
 20
0.0
 30
0.0
  0
XRECORD
  5
4404
102
{ACAD_REACTORS
330
43E6
102
}
330
43E6
100
AcDbXrecord
 10
0.0
 20
0.0
 30
0.0
  0
XRECORD
  5
4401
102
{ACAD_REACTORS
330
43E6
102
}
330
43E6
100
AcDbXrecord
 10
0.0
 20
0.0
 30
0.0
  0
XRECORD
  5
43FE
102
{ACAD_REACTORS
330
43E6
102
}
330
43E6
100
AcDbXrecord
340
0
  0
XRECORD
  5
43FF
102
{ACAD_REACTORS
330
43E6
102
}
330
43E6
100
AcDbXrecord
 70
     0
  0
XRECORD
  5
43F2
102
{ACAD_REACTORS
330
43E6
102
}
330
43E6
100
AcDbXrecord
  1
{88A83C2D-80E4-4511-97CA-237D210F29FE}
  0
DICTIONARYVAR
  5
4380
102
{ACAD_REACTORS
330
102
102
}
330
102
100
DictionaryVariables
280
     0
  1
1:1
  0
DICTIONARYVAR
  5
437F
102
{ACAD_REACTORS
330
102
102
}
330
102
100
DictionaryVariables
280
     0
  1
STANDARD
  0
DICTIONARYVAR
  5
437E
102
{ACAD_REACTORS
330
102
102
}
330
102
100
DictionaryVariables
280
     0
  1
STANDARD
  0
DICTIONARYVAR
  5
103
102
{ACAD_REACTORS
330
102
102
}
330
102
100
DictionaryVariables
280
     0
  1
1
  0
DICTIONARYVAR
  5
4382
102
{ACAD_REACTORS
330
102
102
}
330
102
100
DictionaryVariables
280
     0
  1
0
  0
DICTIONARYVAR
  5
4381
102
{ACAD_REACTORS
330
102
102
}
330
102
100
DictionaryVariables
280
     0
  1
127
  0
DICTIONARY
  5
3DB7
330
3DB6
100
AcDbDictionary
280
     1
  3
ACAD_XREC_ROUNDTRIP
360
437B
  3
BUMPTILE
360
3DB9
  3
DIFFUSETILE
360
3DB8
  3
OPACITYTILE
360
3DBC
  3
REFLECTIONTILE
360
3DBB
  3
REFRACTIONTILE
360
3DBD
  3
SPECULARTILE
360
3DBA
  0
DICTIONARY
  5
3DAF
330
3DAE
100
AcDbDictionary
280
     1
  3
ACAD_XREC_ROUNDTRIP
360
437A
  3
BUMPTILE
360
3DB1
  3
DIFFUSETILE
360
3DB0
  3
OPACITYTILE
360
3DB4
  3
REFLECTIONTILE
360
3DB3
  3
REFRACTIONTILE
360
3DB5
  3
SPECULARTILE
360
3DB2
  0
DICTIONARY
  5
3DBF
330
3DBE
100
AcDbDictionary
280
     1
  3
ACAD_XREC_ROUNDTRIP
360
437C
  3
BUMPTILE
360
3DC1
  3
DIFFUSETILE
360
3DC0
  3
OPACITYTILE
360
3DC4
  3
REFLECTIONTILE
360
3DC3
  3
REFRACTIONTILE
360
3DC5
  3
SPECULARTILE
360
3DC2
  0
DICTIONARY
  5
4363
330
3DD9
100
AcDbDictionary
280
     1
  3
ACAD_ROUNDTRIP_2008_TABLES
360
4364
  3
ACAD_XREC_ROUNDTRIP
360
437D
  0
XRECORD
  5
437B
102
{ACAD_REACTORS
330
3DB7
102
}
330
3DB7
100
AcDbXrecord
102
MATERIAL
148
0.0
149
0.0
149
0.0
 93
        0
 94
      127
282
     0
 72
     0
 77
     0
171
     0
175
     0
179
     0
273
     0
  0
XRECORD
  5
3DB9
102
{ACAD_REACTORS
330
3DB7
102
}
330
3DB7
100
AcDbXrecord
270
     1
271
     1
  0
XRECORD
  5
3DB8
102
{ACAD_REACTORS
330
3DB7
102
}
330
3DB7
100
AcDbXrecord
270
     1
271
     1
  0
XRECORD
  5
3DBC
102
{ACAD_REACTORS
330
3DB7
102
}
330
3DB7
100
AcDbXrecord
270
     1
271
     1
  0
XRECORD
  5
3DBB
102
{ACAD_REACTORS
330
3DB7
102
}
330
3DB7
100
AcDbXrecord
270
     1
271
     1
  0
XRECORD
  5
3DBD
102
{ACAD_REACTORS
330
3DB7
102
}
330
3DB7
100
AcDbXrecord
270
     1
271
     1
  0
XRECORD
  5
3DBA
102
{ACAD_REACTORS
330
3DB7
102
}
330
3DB7
100
AcDbXrecord
270
     1
271
     1
  0
XRECORD
  5
437A
102
{ACAD_REACTORS
330
3DAF
102
}
330
3DAF
100
AcDbXrecord
102
MATERIAL
148
0.0
149
0.0
149
0.0
 93
        0
 94
      127
282
     0
 72
     0
 77
     0
171
     0
175
     0
179
     0
273
     0
  0
XRECORD
  5
3DB1
102
{ACAD_REACTORS
330
3DAF
102
}
330
3DAF
100
AcDbXrecord
270
     1
271
     1
  0
XRECORD
  5
3DB0
102
{ACAD_REACTORS
330
3DAF
102
}
330
3DAF
100
AcDbXrecord
270
     1
271
     1
  0
XRECORD
  5
3DB4
102
{ACAD_REACTORS
330
3DAF
102
}
330
3DAF
100
AcDbXrecord
270
     1
271
     1
  0
XRECORD
  5
3DB3
102
{ACAD_REACTORS
330
3DAF
102
}
330
3DAF
100
AcDbXrecord
270
     1
271
     1
  0
XRECORD
  5
3DB5
102
{ACAD_REACTORS
330
3DAF
102
}
330
3DAF
100
AcDbXrecord
270
     1
271
     1
  0
XRECORD
  5
3DB2
102
{ACAD_REACTORS
330
3DAF
102
}
330
3DAF
100
AcDbXrecord
270
     1
271
     1
  0
XRECORD
  5
437C
102
{ACAD_REACTORS
330
3DBF
102
}
330
3DBF
100
AcDbXrecord
102
MATERIAL
148
0.0
149
0.0
149
0.0
 93
        0
 94
      127
282
     0
 72
     0
 77
     0
171
     0
175
     0
179
     0
273
     0
  0
XRECORD
  5
3DC1
102
{ACAD_REACTORS
330
3DBF
102
}
330
3DBF
100
AcDbXrecord
270
     1
271
     1
  0
XRECORD
  5
3DC0
102
{ACAD_REACTORS
330
3DBF
102
}
330
3DBF
100
AcDbXrecord
270
     1
271
     1
  0
XRECORD
  5
3DC4
102
{ACAD_REACTORS
330
3DBF
102
}
330
3DBF
100
AcDbXrecord
270
     1
271
     1
  0
XRECORD
  5
3DC3
102
{ACAD_REACTORS
330
3DBF
102
}
330
3DBF
100
AcDbXrecord
270
     1
271
     1
  0
XRECORD
  5
3DC5
102
{ACAD_REACTORS
330
3DBF
102
}
330
3DBF
100
AcDbXrecord
270
     1
271
     1
  0
XRECORD
  5
3DC2
102
{ACAD_REACTORS
330
3DBF
102
}
330
3DBF
100
AcDbXrecord
270
     1
271
     1
  0
ACAD_PROXY_OBJECT
  5
4364
102
{ACAD_REACTORS
330
4363
102
}
330
4363
100
AcDbProxyObject
 90
      499
 91
      511
 93
     1044
310
40D054060020000020000003200101A000080002A5058000000C100000000000000340FE901405075F5449544C450041501A8000000C800406800020000A9416000000304000AD7A3703D0AC73FA409014217D2115051115480105406A0000003200101A000080002A5028000000C10002B5E8DC0F42B1CFE903409065F444
310
15441002
340
16
340
16
340
16
 94
        0
1001
ACAD
1000
AcadProxyRoundTripData
1071
      510
1071
   655383
1070
     0
  0
XRECORD
  5
437D
102
{ACAD_REACTORS
330
4363
102
}
330
4363
100
AcDbXrecord
102
ACAD_ROUNDTRIP_PRE2007_TABLESTYLE
 90
      512
 91
        0
  1

 92
      512
 93
        0
  2

 94
      512
 95
        0
  3

  0
ENDSEC
  0
EOF
