  0
SECTION
  2
HEADER
  9
$ACADVER
  1
AC1014
  9
$ACADMAINTVER
 70
     9
  9
$DWGCODEPAGE
  3
ANSI_932
  9
$INSBASE
 10
0.0
 20
0.0
 30
0.0
  9
$EXTMIN
 10
22.21929025537042
 20
21.47565828837559
 30
0.0
  9
$EXTMAX
 10
528.1658046064991
 20
463.7338017632097
 30
0.0
  9
$LIMMIN
 10
0.0
 20
0.0
  9
$LIMMAX
 10
297.0
 20
210.0
  9
$ORTHOMODE
 70
     1
  9
$REGENMODE
 70
     1
  9
$FILLMODE
 70
     1
  9
$QTEXTMODE
 70
     0
  9
$MIRRTEXT
 70
     0
  9
$DRAGMODE
 70
     2
  9
$LTSCALE
 40
3.0
  9
$OSMODE
 70
    37
  9
$ATTMODE
 70
     1
  9
$TEXTSIZE
 40
9.0
  9
$TRACEWID
 40
1.0
  9
$TEXTSTYLE
  7
STANDARD
  9
$CLAYER
  8
0
  9
$CELTYPE
  6
BYLAYER
  9
$CECOLOR
 62
   256
  9
$CELTSCALE
 40
1.0
  9
$DELOBJ
 70
     1
  9
$DISPSILH
 70
     0
  9
$DIMSCALE
 40
3.0
  9
$DIMASZ
 40
1.8
  9
$DIMEXO
 40
0.625
  9
$DIMDLI
 40
3.75
  9
$DIMRND
 40
0.0
  9
$DIMDLE
 40
0.0
  9
$DIMEXE
 40
0.8
  9
$DIMTP
 40
0.0
  9
$DIMTM
 40
0.0
  9
$DIMTXT
 40
1.8
  9
$DIMCEN
 40
2.5
  9
$DIMTSZ
 40
0.0
  9
$DIMTOL
 70
     0
  9
$DIMLIM
 70
     0
  9
$DIMTIH
 70
     0
  9
$DIMTOH
 70
     0
  9
$DIMSE1
 70
     0
  9
$DIMSE2
 70
     0
  9
$DIMTAD
 70
     1
  9
$DIMZIN
 70
     8
  9
$DIMBLK
  1

  9
$DIMASO
 70
     1
  9
$DIMSHO
 70
     1
  9
$DIMPOST
  1

  9
$DIMAPOST
  1

  9
$DIMALT
 70
     0
  9
$DIMALTD
 70
     4
  9
$DIMALTF
 40
0.0394
  9
$DIMLFAC
 40
1.0
  9
$DIMTOFL
 70
     1
  9
$DIMTVP
 40
0.0
  9
$DIMTIX
 70
     0
  9
$DIMSOXD
 70
     0
  9
$DIMSAH
 70
     0
  9
$DIMBLK1
  1

  9
$DIMBLK2
  1

  9
$DIMSTYLE
  2
STANDARD
  9
$DIMCLRD
 70
     0
  9
$DIMCLRE
 70
     0
  9
$DIMCLRT
 70
     0
  9
$DIMTFAC
 40
1.0
  9
$DIMGAP
 40
0.75
  9
$DIMJUST
 70
     0
  9
$DIMSD1
 70
     0
  9
$DIMSD2
 70
     0
  9
$DIMTOLJ
 70
     1
  9
$DIMTZIN
 70
     0
  9
$DIMALTZ
 70
     0
  9
$DIMALTTZ
 70
     0
  9
$DIMFIT
 70
     3
  9
$DIMUPT
 70
     0
  9
$DIMUNIT
 70
     8
  9
$DIMDEC
 70
     2
  9
$DIMTDEC
 70
     2
  9
$DIMALTU
 70
     8
  9
$DIMALTTD
 70
     4
  9
$DIMTXSTY
  7
STANDARD
  9
$DIMAUNIT
 70
     0
  9
$LUNITS
 70
     2
  9
$LUPREC
 70
     3
  9
$SKETCHINC
 40
1.0
  9
$FILLETRAD
 40
10.0
  9
$AUNITS
 70
     0
  9
$AUPREC
 70
     2
  9
$MENU
  1
.
  9
$ELEVATION
 40
0.0
  9
$PELEVATION
 40
0.0
  9
$THICKNESS
 40
0.0
  9
$LIMCHECK
 70
     0
  9
$BLIPMODE
 70
     0
  9
$CHAMFERA
 40
0.0
  9
$CHAMFERB
 40
0.0
  9
$CHAMFERC
 40
20.0
  9
$CHAMFERD
 40
0.0
  9
$SKPOLY
 70
     0
  9
$TDCREATE
 40
2453692.546189236
  9
$TDUPDATE
 40
2453928.597641782
  9
$TDINDWG
 40
0.0521079167
  9
$TDUSRTIMER
 40
0.0521079167
  9
$USRTIMER
 70
     1
  9
$ANGBASE
 50
0.0
  9
$ANGDIR
 70
     0
  9
$PDMODE
 70
     0
  9
$PDSIZE
 40
-10.0
  9
$PLINEWID
 40
0.0
  9
$COORDS
 70
     0
  9
$SPLFRAME
 70
     0
  9
$SPLINETYPE
 70
     6
  9
$SPLINESEGS
 70
     8
  9
$ATTDIA
 70
     0
  9
$ATTREQ
 70
     1
  9
$HANDLING
 70
-16383
  9
$HANDSEED
  5
1A45
  9
$SURFTAB1
 70
     6
  9
$SURFTAB2
 70
     6
  9
$SURFTYPE
 70
     6
  9
$SURFU
 70
     6
  9
$SURFV
 70
     6
  9
$UCSNAME
  2

  9
$UCSORG
 10
0.0
 20
0.0
 30
0.0
  9
$UCSXDIR
 10
1.0
 20
0.0
 30
0.0
  9
$UCSYDIR
 10
0.0
 20
1.0
 30
0.0
  9
$PUCSNAME
  2

  9
$PUCSORG
 10
0.0
 20
0.0
 30
0.0
  9
$PUCSXDIR
 10
1.0
 20
0.0
 30
0.0
  9
$PUCSYDIR
 10
0.0
 20
1.0
 30
0.0
  9
$USERI1
 70
     0
  9
$USERI2
 70
     0
  9
$USERI3
 70
     0
  9
$USERI4
 70
     0
  9
$USERI5
 70
     0
  9
$USERR1
 40
0.0
  9
$USERR2
 40
0.0
  9
$USERR3
 40
0.0
  9
$USERR4
 40
0.0
  9
$USERR5
 40
0.0
  9
$WORLDVIEW
 70
     1
  9
$SHADEDGE
 70
     3
  9
$SHADEDIF
 70
    70
  9
$TILEMODE
 70
     1
  9
$MAXACTVP
 70
    48
  9
$PINSBASE
 10
0.0
 20
0.0
 30
0.0
  9
$PLIMCHECK
 70
     0
  9
$PEXTMIN
 10
0.0
 20
0.0
 30
0.0
  9
$PEXTMAX
 10
0.0
 20
0.0
 30
0.0
  9
$PLIMMIN
 10
0.0
 20
0.0
  9
$PLIMMAX
 10
12.0
 20
9.0
  9
$UNITMODE
 70
     0
  9
$VISRETAIN
 70
     1
  9
$PLINEGEN
 70
     0
  9
$PSLTSCALE
 70
     1
  9
$TREEDEPTH
 70
  3020
  9
$PICKSTYLE
 70
     1
  9
$CMLSTYLE
  2
STANDARD
  9
$CMLJUST
 70
     0
  9
$CMLSCALE
 40
1.0
  9
$PROXYGRAPHICS
 70
     1
  9
$MEASUREMENT
 70
     0
  0
ENDSEC
  0
SECTION
  2
CLASSES
  0
CLASS
  1
DICTIONARYVAR
  2
AcDbDictionaryVar
  3
AutoCAD 2000
 90
        0
280
     0
281
     0
  0
CLASS
  1
ACDBDICTIONARYWDFLT
  2
AcDbDictionaryWithDefault
  3
AutoCAD 2000
 90
        0
280
     0
281
     0
  0
CLASS
  1
ACDBPLACEHOLDER
  2
AcDbPlaceHolder
  3
AutoCAD 2000
 90
        0
280
     0
281
     0
  0
CLASS
  1
LAYOUT
  2
AcDbLayout
  3
AutoCAD 2000
 90
        0
280
     0
281
     0
  0
CLASS
  1
LONG_TRANSACTION
  2
AcDbLongTransaction
  3
AutoCAD 2000
 90
        0
280
     0
281
     0
  0
CLASS
  1
LWPOLYLINE
  2
AcDbPolyline
  3
AutoCAD 2000
 90
        0
280
     0
281
     1
  0
CLASS
  1
HATCH
  2
AcDbHatch
  3
AutoCAD 2000
 90
        0
280
     0
281
     1
  0
CLASS
  1
XRECORD
  2
AcDbXrecord
  3
AutoCAD 2000
 90
        0
280
     0
281
     0
  0
ENDSEC
  0
SECTION
  2
TABLES
  0
TABLE
  2
VPORT
  5
6E
330
0
100
AcDbSymbolTable
 70
     2
  0
VPORT
  5
1A1F
330
6E
100
AcDbSymbolTableRecord
100
AcDbViewportTableRecord
  2
*ACTIVE
 70
     0
 10
0.0
 20
0.0
 11
1.0
 21
1.0
 12
298.7978141026124
 22
242.6047566517931
 13
0.0
 23
0.0
 14
10.0
 24
10.0
 15
10.0
 25
10.0
 16
0.0
 26
0.0
 36
1.0
 17
0.0
 27
0.0
 37
0.0
 40
445.7327839521282
 41
1.566970091027308
 42
50.0
 43
0.0
 44
0.0
 50
0.0
 51
0.0
 71
     0
 72
   100
 73
     1
 74
     3
 75
     0
 76
     0
 77
     0
 78
     0
  0
ENDTAB
  0
TABLE
  2
LTYPE
  5
69
330
0
100
AcDbSymbolTable
 70
     5
  0
LTYPE
  5
6A
330
69
100
AcDbSymbolTableRecord
100
AcDbLinetypeTableRecord
  2
BYBLOCK
 70
     0
  3

 72
    65
 73
     0
 40
0.0
  0
LTYPE
  5
6B
330
69
100
AcDbSymbolTableRecord
100
AcDbLinetypeTableRecord
  2
BYLAYER
 70
     0
  3

 72
    65
 73
     0
 40
0.0
  0
LTYPE
  5
8
330
69
100
AcDbSymbolTableRecord
100
AcDbLinetypeTableRecord
  2
CONTINUOUS
 70
     0
  3
Solid line
 72
    65
 73
     0
 40
0.0
  0
LTYPE
  5
27C
330
69
100
AcDbSymbolTableRecord
100
AcDbLinetypeTableRecord
  2
SEKKEI_A2_
 70
     0
  3
center(A2)  ____ _ ____ _ ____ _ ____ _ ____ _ 
 72
    65
 73
     4
 40
14.28749999999999
 49
9.525
 74
     0
 49
-1.587499999999999
 74
     0
 49
1.587499999999999
 74
     0
 49
-1.587499999999999
 74
     0
  0
LTYPE
  5
2B4
330
69
100
AcDbSymbolTableRecord
100
AcDbLinetypeTableRecord
  2
HIDDEN2
 70
     0
  3
Hidden (.5x) _ _ _ _ _ _ _ _ _ _ _ _ _ _ _ _ _
 72
    65
 73
     2
 40
4.762499999999999
 49
3.174999999999999
 74
     0
 49
-1.587499999999999
 74
     0
  0
LTYPE
  5
48F
330
69
100
AcDbSymbolTableRecord
100
AcDbLinetypeTableRecord
  2
SEKKEI_H
 70
     0
  3
Hidden-S _ _ _ _ _ _ _ _ _ _ _ _ _ _ _ _ _
 72
    65
 73
     2
 40
2.381249999999999
 49
1.587499999999999
 74
     0
 49
-0.79375
 74
     0
  0
ENDTAB
  0
TABLE
  2
LAYER
  5
66
330
0
100
AcDbSymbolTable
 70
    10
  0
LAYER
  5
5E
330
66
100
AcDbSymbolTableRecord
100
AcDbLayerTableRecord
  2
0
 70
     0
 62
     7
  6
CONTINUOUS
  0
LAYER
  5
3E
330
66
100
AcDbSymbolTableRecord
100
AcDbLayerTableRecord
  2
CENTER
 70
     0
 62
     3
  6
SEKKEI_A2_
  0
LAYER
  5
2B5
330
66
100
AcDbSymbolTableRecord
100
AcDbLayerTableRecord
  2
HIDS
 70
     0
 62
     1
  6
HIDDEN2
  0
LAYER
  5
2BA
330
66
100
AcDbSymbolTableRecord
100
AcDbLayerTableRecord
  2
HOJO
 70
     0
 62
     4
  6
CONTINUOUS
  0
LAYER
  5
3FA
330
66
100
AcDbSymbolTableRecord
100
AcDbLayerTableRecord
  2
TITLE
 70
     0
 62
     4
  6
CONTINUOUS
  0
ENDTAB
  0
TABLE
  2
STYLE
  5
67
330
0
100
AcDbSymbolTable
 70
     2
  0
STYLE
  5
16
330
67
100
AcDbSymbolTableRecord
100
AcDbTextStyleTableRecord
  2
STANDARD
 70
     0
 40
0.0
 41
1.0
 50
0.0
 71
     0
 42
9.0
  3
simplex.shx
  4
extfont.shx
  0
ENDTAB
  0
TABLE
  2
VIEW
  5
6C
330
0
100
AcDbSymbolTable
 70
     0
  0
ENDTAB
  0
TABLE
  2
UCS
  5
6D
330
0
100
AcDbSymbolTable
 70
     0
  0
ENDTAB
  0
TABLE
  2
APPID
  5
70
330
0
100
AcDbSymbolTable
 70
     1
  0
APPID
  5
71
330
70
100
AcDbSymbolTableRecord
100
AcDbRegAppTableRecord
  2
ACAD
 70
     0
  0
ENDTAB
  0
TABLE
  2
DIMSTYLE
  5
72
330
0
100
AcDbSymbolTable
 70
     1
  0
DIMSTYLE
105
73
102
{ACAD_REACTORS
330
EEA
330
EEB
330
F9C
102
}
330
72
100
AcDbSymbolTableRecord
100
AcDbDimStyleTableRecord
  2
STANDARD
 70
     0
  3

  4

  5

  6

  7

 40
3.0
 41
1.8
 42
0.625
 43
3.75
 44
0.8
 45
0.0
 46
0.0
 47
0.0
 48
0.0
140
1.8
141
2.5
142
0.0
143
0.0394
144
1.0
145
0.0
146
1.0
147
0.75
 71
     0
 72
     0
 73
     0
 74
     0
 75
     0
 76
     0
 77
     1
 78
     8
170
     0
171
     4
172
     1
173
     0
174
     0
175
     0
176
     0
177
     0
178
     0
270
     8
271
     2
272
     2
273
     8
274
     4
340
16
275
     0
280
     0
281
     0
282
     0
283
     1
284
     0
285
     0
286
     0
287
     3
288
     0
  0
ENDTAB
  0
TABLE
  2
BLOCK_RECORD
  5
1
330
0
100
AcDbSymbolTable
 70
    39
  0
BLOCK_RECORD
  5
2
102
{ACAD_XDICTIONARY
360
1A41
102
}
330
1
100
AcDbSymbolTableRecord
100
AcDbBlockTableRecord
  2
*MODEL_SPACE
  0
BLOCK_RECORD
  5
1A1A
102
{ACAD_XDICTIONARY
360
1A43
102
}
330
1
100
AcDbSymbolTableRecord
100
AcDbBlockTableRecord
  2
*PAPER_SPACE
  0
ENDTAB
  0
ENDSEC
  0
SECTION
  2
BLOCKS
  0
BLOCK
  5
5D
330
2
100
AcDbEntity
  8
0
100
AcDbBlockBegin
  2
*MODEL_SPACE
 70
     0
 10
0.0
 20
0.0
 30
0.0
  3
*MODEL_SPACE
  1

  0
ENDBLK
  5
5F
330
2
100
AcDbEntity
  8
0
100
AcDbBlockEnd
  0
BLOCK
  5
1A1C
330
1A1A
100
AcDbEntity
 67
     1
  8
0
100
AcDbBlockBegin
  2
*PAPER_SPACE
 70
     0
 10
0.0
 20
0.0
 30
0.0
  3
*PAPER_SPACE
  1

  0
ENDBLK
  5
1A1D
330
1A1A
100
AcDbEntity
 67
     1
  8
0
100
AcDbBlockEnd
  0
ENDSEC
  0
SECTION
  2
ENTITIES
  0
LINE
  5
6B6
330
2
100
AcDbEntity
  8
CENTER
100
AcDbLine
 10
22.21929025537042
 20
143.2100212295292
 30
0.0
 11
229.1244829376054
 21
143.2100212295292
 31
0.0
  0
LINE
  5
6FB
330
2
100
AcDbEntity
  8
0
100
AcDbLine
 10
226.6244749376054
 20
132.7100212295292
 30
0.0
 11
226.6244749376054
 21
191.7100212295292
 31
0.0
  0
LINE
  5
6FD
330
2
100
AcDbEntity
  8
0
100
AcDbLine
 10
138.1243719376055
 20
200.7100212295292
 30
0.0
 11
138.1243719376055
 21
85.71002122952922
 31
0.0
  0
LINE
  5
6FE
330
2
100
AcDbEntity
  8
0
100
AcDbLine
 10
209.6244829376054
 20
212.5495522295292
 30
0.0
 11
209.6244829376054
 21
75.56045422952923
 31
0.0
  0
LINE
  5
6FF
330
2
100
AcDbEntity
  8
0
100
AcDbLine
 10
221.6244829376054
 20
212.7100212295292
 30
0.0
 11
221.6244829376054
 21
73.71002122952922
 31
0.0
  0
LINE
  5
701
330
2
100
AcDbEntity
  8
0
100
AcDbLine
 10
151.6243759376055
 20
77.2099832295292
 30
0.0
 11
151.6241619376054
 21
211.2100442295292
 31
0.0
  0
LINE
  5
702
330
2
100
AcDbEntity
  8
0
100
AcDbLine
 10
145.6243759376055
 20
79.21002122952922
 30
0.0
 11
145.6243759376055
 21
209.2100592295292
 31
0.0
  0
LINE
  5
703
330
2
100
AcDbEntity
  8
0
100
AcDbLine
 10
151.6243759376055
 20
77.2099832295292
 30
0.0
 11
151.6241619376054
 21
211.2100442295292
 31
0.0
  0
LINE
  5
704
330
2
100
AcDbEntity
  8
0
100
AcDbLine
 10
154.0171369376054
 20
106.8419982295292
 30
0.0
 11
206.8319719376055
 21
107.3029172295292
 31
0.0
  0
LINE
  5
705
330
2
100
AcDbEntity
  8
0
100
AcDbLine
 10
152.1244069376053
 20
77.20126222952922
 30
0.0
 11
209.1330889376055
 21
76.2061762295292
 31
0.0
  0
LINE
  5
706
330
2
100
AcDbEntity
  8
0
100
AcDbLine
 10
153.7818009376054
 20
89.89314222952918
 30
0.0
 11
206.3401809376053
 21
88.51721922952918
 31
0.0
  0
ARC
  5
708
330
2
100
AcDbEntity
  8
0
100
AcDbCircle
 10
142.6243909376054
 20
82.7100022295292
 30
0.0
 40
3.0
100
AcDbArc
 50
32.03855900000005
 51
90.0
  0
LINE
  5
70B
330
2
100
AcDbEntity
  8
0
100
AcDbLine
 10
138.1243719376055
 20
85.71002122952922
 30
0.0
 11
142.6243909376054
 21
85.71002122952922
 31
0.0
  0
ARC
  5
70C
330
2
100
AcDbEntity
  8
0
100
AcDbCircle
 10
147.6243759376055
 20
79.21002122952922
 30
0.0
 40
2.0
100
AcDbArc
 50
180.0
 51
270.0
  0
LINE
  5
70D
330
2
100
AcDbEntity
  8
0
100
AcDbLine
 10
147.6243759376055
 20
77.21002122952921
 30
0.0
 11
151.6243759376055
 21
77.21002122952921
 31
0.0
  0
LINE
  5
70E
330
2
100
AcDbEntity
  8
0
100
AcDbLine
 10
151.6244829376054
 20
77.70999022952918
 30
0.0
 11
152.1244069376053
 21
77.20126222952922
 31
0.0
  0
LINE
  5
71B
330
2
100
AcDbEntity
  8
0
100
AcDbLine
 10
150.9993759376055
 20
89.89312322952924
 30
0.0
 11
146.4993759376055
 21
89.89312322952924
 31
0.0
  0
LINE
  5
71C
330
2
100
AcDbEntity
  8
0
100
AcDbLine
 10
150.9993759376055
 20
106.7131412295292
 30
0.0
 11
146.4993759376055
 21
106.7131412295292
 31
0.0
  0
LINE
  5
71D
330
2
100
AcDbEntity
  8
CENTER
100
AcDbLine
 10
207.1244829376054
 20
82.21002122952922
 30
0.0
 11
224.1244829376054
 21
82.21002122952922
 31
0.0
  0
LINE
  5
71E
330
2
100
AcDbEntity
  8
0
100
AcDbLine
 10
221.1289839376055
 20
73.22732422952919
 30
0.0
 11
211.5545669376055
 21
73.56166722952924
 31
0.0
  0
ARC
  5
71F
330
2
100
AcDbEntity
  8
0
100
AcDbCircle
 10
209.1243609376054
 20
75.70625222952924
 30
0.0
 40
0.5
100
AcDbArc
 50
0.0
 51
88.99999999999986
  0
ARC
  5
720
330
2
100
AcDbEntity
  8
0
100
AcDbCircle
 10
211.6243759376055
 20
75.56045422952923
 30
0.0
 40
2.0
100
AcDbArc
 50
180.0
 51
267.9999999999996
  0
LINE
  5
721
330
2
100
AcDbEntity
  8
0
100
AcDbLine
 10
221.1246809376053
 20
73.22312122952922
 30
0.0
 11
221.6244829376054
 21
73.71002122952922
 31
0.0
  0
LINE
  5
722
330
2
100
AcDbEntity
  8
HIDS
  6
SEKKEI_H
100
AcDbLine
 10
221.6244829376054
 20
86.51002122952922
 30
0.0
 11
209.6244829376054
 21
86.51002122952922
 31
0.0
  0
LINE
  5
723
330
2
100
AcDbEntity
  8
HIDS
  6
SEKKEI_H
100
AcDbLine
 10
221.6244829376054
 20
77.91002122952926
 30
0.0
 11
209.6244829376054
 21
77.91002122952926
 31
0.0
  0
LINE
  5
724
330
2
100
AcDbEntity
  8
0
100
AcDbLine
 10
221.6244829376055
 20
132.2100212295292
 30
0.0
 11
226.1244749376054
 21
132.2100212295292
 31
0.0
  0
LINE
  5
725
330
2
100
AcDbEntity
  8
0
100
AcDbLine
 10
226.1244749376054
 20
132.2100212295292
 30
0.0
 11
226.6244749376054
 21
132.7100212295292
 31
0.0
  0
LINE
  5
726
330
2
100
AcDbEntity
  8
CENTER
100
AcDbLine
 10
276.6243759376056
 20
162.2100212295291
 30
0.0
 11
204.6244829376054
 21
162.2100212295292
 31
0.0
  0
LINE
  5
727
330
2
100
AcDbEntity
  8
0
100
AcDbLine
 10
236.6245739376055
 20
159.2100212295292
 30
0.0
 11
268.6243759376055
 21
159.2100212295292
 31
0.0
  0
LINE
  5
728
330
2
100
AcDbEntity
  8
0
100
AcDbLine
 10
236.6245739376055
 20
165.2100212295292
 30
0.0
 11
268.6243759376055
 21
165.2100212295292
 31
0.0
  0
LINE
  5
729
330
2
100
AcDbEntity
  8
0
100
AcDbLine
 10
228.6243759376055
 20
151.2100212295292
 30
0.0
 11
268.6243759376055
 21
151.2100212295292
 31
0.0
  0
LINE
  5
72A
330
2
100
AcDbEntity
  8
0
100
AcDbLine
 10
228.6245739376055
 20
173.2100212295292
 30
0.0
 11
268.6243759376055
 21
173.2100212295292
 31
0.0
  0
LINE
  5
72F
330
2
100
AcDbEntity
  8
0
100
AcDbLine
 10
209.3788469376055
 20
212.2181012295292
 30
0.0
 11
152.1241929376054
 21
211.2187192295292
 31
0.0
  0
ARC
  5
730
330
2
100
AcDbEntity
  8
0
100
AcDbCircle
 10
142.6243759376055
 20
203.7100212295292
 30
0.0
 40
3.0
100
AcDbArc
 50
270.0
 51
0.0
  0
LINE
  5
744
330
2
100
AcDbEntity
  8
0
100
AcDbLine
 10
138.1243719376055
 20
200.7100212295292
 30
0.0
 11
142.6243529376055
 21
200.7100212295292
 31
0.0
  0
LINE
  5
749
330
2
100
AcDbEntity
  8
0
100
AcDbLine
 10
147.6243759376055
 20
211.2100212295292
 30
0.0
 11
151.6243759376055
 21
211.2100212295292
 31
0.0
  0
ARC
  5
74A
330
2
100
AcDbEntity
  8
0
100
AcDbCircle
 10
147.6243759376055
 20
209.2100592295292
 30
0.0
 40
2.0
100
AcDbArc
 50
90.0
 51
180.0
  0
LINE
  5
74B
330
2
100
AcDbEntity
  8
0
100
AcDbLine
 10
152.1241929376054
 20
211.2187192295292
 30
0.0
 11
151.6242689376054
 21
210.7099902295291
 31
0.0
  0
LINE
  5
758
330
2
100
AcDbEntity
  8
0
100
AcDbLine
 10
228.6245739376055
 20
174.2100212295292
 30
0.0
 11
228.6245739376055
 21
150.2100212295292
 31
0.0
  0
LINE
  5
759
330
2
100
AcDbEntity
  8
0
100
AcDbLine
 10
226.6243759376053
 20
174.2100212295292
 30
0.0
 11
226.6245739376055
 21
150.2100212295292
 31
0.0
  0
LINE
  5
75A
330
2
100
AcDbEntity
  8
0
100
AcDbLine
 10
226.6245739376055
 20
150.2100212295292
 30
0.0
 11
228.6245739376055
 21
150.2100212295292
 31
0.0
  0
ARC
  5
75B
330
2
100
AcDbEntity
  8
0
100
AcDbCircle
 10
236.6245739376055
 20
162.2100212295292
 30
0.0
 40
3.0
100
AcDbArc
 50
90.0
 51
270.0
  0
LINE
  5
75C
330
2
100
AcDbEntity
  8
0
100
AcDbLine
 10
226.6243759376056
 20
174.2100212295292
 30
0.0
 11
228.6245739376055
 21
174.2100212295292
 31
0.0
  0
LINE
  5
75D
330
2
100
AcDbEntity
  8
CENTER
100
AcDbLine
 10
207.1244829376054
 20
204.2100212295292
 30
0.0
 11
224.1244829376054
 21
204.2100212295292
 31
0.0
  0
LINE
  5
75E
330
2
100
AcDbEntity
  8
0
 48
0.1
100
AcDbLine
 10
221.6244829376054
 20
192.2100212295291
 30
0.0
 11
226.1244749376054
 21
192.2100212295292
 31
0.0
  0
LINE
  5
75F
330
2
100
AcDbEntity
  8
HIDS
  6
SEKKEI_H
100
AcDbLine
 10
221.6244829376054
 20
199.9100212295292
 30
0.0
 11
209.6244829376054
 21
199.9100212295292
 31
0.0
  0
LINE
  5
760
330
2
100
AcDbEntity
  8
0
100
AcDbLine
 10
226.1244749376054
 20
192.2100212295292
 30
0.0
 11
226.6244749376054
 21
191.7100212295292
 31
0.0
  0
LINE
  5
761
330
2
100
AcDbEntity
  8
0
100
AcDbLine
 10
209.8657549376054
 20
212.7993992295292
 30
0.0
 11
221.1247879376054
 21
213.1925732295292
 31
0.0
  0
LINE
  5
762
330
2
100
AcDbEntity
  8
HIDS
  6
SEKKEI_H
100
AcDbLine
 10
221.6244829376054
 20
208.5100212295292
 30
0.0
 11
209.6244829376054
 21
208.5100212295292
 31
0.0
  0
ARC
  5
763
330
2
100
AcDbEntity
  8
0
100
AcDbCircle
 10
209.8744829376054
 20
212.5495522295292
 30
0.0
 40
0.25
100
AcDbArc
 50
92.0000000000004
 51
180.0
  0
ARC
  5
764
330
2
100
AcDbEntity
  8
0
100
AcDbCircle
 10
209.3744829376054
 20
212.4680622295292
 30
0.0
 40
0.25
100
AcDbArc
 50
271.0000000000001
 51
0.0
  0
LINE
  5
765
330
2
100
AcDbEntity
  8
0
100
AcDbLine
 10
221.1247879376054
 20
213.1925732295292
 30
0.0
 11
221.6244829376054
 21
212.7100212295292
 31
0.0
  0
LINE
  5
7F5
330
2
100
AcDbEntity
  8
0
100
AcDbLine
 10
268.6243759376055
 20
173.2100212295292
 30
0.0
 11
268.6243759376055
 21
151.2100212295292
 31
0.0
  0
LINE
  5
7F6
330
2
100
AcDbEntity
  8
0
100
AcDbLine
 10
513.1658046064991
 20
185.4110332295292
 30
0.0
 11
513.1658046064991
 21
101.0090092295292
 31
0.0
  0
LINE
  5
7F7
330
2
100
AcDbEntity
  8
0
100
AcDbLine
 10
383.1658046064991
 20
185.4110332295292
 30
0.0
 11
383.1658046064991
 21
101.0090092295292
 31
0.0
  0
CIRCLE
  5
7F8
330
2
100
AcDbEntity
  8
0
100
AcDbCircle
 10
448.1658046064991
 20
162.2100212295292
 30
0.0
 40
30.0
  0
LINE
  5
7F9
330
2
100
AcDbEntity
  8
CENTER
100
AcDbLine
 10
448.1658046064991
 20
223.2100212295292
 30
0.0
 11
448.1658046064991
 21
63.21002122952922
 31
0.0
  0
LINE
  5
7FA
330
2
100
AcDbEntity
  8
CENTER
100
AcDbLine
 10
509.1658046064991
 20
211.1100212295291
 30
0.0
 11
509.1658046064991
 21
75.41002122952921
 31
0.0
  0
LINE
  5
7FB
330
2
100
AcDbEntity
  8
CENTER
100
AcDbLine
 10
387.1658046064991
 20
211.1100212295291
 30
0.0
 11
387.1658046064991
 21
75.41002122952921
 31
0.0
  0
LINE
  5
7FC
330
2
100
AcDbEntity
  8
0
100
AcDbLine
 10
518.1658046064991
 20
204.2100212295292
 30
0.0
 11
518.1658046064991
 21
82.21002122952922
 31
0.0
  0
LINE
  5
7FD
330
2
100
AcDbEntity
  8
0
100
AcDbLine
 10
378.1658046064991
 20
82.21002122952922
 30
0.0
 11
378.1658046064991
 21
204.2100212295292
 31
0.0
  0
ARC
  5
7FE
330
2
100
AcDbEntity
  8
0
100
AcDbCircle
 10
490.8532436064992
 20
96.33109922952924
 30
0.0
 40
3.0
100
AcDbArc
 50
37.32551600000078
 51
122.9419479999984
  0
ARC
  5
7FF
330
2
100
AcDbEntity
  8
0
100
AcDbCircle
 10
490.366793606499
 20
83.21002122952922
 30
0.0
 40
5.0
100
AcDbArc
 50
270.0
 51
315.0
  0
LINE
  5
800
330
2
100
AcDbEntity
  8
0
100
AcDbLine
 10
509.1658046064991
 20
73.21002122952922
 30
0.0
 11
387.1658046064991
 21
73.21002122952922
 31
0.0
  0
LINE
  5
801
330
2
100
AcDbEntity
  8
CENTER
100
AcDbLine
 10
380.3658046064989
 20
82.21002122952922
 30
0.0
 11
515.9658046064991
 21
82.21002122952922
 31
0.0
  0
LINE
  5
802
330
2
100
AcDbEntity
  8
0
100
AcDbLine
 10
405.964785606499
 20
78.21002122952922
 30
0.0
 11
490.366793606499
 21
78.21002122952922
 31
0.0
  0
ARC
  5
803
330
2
100
AcDbEntity
  8
0
100
AcDbCircle
 10
448.1658046064991
 20
162.2100212295292
 30
0.0
 40
75.5
100
AcDbArc
 50
237.0580440000002
 51
302.9419559999991
  0
ARC
  5
804
330
2
100
AcDbEntity
  8
0
100
AcDbCircle
 10
398.788668606499
 20
87.5577192295292
 30
0.0
 40
3.0
100
AcDbArc
 50
142.6744839999997
 51
225.0
  0
LINE
  5
805
330
2
100
AcDbEntity
  8
0
100
AcDbLine
 10
384.6302516064989
 20
97.47347522952924
 30
0.0
 11
402.429262606499
 21
79.67448722952923
 31
0.0
  0
ARC
  5
806
330
2
100
AcDbEntity
  8
0
100
AcDbCircle
 10
387.1658046064991
 20
82.21002122952922
 30
0.0
 40
9.0
100
AcDbArc
 50
180.0
 51
270.0
  0
CIRCLE
  5
807
330
2
100
AcDbEntity
  8
0
100
AcDbCircle
 10
387.1658046064991
 20
82.21002122952922
 30
0.0
 40
4.299999999999999
  0
ARC
  5
808
330
2
100
AcDbEntity
  8
0
100
AcDbCircle
 10
405.964785606499
 20
83.21002122952922
 30
0.0
 40
5.0
100
AcDbArc
 50
225.0
 51
270.0
  0
ARC
  5
809
330
2
100
AcDbEntity
  8
0
100
AcDbCircle
 10
448.1658046064991
 20
162.2100212295292
 30
0.0
 40
75.5
100
AcDbArc
 50
221.8115539999979
 51
228.2909090000004
  0
LINE
  5
80A
330
2
100
AcDbEntity
  8
0
100
AcDbLine
 10
398.3215356064989
 20
101.7881802295292
 30
0.0
 11
392.612276606499
 21
94.3006702295292
 31
0.0
  0
ARC
  5
80B
330
2
100
AcDbEntity
  8
0
100
AcDbCircle
 10
388.1658046064991
 20
108.5420602295292
 30
0.0
 40
5.0
100
AcDbArc
 50
41.81154999999974
 51
180.0
  0
ARC
  5
80C
330
2
100
AcDbEntity
  8
0
100
AcDbCircle
 10
388.1658046064991
 20
101.0090092295292
 30
0.0
 40
5.0
100
AcDbArc
 50
180.0
 51
225.0
  0
ARC
  5
80D
330
2
100
AcDbEntity
  8
0
100
AcDbCircle
 10
390.226687606499
 20
96.1196972295292
 30
0.0
 40
3.0
100
AcDbArc
 50
225.0
 51
322.674476999998
  0
LINE
  5
80E
330
2
100
AcDbEntity
  8
0
100
AcDbLine
 10
403.0927456064991
 20
98.15012622952924
 30
0.0
 11
396.403048606499
 21
89.37675022952925
 31
0.0
  0
ARC
  5
80F
330
2
100
AcDbEntity
  8
0
100
AcDbCircle
 10
405.4783656064991
 20
96.33109922952924
 30
0.0
 40
3.0
100
AcDbArc
 50
57.05804799999924
 51
142.6744839999997
  0
ARC
  5
810
330
2
100
AcDbEntity
  8
0
100
AcDbCircle
 10
395.9359156064989
 20
103.6072072295291
 30
0.0
 40
3.0
100
AcDbArc
 50
322.6744729999984
 51
48.29090900000039
  0
ARC
  5
811
330
2
100
AcDbEntity
  8
0
100
AcDbCircle
 10
497.5429406064992
 20
87.5577192295292
 30
0.0
 40
3.0
100
AcDbArc
 50
315.0
 51
37.32551999999975
  0
LINE
  5
812
330
2
100
AcDbEntity
  8
0
100
AcDbLine
 10
493.9023466064989
 20
79.67448722952923
 30
0.0
 11
511.7013276064989
 21
97.47347522952924
 31
0.0
  0
CIRCLE
  5
813
330
2
100
AcDbEntity
  8
0
100
AcDbCircle
 10
509.1658046064991
 20
82.21002122952922
 30
0.0
 40
4.299999999999999
  0
ARC
  5
814
330
2
100
AcDbEntity
  8
0
100
AcDbCircle
 10
509.1658046064991
 20
82.21002122952922
 30
0.0
 40
9.0
100
AcDbArc
 50
270.0
 51
0.0
  0
ARC
  5
815
330
2
100
AcDbEntity
  8
0
100
AcDbCircle
 10
508.1658046064991
 20
108.5420602295292
 30
0.0
 40
5.0
100
AcDbArc
 50
0.0
 51
138.1884460000018
  0
ARC
  5
816
330
2
100
AcDbEntity
  8
0
100
AcDbCircle
 10
448.1658046064991
 20
162.2100212295292
 30
0.0
 40
75.5
100
AcDbArc
 50
311.7090759999986
 51
318.1884460000014
  0
LINE
  5
817
330
2
100
AcDbEntity
  8
0
100
AcDbLine
 10
498.010073606499
 20
101.7881802295292
 30
0.0
 11
503.7193026064991
 21
94.3006702295292
 31
0.0
  0
LINE
  5
818
330
2
100
AcDbEntity
  8
0
100
AcDbLine
 10
493.238833606499
 20
98.15012622952924
 30
0.0
 11
499.928530606499
 21
89.37675022952925
 31
0.0
  0
ARC
  5
819
330
2
100
AcDbEntity
  8
0
100
AcDbCircle
 10
506.1048916064991
 20
96.1196972295292
 30
0.0
 40
3.0
100
AcDbArc
 50
217.3255310000015
 51
315.0
  0
ARC
  5
81A
330
2
100
AcDbEntity
  8
0
100
AcDbCircle
 10
500.3956636064991
 20
103.6072072295291
 30
0.0
 40
3.0
100
AcDbArc
 50
131.7090909999996
 51
217.3255310000015
  0
ARC
  5
81B
330
2
100
AcDbEntity
  8
0
100
AcDbCircle
 10
508.1658046064991
 20
101.0090092295292
 30
0.0
 40
5.0
100
AcDbArc
 50
315.0
 51
0.0
  0
ARC
  5
81C
330
2
100
AcDbEntity
  8
0
100
AcDbCircle
 10
490.366793606499
 20
203.2100212295292
 30
0.0
 40
5.0
100
AcDbArc
 50
45.0
 51
90.0
  0
LINE
  5
81D
330
2
100
AcDbEntity
  8
0
100
AcDbLine
 10
496.5023526064991
 20
199.1332652295292
 30
0.0
 11
492.1436486064991
 21
196.1321822295291
 31
0.0
  0
LINE
  5
81E
330
2
100
AcDbEntity
  8
0
100
AcDbLine
 10
494.6753266064989
 20
197.8753122295292
 30
0.0
 11
491.551607606499
 21
195.7245512295292
 31
0.0
  0
LINE
  5
81F
330
2
100
AcDbEntity
  8
0
100
AcDbLine
 10
489.7350239881522
 20
213.2100212295292
 30
0.0
 11
501.8301563027197
 21
234.1594049226285
 31
0.0
  0
LINE
  5
820
330
2
100
AcDbEntity
  8
0
100
AcDbLine
 10
487.4256229113935
 20
213.2100212295292
 30
0.0
 11
500.3086638421668
 21
235.5241026776175
 31
0.0
  0
LINE
  5
821
330
2
100
AcDbEntity
  8
0
100
AcDbLine
 10
488.5803234497728
 20
213.2100212295292
 30
0.0
 11
501.2547004692718
 21
235.1626861815846
 31
0.0
  0
LINE
  5
822
330
2
100
AcDbEntity
  8
0
100
AcDbLine
 10
509.1658046064991
 20
213.2100212295292
 30
0.0
 11
387.1658046064991
 21
213.2100212295292
 31
0.0
  0
LINE
  5
823
330
2
100
AcDbEntity
  8
CENTER
100
AcDbLine
 10
380.265804606499
 20
204.2100212295292
 30
0.0
 11
516.0658046064989
 21
204.2100212295292
 31
0.0
  0
LINE
  5
824
330
2
100
AcDbEntity
  8
CENTER
100
AcDbLine
 10
368.1658046064991
 20
143.2100212295291
 30
0.0
 11
528.1658046064991
 21
143.2100212295291
 31
0.0
  0
LINE
  5
825
330
2
100
AcDbEntity
  8
0
100
AcDbLine
 10
440.665591606499
 20
235.5241040883589
 30
0.0
 11
440.665591606499
 21
213.2100212295292
 31
0.0
  0
LINE
  5
826
330
2
100
AcDbEntity
  8
0
100
AcDbLine
 10
449.6655916064991
 20
235.5241490221317
 30
0.0
 11
449.6655916064991
 21
213.2100212295292
 31
0.0
  0
LINE
  5
827
330
2
100
AcDbEntity
  8
0
100
AcDbLine
 10
444.6660176064991
 20
235.1028993850487
 30
0.0
 11
444.6660176064991
 21
213.2100212295292
 31
0.0
  0
LINE
  5
828
330
2
100
AcDbEntity
  8
0
100
AcDbLine
 10
442.6660176064991
 20
235.9450400840834
 30
0.0
 11
442.6660176064991
 21
213.2100212295292
 31
0.0
  0
LINE
  5
829
330
2
100
AcDbEntity
  8
0
100
AcDbLine
 10
446.6655916064991
 20
235.5241026776175
 30
0.0
 11
446.6655916064991
 21
213.2100212295292
 31
0.0
  0
LINE
  5
82A
330
2
100
AcDbEntity
  8
0
100
AcDbLine
 10
455.6655916064991
 20
235.5241490221317
 30
0.0
 11
455.6655916064991
 21
213.2100212295292
 31
0.0
  0
LINE
  5
82B
330
2
100
AcDbEntity
  8
CENTER
100
AcDbLine
 10
412.0927075173179
 20
162.2100212295292
 30
0.0
 11
484.2389016956802
 21
162.2100212295292
 31
0.0
  0
LINE
  5
82C
330
2
100
AcDbEntity
  8
0
100
AcDbLine
 10
490.366793606499
 20
208.2100212295292
 30
0.0
 11
405.964785606499
 21
208.2100212295292
 31
0.0
  0
ARC
  5
82D
330
2
100
AcDbEntity
  8
0
100
AcDbCircle
 10
448.1658046064991
 20
143.2100212295292
 30
0.0
 40
66.0
100
AcDbArc
 50
137.4127499999998
 51
147.6794889999996
  0
ARC
  5
82E
330
2
100
AcDbEntity
  8
0
100
AcDbCircle
 10
388.1658046064991
 20
181.1705272295292
 30
0.0
 40
5.0
100
AcDbArc
 50
180.0
 51
327.6794740000007
  0
ARC
  5
82F
330
2
100
AcDbEntity
  8
0
100
AcDbCircle
 10
392.9021026064989
 20
192.9757642295292
 30
0.0
 40
3.0
100
AcDbArc
 50
55.45162599999934
 51
135.0
  0
LINE
  5
830
330
2
100
AcDbEntity
  8
0
100
AcDbLine
 10
402.429262606499
 20
206.7455552295291
 30
0.0
 11
384.6302516064989
 21
188.9465672295292
 31
0.0
  0
CIRCLE
  5
831
330
2
100
AcDbEntity
  8
0
100
AcDbCircle
 10
387.1658046064991
 20
204.2100212295292
 30
0.0
 40
4.299999999999999
  0
ARC
  5
832
330
2
100
AcDbEntity
  8
0
100
AcDbCircle
 10
387.1658046064991
 20
204.2100212295292
 30
0.0
 40
9.0
100
AcDbArc
 50
90.0
 51
180.0
  0
ARC
  5
833
330
2
100
AcDbEntity
  8
0
100
AcDbCircle
 10
388.1658046064991
 20
185.4110332295292
 30
0.0
 40
5.0
100
AcDbArc
 50
135.0
 51
180.0
  0
ARC
  5
834
330
2
100
AcDbEntity
  8
0
100
AcDbCircle
 10
388.1658046064991
 20
185.4110332295292
 30
0.0
 40
5.0
100
AcDbArc
 50
135.0
 51
180.0
  0
ARC
  5
835
330
2
100
AcDbEntity
  8
0
100
AcDbCircle
 10
410.205294606499
 20
203.2100212295292
 30
0.0
 40
5.0
100
AcDbArc
 50
302.3205179999991
 51
90.0
  0
ARC
  5
836
330
2
100
AcDbEntity
  8
0
100
AcDbCircle
 10
448.1658046064991
 20
143.2100212295292
 30
0.0
 40
66.0
100
AcDbArc
 50
122.3205179999984
 51
126.5731810000007
  0
ARC
  5
837
330
2
100
AcDbEntity
  8
0
100
AcDbCircle
 10
448.1658046064991
 20
143.2100212295292
 30
0.0
 40
66.0
100
AcDbArc
 50
122.3205179999984
 51
127.1657790000002
  0
LINE
  5
838
330
2
100
AcDbEntity
  8
0
100
AcDbLine
 10
396.1265596064989
 20
194.3979792295291
 30
0.0
 11
398.1257046064989
 21
193.0215142295292
 31
0.0
  0
LINE
  5
839
330
2
100
AcDbEntity
  8
0
100
AcDbLine
 10
394.6033966064991
 20
195.4467082295291
 30
0.0
 11
399.0660126064991
 21
192.3740992295292
 31
0.0
  0
ARC
  5
83A
330
2
100
AcDbEntity
  8
0
100
AcDbCircle
 10
397.3646876064991
 20
189.9031552295292
 30
0.0
 40
3.0
100
AcDbArc
 50
317.412754000001
 51
55.45162599999934
  0
LINE
  5
83B
330
2
100
AcDbEntity
  8
0
100
AcDbLine
 10
399.829226606499
 20
199.1332652295292
 30
0.0
 11
404.1879606064991
 21
196.1321822295291
 31
0.0
  0
LINE
  5
83C
330
2
100
AcDbEntity
  8
0
100
AcDbLine
 10
401.6562526064991
 20
197.8753122295292
 30
0.0
 11
404.7799706064989
 21
195.7245512295292
 31
0.0
  0
ARC
  5
83D
330
2
100
AcDbEntity
  8
0
100
AcDbCircle
 10
401.5305506064991
 20
201.6042052295292
 30
0.0
 40
3.0
100
AcDbArc
 50
135.0
 51
235.4516140000006
  0
ARC
  5
83E
330
2
100
AcDbEntity
  8
0
100
AcDbCircle
 10
406.4812956064989
 20
198.1954952295292
 30
0.0
 40
3.0
100
AcDbArc
 50
235.4516140000006
 51
307.1657709999988
  0
ARC
  5
83F
330
2
100
AcDbEntity
  8
0
100
AcDbCircle
 10
405.964785606499
 20
203.2100212295292
 30
0.0
 40
5.0
100
AcDbArc
 50
90.0
 51
135.0
  0
ARC
  5
840
330
2
100
AcDbEntity
  8
0
100
AcDbCircle
 10
405.964785606499
 20
203.2100212295292
 30
0.0
 40
5.0
100
AcDbArc
 50
90.0
 51
135.0
  0
CIRCLE
  5
841
330
2
100
AcDbEntity
  8
0
100
AcDbCircle
 10
448.1658046064991
 20
162.2100212295292
 30
0.0
 40
20.0
  0
ARC
  5
842
330
2
100
AcDbEntity
  8
0
100
AcDbCircle
 10
448.1658046064991
 20
162.2100212295292
 30
0.0
 40
11.0
100
AcDbArc
 50
195.8265990000011
 51
164.1734009999988
  0
LINE
  5
843
330
2
100
AcDbEntity
  8
0
100
AcDbLine
 10
434.6658046064991
 20
159.2100212295292
 30
0.0
 11
440.6658046064991
 21
159.2100212295292
 31
0.0
  0
LINE
  5
844
330
2
100
AcDbEntity
  8
0
100
AcDbLine
 10
434.6658046064991
 20
165.2100212295292
 30
0.0
 11
440.6658046064991
 21
165.2100212295292
 31
0.0
  0
LINE
  5
845
330
2
100
AcDbEntity
  8
0
100
AcDbLine
 10
434.6658046064991
 20
165.2100212295292
 30
0.0
 11
434.6658046064991
 21
159.2100212295292
 31
0.0
  0
LINE
  5
846
330
2
100
AcDbEntity
  8
0
100
AcDbLine
 10
440.6658046064991
 20
165.2100212295292
 30
0.0
 11
440.6658046064991
 21
159.2100212295292
 31
0.0
  0
ARC
  5
847
330
2
100
AcDbEntity
  8
0
100
AcDbCircle
 10
486.1262846064991
 20
203.2100212295292
 30
0.0
 40
5.0
100
AcDbArc
 50
90.0
 51
237.6794890000004
  0
ARC
  5
848
330
2
100
AcDbEntity
  8
0
100
AcDbCircle
 10
448.1658046064991
 20
143.2100212295292
 30
0.0
 40
66.0
100
AcDbArc
 50
52.834225
 51
57.67948200000089
  0
ARC
  5
849
330
2
100
AcDbEntity
  8
0
100
AcDbCircle
 10
489.8502836064991
 20
198.1954952295292
 30
0.0
 40
3.0
100
AcDbArc
 50
232.8342209999997
 51
304.5483779999998
  0
LINE
  5
84A
330
2
100
AcDbEntity
  8
HOJO
100
AcDbLine
 10
442.5368836064991
 20
235.999414582598
 30
0.0
 11
444.7944826064992
 21
235.048806582598
 31
0.0
  0
ARC
  5
84B
330
2
100
AcDbEntity
  8
HOJO
100
AcDbCircle
 10
441.915591606499
 20
234.524102582598
 30
0.0
 40
1.600781999999999
100
AcDbArc
 50
67.16467299999867
 51
141.3401949999986
  0
ARC
  5
84C
330
2
100
AcDbEntity
  8
HOJO
100
AcDbCircle
 10
451.4155923978115
 20
236.5241021609966
 30
0.0
 40
1.600781
100
AcDbArc
 50
247.1647030000001
 51
321.3401944016234
  0
ARC
  5
84D
330
2
100
AcDbEntity
  8
HOJO
100
AcDbCircle
 10
445.4155916064991
 20
236.524102582598
 30
0.0
 40
1.600781
100
AcDbArc
 50
247.1647030000001
 51
321.3401944016234
  0
LINE
  5
84E
330
2
100
AcDbEntity
  8
HOJO
100
AcDbLine
 10
449.6655916064991
 20
235.5241490221317
 30
0.0
 11
450.7944833978116
 21
235.0488061609965
 31
0.0
  0
LINE
  5
84F
330
2
100
AcDbEntity
  8
HOJO
100
AcDbLine
 10
454.5368843978116
 20
235.9994141609965
 30
0.0
 11
455.6655916064991
 21
235.5241490221317
 31
0.0
  0
ARC
  5
850
330
2
100
AcDbEntity
  8
HOJO
100
AcDbCircle
 10
453.9155923978115
 20
234.5241021609965
 30
0.0
 40
1.600781999999999
100
AcDbArc
 50
67.16467299999867
 51
141.3401949999986
  0
ARC
  5
851
330
2
100
AcDbEntity
  8
0
100
AcDbCircle
 10
448.1658046064991
 20
143.2100212295292
 30
0.0
 40
66.0
100
AcDbArc
 50
32.32051799999893
 51
42.58724599999897
  0
ARC
  5
852
330
2
100
AcDbEntity
  8
0
100
AcDbCircle
 10
508.1658046064991
 20
181.1705272295292
 30
0.0
 40
5.0
100
AcDbArc
 50
212.3205110000003
 51
0.0
  0
CIRCLE
  5
853
330
2
100
AcDbEntity
  8
0
100
AcDbCircle
 10
509.1658046064991
 20
204.2100212295292
 30
0.0
 40
4.299999999999999
  0
ARC
  5
854
330
2
100
AcDbEntity
  8
0
100
AcDbCircle
 10
509.1658046064991
 20
204.2100212295292
 30
0.0
 40
9.0
100
AcDbArc
 50
0.0
 51
90.0
  0
LINE
  5
855
330
2
100
AcDbEntity
  8
0
100
AcDbLine
 10
511.7013276064989
 20
188.9465672295292
 30
0.0
 11
493.9023466064989
 21
206.7455552295291
 31
0.0
  0
LINE
  5
856
330
2
100
AcDbEntity
  8
0
100
AcDbLine
 10
501.7281826064992
 20
195.4467082295291
 30
0.0
 11
497.2655666064992
 21
192.3740992295292
 31
0.0
  0
ARC
  5
857
330
2
100
AcDbEntity
  8
0
100
AcDbCircle
 10
498.9668916064991
 20
189.9031552295292
 30
0.0
 40
3.0
100
AcDbArc
 50
124.5483699999988
 51
222.5872500000001
  0
ARC
  5
858
330
2
100
AcDbEntity
  8
0
100
AcDbCircle
 10
494.8010586064992
 20
201.6042052295292
 30
0.0
 40
3.0
100
AcDbArc
 50
304.5483779999998
 51
45.0
  0
ARC
  5
859
330
2
100
AcDbEntity
  8
0
100
AcDbCircle
 10
503.4294766064991
 20
192.9757642295292
 30
0.0
 40
3.0
100
AcDbArc
 50
45.0
 51
124.5483699999988
  0
ARC
  5
85A
330
2
100
AcDbEntity
  8
0
100
AcDbCircle
 10
508.1658046064991
 20
185.4110332295292
 30
0.0
 40
5.0
100
AcDbArc
 50
0.0
 51
45.0
  0
ARC
  5
85B
330
2
100
AcDbEntity
  8
HOJO
100
AcDbCircle
 10
500.247623604382
 20
233.9183794670934
 30
0.0
 40
1.600781999999999
100
AcDbArc
 50
8.659805000000465
 51
82.83532700000238
  0
LINE
  5
85C
330
2
100
AcDbEntity
  8
HOJO
100
AcDbLine
 10
500.447224949214
 20
235.5066831376014
 30
0.0
 11
500.3086638421668
 21
235.5241026776175
 31
0.0
  0
TEXT
  5
85D
330
2
100
AcDbEntity
  8
TITLE
100
AcDbText
 10
34.42984198454201
 20
26.30902197649288
 30
0.0
 40
9.0
  1
VGKD22-80～200N100
100
AcDbText
  0
MTEXT
  5
86F
330
2
100
AcDbEntity
  8
TITLE
100
AcDbMText
 10
187.0865553522703
 20
41.90299162170893
 30
0.0
 40
4.714
 41
19.46292749999999
 71
     1
 72
     5
  1
L1\PL2\PL4
1001
ACAD
1000
MTEXTBEGIN
1070
    73
1070
     1
1070
    44
1040
1.0
1070
    74
1070
     0
1000
MTEXTEND
  0
LINE
  5
8B1
330
2
100
AcDbEntity
  8
0
100
AcDbLine
 10
138.1242839376055
 20
451.2513187632097
 30
0.0
 11
138.1244059376056
 21
336.2512577632096
 31
0.0
  0
LINE
  5
8B2
330
2
100
AcDbEntity
  8
0
100
AcDbLine
 10
151.6244669376056
 20
459.7512577632096
 30
0.0
 11
151.6244669376056
 21
327.7511967632095
 31
0.0
  0
LINE
  5
8B3
330
2
100
AcDbEntity
  8
0
100
AcDbLine
 10
145.6241919376055
 20
329.7511967632095
 30
0.0
 11
145.6241919376055
 21
457.7513187632097
 31
0.0
  0
LINE
  5
8B4
330
2
100
AcDbEntity
  8
0
100
AcDbLine
 10
221.6244669376056
 20
324.2512577632096
 30
0.0
 11
221.6244669376056
 21
463.2512577632097
 31
0.0
  0
LINE
  5
8B5
330
2
100
AcDbEntity
  8
0
100
AcDbLine
 10
209.6244819376056
 20
324.6531437632096
 30
0.0
 11
209.6244519376056
 21
462.8493717632096
 31
0.0
  0
LINE
  5
8B6
330
2
100
AcDbEntity
  8
CENTER
100
AcDbLine
 10
22.21929025537042
 20
393.7512577632096
 30
0.0
 11
276.6243759376056
 21
393.7512577632096
 31
0.0
  0
LINE
  5
8B7
330
2
100
AcDbEntity
  8
0
100
AcDbLine
 10
209.3788459376056
 20
326.7431397632095
 30
0.0
 11
152.1243909376056
 21
327.7424687632095
 31
0.0
  0
LINE
  5
8B8
330
2
100
AcDbEntity
  8
CENTER
100
AcDbLine
 10
226.6244669376056
 20
332.7512577632096
 30
0.0
 11
204.6244622489421
 21
332.7512577632097
 31
0.0
  0
ARC
  5
8B9
330
2
100
AcDbEntity
  8
0
100
AcDbCircle
 10
147.6241919376055
 20
329.7511967632095
 30
0.0
 40
2.0
100
AcDbArc
 50
180.0
 51
270.0
  0
LINE
  5
8BA
330
2
100
AcDbEntity
  8
0
100
AcDbLine
 10
151.6244669376056
 20
328.2511967632095
 30
0.0
 11
152.1243909376056
 21
327.7424687632095
 31
0.0
  0
LINE
  5
8BB
330
2
100
AcDbEntity
  8
0
100
AcDbLine
 10
147.6241919376055
 20
327.7511967632095
 30
0.0
 11
151.6244669376056
 21
327.7511967632095
 31
0.0
  0
LINE
  5
8BC
330
2
100
AcDbEntity
  8
0
100
AcDbLine
 10
151.6278999376056
 20
327.7511967632095
 30
0.0
 11
151.6244669376056
 21
327.7512577632096
 31
0.0
  0
LINE
  5
8BD
330
2
100
AcDbEntity
  8
0
100
AcDbLine
 10
138.1244059376056
 20
336.2512877632096
 30
0.0
 11
142.6241919376055
 21
336.2512877632096
 31
0.0
  0
ARC
  5
8BE
330
2
100
AcDbEntity
  8
0
100
AcDbCircle
 10
142.6241919376055
 20
333.2512877632097
 30
0.0
 40
3.0
100
AcDbArc
 50
0.0
 51
90.0
  0
LINE
  5
8BF
330
2
100
AcDbEntity
  8
0
100
AcDbLine
 10
210.1070259376056
 20
324.1534487632096
 30
0.0
 11
221.1247719376056
 21
323.7687137632095
 31
0.0
  0
LINE
  5
8C0
330
2
100
AcDbEntity
  8
HIDS
  6
SEKKEI_H
100
AcDbLine
 10
221.6244669376056
 20
328.4512387632096
 30
0.0
 11
209.6317609376057
 21
328.4512387632096
 31
0.0
  0
ARC
  5
8C1
330
2
100
AcDbEntity
  8
0
100
AcDbCircle
 10
210.1244819376056
 20
324.6531437632096
 30
0.0
 40
0.5
100
AcDbArc
 50
180.0
 51
267.9999999999996
  0
ARC
  5
8C2
330
2
100
AcDbEntity
  8
0
100
AcDbCircle
 10
209.3744819376056
 20
326.4932007632096
 30
0.0
 40
0.25
100
AcDbArc
 50
0.0
 51
89.00000000000151
  0
LINE
  5
8C3
330
2
100
AcDbEntity
  8
0
100
AcDbLine
 10
221.6244669376056
 20
324.2512577632096
 30
0.0
 11
221.1247719376056
 21
323.7687137632095
 31
0.0
  0
LINE
  5
8C4
330
2
100
AcDbEntity
  8
HIDS
  6
SEKKEI_H
100
AcDbLine
 10
221.6244669376056
 20
337.0512447632096
 30
0.0
 11
209.6317609376057
 21
337.0512447632096
 31
0.0
  0
LINE
  5
8C5
330
2
100
AcDbEntity
  8
0
100
AcDbLine
 10
268.6243759376055
 20
404.7512577632096
 30
0.0
 11
268.6243759376055
 21
380.2512577632096
 31
0.0
  0
LINE
  5
8C6
330
2
100
AcDbEntity
  8
0
100
AcDbLine
 10
228.6245739376056
 20
405.7512577632096
 30
0.0
 11
228.6245739376056
 21
381.7512577632096
 31
0.0
  0
LINE
  5
8C7
330
2
100
AcDbEntity
  8
0
100
AcDbLine
 10
226.6244669376056
 20
364.2512577632096
 30
0.0
 11
226.6244669376056
 21
423.2512577632096
 31
0.0
  0
LINE
  5
8C8
330
2
100
AcDbEntity
  8
0
100
AcDbLine
 10
233.6245589376056
 20
380.2512577632096
 30
0.0
 11
268.6243759376055
 21
380.2512577632096
 31
0.0
  0
LINE
  5
8C9
330
2
100
AcDbEntity
  8
0
100
AcDbLine
 10
233.6245589376056
 20
383.1682497632097
 30
0.0
 11
268.6243759376055
 21
383.1682497632097
 31
0.0
  0
LINE
  5
8CA
330
2
100
AcDbEntity
  8
0
100
AcDbLine
 10
226.1244669376056
 20
363.7512577632096
 30
0.0
 11
221.6244669376056
 21
363.7512577632096
 31
0.0
  0
LINE
  5
8CB
330
2
100
AcDbEntity
  8
0
100
AcDbLine
 10
226.6244669376056
 20
364.2512577632096
 30
0.0
 11
226.1244669376056
 21
363.7512577632096
 31
0.0
  0
LINE
  5
8CC
330
2
100
AcDbEntity
  8
0
100
AcDbLine
 10
228.6243599376056
 20
382.7512577632096
 30
0.0
 11
233.6245589376056
 21
382.7512577632096
 31
0.0
  0
LINE
  5
8CD
330
2
100
AcDbEntity
  8
0
100
AcDbLine
 10
226.6245739376056
 20
381.7512577632096
 30
0.0
 11
228.6245739376056
 21
381.7512577632096
 31
0.0
  0
LINE
  5
8CE
330
2
100
AcDbEntity
  8
0
100
AcDbLine
 10
233.6245589376056
 20
383.1682497632097
 30
0.0
 11
233.6245589376056
 21
380.2512577632096
 31
0.0
  0
LINE
  5
8CF
330
2
100
AcDbEntity
  8
0
100
AcDbLine
 10
228.6245739376056
 20
404.7512577632096
 30
0.0
 11
268.6243759376055
 21
404.7512577632096
 31
0.0
  0
LINE
  5
8D0
330
2
100
AcDbEntity
  8
0
100
AcDbLine
 10
226.6243599376056
 20
405.7512577632096
 30
0.0
 11
228.6245739376056
 21
405.7512577632096
 31
0.0
  0
LINE
  5
8D1
330
2
100
AcDbEntity
  8
0
100
AcDbLine
 10
226.1244669376056
 20
423.7512577632096
 30
0.0
 11
221.6244669376056
 21
423.7512577632096
 31
0.0
  0
LINE
  5
8D2
330
2
100
AcDbEntity
  8
0
100
AcDbLine
 10
226.1244669376056
 20
423.7512577632096
 30
0.0
 11
226.6244669376056
 21
423.2512577632096
 31
0.0
  0
LINE
  5
8D3
330
2
100
AcDbEntity
  8
0
100
AcDbLine
 10
209.3788159376056
 20
460.7593447632097
 30
0.0
 11
152.1243909376056
 21
459.7599857632096
 31
0.0
  0
LINE
  5
8D4
330
2
100
AcDbEntity
  8
CENTER
100
AcDbLine
 10
226.6244669376056
 20
454.7512577632097
 30
0.0
 11
204.6244525794471
 21
454.7512577632097
 31
0.0
  0
LINE
  5
8D5
330
2
100
AcDbEntity
  8
0
100
AcDbLine
 10
138.1244059376056
 20
451.2512267632097
 30
0.0
 11
142.6241919376055
 21
451.2512267632097
 31
0.0
  0
LINE
  5
8D6
330
2
100
AcDbEntity
  8
0
100
AcDbLine
 10
151.6244669376056
 20
459.2512577632096
 30
0.0
 11
152.1243909376056
 21
459.7599857632096
 31
0.0
  0
ARC
  5
8D7
330
2
100
AcDbEntity
  8
0
100
AcDbCircle
 10
147.6241919376055
 20
457.7513187632097
 30
0.0
 40
2.0
100
AcDbArc
 50
90.0
 51
180.0
  0
ARC
  5
8D8
330
2
100
AcDbEntity
  8
0
100
AcDbCircle
 10
142.6241919376055
 20
454.2512267632097
 30
0.0
 40
3.0
100
AcDbArc
 50
270.0
 51
0.0
  0
LINE
  5
8D9
330
2
100
AcDbEntity
  8
0
100
AcDbLine
 10
147.6241919376055
 20
459.7513187632097
 30
0.0
 11
151.6244669376056
 21
459.7513187632097
 31
0.0
  0
LINE
  5
8DA
330
2
100
AcDbEntity
  8
0
100
AcDbLine
 10
151.6278999376056
 20
459.7513187632097
 30
0.0
 11
151.6244669376056
 21
459.7512577632096
 31
0.0
  0
LINE
  5
8DB
330
2
100
AcDbEntity
  8
HIDS
  6
SEKKEI_H
100
AcDbLine
 10
221.6244669376056
 20
459.0512447632096
 30
0.0
 11
209.6317609376057
 21
459.0512447632096
 31
0.0
  0
LINE
  5
8DC
330
2
100
AcDbEntity
  8
HIDS
  6
SEKKEI_H
100
AcDbLine
 10
221.6244669376056
 20
450.4512387632095
 30
0.0
 11
209.6317609376057
 21
450.4512387632095
 31
0.0
  0
LINE
  5
8DD
330
2
100
AcDbEntity
  8
0
100
AcDbLine
 10
210.1070109376056
 20
463.3490657632096
 30
0.0
 11
221.1247719376056
 21
463.7338017632097
 31
0.0
  0
ARC
  5
8DE
330
2
100
AcDbEntity
  8
0
100
AcDbCircle
 10
210.1244519376056
 20
462.8493717632096
 30
0.0
 40
0.5
100
AcDbArc
 50
91.99999199999785
 51
180.0
  0
ARC
  5
8DF
330
2
100
AcDbEntity
  8
0
100
AcDbCircle
 10
209.3744519376055
 20
461.0093137632096
 30
0.0
 40
0.25
100
AcDbArc
 50
270.9999919999999
 51
0.0
  0
LINE
  5
8E0
330
2
100
AcDbEntity
  8
0
100
AcDbLine
 10
221.1247719376056
 20
463.7338017632097
 30
0.0
 11
221.6244669376056
 21
463.2512577632097
 31
0.0
  0
LINE
  5
A60
330
2
100
AcDbEntity
  8
0
100
AcDbLine
 10
32.61622993972264
 20
430.8976443825264
 30
0.0
 11
32.61622993972264
 21
356.6047491438929
 31
0.0
  0
LINE
  5
A61
330
2
100
AcDbEntity
  8
0
100
AcDbLine
 10
76.12434493763817
 20
351.1503337214878
 30
0.0
 11
76.12434493763839
 21
374.8852323594249
 31
0.0
  0
LINE
  5
A62
330
2
100
AcDbEntity
  8
0
100
AcDbLine
 10
75.62434493763794
 20
434.7512957632097
 30
0.0
 11
75.62434493763794
 21
352.7512577632096
 31
0.0
  0
LINE
  5
A63
330
2
100
AcDbEntity
  8
0
100
AcDbLine
 10
129.1243449376379
 20
338.0012577632096
 30
0.0
 11
129.1243449376379
 21
449.5012577632096
 31
0.0
  0
LINE
  5
A65
330
2
100
AcDbEntity
  8
0
100
AcDbLine
 10
75.61622993972264
 20
353.2555601971021
 30
0.0
 11
35.59005033322523
 21
353.6048633746995
 31
0.0
  0
LINE
  5
A66
330
2
100
AcDbEntity
  8
0
100
AcDbLine
 10
75.63248293552158
 20
183.705667614148
 30
0.0
 11
35.59818833111046
 21
183.3562936180391
 31
0.0
  0
LINE
  5
A68
330
2
100
AcDbEntity
  8
0
100
AcDbLine
 10
75.62436793760582
 20
102.7143236634216
 30
0.0
 11
35.59818833110819
 21
103.0636268410191
 31
0.0
  0
LINE
  5
A69
330
2
100
AcDbEntity
  8
0
100
AcDbLine
 10
32.6243679376056
 20
180.3564078488459
 30
0.0
 11
32.6243679376056
 21
106.0635126102124
 31
0.0
  0
ARC
  5
A6A
330
2
100
AcDbEntity
  8
0
100
AcDbCircle
 10
35.62436793760355
 20
106.0635126102116
 30
0.0
 40
3.0
100
AcDbArc
 50
179.9999999999967
 51
269.4999999999954
  0
LINE
  5
A6B
330
2
100
AcDbEntity
  8
0
100
AcDbLine
 10
64.62436793760559
 20
183.6096012499357
 30
0.0
 11
64.62436793760559
 21
223.8283833056909
 31
0.0
  0
LINE
  5
A6C
330
2
100
AcDbEntity
  8
0
100
AcDbLine
 10
62.6243679376056
 20
183.5921475143542
 30
0.0
 11
62.6243679376056
 21
223.414116773765
 31
0.0
  0
LINE
  5
A6D
330
2
100
AcDbEntity
  8
0
100
AcDbLine
 10
63.6243679376056
 20
183.600874382145
 30
0.0
 11
63.6243679376056
 21
223.9952878078069
 31
0.0
  0
ARC
  5
A6E
330
2
100
AcDbEntity
  8
0
100
AcDbCircle
 10
35.62436793760559
 20
180.3564078488466
 30
0.0
 40
3.0
100
AcDbArc
 50
90.49999999999155
 51
180.0
  0
LINE
  5
A6F
330
2
100
AcDbEntity
  8
0
100
AcDbLine
 10
57.6243679376056
 20
241.1763309284791
 30
0.0
 11
49.55099982159151
 21
241.1763309284791
 31
0.0
  0
LINE
  5
A70
330
2
100
AcDbEntity
  8
0
100
AcDbLine
 10
57.6243679376056
 20
242.1763309284791
 30
0.0
 11
49.58172142468936
 21
242.8799713231055
 31
0.0
  0
LINE
  5
A71
330
2
100
AcDbEntity
  8
0
100
AcDbLine
 10
57.6243679376056
 20
242.1763309284791
 30
0.0
 11
49.55099982159151
 21
242.1763309284791
 31
0.0
  0
LINE
  5
A72
330
2
100
AcDbEntity
  8
0
100
AcDbLine
 10
57.66970719583094
 20
243.1761840949151
 30
0.0
 11
49.66887716743724
 21
243.8761660211973
 31
0.0
  0
LINE
  5
A73
330
2
100
AcDbEntity
  8
0
100
AcDbLine
 10
39.68949903797022
 20
244.5484845090555
 30
0.0
 11
49.65144601888766
 21
243.676927081579
 31
0.0
  0
LINE
  5
A74
330
2
100
AcDbEntity
  8
0
100
AcDbLine
 10
49.55099982159151
 20
241.6763309284791
 30
0.0
 11
39.55099982159151
 21
241.6763309284791
 31
0.0
  0
LINE
  5
A75
330
2
100
AcDbEntity
  8
0
100
AcDbLine
 10
49.55099982159151
 20
241.9763309284791
 30
0.0
 11
39.55099982159151
 21
241.9763309284791
 31
0.0
  0
LINE
  5
A76
330
2
100
AcDbEntity
  8
0
100
AcDbLine
 10
49.55099982159151
 20
241.376330928479
 30
0.0
 11
39.55099982159151
 21
241.376330928479
 31
0.0
  0
LINE
  5
A77
330
2
100
AcDbEntity
  8
0
100
AcDbLine
 10
39.66335231514597
 20
244.2496260996281
 30
0.0
 11
49.62529929606319
 21
243.3780686721514
 31
0.0
  0
LINE
  5
A78
330
2
100
AcDbEntity
  8
0
100
AcDbLine
 10
39.63720559232149
 20
243.9507676902005
 30
0.0
 11
49.59915257323894
 21
243.079210262724
 31
0.0
  0
LINE
  5
A79
330
2
100
AcDbEntity
  8
0
100
AcDbLine
 10
49.55099982159151
 20
241.176330928479
 30
0.0
 11
49.55099982159151
 21
242.1763309284791
 31
0.0
  0
LINE
  5
A7A
330
2
100
AcDbEntity
  8
0
100
AcDbLine
 10
49.58172142468936
 20
242.8799713231057
 30
0.0
 11
49.66887716743724
 21
243.8761660211973
 31
0.0
  0
LINE
  5
A7B
330
2
100
AcDbEntity
  8
0
100
AcDbLine
 10
64.62436793760559
 20
225.8283833056908
 30
0.0
 11
64.62436793760559
 21
236.1763309284791
 31
0.0
  0
LINE
  5
A7C
330
2
100
AcDbEntity
  8
0
100
AcDbLine
 10
63.6243679376056
 20
225.9952878078067
 30
0.0
 11
63.6243679376056
 21
236.1763309284791
 31
0.0
  0
LINE
  5
A7D
330
2
100
AcDbEntity
  8
0
100
AcDbLine
 10
62.6243679376056
 20
225.4141167737649
 30
0.0
 11
62.6243679376056
 21
236.1763309284791
 31
0.0
  0
ARC
  5
A7E
330
2
100
AcDbEntity
  8
HOJO
100
AcDbCircle
 10
63.87439793760575
 20
222.4141527691008
 30
0.0
 40
1.600781999999999
100
AcDbArc
 50
62.06288054473443
 51
141.341868564176
  0
ARC
  5
A7F
330
2
100
AcDbEntity
  8
HOJO
100
AcDbCircle
 10
63.87439793760575
 20
224.4141527691007
 30
0.0
 40
1.600781999999999
100
AcDbArc
 50
62.06288054473443
 51
141.3418685642152
  0
LINE
  5
A80
330
2
100
AcDbEntity
  8
HOJO
100
AcDbLine
 10
64.49568993760578
 20
225.8894647691007
 30
0.0
 11
64.62436793760559
 21
225.8352822786656
 31
0.0
  0
LINE
  5
A81
330
2
100
AcDbEntity
  8
HOJO
100
AcDbLine
 10
64.49568993760578
 20
223.8894647691008
 30
0.0
 11
64.62436793760559
 21
223.8352822786656
 31
0.0
  0
ARC
  5
A82
330
2
100
AcDbEntity
  8
0
100
AcDbCircle
 10
57.6243679376056
 20
236.1763309284791
 30
0.0
 40
6.0
100
AcDbArc
 50
0.0
 51
90.0
  0
ARC
  5
A83
330
2
100
AcDbEntity
  8
0
100
AcDbCircle
 10
57.6243679376056
 20
236.1763309284791
 30
0.0
 40
7.0
100
AcDbArc
 50
0.0
 51
89.62889052766749
  0
ARC
  5
A84
330
2
100
AcDbEntity
  8
0
100
AcDbCircle
 10
57.6243679376056
 20
236.1763309284791
 30
0.0
 40
5.0
100
AcDbArc
 50
0.0
 51
90.0
  0
ARC
  5
A85
330
2
100
AcDbEntity
  8
0
100
AcDbCircle
 10
35.61622993972036
 20
356.604749143892
 30
0.0
 40
3.0
100
AcDbArc
 50
179.9999999999967
 51
269.4999999999954
  0
LINE
  5
A86
330
2
100
AcDbEntity
  8
0
100
AcDbLine
 10
76.12435293760575
 20
185.3193622295291
 30
0.0
 11
76.12435293760575
 21
101.1004592295291
 31
0.0
  0
LINE
  5
A87
330
2
100
AcDbEntity
  8
0
100
AcDbLine
 10
75.63248293552158
 20
190.7450600100447
 30
0.0
 11
75.63248293552044
 21
102.0378735642524
 31
0.0
  0
LINE
  5
A88
330
2
100
AcDbEntity
  8
0
100
AcDbLine
 10
129.1243719376055
 20
87.09972322952921
 30
0.0
 11
129.1243719376055
 21
198.8287992295292
 31
0.0
  0
LINE
  5
A8A
330
2
100
AcDbEntity
  8
0
100
AcDbLine
 10
128.1417749376056
 20
98.22706122952922
 30
0.0
 11
78.08945293760564
 21
99.10076022952921
 31
0.0
  0
LINE
  5
A8B
330
2
100
AcDbEntity
  8
0
100
AcDbLine
 10
76.12435293760575
 20
101.7099602295292
 30
0.0
 11
75.62436793760582
 21
102.0432835628623
 31
0.0
  0
LINE
  5
A8C
330
2
100
AcDbEntity
  8
0
100
AcDbLine
 10
76.12435293760575
 20
101.7099602295292
 30
0.0
 11
75.62435293760575
 21
102.0432622295291
 31
0.0
  0
ARC
  5
A8D
330
2
100
AcDbEntity
  8
0
100
AcDbCircle
 10
78.12435293760575
 20
101.1004592295291
 30
0.0
 40
2.0
100
AcDbArc
 50
180.0
 51
268.9999999999982
  0
LINE
  5
A8E
330
2
100
AcDbEntity
  8
0
100
AcDbLine
 10
138.1243719376055
 20
85.96002122952922
 30
0.0
 11
130.1068739376056
 21
86.09992122952922
 31
0.0
  0
ARC
  5
A8F
330
2
100
AcDbEntity
  8
0
100
AcDbCircle
 10
130.1243719376055
 20
87.09972322952921
 30
0.0
 40
1.0
100
AcDbArc
 50
180.0
 51
268.9999999999982
  0
ARC
  5
A90
330
2
100
AcDbEntity
  8
0
100
AcDbCircle
 10
128.1243719376055
 20
97.22726022952919
 30
0.0
 40
1.0
100
AcDbArc
 50
0.0
 51
88.99999999999824
  0
LINE
  5
A91
330
2
100
AcDbEntity
  8
0
100
AcDbLine
 10
129.1243719376055
 20
177.9143592295291
 30
0.0
 11
76.12435293760575
 21
176.9892802295292
 31
0.0
  0
LINE
  5
A92
330
2
100
AcDbEntity
  8
0
100
AcDbLine
 10
129.1243719376055
 20
108.5054622295291
 30
0.0
 11
76.12435293760575
 21
109.4305412295292
 31
0.0
  0
LINE
  5
A93
330
2
100
AcDbEntity
  8
CENTER
100
AcDbLine
 10
121.6243719376055
 20
117.7538212295292
 30
0.0
 11
131.6243719376055
 21
117.7538212295292
 31
0.0
  0
LINE
  5
A94
330
2
100
AcDbEntity
  8
0
100
AcDbLine
 10
127.8243729376055
 20
113.1538212295292
 30
0.0
 11
129.1243719376055
 21
113.1538212295292
 31
0.0
  0
LINE
  5
A95
330
2
100
AcDbEntity
  8
0
100
AcDbLine
 10
127.8243729376055
 20
122.3539212295292
 30
0.0
 11
129.1243719376055
 21
122.3539212295292
 31
0.0
  0
ARC
  5
A96
330
2
100
AcDbEntity
  8
0
100
AcDbCircle
 10
132.1243719376056
 20
117.7538212295292
 30
0.0
 40
8.0
100
AcDbArc
 50
147.6076050000002
 51
212.3923949999997
  0
LINE
  5
A97
330
2
100
AcDbEntity
  8
0
100
AcDbLine
 10
127.8243729376055
 20
122.5038212295292
 30
0.0
 11
127.8243729376055
 21
113.0038212295292
 31
0.0
  0
LINE
  5
A98
330
2
100
AcDbEntity
  8
0
100
AcDbLine
 10
127.8243729376055
 20
113.0038212295292
 30
0.0
 11
126.2135709376055
 21
113.0038212295292
 31
0.0
  0
ARC
  5
A99
330
2
100
AcDbEntity
  8
0
100
AcDbCircle
 10
126.2135709376055
 20
114.0038212295292
 30
0.0
 40
1.0
100
AcDbArc
 50
212.3923949999997
 51
270.0
  0
LINE
  5
A9A
330
2
100
AcDbEntity
  8
0
100
AcDbLine
 10
127.8243729376055
 20
122.5038212295292
 30
0.0
 11
126.2135709376055
 21
122.5038212295292
 31
0.0
  0
ARC
  5
A9B
330
2
100
AcDbEntity
  8
0
100
AcDbCircle
 10
126.2135709376055
 20
121.5038212295292
 30
0.0
 40
1.0
100
AcDbArc
 50
90.0
 51
147.6076050000002
  0
LINE
  5
A9C
330
2
100
AcDbEntity
  8
0
100
AcDbLine
 10
161.0835900757598
 20
246.1756704917464
 30
0.0
 11
157.7835900757596
 21
246.1756704917464
 31
0.0
  0
LINE
  5
A9D
330
2
100
AcDbEntity
  8
0
100
AcDbLine
 10
164.6835900757597
 20
246.4256704917464
 30
0.0
 11
153.1835900757597
 21
246.4256704917464
 31
0.0
  0
LINE
  5
A9E
330
2
100
AcDbEntity
  8
0
100
AcDbLine
 10
161.0835900757598
 20
244.1756704917464
 30
0.0
 11
157.7835900757596
 21
244.1756704917464
 31
0.0
  0
LINE
  5
A9F
330
2
100
AcDbEntity
  8
0
100
AcDbLine
 10
161.0835900757598
 20
243.6756704917464
 30
0.0
 11
157.7835900757596
 21
243.6756704917464
 31
0.0
  0
LINE
  5
AA0
330
2
100
AcDbEntity
  8
0
100
AcDbLine
 10
161.0835900757598
 20
241.6756704917464
 30
0.0
 11
157.7835900757596
 21
241.6756704917464
 31
0.0
  0
LINE
  5
AA1
330
2
100
AcDbEntity
  8
0
100
AcDbLine
 10
161.0835900757598
 20
241.1756704917464
 30
0.0
 11
157.7835900757596
 21
241.1756704917464
 31
0.0
  0
LINE
  5
AA2
330
2
100
AcDbEntity
  8
0
100
AcDbLine
 10
161.0835900757598
 20
236.6756704917464
 30
0.0
 11
157.7835900757596
 21
236.6756704917464
 31
0.0
  0
LINE
  5
AA3
330
2
100
AcDbEntity
  8
0
100
AcDbLine
 10
161.0835900757598
 20
236.1756704917464
 30
0.0
 11
157.7835900757596
 21
236.1756704917464
 31
0.0
  0
LINE
  5
AA4
330
2
100
AcDbEntity
  8
0
100
AcDbLine
 10
161.0835900757598
 20
239.1756704917464
 30
0.0
 11
157.7835900757596
 21
239.1756704917464
 31
0.0
  0
LINE
  5
AA5
330
2
100
AcDbEntity
  8
0
100
AcDbLine
 10
161.0835900757598
 20
238.6756704917464
 30
0.0
 11
157.7835900757596
 21
238.6756704917464
 31
0.0
  0
LINE
  5
AA6
330
2
100
AcDbEntity
  8
0
100
AcDbLine
 10
161.0835900757598
 20
234.1756704917464
 30
0.0
 11
157.7835900757596
 21
234.1756704917464
 31
0.0
  0
LINE
  5
AA7
330
2
100
AcDbEntity
  8
0
100
AcDbLine
 10
164.2461050671557
 20
229.8998903478127
 30
0.0
 11
159.2651315766969
 21
229.4641116340744
 31
0.0
  0
LINE
  5
AA8
330
2
100
AcDbEntity
  8
0
100
AcDbLine
 10
164.2766095771172
 20
229.5512222034806
 30
0.0
 11
159.2956360866586
 21
229.1154434897423
 31
0.0
  0
LINE
  5
AA9
330
2
100
AcDbEntity
  8
0
100
AcDbLine
 10
164.354500443877
 20
228.8553628850339
 30
0.0
 11
159.356645106582
 21
228.4181072010781
 31
0.0
  0
LINE
  5
AAA
330
2
100
AcDbEntity
  8
0
100
AcDbLine
 10
164.3071140870789
 20
229.2025540591485
 30
0.0
 11
159.3261405966203
 21
228.7667753454102
 31
0.0
  0
LINE
  5
AAB
330
2
100
AcDbEntity
  8
0
100
AcDbLine
 10
164.215600557194
 20
230.2485584921448
 30
0.0
 11
159.2346270667352
 21
229.8127797784065
 31
0.0
  0
LINE
  5
AAC
330
2
100
AcDbEntity
  8
0
100
AcDbLine
 10
164.3207367502044
 20
225.2405437767781
 30
0.0
 11
159.3207367502044
 21
225.2405437767781
 31
0.0
  0
LINE
  5
AAD
330
2
100
AcDbEntity
  8
0
100
AcDbLine
 10
164.6835900757597
 20
233.9256704917464
 30
0.0
 11
153.1835900757597
 21
233.9256704917464
 31
0.0
  0
LINE
  5
AAE
330
2
100
AcDbEntity
  8
0
100
AcDbLine
 10
164.2766095771172
 20
219.5298653500757
 30
0.0
 11
159.2956360866586
 21
219.965644063814
 31
0.0
  0
LINE
  5
AAF
330
2
100
AcDbEntity
  8
0
100
AcDbLine
 10
164.2461050671557
 20
219.1811972057436
 30
0.0
 11
159.2651315766969
 21
219.6169759194818
 31
0.0
  0
LINE
  5
AB0
330
2
100
AcDbEntity
  8
0
100
AcDbLine
 10
164.215600557194
 20
218.8325290614114
 30
0.0
 11
159.2346270667352
 21
219.2683077751497
 31
0.0
  0
LINE
  5
AB1
330
2
100
AcDbEntity
  8
0
100
AcDbLine
 10
164.3545004438768
 20
220.2257246685224
 30
0.0
 11
159.356645106582
 21
220.6629803524781
 31
0.0
  0
LINE
  5
AB2
330
2
100
AcDbEntity
  8
0
100
AcDbLine
 10
164.3071140870789
 20
219.8785334944078
 30
0.0
 11
159.3261405966203
 21
220.314312208146
 31
0.0
  0
LINE
  5
AB3
330
2
100
AcDbEntity
  8
0
100
AcDbLine
 10
164.3207367502044
 20
224.8905437767781
 30
0.0
 11
159.3207367502044
 21
224.8905437767781
 31
0.0
  0
LINE
  5
AB4
330
2
100
AcDbEntity
  8
0
100
AcDbLine
 10
164.3207367502044
 20
224.5405437767782
 30
0.0
 11
159.3207367502044
 21
224.5405437767782
 31
0.0
  0
LINE
  5
AB5
330
2
100
AcDbEntity
  8
0
100
AcDbLine
 10
164.3207367502044
 20
223.8405437767781
 30
0.0
 11
159.3207367502044
 21
223.8405437767781
 31
0.0
  0
LINE
  5
AB6
330
2
100
AcDbEntity
  8
0
100
AcDbLine
 10
164.3207367502044
 20
224.1905437767782
 30
0.0
 11
159.3207367502044
 21
224.1905437767782
 31
0.0
  0
ARC
  5
AB7
330
2
100
AcDbEntity
  8
0
100
AcDbCircle
 10
129.430092312955
 20
267.5405437767782
 30
0.0
 40
40.0
100
AcDbArc
 50
250.5608481874013
 51
270.0
  0
ARC
  5
AB8
330
2
100
AcDbEntity
  8
0
100
AcDbCircle
 10
129.430092312955
 20
267.5405437767782
 30
0.0
 40
44.0
100
AcDbArc
 50
250.5608481874013
 51
270.0
  0
ARC
  5
AB9
330
2
100
AcDbEntity
  8
0
100
AcDbCircle
 10
129.430092312955
 20
267.5405437767782
 30
0.0
 40
42.0
100
AcDbArc
 50
250.5608481874013
 51
270.0
  0
ARC
  5
ABA
330
2
100
AcDbEntity
  8
0
100
AcDbCircle
 10
129.430092312955
 20
267.5405437767782
 30
0.0
 40
46.0
100
AcDbArc
 50
250.5608481874013
 51
270.0
  0
LINE
  5
ABB
330
2
100
AcDbEntity
  8
0
100
AcDbLine
 10
89.12442753375206
 20
243.1763309284791
 30
0.0
 11
127.5450532642899
 21
243.1763309284791
 31
0.0
  0
LINE
  5
ABC
330
2
100
AcDbEntity
  8
0
100
AcDbLine
 10
89.12440753375211
 20
237.1763309284791
 30
0.0
 11
127.5445298608921
 21
237.1763309284791
 31
0.0
  0
LINE
  5
ABD
330
2
100
AcDbEntity
  8
0
100
AcDbLine
 10
128.1417749376056
 20
188.1927602295291
 30
0.0
 11
78.08945293760564
 21
187.3190792295291
 31
0.0
  0
LINE
  5
ABE
330
2
100
AcDbEntity
  8
0
100
AcDbLine
 10
78.12437753375196
 20
223.4141167737649
 30
0.0
 11
78.12437753375218
 21
191.7450600100448
 31
0.0
  0
LINE
  5
ABF
330
2
100
AcDbEntity
  8
0
100
AcDbLine
 10
80.12437753375172
 20
223.8352822786657
 30
0.0
 11
80.12437753375218
 21
191.7450600100447
 31
0.0
  0
LINE
  5
AC0
330
2
100
AcDbEntity
  8
0
100
AcDbLine
 10
82.12437753375173
 20
222.9999551842277
 30
0.0
 11
82.12437753375217
 21
191.7450600100447
 31
0.0
  0
LINE
  5
AC1
330
2
100
AcDbEntity
  8
0
100
AcDbLine
 10
84.12437753375218
 20
223.4141153652696
 30
0.0
 11
84.12437753375172
 21
191.7450600100447
 31
0.0
  0
LINE
  5
AC2
330
2
100
AcDbEntity
  8
0
100
AcDbLine
 10
76.63248293552157
 20
191.7450600100447
 30
0.0
 11
85.63249253166679
 21
191.7450600100447
 31
0.0
  0
ARC
  5
AC3
330
2
100
AcDbEntity
  8
0
100
AcDbCircle
 10
78.12435293760575
 20
185.3193622295291
 30
0.0
 40
2.0
100
AcDbArc
 50
91.00000000000177
 51
180.0
  0
LINE
  5
AC4
330
2
100
AcDbEntity
  8
0
100
AcDbLine
 10
76.12435293760575
 20
184.7099792295292
 30
0.0
 11
75.62436664957942
 21
184.3766550375117
 31
0.0
  0
ARC
  5
AC5
330
2
100
AcDbEntity
  8
0
100
AcDbCircle
 10
76.63248293552157
 20
190.7450600100447
 30
0.0
 40
1.0
100
AcDbArc
 50
90.0
 51
180.0
  0
LINE
  5
AC6
330
2
100
AcDbEntity
  8
0
100
AcDbLine
 10
86.6324925316668
 20
190.7450600100447
 30
0.0
 11
86.6324925316668
 21
187.4682010100447
 31
0.0
  0
ARC
  5
AC7
330
2
100
AcDbEntity
  8
0
100
AcDbCircle
 10
85.63249253166679
 20
190.7450600100447
 30
0.0
 40
1.0
100
AcDbArc
 50
0.0
 51
90.0
  0
ARC
  5
AC8
330
2
100
AcDbEntity
  8
0
100
AcDbCircle
 10
89.55678432714591
 20
190.414042862547
 30
0.0
 40
40.0
100
AcDbArc
 50
70.56084818740129
 51
90.0
  0
ARC
  5
AC9
330
2
100
AcDbEntity
  8
0
100
AcDbCircle
 10
89.55678432714591
 20
190.414042862547
 30
0.0
 40
42.0
100
AcDbArc
 50
70.56084818740129
 51
90.0
  0
ARC
  5
ACA
330
2
100
AcDbEntity
  8
0
100
AcDbCircle
 10
89.55678432714591
 20
190.414042862547
 30
0.0
 40
46.0
100
AcDbArc
 50
70.56084818740129
 51
90.0
  0
ARC
  5
ACB
330
2
100
AcDbEntity
  8
0
100
AcDbCircle
 10
89.55678432714591
 20
190.414042862547
 30
0.0
 40
44.0
100
AcDbArc
 50
70.56084818740129
 51
90.0
  0
ARC
  5
ACC
330
2
100
AcDbEntity
  8
0
100
AcDbCircle
 10
89.12442753375206
 20
232.1763309284791
 30
0.0
 40
11.0
100
AcDbArc
 50
90.0
 51
180.0
  0
ARC
  5
ACD
330
2
100
AcDbEntity
  8
0
100
AcDbCircle
 10
89.12442874693704
 20
225.4141016509613
 30
0.0
 40
9.000051213203853
100
AcDbArc
 50
90.0002430826947
 51
177.3436678381892
  0
ARC
  5
ACE
330
2
100
AcDbEntity
  8
0
100
AcDbCircle
 10
89.12442874693704
 20
225.4141016509613
 30
0.0
 40
11.00005121320385
100
AcDbArc
 50
90.0002430826947
 51
179.999842847214
  0
ARC
  5
ACF
330
2
100
AcDbEntity
  8
0
100
AcDbCircle
 10
89.12442874693704
 20
225.4141016509613
 30
0.0
 40
7.000051213203854
100
AcDbArc
 50
90.0002430826947
 51
179.999842847214
  0
ARC
  5
AD0
330
2
100
AcDbEntity
  8
0
100
AcDbCircle
 10
89.12442874693704
 20
225.4141016509613
 30
0.0
 40
5.000051213203854
100
AcDbArc
 50
90.0002430826947
 51
179.999842847214
  0
ARC
  5
AD1
330
2
100
AcDbEntity
  8
0
100
AcDbCircle
 10
89.12440753375211
 20
225.4141528641202
 30
0.0
 40
9.0
100
AcDbArc
 50
90.0
 51
123.3057915968515
  0
LINE
  5
AD2
330
2
100
AcDbEntity
  8
0
100
AcDbLine
 10
78.12442753375205
 20
232.1763309284791
 30
0.0
 11
78.12437753375218
 21
225.4141167737648
 31
0.0
  0
ARC
  5
AD3
330
2
100
AcDbEntity
  8
HOJO
100
AcDbCircle
 10
79.3744075337521
 20
224.4141527691007
 30
0.0
 40
1.600781999999999
100
AcDbArc
 50
67.16467300000603
 51
141.3418685642152
  0
ARC
  5
AD4
330
2
100
AcDbEntity
  8
HOJO
100
AcDbCircle
 10
79.3744075337521
 20
222.4141527691007
 30
0.0
 40
1.600781999999999
100
AcDbArc
 50
67.16467300000603
 51
141.3418685641897
  0
LINE
  5
AD5
330
2
100
AcDbEntity
  8
HOJO
100
AcDbLine
 10
78.12437753375196
 20
223.4141887644366
 30
0.0
 11
78.12437753375196
 21
223.1753564451001
 31
0.0
  0
LINE
  5
AD6
330
2
100
AcDbEntity
  8
HOJO
100
AcDbLine
 10
79.99569953375214
 20
223.8894647691007
 30
0.0
 11
82.25329853375217
 21
222.9388567691007
 31
0.0
  0
ARC
  5
AD7
330
2
100
AcDbEntity
  8
HOJO
100
AcDbCircle
 10
82.87440753375211
 20
224.4141527691007
 30
0.0
 40
1.600781
100
AcDbArc
 50
247.1647030000061
 51
321.3401944016193
  0
LINE
  5
AD8
330
2
100
AcDbEntity
  8
HOJO
100
AcDbLine
 10
79.99569953375214
 20
225.8894647691007
 30
0.0
 11
82.25329853375217
 21
224.9388567691007
 31
0.0
  0
LINE
  5
AD9
330
2
100
AcDbEntity
  8
0
100
AcDbLine
 10
82.12437753375196
 20
225.4141016509613
 30
0.0
 11
82.12437753375173
 21
224.993141579631
 31
0.0
  0
ARC
  5
ADA
330
2
100
AcDbEntity
  8
HOJO
100
AcDbCircle
 10
82.87440753375211
 20
226.4141527691007
 30
0.0
 40
1.600781
100
AcDbArc
 50
247.1647030000061
 51
321.3401944016193
  0
LINE
  5
ADB
330
2
100
AcDbEntity
  8
0
100
AcDbLine
 10
89.12424149910714
 20
230.414042862547
 30
0.0
 11
89.55678432714591
 21
230.414042862547
 31
0.0
  0
LINE
  5
ADC
330
2
100
AcDbEntity
  8
0
100
AcDbLine
 10
89.12424149910714
 20
234.414042862547
 30
0.0
 11
89.55678432714591
 21
234.414042862547
 31
0.0
  0
LINE
  5
ADD
330
2
100
AcDbEntity
  8
0
100
AcDbLine
 10
89.12424149910714
 20
232.414042862547
 30
0.0
 11
89.55678432714591
 21
232.414042862547
 31
0.0
  0
LINE
  5
ADE
330
2
100
AcDbEntity
  8
0
100
AcDbLine
 10
89.12424149910714
 20
236.414042862547
 30
0.0
 11
89.55678432714591
 21
236.414042862547
 31
0.0
  0
ARC
  5
ADF
330
2
100
AcDbEntity
  8
0
100
AcDbCircle
 10
89.12440753375211
 20
232.1763309284791
 30
0.0
 40
5.0
100
AcDbArc
 50
90.0
 51
131.974563421098
  0
LINE
  5
AE0
330
2
100
AcDbEntity
  8
0
100
AcDbLine
 10
102.8690077180439
 20
228.133861372063
 30
0.0
 11
114.1210354134222
 21
224.162752490835
 31
0.0
  0
LINE
  5
AE1
330
2
100
AcDbEntity
  8
0
100
AcDbLine
 10
104.8658412266783
 20
233.7918341484904
 30
0.0
 11
116.117868922057
 21
229.8207252672624
 31
0.0
  0
LINE
  5
AE2
330
2
100
AcDbEntity
  8
0
100
AcDbLine
 10
104.2002300571335
 20
231.9058432230145
 30
0.0
 11
115.4522577525118
 21
227.9347343417865
 31
0.0
  0
LINE
  5
AE3
330
2
100
AcDbEntity
  8
0
100
AcDbLine
 10
103.5346188875884
 20
230.0198522975388
 30
0.0
 11
114.7866465829671
 21
226.0487434163108
 31
0.0
  0
LINE
  5
AE4
330
2
100
AcDbEntity
  8
0
100
AcDbLine
 10
127.8243729376055
 20
199.0038022295291
 30
0.0
 11
127.8243729376055
 21
189.5038022295291
 31
0.0
  0
ARC
  5
AE5
330
2
100
AcDbEntity
  8
0
100
AcDbCircle
 10
132.1243719376056
 20
194.2538022295291
 30
0.0
 40
8.0
100
AcDbArc
 50
147.6076050000002
 51
212.3923949999997
  0
LINE
  5
AE6
330
2
100
AcDbEntity
  8
CENTER
100
AcDbLine
 10
121.6243719376055
 20
194.2538022295291
 30
0.0
 11
131.6243719376055
 21
194.2538022295291
 31
0.0
  0
LINE
  5
AE7
330
2
100
AcDbEntity
  8
0
100
AcDbLine
 10
127.8243729376055
 20
189.6538422295292
 30
0.0
 11
129.1243719376055
 21
189.6538422295292
 31
0.0
  0
LINE
  5
AE8
330
2
100
AcDbEntity
  8
0
100
AcDbLine
 10
127.8243729376055
 20
189.5038022295291
 30
0.0
 11
126.2135709376055
 21
189.5038022295291
 31
0.0
  0
ARC
  5
AE9
330
2
100
AcDbEntity
  8
0
100
AcDbCircle
 10
126.2135709376055
 20
190.5038022295291
 30
0.0
 40
1.0
100
AcDbArc
 50
212.3923949999997
 51
270.0
  0
ARC
  5
AEA
330
2
100
AcDbEntity
  8
0
100
AcDbCircle
 10
128.1243719376055
 20
189.1925382295291
 30
0.0
 40
1.0
100
AcDbArc
 50
271.0000000000017
 51
0.0
  0
LINE
  5
AEB
330
2
100
AcDbEntity
  8
0
100
AcDbLine
 10
127.8243729376055
 20
198.8538432295292
 30
0.0
 11
129.1243719376055
 21
198.8538432295292
 31
0.0
  0
ARC
  5
AEC
330
2
100
AcDbEntity
  8
0
100
AcDbCircle
 10
126.2135709376055
 20
198.0038022295291
 30
0.0
 40
1.0
100
AcDbArc
 50
90.0
 51
147.6076050000002
  0
LINE
  5
AED
330
2
100
AcDbEntity
  8
0
100
AcDbLine
 10
127.8243729376055
 20
199.0038022295291
 30
0.0
 11
126.2135709376055
 21
199.0038022295291
 31
0.0
  0
LINE
  5
AEE
330
2
100
AcDbEntity
  8
0
100
AcDbLine
 10
138.1243719376055
 20
200.4600592295292
 30
0.0
 11
130.5981729376056
 21
200.3286202295292
 31
0.0
  0
ARC
  5
AEF
330
2
100
AcDbEntity
  8
0
100
AcDbCircle
 10
130.6243719376055
 20
198.8287992295292
 30
0.0
 40
1.5
100
AcDbArc
 50
91.00000000000177
 51
180.0
  0
LINE
  5
AF0
330
2
100
AcDbEntity
  8
0
100
AcDbLine
 10
137.3053230874082
 20
243.1884598376759
 30
0.0
 11
143.4493953669979
 21
244.2718255519905
 31
0.0
  0
LINE
  5
AF1
330
2
100
AcDbEntity
  8
0
100
AcDbLine
 10
137.3053230874082
 20
237.1628811458169
 30
0.0
 11
143.4493953669986
 21
236.0795154315022
 31
0.0
  0
LINE
  5
AF2
330
2
100
AcDbEntity
  8
0
100
AcDbLine
 10
137.3022846380107
 20
235.9449049721624
 30
0.0
 11
143.3444089707669
 21
234.8795154315023
 31
0.0
  0
LINE
  5
AF3
330
2
100
AcDbEntity
  8
0
100
AcDbLine
 10
143.5854801336093
 20
243.1995644535813
 30
0.0
 11
137.3053230874082
 21
242.6501219068762
 31
0.0
  0
LINE
  5
AF4
330
2
100
AcDbEntity
  8
0
100
AcDbLine
 10
143.6378732650993
 20
241.9995644535813
 30
0.0
 11
137.3053230874082
 21
241.4455381018243
 31
0.0
  0
LINE
  5
AF5
330
2
100
AcDbEntity
  8
0
100
AcDbLine
 10
143.5854801336121
 20
237.1517765299115
 30
0.0
 11
137.3053230874082
 21
237.7012190766167
 31
0.0
  0
LINE
  5
AF6
330
2
100
AcDbEntity
  8
0
100
AcDbLine
 10
143.6378732651031
 20
238.3517765299115
 30
0.0
 11
137.3053230874082
 21
238.9058028816688
 31
0.0
  0
LINE
  5
AF7
330
2
100
AcDbEntity
  8
0
100
AcDbLine
 10
137.3022846380107
 20
244.4064360113307
 30
0.0
 11
143.3444089707667
 21
245.4718255519907
 31
0.0
  0
LINE
  5
AF8
330
2
100
AcDbEntity
  8
0
100
AcDbLine
 10
153.1835900757597
 20
240.7756704917464
 30
0.0
 11
137.3053230874082
 21
240.7756704917464
 31
0.0
  0
LINE
  5
AF9
330
2
100
AcDbEntity
  8
0
100
AcDbLine
 10
153.1835900757597
 20
239.5756704917465
 30
0.0
 11
137.3053230874082
 21
239.5756704917463
 31
0.0
  0
LINE
  5
AFA
330
2
100
AcDbEntity
  8
0
100
AcDbLine
 10
129.9080586360215
 20
223.5405437767782
 30
0.0
 11
159.3760632441448
 21
220.9624274368377
 31
0.0
  0
LINE
  5
AFB
330
2
100
AcDbEntity
  8
0
100
AcDbLine
 10
129.8207367502044
 20
221.5405437767782
 30
0.0
 11
159.2017517586494
 21
218.9700380406542
 31
0.0
  0
LINE
  5
AFC
330
2
100
AcDbEntity
  8
0
100
AcDbLine
 10
129.9080586360215
 20
225.5405437767782
 30
0.0
 11
159.3827918294063
 21
228.1192487916506
 31
0.0
  0
LINE
  5
AFD
330
2
100
AcDbEntity
  8
0
100
AcDbLine
 10
129.8207367502044
 20
227.5405437767782
 30
0.0
 11
159.2084803439109
 21
230.1116381878341
 31
0.0
  0
LINE
  5
AFE
330
2
100
AcDbEntity
  8
0
100
AcDbLine
 10
159.3207367502044
 20
225.5405437767782
 30
0.0
 11
129.4300923129463
 21
225.5405437767782
 31
0.0
  0
LINE
  5
AFF
330
2
100
AcDbEntity
  8
0
100
AcDbLine
 10
159.3207367502044
 20
223.5405437767782
 30
0.0
 11
129.4300923129459
 21
223.5405437767782
 31
0.0
  0
LINE
  5
B00
330
2
100
AcDbEntity
  8
0
100
AcDbLine
 10
129.8207367502044
 20
221.5405437767782
 30
0.0
 11
129.4300923129454
 21
221.5405437767782
 31
0.0
  0
LINE
  5
B01
330
2
100
AcDbEntity
  8
0
100
AcDbLine
 10
129.8207367502044
 20
227.5405437767782
 30
0.0
 11
129.430092312955
 21
227.5405437767782
 31
0.0
  0
LINE
  5
B02
330
2
100
AcDbEntity
  8
0
100
AcDbLine
 10
127.7387024316002
 20
243.4263309284792
 30
0.0
 11
130.4737520647887
 21
243.4263309284792
 31
0.0
  0
LINE
  5
B03
330
2
100
AcDbEntity
  8
0
100
AcDbLine
 10
127.7387024316002
 20
236.9263309284791
 30
0.0
 11
130.4487323275133
 21
236.9263309284791
 31
0.0
  0
ARC
  5
B04
330
2
100
AcDbEntity
  8
0
100
AcDbCircle
 10
127.7387024316002
 20
243.2263309284792
 30
0.0
 40
0.2
100
AcDbArc
 50
90.0
 51
180.0
  0
LINE
  5
B05
330
2
100
AcDbEntity
  8
0
100
AcDbLine
 10
127.5387024316001
 20
237.1263309284791
 30
0.0
 11
127.5387024316001
 21
243.2263309284792
 31
0.0
  0
ARC
  5
B06
330
2
100
AcDbEntity
  8
0
100
AcDbCircle
 10
127.7387024316002
 20
237.1263309284791
 30
0.0
 40
0.2
100
AcDbArc
 50
180.0
 51
270.0
  0
LINE
  5
B07
330
2
100
AcDbEntity
  8
0
100
AcDbLine
 10
137.3053230874082
 20
235.9796346076958
 30
0.0
 11
137.3053230874082
 21
244.3717063757974
 31
0.0
  0
LINE
  5
B08
330
2
100
AcDbEntity
  8
0
100
AcDbLine
 10
135.5192484487412
 20
244.5380995825834
 30
0.0
 11
130.4737520647887
 21
243.4263309284791
 31
0.0
  0
LINE
  5
B09
330
2
100
AcDbEntity
  8
0
100
AcDbLine
 10
134.5158179995404
 20
235.9925925814243
 30
0.0
 11
130.4487323275135
 21
236.9263309284791
 31
0.0
  0
ARC
  5
B0A
330
2
100
AcDbEntity
  8
0
100
AcDbCircle
 10
134.6053230874084
 20
236.3824500415886
 30
0.0
 40
0.4
100
AcDbArc
 50
257.0698677002801
 51
326.0187104207537
  0
LINE
  5
B0B
330
2
100
AcDbEntity
  8
0
100
AcDbLine
 10
134.9370111424137
 20
236.1588811838137
 30
0.0
 11
137.0705934518749
 21
235.7826730570933
 31
0.0
  0
ARC
  5
B0C
330
2
100
AcDbEntity
  8
0
100
AcDbCircle
 10
137.1053230874082
 20
235.9796346076958
 30
0.0
 40
0.2
100
AcDbArc
 50
259.9999999999949
 51
0.0
  0
LINE
  5
B0D
330
2
100
AcDbEntity
  8
0
100
AcDbLine
 10
135.9383601924931
 20
244.3690246543152
 30
0.0
 11
137.0705934518749
 21
244.5686679263998
 31
0.0
  0
ARC
  5
B0E
330
2
100
AcDbEntity
  8
0
100
AcDbCircle
 10
135.6053230874084
 20
244.1474704021854
 30
0.0
 40
0.4
100
AcDbArc
 50
33.63399402200727
 51
102.4264747477321
  0
ARC
  5
B0F
330
2
100
AcDbEntity
  8
0
100
AcDbCircle
 10
137.1053230874082
 20
244.3717063757974
 30
0.0
 40
0.2
100
AcDbArc
 50
0.0
 51
100.000000000005
  0
LINE
  5
B10
330
2
100
AcDbEntity
  8
0
100
AcDbLine
 10
155.1835900757597
 20
246.4256704917464
 30
0.0
 11
155.1835900757597
 21
233.9256704917464
 31
0.0
  0
LINE
  5
B11
330
2
100
AcDbEntity
  8
0
100
AcDbLine
 10
153.1835900757597
 20
246.4256704917464
 30
0.0
 11
153.1835900757597
 21
233.9256704917464
 31
0.0
  0
LINE
  5
B12
330
2
100
AcDbEntity
  8
0
100
AcDbLine
 10
153.1835900757597
 20
234.5756704917465
 30
0.0
 11
146.8173725241057
 21
234.5756704917464
 31
0.0
  0
ARC
  5
B13
330
2
100
AcDbEntity
  8
0
100
AcDbCircle
 10
146.8173725241057
 20
254.5756704917465
 30
0.0
 40
20.0
100
AcDbArc
 50
259.9999999999949
 51
270.0
  0
LINE
  5
B14
330
2
100
AcDbEntity
  8
0
100
AcDbLine
 10
159.2017517586494
 20
218.9700380406542
 30
0.0
 11
159.3760632441448
 21
220.9624274368376
 31
0.0
  0
LINE
  5
B15
330
2
100
AcDbEntity
  8
0
100
AcDbLine
 10
159.3207367502044
 20
223.5405437767782
 30
0.0
 11
159.3207367502044
 21
225.5405437767782
 31
0.0
  0
LINE
  5
B16
330
2
100
AcDbEntity
  8
0
100
AcDbLine
 10
159.2084803439109
 20
230.1116381878341
 30
0.0
 11
159.3827918294063
 21
228.1192487916506
 31
0.0
  0
ARC
  5
B17
330
2
100
AcDbEntity
  8
0
100
AcDbCircle
 10
157.7835900757596
 20
234.0756704917464
 30
0.0
 40
0.1
100
AcDbArc
 50
90.0
 51
180.0
  0
LINE
  5
B18
330
2
100
AcDbEntity
  8
0
100
AcDbLine
 10
157.6835900757597
 20
234.0756704917464
 30
0.0
 11
157.6835900757597
 21
233.9256704917464
 31
0.0
  0
LINE
  5
B19
330
2
100
AcDbEntity
  8
0
100
AcDbLine
 10
153.1835900757597
 20
245.7756704917465
 30
0.0
 11
146.8173725241052
 21
245.7756704917465
 31
0.0
  0
LINE
  5
B1A
330
2
100
AcDbEntity
  8
0
100
AcDbLine
 10
153.1835900757597
 20
244.5756704917464
 30
0.0
 11
146.9223589203362
 21
244.5756704917464
 31
0.0
  0
LINE
  5
B1B
330
2
100
AcDbEntity
  8
0
100
AcDbLine
 10
153.1835900757597
 20
243.2756704917465
 30
0.0
 11
145.3285949885622
 21
243.2756704917463
 31
0.0
  0
LINE
  5
B1C
330
2
100
AcDbEntity
  8
0
100
AcDbLine
 10
153.1835900757597
 20
242.0756704917465
 30
0.0
 11
145.3809881200523
 21
242.0756704917464
 31
0.0
  0
LINE
  5
B1D
330
2
100
AcDbEntity
  8
0
100
AcDbLine
 10
153.1835900757597
 20
238.2756704917464
 30
0.0
 11
145.3809881200564
 21
238.2756704917464
 31
0.0
  0
LINE
  5
B1E
330
2
100
AcDbEntity
  8
0
100
AcDbLine
 10
153.1835900757597
 20
237.0756704917464
 30
0.0
 11
145.3285949885654
 21
237.0756704917464
 31
0.0
  0
LINE
  5
B1F
330
2
100
AcDbEntity
  8
0
100
AcDbLine
 10
153.1835900757597
 20
235.7756704917465
 30
0.0
 11
146.9223589203376
 21
235.7756704917463
 31
0.0
  0
ARC
  5
B20
330
2
100
AcDbEntity
  8
0
100
AcDbCircle
 10
145.3809881200526
 20
222.0756704917464
 30
0.0
 40
20.0
100
AcDbArc
 50
90.0
 51
94.99999999999975
  0
ARC
  5
B21
330
2
100
AcDbEntity
  8
0
100
AcDbCircle
 10
145.3285949885624
 20
223.2756704917463
 30
0.0
 40
20.0
100
AcDbArc
 50
90.0
 51
94.99999999999975
  0
ARC
  5
B22
330
2
100
AcDbEntity
  8
0
100
AcDbCircle
 10
145.3285949885654
 20
257.0756704917464
 30
0.0
 40
20.0
100
AcDbArc
 50
265.0000000000003
 51
270.0
  0
ARC
  5
B23
330
2
100
AcDbEntity
  8
0
100
AcDbCircle
 10
145.3809881200564
 20
258.2756704917463
 30
0.0
 40
20.0
100
AcDbArc
 50
265.0000000000003
 51
270.0
  0
ARC
  5
B24
330
2
100
AcDbEntity
  8
0
100
AcDbCircle
 10
146.9223589203373
 20
255.7756704917465
 30
0.0
 40
20.0
100
AcDbArc
 50
259.9999999999949
 51
270.0
  0
ARC
  5
B25
330
2
100
AcDbEntity
  8
0
100
AcDbCircle
 10
146.8173725241052
 20
225.7756704917464
 30
0.0
 40
20.0
100
AcDbArc
 50
90.0
 51
100.000000000005
  0
ARC
  5
B26
330
2
100
AcDbEntity
  8
0
100
AcDbCircle
 10
146.9223589203364
 20
224.5756704917463
 30
0.0
 40
20.0
100
AcDbArc
 50
90.0
 51
100.000000000005
  0
ARC
  5
B27
330
2
100
AcDbEntity
  8
0
100
AcDbCircle
 10
157.7835900757596
 20
243.7756704917465
 30
0.0
 40
0.1
100
AcDbArc
 50
180.0
 51
270.0
  0
LINE
  5
B28
330
2
100
AcDbEntity
  8
0
100
AcDbLine
 10
157.6835900757597
 20
241.5756704917464
 30
0.0
 11
157.6835900757597
 21
241.2756704917465
 31
0.0
  0
ARC
  5
B29
330
2
100
AcDbEntity
  8
0
100
AcDbCircle
 10
157.7835900757596
 20
241.5756704917464
 30
0.0
 40
0.1
100
AcDbArc
 50
90.0
 51
180.0
  0
ARC
  5
B2A
330
2
100
AcDbEntity
  8
0
100
AcDbCircle
 10
157.7835900757596
 20
241.2756704917465
 30
0.0
 40
0.1
100
AcDbArc
 50
180.0
 51
270.0
  0
LINE
  5
B2B
330
2
100
AcDbEntity
  8
0
100
AcDbLine
 10
157.6835900757597
 20
243.9256704917464
 30
0.0
 11
157.6835900757597
 21
244.0756704917464
 31
0.0
  0
ARC
  5
B2C
330
2
100
AcDbEntity
  8
0
100
AcDbCircle
 10
157.7835900757596
 20
244.0756704917464
 30
0.0
 40
0.1
100
AcDbArc
 50
90.0
 51
180.0
  0
LINE
  5
B2D
330
2
100
AcDbEntity
  8
0
100
AcDbLine
 10
157.6835900757597
 20
243.9256704917464
 30
0.0
 11
157.6835900757597
 21
243.7756704917465
 31
0.0
  0
ARC
  5
B2E
330
2
100
AcDbEntity
  8
0
100
AcDbCircle
 10
157.7835900757596
 20
236.5756704917464
 30
0.0
 40
0.1
100
AcDbArc
 50
90.0
 51
180.0
  0
LINE
  5
B2F
330
2
100
AcDbEntity
  8
0
100
AcDbLine
 10
157.6835900757597
 20
236.4256704917464
 30
0.0
 11
157.6835900757597
 21
236.5756704917464
 31
0.0
  0
ARC
  5
B30
330
2
100
AcDbEntity
  8
0
100
AcDbCircle
 10
157.7835900757596
 20
236.2756704917464
 30
0.0
 40
0.1
100
AcDbArc
 50
180.0
 51
270.0
  0
LINE
  5
B31
330
2
100
AcDbEntity
  8
0
100
AcDbLine
 10
157.6835900757597
 20
236.4256704917464
 30
0.0
 11
157.6835900757597
 21
236.2756704917464
 31
0.0
  0
ARC
  5
B32
330
2
100
AcDbEntity
  8
0
100
AcDbCircle
 10
157.7835900757596
 20
239.0756704917464
 30
0.0
 40
0.1
100
AcDbArc
 50
90.0
 51
180.0
  0
LINE
  5
B33
330
2
100
AcDbEntity
  8
0
100
AcDbLine
 10
157.6835900757597
 20
238.7756704917464
 30
0.0
 11
157.6835900757597
 21
239.0756704917464
 31
0.0
  0
ARC
  5
B34
330
2
100
AcDbEntity
  8
0
100
AcDbCircle
 10
157.7835900757596
 20
238.7756704917464
 30
0.0
 40
0.1
100
AcDbArc
 50
180.0
 51
270.0
  0
ARC
  5
B35
330
2
100
AcDbEntity
  8
0
100
AcDbCircle
 10
157.7835900757596
 20
246.2756704917465
 30
0.0
 40
0.1
100
AcDbArc
 50
180.0
 51
270.0
  0
LINE
  5
B36
330
2
100
AcDbEntity
  8
0
100
AcDbLine
 10
157.6835900757597
 20
246.2756704917465
 30
0.0
 11
157.6835900757597
 21
246.4256704917464
 31
0.0
  0
LINE
  5
B37
330
2
100
AcDbEntity
  8
0
100
AcDbLine
 10
129.1243449376379
 20
364.7512497632098
 30
0.0
 11
76.12434493763794
 21
365.6763477632097
 31
0.0
  0
LINE
  5
B38
330
2
100
AcDbEntity
  8
0
100
AcDbLine
 10
127.6505209756721
 20
348.7769809282588
 30
0.0
 11
77.59816889960394
 21
349.6505621338676
 31
0.0
  0
ARC
  5
B39
330
2
100
AcDbEntity
  8
0
100
AcDbCircle
 10
77.62434493763817
 20
351.1503337214878
 30
0.0
 40
1.5
100
AcDbArc
 50
180.0
 51
269.0000982436657
  0
LINE
  5
B3A
330
2
100
AcDbEntity
  8
0
100
AcDbLine
 10
76.12434493763794
 20
352.2512577632096
 30
0.0
 11
75.62434493763794
 21
352.5845787632097
 31
0.0
  0
LINE
  5
B3B
330
2
100
AcDbEntity
  8
0
100
AcDbLine
 10
76.12434493763794
 20
352.2512577632096
 30
0.0
 11
75.62434493763794
 21
352.5845787632097
 31
0.0
  0
LINE
  5
B3C
330
2
100
AcDbEntity
  8
0
100
AcDbLine
 10
129.1243449376379
 20
344.9839527632097
 30
0.0
 11
129.1243449376379
 21
349.5839527632097
 31
0.0
  0
LINE
  5
B3D
330
2
100
AcDbEntity
  8
0
100
AcDbLine
 10
127.8243419376378
 20
344.9839527632097
 30
0.0
 11
129.1243449376379
 21
344.9839527632097
 31
0.0
  0
ARC
  5
B3E
330
2
100
AcDbEntity
  8
0
100
AcDbCircle
 10
127.6243449376379
 20
347.2772093406387
 30
0.0
 40
1.5
100
AcDbArc
 50
0.0
 51
89.00009824366568
  0
ARC
  5
B3F
330
2
100
AcDbEntity
  8
0
100
AcDbCircle
 10
132.1243449376379
 20
349.5839527632097
 30
0.0
 40
8.0
100
AcDbArc
 50
185.3508690710036
 51
212.3923949999997
  0
LINE
  5
B40
330
2
100
AcDbEntity
  8
0
100
AcDbLine
 10
127.8243419376378
 20
348.7739471702191
 30
0.0
 11
127.8243419376378
 21
344.8339527632096
 31
0.0
  0
LINE
  5
B41
330
2
100
AcDbEntity
  8
0
100
AcDbLine
 10
127.8243419376378
 20
344.8339527632096
 30
0.0
 11
126.2135479376379
 21
344.8339527632096
 31
0.0
  0
ARC
  5
B42
330
2
100
AcDbEntity
  8
0
100
AcDbCircle
 10
126.2135479376379
 20
345.8339527632097
 30
0.0
 40
1.0
100
AcDbArc
 50
212.3923949999997
 51
270.0
  0
LINE
  5
B43
330
2
100
AcDbEntity
  8
0
100
AcDbLine
 10
130.6243449376379
 20
336.5012577632096
 30
0.0
 11
138.1243449376379
 21
336.5012577632096
 31
0.0
  0
ARC
  5
B44
330
2
100
AcDbEntity
  8
0
100
AcDbCircle
 10
130.6243449376379
 20
338.0012577632096
 30
0.0
 40
1.5
100
AcDbArc
 50
180.0
 51
270.0
  0
LINE
  5
B45
330
2
100
AcDbEntity
  8
CENTER
100
AcDbLine
 10
122.2933439376379
 20
349.5839527632097
 30
0.0
 11
134.1243449376379
 21
349.5839527632097
 31
0.0
  0
LINE
  5
B46
330
2
100
AcDbEntity
  8
0
100
AcDbLine
 10
129.1243449376379
 20
354.1840527632097
 30
0.0
 11
129.1243449376379
 21
349.5839527632097
 31
0.0
  0
LINE
  5
B47
330
2
100
AcDbEntity
  8
0
100
AcDbLine
 10
161.1835900757597
 20
236.0756704917464
 30
0.0
 11
161.1835900757597
 21
234.2756704917464
 31
0.0
  0
LINE
  5
B48
330
2
100
AcDbEntity
  8
0
100
AcDbLine
 10
164.6835900757597
 20
246.4256704917464
 30
0.0
 11
164.6835900757597
 21
233.9256704917464
 31
0.0
  0
LINE
  5
B49
330
2
100
AcDbEntity
  8
0
100
AcDbLine
 10
164.6835900757597
 20
246.4256704917464
 30
0.0
 11
164.6835900757597
 21
233.9256704917464
 31
0.0
  0
LINE
  5
B4A
330
2
100
AcDbEntity
  8
0
100
AcDbLine
 10
163.6835900757597
 20
235.8756704917465
 30
0.0
 11
163.6835900757597
 21
234.4756704917465
 31
0.0
  0
ARC
  5
B4B
330
2
100
AcDbEntity
  8
0
100
AcDbCircle
 10
163.5835900757596
 20
234.4756704917465
 30
0.0
 40
0.1
100
AcDbArc
 50
270.0
 51
0.0
  0
LINE
  5
B4C
330
2
100
AcDbEntity
  8
0
100
AcDbLine
 10
162.6835900757597
 20
233.9256704917464
 30
0.0
 11
162.6835900757597
 21
234.2756704917464
 31
0.0
  0
ARC
  5
B4D
330
2
100
AcDbEntity
  8
0
100
AcDbCircle
 10
162.7835900757596
 20
234.2756704917464
 30
0.0
 40
0.1
100
AcDbArc
 50
90.0
 51
180.0
  0
ARC
  5
B4E
330
2
100
AcDbEntity
  8
0
100
AcDbCircle
 10
161.0835900757598
 20
234.2756704917464
 30
0.0
 40
0.1
100
AcDbArc
 50
270.0
 51
0.0
  0
LINE
  5
B4F
330
2
100
AcDbEntity
  8
0
100
AcDbLine
 10
163.5835900757596
 20
234.3756704917465
 30
0.0
 11
162.7835900757596
 21
234.3756704917465
 31
0.0
  0
LINE
  5
B50
330
2
100
AcDbEntity
  8
0
100
AcDbLine
 10
162.6835900757597
 20
243.9256704917464
 30
0.0
 11
162.6835900757597
 21
244.2756704917464
 31
0.0
  0
ARC
  5
B51
330
2
100
AcDbEntity
  8
0
100
AcDbCircle
 10
161.0835900757598
 20
244.2756704917464
 30
0.0
 40
0.1
100
AcDbArc
 50
270.0
 51
0.0
  0
ARC
  5
B52
330
2
100
AcDbEntity
  8
0
100
AcDbCircle
 10
163.5835900757596
 20
239.4756704917464
 30
0.0
 40
0.1
100
AcDbArc
 50
270.0
 51
0.0
  0
LINE
  5
B53
330
2
100
AcDbEntity
  8
0
100
AcDbLine
 10
163.6835900757597
 20
240.1756704917464
 30
0.0
 11
163.6835900757597
 21
239.4756704917464
 31
0.0
  0
ARC
  5
B54
330
2
100
AcDbEntity
  8
0
100
AcDbCircle
 10
163.5835900757596
 20
241.9756704917465
 30
0.0
 40
0.1
100
AcDbArc
 50
270.0
 51
0.0
  0
LINE
  5
B55
330
2
100
AcDbEntity
  8
0
100
AcDbLine
 10
163.6835900757597
 20
243.3756704917465
 30
0.0
 11
163.6835900757597
 21
241.9756704917465
 31
0.0
  0
ARC
  5
B56
330
2
100
AcDbEntity
  8
0
100
AcDbCircle
 10
163.5835900757596
 20
243.3756704917465
 30
0.0
 40
0.1
100
AcDbArc
 50
0.0
 51
90.0
  0
ARC
  5
B57
330
2
100
AcDbEntity
  8
0
100
AcDbCircle
 10
163.5835900757596
 20
240.8756704917465
 30
0.0
 40
0.1
100
AcDbArc
 50
0.0
 51
90.0
  0
LINE
  5
B58
330
2
100
AcDbEntity
  8
0
100
AcDbLine
 10
163.6835900757597
 20
240.1756704917464
 30
0.0
 11
163.6835900757597
 21
240.8756704917465
 31
0.0
  0
LINE
  5
B59
330
2
100
AcDbEntity
  8
0
100
AcDbLine
 10
163.6835900757597
 20
236.9756704917464
 30
0.0
 11
163.6835900757597
 21
238.3756704917465
 31
0.0
  0
ARC
  5
B5A
330
2
100
AcDbEntity
  8
0
100
AcDbCircle
 10
163.5835900757596
 20
236.9756704917464
 30
0.0
 40
0.1
100
AcDbArc
 50
270.0
 51
0.0
  0
ARC
  5
B5B
330
2
100
AcDbEntity
  8
0
100
AcDbCircle
 10
163.5835900757596
 20
235.8756704917465
 30
0.0
 40
0.1
100
AcDbArc
 50
0.0
 51
90.0
  0
ARC
  5
B5C
330
2
100
AcDbEntity
  8
0
100
AcDbCircle
 10
163.5835900757596
 20
238.3756704917465
 30
0.0
 40
0.1
100
AcDbArc
 50
0.0
 51
90.0
  0
ARC
  5
B5D
330
2
100
AcDbEntity
  8
0
100
AcDbCircle
 10
162.7835900757596
 20
239.2756704917465
 30
0.0
 40
0.1
100
AcDbArc
 50
90.0
 51
180.0
  0
LINE
  5
B5E
330
2
100
AcDbEntity
  8
0
100
AcDbLine
 10
162.6835900757597
 20
238.9256704917464
 30
0.0
 11
162.6835900757597
 21
239.2756704917465
 31
0.0
  0
ARC
  5
B5F
330
2
100
AcDbEntity
  8
0
100
AcDbCircle
 10
161.0835900757598
 20
239.2756704917465
 30
0.0
 40
0.1
100
AcDbArc
 50
270.0
 51
0.0
  0
LINE
  5
B60
330
2
100
AcDbEntity
  8
0
100
AcDbLine
 10
161.1835900757597
 20
239.2756704917465
 30
0.0
 11
161.1835900757597
 21
240.1756704917464
 31
0.0
  0
ARC
  5
B61
330
2
100
AcDbEntity
  8
0
100
AcDbCircle
 10
162.7835900757596
 20
243.5756704917464
 30
0.0
 40
0.1
100
AcDbArc
 50
180.0
 51
270.0
  0
LINE
  5
B62
330
2
100
AcDbEntity
  8
0
100
AcDbLine
 10
161.1835900757597
 20
243.5756704917464
 30
0.0
 11
161.1835900757597
 21
241.7756704917465
 31
0.0
  0
ARC
  5
B63
330
2
100
AcDbEntity
  8
0
100
AcDbCircle
 10
161.0835900757598
 20
243.5756704917464
 30
0.0
 40
0.1
100
AcDbArc
 50
0.0
 51
90.0
  0
LINE
  5
B64
330
2
100
AcDbEntity
  8
0
100
AcDbLine
 10
162.6835900757597
 20
241.4256704917464
 30
0.0
 11
162.6835900757597
 21
241.0756704917464
 31
0.0
  0
LINE
  5
B65
330
2
100
AcDbEntity
  8
0
100
AcDbLine
 10
162.6835900757597
 20
241.4256704917464
 30
0.0
 11
162.6835900757597
 21
241.7756704917465
 31
0.0
  0
ARC
  5
B66
330
2
100
AcDbEntity
  8
0
100
AcDbCircle
 10
162.7835900757596
 20
241.7756704917465
 30
0.0
 40
0.1
100
AcDbArc
 50
90.0
 51
180.0
  0
ARC
  5
B67
330
2
100
AcDbEntity
  8
0
100
AcDbCircle
 10
162.7835900757596
 20
241.0756704917464
 30
0.0
 40
0.1
100
AcDbArc
 50
180.0
 51
270.0
  0
ARC
  5
B68
330
2
100
AcDbEntity
  8
0
100
AcDbCircle
 10
161.0835900757598
 20
241.7756704917465
 30
0.0
 40
0.1
100
AcDbArc
 50
270.0
 51
0.0
  0
ARC
  5
B69
330
2
100
AcDbEntity
  8
0
100
AcDbCircle
 10
161.0835900757598
 20
241.0756704917464
 30
0.0
 40
0.1
100
AcDbArc
 50
0.0
 51
90.0
  0
LINE
  5
B6A
330
2
100
AcDbEntity
  8
0
100
AcDbLine
 10
162.6835900757597
 20
243.9256704917464
 30
0.0
 11
162.6835900757597
 21
243.5756704917464
 31
0.0
  0
LINE
  5
B6B
330
2
100
AcDbEntity
  8
0
100
AcDbLine
 10
161.1835900757597
 20
241.0756704917464
 30
0.0
 11
161.1835900757597
 21
240.1756704917464
 31
0.0
  0
LINE
  5
B6C
330
2
100
AcDbEntity
  8
0
100
AcDbLine
 10
162.6835900757597
 20
238.9256704917464
 30
0.0
 11
162.6835900757597
 21
238.5756704917464
 31
0.0
  0
ARC
  5
B6D
330
2
100
AcDbEntity
  8
0
100
AcDbCircle
 10
161.0835900757598
 20
238.5756704917464
 30
0.0
 40
0.1
100
AcDbArc
 50
0.0
 51
90.0
  0
LINE
  5
B6E
330
2
100
AcDbEntity
  8
0
100
AcDbLine
 10
161.1835900757597
 20
236.7756704917464
 30
0.0
 11
161.1835900757597
 21
238.5756704917464
 31
0.0
  0
LINE
  5
B6F
330
2
100
AcDbEntity
  8
0
100
AcDbLine
 10
162.6835900757597
 20
236.4256704917464
 30
0.0
 11
162.6835900757597
 21
236.7756704917464
 31
0.0
  0
ARC
  5
B70
330
2
100
AcDbEntity
  8
0
100
AcDbCircle
 10
162.7835900757596
 20
236.7756704917464
 30
0.0
 40
0.1
100
AcDbArc
 50
90.0
 51
180.0
  0
ARC
  5
B71
330
2
100
AcDbEntity
  8
0
100
AcDbCircle
 10
162.7835900757596
 20
236.0756704917464
 30
0.0
 40
0.1
100
AcDbArc
 50
180.0
 51
270.0
  0
LINE
  5
B72
330
2
100
AcDbEntity
  8
0
100
AcDbLine
 10
162.6835900757597
 20
236.4256704917464
 30
0.0
 11
162.6835900757597
 21
236.0756704917464
 31
0.0
  0
ARC
  5
B73
330
2
100
AcDbEntity
  8
0
100
AcDbCircle
 10
161.0835900757598
 20
236.7756704917464
 30
0.0
 40
0.1
100
AcDbArc
 50
270.0
 51
0.0
  0
ARC
  5
B74
330
2
100
AcDbEntity
  8
0
100
AcDbCircle
 10
161.0835900757598
 20
236.0756704917464
 30
0.0
 40
0.1
100
AcDbArc
 50
0.0
 51
90.0
  0
ARC
  5
B75
330
2
100
AcDbEntity
  8
0
100
AcDbCircle
 10
162.7835900757596
 20
238.5756704917464
 30
0.0
 40
0.1
100
AcDbArc
 50
180.0
 51
270.0
  0
LINE
  5
B76
330
2
100
AcDbEntity
  8
0
100
AcDbLine
 10
163.5835900757596
 20
239.3756704917465
 30
0.0
 11
162.7835900757596
 21
239.3756704917465
 31
0.0
  0
LINE
  5
B77
330
2
100
AcDbEntity
  8
0
100
AcDbLine
 10
163.5835900757596
 20
240.9756704917465
 30
0.0
 11
162.7835900757596
 21
240.9756704917465
 31
0.0
  0
LINE
  5
B78
330
2
100
AcDbEntity
  8
0
100
AcDbLine
 10
163.5835900757596
 20
241.8756704917465
 30
0.0
 11
162.7835900757596
 21
241.8756704917465
 31
0.0
  0
LINE
  5
B79
330
2
100
AcDbEntity
  8
0
100
AcDbLine
 10
163.5835900757596
 20
243.4756704917465
 30
0.0
 11
162.7835900757596
 21
243.4756704917465
 31
0.0
  0
LINE
  5
B7A
330
2
100
AcDbEntity
  8
0
100
AcDbLine
 10
163.5835900757596
 20
236.8756704917465
 30
0.0
 11
162.7835900757596
 21
236.8756704917465
 31
0.0
  0
LINE
  5
B7B
330
2
100
AcDbEntity
  8
0
100
AcDbLine
 10
163.5835900757596
 20
235.9756704917465
 30
0.0
 11
162.7835900757596
 21
235.9756704917465
 31
0.0
  0
LINE
  5
B7C
330
2
100
AcDbEntity
  8
0
100
AcDbLine
 10
163.5835900757596
 20
238.4756704917465
 30
0.0
 11
162.7835900757596
 21
238.4756704917465
 31
0.0
  0
ARC
  5
B7D
330
2
100
AcDbEntity
  8
0
100
AcDbCircle
 10
163.5835900757596
 20
245.8756704917465
 30
0.0
 40
0.1
100
AcDbArc
 50
0.0
 51
90.0
  0
ARC
  5
B7E
330
2
100
AcDbEntity
  8
0
100
AcDbCircle
 10
162.7835900757596
 20
246.0756704917464
 30
0.0
 40
0.1
100
AcDbArc
 50
180.0
 51
270.0
  0
ARC
  5
B7F
330
2
100
AcDbEntity
  8
0
100
AcDbCircle
 10
161.0835900757598
 20
246.0756704917464
 30
0.0
 40
0.1
100
AcDbArc
 50
0.0
 51
90.0
  0
LINE
  5
B80
330
2
100
AcDbEntity
  8
0
100
AcDbLine
 10
162.6835900757597
 20
246.4256704917464
 30
0.0
 11
162.6835900757597
 21
246.0756704917464
 31
0.0
  0
LINE
  5
B81
330
2
100
AcDbEntity
  8
0
100
AcDbLine
 10
163.5835900757596
 20
245.9756704917465
 30
0.0
 11
162.7835900757596
 21
245.9756704917465
 31
0.0
  0
ARC
  5
B82
330
2
100
AcDbEntity
  8
0
100
AcDbCircle
 10
163.5835900757596
 20
244.4756704917464
 30
0.0
 40
0.1
100
AcDbArc
 50
270.0
 51
0.0
  0
ARC
  5
B83
330
2
100
AcDbEntity
  8
0
100
AcDbCircle
 10
162.7835900757596
 20
244.2756704917464
 30
0.0
 40
0.1
100
AcDbArc
 50
90.0
 51
180.0
  0
LINE
  5
B84
330
2
100
AcDbEntity
  8
0
100
AcDbLine
 10
163.5835900757596
 20
244.3756704917465
 30
0.0
 11
162.7835900757596
 21
244.3756704917465
 31
0.0
  0
LINE
  5
B85
330
2
100
AcDbEntity
  8
0
100
AcDbLine
 10
163.6835900757597
 20
244.4756704917464
 30
0.0
 11
163.6835900757597
 21
245.8756704917465
 31
0.0
  0
LINE
  5
B86
330
2
100
AcDbEntity
  8
0
100
AcDbLine
 10
161.1835900757597
 20
244.2756704917464
 30
0.0
 11
161.1835900757597
 21
246.0756704917464
 31
0.0
  0
LINE
  5
B87
330
2
100
AcDbEntity
  8
0
100
AcDbLine
 10
75.62434493763863
 20
434.2469041478286
 30
0.0
 11
64.61622993972321
 21
434.1508377836162
 31
0.0
  0
ARC
  5
B93
330
2
100
AcDbEntity
  8
0
100
AcDbCircle
 10
35.61622993972264
 20
430.8976443825271
 30
0.0
 40
3.0
100
AcDbArc
 50
90.49999999999155
 51
180.0
  0
ARC
  5
B94
330
2
100
AcDbEntity
  8
0
100
AcDbCircle
 10
132.1243449376379
 20
437.9185627632096
 30
0.0
 40
8.0
100
AcDbArc
 50
147.6076050000002
 51
174.6491309289963
  0
LINE
  5
B95
330
2
100
AcDbEntity
  8
0
100
AcDbLine
 10
127.8243419376378
 20
438.7285683562001
 30
0.0
 11
127.8243419376378
 21
442.6685627632095
 31
0.0
  0
LINE
  5
B96
330
2
100
AcDbEntity
  8
0
100
AcDbLine
 10
129.1243449376379
 20
422.7512657632095
 30
0.0
 11
76.12434493763794
 21
421.8261677632096
 31
0.0
  0
LINE
  5
B97
330
2
100
AcDbEntity
  8
0
100
AcDbLine
 10
127.6505209756721
 20
438.7255345981604
 30
0.0
 11
77.59816889960371
 21
437.8519533925517
 31
0.0
  0
ARC
  5
B98
330
2
100
AcDbEntity
  8
0
100
AcDbCircle
 10
85.62434493763793
 20
403.5935136417865
 30
0.0
 40
1.0
100
AcDbArc
 50
0.0
 51
87.9999999999964
  0
LINE
  5
B99
330
2
100
AcDbEntity
  8
0
100
AcDbLine
 10
81.12434493763794
 20
404.7512577632096
 30
0.0
 11
81.12434493763794
 21
401.2512577632096
 31
0.0
  0
LINE
  5
B9A
330
2
100
AcDbEntity
  8
0
100
AcDbLine
 10
86.62434493763816
 20
386.8512577632094
 30
0.0
 11
86.62434493763795
 21
383.9090107702213
 31
0.0
  0
ARC
  5
B9B
330
2
100
AcDbEntity
  8
0
100
AcDbCircle
 10
81.12434493763794
 20
387.8512577632095
 30
0.0
 40
2.0
100
AcDbArc
 50
235.2729312954272
 51
304.7270687045728
  0
ARC
  5
B9C
330
2
100
AcDbEntity
  8
0
100
AcDbCircle
 10
81.12434493763794
 20
389.2512577632095
 30
0.0
 40
3.25
100
AcDbArc
 50
290.521867400023
 51
312.3994733644488
  0
ARC
  5
B9D
330
2
100
AcDbEntity
  8
0
100
AcDbCircle
 10
81.12434493763794
 20
389.2512577632095
 30
0.0
 40
3.25
100
AcDbArc
 50
176.1778378686729
 51
249.4781325999769
  0
LINE
  5
B9E
330
2
100
AcDbEntity
  8
0
100
AcDbLine
 10
81.12434493763794
 20
382.7512577632096
 30
0.0
 11
85.65924443434074
 21
382.9096199432021
 31
0.0
  0
LINE
  5
B9F
330
2
100
AcDbEntity
  8
0
100
AcDbLine
 10
79.62434493763794
 20
382.7250751658173
 30
0.0
 11
79.62434493763794
 21
374.7512577632096
 31
0.0
  0
LINE
  5
BA0
330
2
100
AcDbEntity
  8
0
100
AcDbLine
 10
79.62434493763794
 20
374.7512577632096
 30
0.0
 11
76.62434493763817
 21
374.7512577632096
 31
0.0
  0
ARC
  5
BA1
330
2
100
AcDbEntity
  8
0
100
AcDbCircle
 10
76.62434493763794
 20
375.7512577632096
 30
0.0
 40
1.0
100
AcDbArc
 50
180.0
 51
270.0
  0
LINE
  5
BA2
330
2
100
AcDbEntity
  8
0
100
AcDbLine
 10
81.12434493763794
 20
382.7512577632096
 30
0.0
 11
76.62434493763794
 21
382.6727099710326
 31
0.0
  0
LINE
  5
BA3
330
2
100
AcDbEntity
  8
0
100
AcDbLine
 10
81.12434493763794
 20
385.8512577632095
 30
0.0
 11
81.12434493763794
 21
382.7512577632096
 31
0.0
  0
ARC
  5
BA4
330
2
100
AcDbEntity
  8
0
100
AcDbCircle
 10
85.62434493763793
 20
383.9090107702212
 30
0.0
 40
1.0
100
AcDbArc
 50
272.0000000000035
 51
0.0
  0
LINE
  5
BA5
330
2
100
AcDbEntity
  8
0
100
AcDbLine
 10
81.12434493763794
 20
395.2512577632096
 30
0.0
 11
92.24972437687529
 21
395.2512577632094
 31
0.0
  0
LINE
  5
BA6
330
2
100
AcDbEntity
  8
0
100
AcDbLine
 10
81.12434493763794
 20
401.2512577632096
 30
0.0
 11
92.1719340330144
 21
401.2512577632096
 31
0.0
  0
LINE
  5
BA7
330
2
100
AcDbEntity
  8
0
100
AcDbLine
 10
81.12434493763794
 20
386.8512577632095
 30
0.0
 11
91.94730094883107
 21
386.8512577632095
 31
0.0
  0
LINE
  5
BA8
330
2
100
AcDbEntity
  8
0
100
AcDbLine
 10
81.12434493763794
 20
388.8512577632095
 30
0.0
 11
91.85304135537126
 21
388.8512577632095
 31
0.0
  0
LINE
  5
BA9
330
2
100
AcDbEntity
  8
0
100
AcDbLine
 10
79.32434493763799
 20
391.9512577632096
 30
0.0
 11
90.0530413553713
 21
391.9512577632096
 31
0.0
  0
LINE
  5
BAA
330
2
100
AcDbEntity
  8
0
100
AcDbLine
 10
79.32434493763799
 20
389.9512577632096
 30
0.0
 11
90.14730094883111
 21
389.9512577632096
 31
0.0
  0
ARC
  5
BAB
330
2
100
AcDbEntity
  8
0
100
AcDbCircle
 10
81.12434493763794
 20
398.2512577632096
 30
0.0
 40
3.0
100
AcDbArc
 50
90.0
 51
270.0
  0
LINE
  5
BAC
330
2
100
AcDbEntity
  8
0
100
AcDbLine
 10
79.32434493763889
 20
392.9512577632095
 30
0.0
 11
82.92434493763698
 21
392.9512577632095
 31
0.0
  0
LINE
  5
BAD
330
2
100
AcDbEntity
  8
0
100
AcDbLine
 10
77.50600708211209
 20
390.11840276793
 30
0.0
 11
77.8815737216637
 21
389.4679022665989
 31
0.0
  0
ARC
  5
BAE
330
2
100
AcDbEntity
  8
0
100
AcDbCircle
 10
79.32434493763799
 20
390.9512577632095
 30
0.0
 40
1.0
100
AcDbArc
 50
90.0
 51
270.0
  0
ARC
  5
BAF
330
2
100
AcDbEntity
  8
0
100
AcDbCircle
 10
79.32434493763799
 20
390.9512577632095
 30
0.0
 40
2.0
100
AcDbArc
 50
89.99999999997395
 51
204.6092450239408
  0
LINE
  5
BB0
330
2
100
AcDbEntity
  8
0
100
AcDbLine
 10
84.64618157969448
 20
389.9512577632096
 30
0.0
 11
84.36711615361218
 21
389.4679022665989
 31
0.0
  0
LINE
  5
BB1
330
2
100
AcDbEntity
  8
0
100
AcDbLine
 10
84.64618157969448
 20
389.9512577632096
 30
0.0
 11
84.36711615361218
 21
389.4679022665989
 31
0.0
  0
ARC
  5
BB2
330
2
100
AcDbEntity
  8
0
100
AcDbCircle
 10
82.9243449376379
 20
390.9512577632095
 30
0.0
 40
2.0
100
AcDbArc
 50
29.99999999999609
 51
90.00000000002605
  0
ARC
  5
BB3
330
2
100
AcDbEntity
  8
0
100
AcDbCircle
 10
81.12434493763794
 20
389.2512577632095
 30
0.0
 40
3.25
100
AcDbArc
 50
352.930285957695
 51
3.822162131327067
  0
LINE
  5
BB4
330
2
100
AcDbEntity
  8
0
100
AcDbLine
 10
81.12434493763794
 20
395.2512577632097
 30
0.0
 11
81.12434493763794
 21
392.9512577632097
 31
0.0
  0
ARC
  5
BB5
330
2
100
AcDbEntity
  8
0
100
AcDbCircle
 10
81.12434493763794
 20
387.8512577632095
 30
0.0
 40
1.0
100
AcDbArc
 50
90.0
 51
270.0
  0
SPLINE
  5
BB6
330
2
100
AcDbEntity
  8
HOJO
100
AcDbSpline
210
0.0
220
0.0
230
1.0
 70
     8
 71
     3
 72
    12
 73
     8
 74
     6
 42
0.0000000001
 43
0.0000000001
 44
0.0000000001
 40
0.0
 40
0.0
 40
0.0
 40
0.0
 40
1.684659730310349
 40
2.786160565551575
 40
4.550934817628674
 40
5.718899366607204
 40
6.335570522767257
 40
6.335570522767257
 40
6.335570522767257
 40
6.335570522767257
 10
92.24972437687529
 20
395.2512577632094
 30
0.0
 10
91.97281276860158
 20
395.8022175768928
 30
0.0
 10
91.51484479487104
 20
396.7134179092032
 30
0.0
 10
92.39746941280865
 20
398.0504191412258
 30
0.0
 10
92.95954725065598
 20
399.3762386076954
 30
0.0
 10
92.4621377591777
 20
400.5104318163049
 30
0.0
 10
92.24646022965314
 20
401.0610088614328
 30
0.0
 10
92.1719340330144
 20
401.2512577632096
 30
0.0
 11
92.24972437687529
 21
395.2512577632094
 31
0.0
 11
91.78398249299357
 21
396.8702583513895
 31
0.0
 11
92.24571232936
 21
397.8703131740098
 31
0.0
 11
92.74591990464864
 21
399.5627139960429
 31
0.0
 11
92.39962227481578
 21
400.6781597093086
 31
0.0
 11
92.1719340330144
 21
401.2512577632096
 31
0.0
  0
SPLINE
  5
BB7
330
2
100
AcDbEntity
  8
HOJO
100
AcDbSpline
210
0.0
220
0.0
230
1.0
 70
     8
 71
     3
 72
    10
 73
     6
 74
     4
 42
0.0000000001
 43
0.0000000001
 44
0.0000000001
 40
0.0
 40
0.0
 40
0.0
 40
0.0
 40
0.697190763405494
 40
1.694952319108353
 40
2.335350738679082
 40
2.335350738679082
 40
2.335350738679082
 40
2.335350738679082
 10
90.14730094883111
 20
389.9512577632096
 30
0.0
 10
90.3145150909393
 20
390.1722427753331
 30
0.0
 10
90.72103223492673
 20
390.7094831956705
 30
0.0
 10
89.54472312414347
 20
391.2199302413434
 30
0.0
 10
89.91017637870278
 20
391.7457150875198
 30
0.0
 10
90.0530413553713
 20
391.9512577632096
 30
0.0
 11
90.14730094883111
 21
389.9512577632096
 31
0.0
 11
90.4357133979604
 21
390.585996465169
 31
0.0
 11
89.80639553046762
 21
391.360262016316
 31
0.0
 11
90.0530413553713
 21
391.9512577632096
 31
0.0
  0
LINE
  5
BB8
330
2
100
AcDbEntity
  8
0
100
AcDbLine
 10
86.62434493763795
 20
389.9512577632094
 30
0.0
 11
86.62434493763816
 21
388.8512577632095
 31
0.0
  0
LINE
  5
BB9
330
2
100
AcDbEntity
  8
0
100
AcDbLine
 10
86.62434493763726
 20
395.2512577632095
 30
0.0
 11
86.62434493763816
 21
391.9512577632096
 31
0.0
  0
SPLINE
  5
BBA
330
2
100
AcDbEntity
  8
HOJO
100
AcDbSpline
210
0.0
220
0.0
230
1.0
 70
     8
 71
     3
 72
    10
 73
     6
 74
     4
 42
0.0000000001
 43
0.0000000001
 44
0.0000000001
 40
0.0
 40
0.0
 40
0.0
 40
0.0
 40
0.697190763405494
 40
1.694952319108353
 40
2.335350738679082
 40
2.335350738679082
 40
2.335350738679082
 40
2.335350738679082
 10
91.94730094883107
 20
386.8512577632095
 30
0.0
 10
92.11451509093926
 20
387.0722427753331
 30
0.0
 10
92.52103223492667
 20
387.6094831956705
 30
0.0
 10
91.34472312414343
 20
388.1199302413433
 30
0.0
 10
91.71017637870274
 20
388.6457150875198
 30
0.0
 10
91.85304135537126
 20
388.8512577632095
 30
0.0
 11
91.94730094883107
 21
386.8512577632095
 31
0.0
 11
92.23571339796036
 21
387.485996465169
 31
0.0
 11
91.60639553046758
 21
388.260262016316
 31
0.0
 11
91.85304135537126
 21
388.8512577632095
 31
0.0
  0
LINE
  5
BBB
330
2
100
AcDbEntity
  8
0
100
AcDbLine
 10
86.62434493763795
 20
403.5935136417865
 30
0.0
 11
86.62434493763816
 21
401.2512577632096
 31
0.0
  0
LINE
  5
BBC
330
2
100
AcDbEntity
  8
0
100
AcDbLine
 10
76.12434493763839
 20
412.6172831669943
 30
0.0
 11
76.12434493763794
 21
436.3521818049315
 31
0.0
  0
LINE
  5
BBD
330
2
100
AcDbEntity
  8
0
100
AcDbLine
 10
81.12485368257081
 20
404.7512488830338
 30
0.0
 11
85.65924443434051
 21
404.5929044688056
 31
0.0
  0
LINE
  5
BBE
330
2
100
AcDbEntity
  8
0
100
AcDbLine
 10
81.12434493763794
 20
404.7512577632096
 30
0.0
 11
76.62434493763794
 21
404.8298055553865
 31
0.0
  0
ARC
  5
BBF
330
2
100
AcDbEntity
  8
0
100
AcDbCircle
 10
76.62434493763794
 20
411.7512577632096
 30
0.0
 40
1.0
100
AcDbArc
 50
90.0
 51
180.0
  0
LINE
  5
BC0
330
2
100
AcDbEntity
  8
0
100
AcDbLine
 10
79.62434493763794
 20
412.7512577632096
 30
0.0
 11
76.62434493763794
 21
412.7512577632096
 31
0.0
  0
LINE
  5
BC1
330
2
100
AcDbEntity
  8
0
100
AcDbLine
 10
79.62434493763794
 20
404.777440360602
 30
0.0
 11
79.62434493763794
 21
412.7512577632096
 31
0.0
  0
ARC
  5
BC2
330
2
100
AcDbEntity
  8
0
100
AcDbCircle
 10
77.62434493763795
 20
436.3521818049315
 30
0.0
 40
1.5
100
AcDbArc
 50
90.99990175633431
 51
180.0
  0
LINE
  5
BC3
330
2
100
AcDbEntity
  8
0
100
AcDbLine
 10
76.12434493763794
 20
435.2512577632096
 30
0.0
 11
75.62434493763794
 21
434.9179367632095
 31
0.0
  0
LINE
  5
BC4
330
2
100
AcDbEntity
  8
0
100
AcDbLine
 10
76.12434493763794
 20
435.2512577632096
 30
0.0
 11
75.62434493763794
 21
434.9179367632095
 31
0.0
  0
LINE
  5
BC5
330
2
100
AcDbEntity
  8
0
100
AcDbLine
 10
127.8243419376378
 20
398.3513577632096
 30
0.0
 11
129.1243449376379
 21
398.3513577632096
 31
0.0
  0
LINE
  5
BC6
330
2
100
AcDbEntity
  8
0
100
AcDbLine
 10
127.8243419376378
 20
389.1512577632096
 30
0.0
 11
129.1243449376379
 21
389.1512577632096
 31
0.0
  0
ARC
  5
BC7
330
2
100
AcDbEntity
  8
0
100
AcDbCircle
 10
132.1243449376379
 20
393.7512577632096
 30
0.0
 40
8.0
100
AcDbArc
 50
147.6076050000002
 51
212.3923949999997
  0
LINE
  5
BC8
330
2
100
AcDbEntity
  8
0
100
AcDbLine
 10
127.8243419376378
 20
398.5012577632096
 30
0.0
 11
127.8243419376378
 21
389.0012577632096
 31
0.0
  0
LINE
  5
BC9
330
2
100
AcDbEntity
  8
0
100
AcDbLine
 10
127.8243419376378
 20
389.0012577632096
 30
0.0
 11
126.2135479376379
 21
389.0012577632096
 31
0.0
  0
ARC
  5
BCA
330
2
100
AcDbEntity
  8
0
100
AcDbCircle
 10
126.2135479376379
 20
390.0012577632096
 30
0.0
 40
1.0
100
AcDbArc
 50
212.3923949999997
 51
270.0
  0
LINE
  5
BCB
330
2
100
AcDbEntity
  8
0
100
AcDbLine
 10
127.8243419376378
 20
398.5012577632096
 30
0.0
 11
126.2135479376379
 21
398.5012577632096
 31
0.0
  0
ARC
  5
BCC
330
2
100
AcDbEntity
  8
0
100
AcDbCircle
 10
126.2135479376379
 20
397.5012577632096
 30
0.0
 40
1.0
100
AcDbArc
 50
90.0
 51
147.6076050000002
  0
ARC
  5
BCD
330
2
100
AcDbEntity
  8
0
100
AcDbCircle
 10
127.6243449376379
 20
440.2253061857806
 30
0.0
 40
1.5
100
AcDbArc
 50
270.9999017563343
 51
0.0
  0
LINE
  5
BCE
330
2
100
AcDbEntity
  8
CENTER
100
AcDbLine
 10
122.2933439376379
 20
437.9185627632096
 30
0.0
 11
134.1243449376379
 21
437.9185627632095
 31
0.0
  0
LINE
  5
BD0
330
2
100
AcDbEntity
  8
0
100
AcDbLine
 10
127.8243419376378
 20
442.5185627632096
 30
0.0
 11
129.1243449376379
 21
442.5185627632096
 31
0.0
  0
LINE
  5
BD1
330
2
100
AcDbEntity
  8
0
100
AcDbLine
 10
127.8243419376378
 20
442.6685627632095
 30
0.0
 11
126.2135479376379
 21
442.6685627632095
 31
0.0
  0
ARC
  5
BD2
330
2
100
AcDbEntity
  8
0
100
AcDbCircle
 10
126.2135479376379
 20
441.6685627632095
 30
0.0
 40
1.0
100
AcDbArc
 50
90.0
 51
147.6076050000002
  0
ARC
  5
BD3
330
2
100
AcDbEntity
  8
0
100
AcDbCircle
 10
130.6243449376379
 20
449.5012577632096
 30
0.0
 40
1.5
100
AcDbArc
 50
90.0
 51
180.0
  0
LINE
  5
BD4
330
2
100
AcDbEntity
  8
0
100
AcDbLine
 10
130.6243449376379
 20
451.0012577632096
 30
0.0
 11
138.1243449376379
 21
451.0012577632096
 31
0.0
  0
LINE
  5
1999
330
2
100
AcDbEntity
  8
0
100
AcDbLine
 10
64.61622993972321
 20
438.5965097107566
 30
0.0
 11
64.61622993972321
 21
413.9467268503647
 31
0.0
  0
LINE
  5
199A
330
2
100
AcDbEntity
  8
0
100
AcDbLine
 10
62.61622993972321
 20
439.6867997472226
 30
0.0
 11
62.61622993972321
 21
413.9467268503647
 31
0.0
  0
LINE
  5
199B
330
2
100
AcDbEntity
  8
0
100
AcDbLine
 10
63.61622993972321
 20
439.6675804956637
 30
0.0
 11
63.61622993972321
 21
412.9467268503646
 31
0.0
  0
ARC
  5
199D
330
2
100
AcDbEntity
  8
0
100
AcDbCircle
 10
63.61622993972332
 20
413.9467268503647
 30
0.0
 40
1.0
100
AcDbArc
 50
180.0
 51
0.0
  0
SPLINE
  5
19A0
330
2
100
AcDbEntity
  8
HOJO
100
AcDbSpline
210
0.0
220
0.0
230
1.0
 70
     8
 71
     3
 72
    10
 73
     6
 74
     0
 42
0.0000000001
 43
0.0000000001
 40
0.0613843116224887
 40
0.0613843116224887
 40
0.0613843116224887
 40
0.0613843116224887
 40
0.4721425064489786
 40
1.037679944361044
 40
1.199019778825058
 40
1.199019778825058
 40
1.199019778825058
 40
1.199019778825058
 10
64.61622993972321
 20
438.5965097107566
 30
0.0
 10
64.50168561073372
 20
438.4620050338195
 30
0.0
 10
64.2342099727822
 20
438.1861044595434
 30
0.0
 10
64.02424926508115
 20
438.7974919386713
 30
0.0
 10
63.68753729112109
 20
438.6573163235916
 30
0.0
 10
63.61622993972583
 20
438.6157289623172
 30
0.0
  0
SPLINE
  5
19A1
330
2
100
AcDbEntity
  8
HOJO
100
AcDbSpline
210
0.0
220
0.0
230
1.0
 70
     8
 71
     3
 72
    10
 73
     6
 74
     0
 42
0.0000000001
 43
0.0000000001
 40
0.0613843116224887
 40
0.0613843116224887
 40
0.0613843116224887
 40
0.0613843116224887
 40
0.4721425064489786
 40
1.037679944361044
 40
1.199019778825058
 40
1.199019778825058
 40
1.199019778825058
 40
1.199019778825058
 10
63.61622993972321
 20
439.6675804956637
 30
0.0
 10
63.50168561073371
 20
439.5330758187265
 30
0.0
 10
63.23420997278219
 20
439.2571752444504
 30
0.0
 10
63.02424926508115
 20
439.8685627235784
 30
0.0
 10
62.68753729112109
 20
439.7283871084986
 30
0.0
 10
62.61622993972583
 20
439.6867997472241
 30
0.0
  0
LINE
  5
19D9
330
2
100
AcDbEntity
  8
0
100
AcDbLine
 10
62.6162299397232
 20
434.1333840480347
 30
0.0
 11
35.59005033322751
 21
433.8975301517194
 31
0.0
  0
ENDSEC
  0
SECTION
  2
OBJECTS
  0
DICTIONARY
  5
7
330
0
100
AcDbDictionary
  3
ACAD_GROUP
350
75
  3
ACAD_LAYOUT
350
61
  3
ACAD_MLINESTYLE
350
76
  3
ACAD_PLOTSETTINGS
350
77
  3
ACAD_PLOTSTYLENAME
350
6
  3
ACADDIM
350
480
  3
ACDBHEADERROUNDTRIPXREC
350
1A20
  3
ACDBVARIABLEDICTIONARY
350
102
  3
DWGPROPS
350
3D2
  0
DICTIONARY
  5
1A41
330
2
100
AcDbDictionary
280
     1
  3
ACAD_LAYOUTSELFREF
360
1A42
  0
DICTIONARY
  5
1A43
330
1A1A
100
AcDbDictionary
280
     1
  3
ACAD_LAYOUTSELFREF
360
1A44
  0
DICTIONARY
  5
75
102
{ACAD_REACTORS
330
7
102
}
330
7
100
AcDbDictionary
  0
DICTIONARY
  5
61
102
{ACAD_REACTORS
330
7
102
}
330
7
100
AcDbDictionary
  0
DICTIONARY
  5
76
102
{ACAD_REACTORS
330
7
102
}
330
7
100
AcDbDictionary
  3
STANDARD
350
78
  0
DICTIONARY
  5
77
102
{ACAD_REACTORS
330
7
102
}
330
7
100
AcDbDictionary
  0
ACDBDICTIONARYWDFLT
  5
6
102
{ACAD_REACTORS
330
7
102
}
330
7
100
AcDbDictionary
281
     1
  3
Normal
350
5
100
AcDbDictionaryWithDefault
340
5
  0
XRECORD
  5
480
102
{ACAD_REACTORS
330
7
102
}
330
7
100
AcDbXrecord
 90
   990106
  3

 60
     0
 61
     0
 62
     1
 63
     3
 64
     1
 65
     0
 66
     0
 67
     3
 68
     1
 69
     0
 70
     0
 71
     0
 72
     0
 40
0.0
170
     2
340
0
  0
DICTIONARY
  5
1A20
102
{ACAD_REACTORS
330
7
102
}
330
7
100
AcDbDictionary
  3
CEPSNTYPE
350
1A2A
  3
DIMSTYLEDATA
350
1A2E
  3
FINGERPRINTGUID
350
1A2B
  3
HYPERLINKBASE
350
1A23
  3
INSUNITS
350
1A29
  3
LAYOUTDICT
350
1A25
  3
LWETCUNION
350
1A28
  3
PLOTSETDICT
350
1A26
  3
PLOTSTYLNAMDICT
350
1A27
  3
PSVPSCALE
350
1A2D
  3
PUCSBASE
350
1A31
  3
PUCSORGBACK
350
1A37
  3
PUCSORGBOTTOM
350
1A33
  3
PUCSORGFRONT
350
1A36
  3
PUCSORGLEFT
350
1A34
  3
PUCSORGRIGHT
350
1A35
  3
PUCSORGTOP
350
1A32
  3
PUCSORTHOREF
350
1A2F
  3
PUCSORTHOVIEW
350
1A30
  3
STYLESHEET
350
1A24
  3
TSTACKALIGN
350
1A21
  3
TSTACKSIZE
350
1A22
  3
UCSBASE
350
1A3A
  3
UCSORGBACK
350
1A40
  3
UCSORGBOTTOM
350
1A3C
  3
UCSORGFRONT
350
1A3F
  3
UCSORGLEFT
350
1A3D
  3
UCSORGRIGHT
350
1A3E
  3
UCSORGTOP
350
1A3B
  3
UCSORTHOREF
350
1A38
  3
UCSORTHOVIEW
350
1A39
  3
VERSIONGUID
350
1A2C
  0
DICTIONARY
  5
102
102
{ACAD_REACTORS
330
7
102
}
330
7
100
AcDbDictionary
  3
DIMASSOC
350
103
  0
XRECORD
  5
3D2
102
{ACAD_REACTORS
330
7
102
}
330
7
100
AcDbXrecord
  1
DWGPROPS COOKIE
  2

  3

  4

  6

  7

  8

  9

300
=
301
=
302
=
303
=
304
=
305
=
306
=
307
=
308
=
309
=
 40
0.5353330671296296
 41
2452052.431989363
 42
2453406.550756377
  1

 90
        0
  0
XRECORD
  5
1A42
102
{ACAD_REACTORS
330
1A41
102
}
330
1A41
100
AcDbXrecord
340
2
  0
XRECORD
  5
1A44
102
{ACAD_REACTORS
330
1A43
102
}
330
1A43
100
AcDbXrecord
340
1A1A
  0
MLINESTYLE
  5
78
102
{ACAD_REACTORS
330
76
102
}
330
76
100
AcDbMlineStyle
  2
STANDARD
 70
     0
  3

 62
     0
 51
90.0
 52
90.0
 71
     2
 49
0.5
 62
   256
  6
BYLAYER
 49
-0.5
 62
   256
  6
BYLAYER
  0
ACDBPLACEHOLDER
  5
5
102
{ACAD_REACTORS
330
6
102
}
330
6
100
AcDbPlaceHolder
280
     0
  0
XRECORD
  5
1A2A
102
{ACAD_REACTORS
330
1A20
102
}
330
1A20
100
AcDbXrecord
 90
        0
  0
XRECORD
  5
1A2E
102
{ACAD_REACTORS
330
1A20
102
}
330
1A20
100
AcDbXrecord
1000
DSTYLE
1002
{
1070
   179
 70
     2
1070
   277
 70
     6
1002
}
  0
XRECORD
  5
1A2B
102
{ACAD_REACTORS
330
1A20
102
}
330
1A20
100
AcDbXrecord
  1
{6385560B-F4B1-4644-A7C2-A3E32AC3D232}
  0
XRECORD
  5
1A23
102
{ACAD_REACTORS
330
1A20
102
}
330
1A20
100
AcDbXrecord
  1

  0
XRECORD
  5
1A29
102
{ACAD_REACTORS
330
1A20
102
}
330
1A20
100
AcDbXrecord
 90
        0
  0
XRECORD
  5
1A25
102
{ACAD_REACTORS
330
1A20
102
}
330
1A20
100
AcDbXrecord
340
61
  0
XRECORD
  5
1A28
102
{ACAD_REACTORS
330
1A20
102
}
330
1A20
100
AcDbXrecord
 90
    10781
  0
XRECORD
  5
1A26
102
{ACAD_REACTORS
330
1A20
102
}
330
1A20
100
AcDbXrecord
340
77
  0
XRECORD
  5
1A27
102
{ACAD_REACTORS
330
1A20
102
}
330
1A20
100
AcDbXrecord
340
6
  0
XRECORD
  5
1A2D
102
{ACAD_REACTORS
330
1A20
102
}
330
1A20
100
AcDbXrecord
 40
0.0
  0
XRECORD
  5
1A31
102
{ACAD_REACTORS
330
1A20
102
}
330
1A20
100
AcDbXrecord
340
0
  0
XRECORD
  5
1A37
102
{ACAD_REACTORS
330
1A20
102
}
330
1A20
100
AcDbXrecord
 10
0.0
 20
0.0
 30
0.0
  0
XRECORD
  5
1A33
102
{ACAD_REACTORS
330
1A20
102
}
330
1A20
100
AcDbXrecord
 10
0.0
 20
0.0
 30
0.0
  0
XRECORD
  5
1A36
102
{ACAD_REACTORS
330
1A20
102
}
330
1A20
100
AcDbXrecord
 10
0.0
 20
0.0
 30
0.0
  0
XRECORD
  5
1A34
102
{ACAD_REACTORS
330
1A20
102
}
330
1A20
100
AcDbXrecord
 10
0.0
 20
0.0
 30
0.0
  0
XRECORD
  5
1A35
102
{ACAD_REACTORS
330
1A20
102
}
330
1A20
100
AcDbXrecord
 10
0.0
 20
0.0
 30
0.0
  0
XRECORD
  5
1A32
102
{ACAD_REACTORS
330
1A20
102
}
330
1A20
100
AcDbXrecord
 10
0.0
 20
0.0
 30
0.0
  0
XRECORD
  5
1A2F
102
{ACAD_REACTORS
330
1A20
102
}
330
1A20
100
AcDbXrecord
340
0
  0
XRECORD
  5
1A30
102
{ACAD_REACTORS
330
1A20
102
}
330
1A20
100
AcDbXrecord
 70
     0
  0
XRECORD
  5
1A24
102
{ACAD_REACTORS
330
1A20
102
}
330
1A20
100
AcDbXrecord
  1
Sekkei.ctb
  0
XRECORD
  5
1A21
102
{ACAD_REACTORS
330
1A20
102
}
330
1A20
100
AcDbXrecord
 90
        1
  0
XRECORD
  5
1A22
102
{ACAD_REACTORS
330
1A20
102
}
330
1A20
100
AcDbXrecord
 90
       70
  0
XRECORD
  5
1A3A
102
{ACAD_REACTORS
330
1A20
102
}
330
1A20
100
AcDbXrecord
340
0
  0
XRECORD
  5
1A40
102
{ACAD_REACTORS
330
1A20
102
}
330
1A20
100
AcDbXrecord
 10
0.0
 20
0.0
 30
0.0
  0
XRECORD
  5
1A3C
102
{ACAD_REACTORS
330
1A20
102
}
330
1A20
100
AcDbXrecord
 10
0.0
 20
0.0
 30
0.0
  0
XRECORD
  5
1A3F
102
{ACAD_REACTORS
330
1A20
102
}
330
1A20
100
AcDbXrecord
 10
0.0
 20
0.0
 30
0.0
  0
XRECORD
  5
1A3D
102
{ACAD_REACTORS
330
1A20
102
}
330
1A20
100
AcDbXrecord
 10
0.0
 20
0.0
 30
0.0
  0
XRECORD
  5
1A3E
102
{ACAD_REACTORS
330
1A20
102
}
330
1A20
100
AcDbXrecord
 10
0.0
 20
0.0
 30
0.0
  0
XRECORD
  5
1A3B
102
{ACAD_REACTORS
330
1A20
102
}
330
1A20
100
AcDbXrecord
 10
0.0
 20
0.0
 30
0.0
  0
XRECORD
  5
1A38
102
{ACAD_REACTORS
330
1A20
102
}
330
1A20
100
AcDbXrecord
340
0
  0
XRECORD
  5
1A39
102
{ACAD_REACTORS
330
1A20
102
}
330
1A20
100
AcDbXrecord
 70
     0
  0
XRECORD
  5
1A2C
102
{ACAD_REACTORS
330
1A20
102
}
330
1A20
100
AcDbXrecord
  1
{050BA7F6-9576-42EA-B9C6-AC465A5C2A1D}
  0
DICTIONARYVAR
  5
103
102
{ACAD_REACTORS
330
102
102
}
330
102
100
DictionaryVariables
280
     0
  1
1
  0
ENDSEC
  0
EOF
