  0
SECTION
  2
HEADER
  9
$ACADVER
  1
AC1014
  9
$ACADMAINTVER
 70
     9
  9
$DWGCODEPAGE
  3
ANSI_932
  9
$INSBASE
 10
0.0
 20
0.0
 30
0.0
  9
$EXTMIN
 10
21.17406787232533
 20
13.29966819375625
 30
0.0
  9
$EXTMAX
 10
312.2180111786832
 20
313.2517457406724
 30
0.0
  9
$LIMMIN
 10
-62.77849542816023
 20
-26.39488636428564
  9
$LIMMAX
 10
441.3350678048033
 20
286.362098410112
  9
$ORTHOMODE
 70
     1
  9
$REGENMODE
 70
     1
  9
$FILLMODE
 70
     1
  9
$QTEXTMODE
 70
     0
  9
$MIRRTEXT
 70
     0
  9
$DRAGMODE
 70
     2
  9
$LTSCALE
 40
2.0
  9
$OSMODE
 70
    37
  9
$ATTMODE
 70
     1
  9
$TEXTSIZE
 40
6.0
  9
$TRACEWID
 40
1.0
  9
$TEXTSTYLE
  7
STANDARD
  9
$CLAYER
  8
0
  9
$CELTYPE
  6
BYLAYER
  9
$CECOLOR
 62
   256
  9
$CELTSCALE
 40
1.0
  9
$DELOBJ
 70
     1
  9
$DISPSILH
 70
     0
  9
$DIMSCALE
 40
2.0
  9
$DIMASZ
 40
1.8
  9
$DIMEXO
 40
0.625
  9
$DIMDLI
 40
3.75
  9
$DIMRND
 40
0.0
  9
$DIMDLE
 40
0.0
  9
$DIMEXE
 40
0.8
  9
$DIMTP
 40
0.0
  9
$DIMTM
 40
0.0
  9
$DIMTXT
 40
1.8
  9
$DIMCEN
 40
2.5
  9
$DIMTSZ
 40
0.0
  9
$DIMTOL
 70
     0
  9
$DIMLIM
 70
     0
  9
$DIMTIH
 70
     0
  9
$DIMTOH
 70
     0
  9
$DIMSE1
 70
     0
  9
$DIMSE2
 70
     0
  9
$DIMTAD
 70
     1
  9
$DIMZIN
 70
     8
  9
$DIMBLK
  1

  9
$DIMASO
 70
     1
  9
$DIMSHO
 70
     1
  9
$DIMPOST
  1

  9
$DIMAPOST
  1

  9
$DIMALT
 70
     0
  9
$DIMALTD
 70
     4
  9
$DIMALTF
 40
0.0394
  9
$DIMLFAC
 40
1.0
  9
$DIMTOFL
 70
     1
  9
$DIMTVP
 40
0.0
  9
$DIMTIX
 70
     0
  9
$DIMSOXD
 70
     0
  9
$DIMSAH
 70
     0
  9
$DIMBLK1
  1

  9
$DIMBLK2
  1

  9
$DIMSTYLE
  2
STANDARD
  9
$DIMCLRD
 70
     0
  9
$DIMCLRE
 70
     0
  9
$DIMCLRT
 70
     0
  9
$DIMTFAC
 40
1.0
  9
$DIMGAP
 40
0.75
  9
$DIMJUST
 70
     0
  9
$DIMSD1
 70
     0
  9
$DIMSD2
 70
     0
  9
$DIMTOLJ
 70
     1
  9
$DIMTZIN
 70
     0
  9
$DIMALTZ
 70
     0
  9
$DIMALTTZ
 70
     0
  9
$DIMFIT
 70
     3
  9
$DIMUPT
 70
     0
  9
$DIMUNIT
 70
     8
  9
$DIMDEC
 70
     2
  9
$DIMTDEC
 70
     2
  9
$DIMALTU
 70
     8
  9
$DIMALTTD
 70
     4
  9
$DIMTXSTY
  7
STANDARD
  9
$DIMAUNIT
 70
     0
  9
$LUNITS
 70
     2
  9
$LUPREC
 70
     3
  9
$SKETCHINC
 40
1.0
  9
$FILLETRAD
 40
10.0
  9
$AUNITS
 70
     0
  9
$AUPREC
 70
     2
  9
$MENU
  1
.
  9
$ELEVATION
 40
0.0
  9
$PELEVATION
 40
0.0
  9
$THICKNESS
 40
0.0
  9
$LIMCHECK
 70
     0
  9
$BLIPMODE
 70
     0
  9
$CHAMFERA
 40
0.0
  9
$CHAMFERB
 40
0.0
  9
$CHAMFERC
 40
20.0
  9
$CHAMFERD
 40
0.0
  9
$SKPOLY
 70
     0
  9
$TDCREATE
 40
2453692.571974097
  9
$TDUPDATE
 40
2453928.618162430
  9
$TDINDWG
 40
0.0557288079
  9
$TDUSRTIMER
 40
0.0557288079
  9
$USRTIMER
 70
     1
  9
$ANGBASE
 50
0.0
  9
$ANGDIR
 70
     0
  9
$PDMODE
 70
     0
  9
$PDSIZE
 40
-10.0
  9
$PLINEWID
 40
0.0
  9
$COORDS
 70
     0
  9
$SPLFRAME
 70
     0
  9
$SPLINETYPE
 70
     6
  9
$SPLINESEGS
 70
     8
  9
$ATTDIA
 70
     0
  9
$ATTREQ
 70
     1
  9
$HANDLING
 70
-16383
  9
$HANDSEED
  5
1862
  9
$SURFTAB1
 70
     6
  9
$SURFTAB2
 70
     6
  9
$SURFTYPE
 70
     6
  9
$SURFU
 70
     6
  9
$SURFV
 70
     6
  9
$UCSNAME
  2

  9
$UCSORG
 10
0.0
 20
0.0
 30
0.0
  9
$UCSXDIR
 10
1.0
 20
0.0
 30
0.0
  9
$UCSYDIR
 10
0.0
 20
1.0
 30
0.0
  9
$PUCSNAME
  2

  9
$PUCSORG
 10
0.0
 20
0.0
 30
0.0
  9
$PUCSXDIR
 10
1.0
 20
0.0
 30
0.0
  9
$PUCSYDIR
 10
0.0
 20
1.0
 30
0.0
  9
$USERI1
 70
     0
  9
$USERI2
 70
     0
  9
$USERI3
 70
     0
  9
$USERI4
 70
     0
  9
$USERI5
 70
     0
  9
$USERR1
 40
0.0
  9
$USERR2
 40
0.0
  9
$USERR3
 40
0.0
  9
$USERR4
 40
0.0
  9
$USERR5
 40
0.0
  9
$WORLDVIEW
 70
     1
  9
$SHADEDGE
 70
     3
  9
$SHADEDIF
 70
    70
  9
$TILEMODE
 70
     1
  9
$MAXACTVP
 70
    48
  9
$PINSBASE
 10
0.0
 20
0.0
 30
0.0
  9
$PLIMCHECK
 70
     0
  9
$PEXTMIN
 10
0.0
 20
0.0
 30
0.0
  9
$PEXTMAX
 10
0.0
 20
0.0
 30
0.0
  9
$PLIMMIN
 10
0.0
 20
0.0
  9
$PLIMMAX
 10
12.0
 20
9.0
  9
$UNITMODE
 70
     0
  9
$VISRETAIN
 70
     1
  9
$PLINEGEN
 70
     0
  9
$PSLTSCALE
 70
     1
  9
$TREEDEPTH
 70
  3020
  9
$PICKSTYLE
 70
     1
  9
$CMLSTYLE
  2
STANDARD
  9
$CMLJUST
 70
     0
  9
$CMLSCALE
 40
1.0
  9
$PROXYGRAPHICS
 70
     1
  9
$MEASUREMENT
 70
     0
  0
ENDSEC
  0
SECTION
  2
CLASSES
  0
CLASS
  1
DICTIONARYVAR
  2
AcDbDictionaryVar
  3
AutoCAD 2000
 90
        0
280
     0
281
     0
  0
CLASS
  1
ACDBDICTIONARYWDFLT
  2
AcDbDictionaryWithDefault
  3
AutoCAD 2000
 90
        0
280
     0
281
     0
  0
CLASS
  1
ACDBPLACEHOLDER
  2
AcDbPlaceHolder
  3
AutoCAD 2000
 90
        0
280
     0
281
     0
  0
CLASS
  1
LAYOUT
  2
AcDbLayout
  3
AutoCAD 2000
 90
        0
280
     0
281
     0
  0
CLASS
  1
LONG_TRANSACTION
  2
AcDbLongTransaction
  3
AutoCAD 2000
 90
        0
280
     0
281
     0
  0
CLASS
  1
LWPOLYLINE
  2
AcDbPolyline
  3
AutoCAD 2000
 90
        0
280
     0
281
     1
  0
CLASS
  1
HATCH
  2
AcDbHatch
  3
AutoCAD 2000
 90
        0
280
     0
281
     1
  0
CLASS
  1
XRECORD
  2
AcDbXrecord
  3
AutoCAD 2000
 90
        0
280
     0
281
     0
  0
ENDSEC
  0
SECTION
  2
TABLES
  0
TABLE
  2
VPORT
  5
6E
330
0
100
AcDbSymbolTable
 70
     2
  0
VPORT
  5
183C
330
6E
100
AcDbSymbolTableRecord
100
AcDbViewportTableRecord
  2
*ACTIVE
 70
     0
 10
0.0
 20
0.0
 11
1.0
 21
1.0
 12
183.4514742426444
 22
163.2777743888516
 13
0.0
 23
0.0
 14
10.0
 24
10.0
 15
12.0
 25
12.0
 16
0.0
 26
0.0
 36
1.0
 17
0.0
 27
0.0
 37
0.0
 40
302.3060929147149
 41
1.566970091027308
 42
50.0
 43
0.0
 44
0.0
 50
0.0
 51
0.0
 71
     0
 72
   100
 73
     1
 74
     3
 75
     0
 76
     0
 77
     0
 78
     0
  0
ENDTAB
  0
TABLE
  2
LTYPE
  5
69
330
0
100
AcDbSymbolTable
 70
     4
  0
LTYPE
  5
6A
330
69
100
AcDbSymbolTableRecord
100
AcDbLinetypeTableRecord
  2
BYBLOCK
 70
     0
  3

 72
    65
 73
     0
 40
0.0
  0
LTYPE
  5
6B
330
69
100
AcDbSymbolTableRecord
100
AcDbLinetypeTableRecord
  2
BYLAYER
 70
     0
  3

 72
    65
 73
     0
 40
0.0
  0
LTYPE
  5
8
330
69
100
AcDbSymbolTableRecord
100
AcDbLinetypeTableRecord
  2
CONTINUOUS
 70
     0
  3
Solid line
 72
    65
 73
     0
 40
0.0
  0
LTYPE
  5
27C
330
69
100
AcDbSymbolTableRecord
100
AcDbLinetypeTableRecord
  2
SEKKEI_A2_
 70
     0
  3
center(A2)  ____ _ ____ _ ____ _ ____ _ ____ _ 
 72
    65
 73
     4
 40
14.28749999999999
 49
9.525
 74
     0
 49
-1.587499999999999
 74
     0
 49
1.587499999999999
 74
     0
 49
-1.587499999999999
 74
     0
  0
LTYPE
  5
2B4
330
69
100
AcDbSymbolTableRecord
100
AcDbLinetypeTableRecord
  2
HIDDEN2
 70
     0
  3
Hidden (.5x) _ _ _ _ _ _ _ _ _ _ _ _ _ _ _ _ _
 72
    65
 73
     2
 40
4.762499999999999
 49
3.174999999999999
 74
     0
 49
-1.587499999999999
 74
     0
  0
LTYPE
  5
48F
330
69
100
AcDbSymbolTableRecord
100
AcDbLinetypeTableRecord
  2
SEKKEI_H
 70
     0
  3
Hidden-S _ _ _ _ _ _ _ _ _ _ _ _ _ _ _ _ _
 72
    65
 73
     2
 40
2.381249999999999
 49
1.587499999999999
 74
     0
 49
-0.79375
 74
     0
  0
ENDTAB
  0
TABLE
  2
LAYER
  5
66
330
0
100
AcDbSymbolTable
 70
     9
  0
LAYER
  5
5E
330
66
100
AcDbSymbolTableRecord
100
AcDbLayerTableRecord
  2
0
 70
     0
 62
     7
  6
CONTINUOUS
  0
LAYER
  5
3E
330
66
100
AcDbSymbolTableRecord
100
AcDbLayerTableRecord
  2
CENTER
 70
     0
 62
     3
  6
SEKKEI_A2_
  0
LAYER
  5
2B5
330
66
100
AcDbSymbolTableRecord
100
AcDbLayerTableRecord
  2
HIDS
 70
     0
 62
     1
  6
HIDDEN2
  0
LAYER
  5
2BA
330
66
100
AcDbSymbolTableRecord
100
AcDbLayerTableRecord
  2
HOJO
 70
     0
 62
     4
  6
CONTINUOUS
  0
LAYER
  5
3FA
330
66
100
AcDbSymbolTableRecord
100
AcDbLayerTableRecord
  2
TITLE
 70
     0
 62
     4
  6
CONTINUOUS
  0
ENDTAB
  0
TABLE
  2
STYLE
  5
67
330
0
100
AcDbSymbolTable
 70
     1
  0
STYLE
  5
16
330
67
100
AcDbSymbolTableRecord
100
AcDbTextStyleTableRecord
  2
STANDARD
 70
     0
 40
0.0
 41
1.0
 50
0.0
 71
     0
 42
6.0
  3
simplex.shx
  4
extfont.shx
  0
ENDTAB
  0
TABLE
  2
VIEW
  5
6C
330
0
100
AcDbSymbolTable
 70
     0
  0
ENDTAB
  0
TABLE
  2
UCS
  5
6D
330
0
100
AcDbSymbolTable
 70
     0
  0
ENDTAB
  0
TABLE
  2
APPID
  5
70
330
0
100
AcDbSymbolTable
 70
     1
  0
APPID
  5
71
330
70
100
AcDbSymbolTableRecord
100
AcDbRegAppTableRecord
  2
ACAD
 70
     0
  0
ENDTAB
  0
TABLE
  2
DIMSTYLE
  5
72
330
0
100
AcDbSymbolTable
 70
     1
  0
DIMSTYLE
105
73
330
72
100
AcDbSymbolTableRecord
100
AcDbDimStyleTableRecord
  2
STANDARD
 70
     0
  3

  4

  5

  6

  7

 40
2.0
 41
1.8
 42
0.625
 43
3.75
 44
0.8
 45
0.0
 46
0.0
 47
0.0
 48
0.0
140
1.8
141
2.5
142
0.0
143
0.0394
144
1.0
145
0.0
146
1.0
147
0.75
 71
     0
 72
     0
 73
     0
 74
     0
 75
     0
 76
     0
 77
     1
 78
     8
170
     0
171
     4
172
     1
173
     0
174
     0
175
     0
176
     0
177
     0
178
     0
270
     8
271
     2
272
     2
273
     8
274
     4
340
16
275
     0
280
     0
281
     0
282
     0
283
     1
284
     0
285
     0
286
     0
287
     3
288
     0
  0
ENDTAB
  0
TABLE
  2
BLOCK_RECORD
  5
1
330
0
100
AcDbSymbolTable
 70
    34
  0
BLOCK_RECORD
  5
2
102
{ACAD_XDICTIONARY
360
185E
102
}
330
1
100
AcDbSymbolTableRecord
100
AcDbBlockTableRecord
  2
*MODEL_SPACE
  0
BLOCK_RECORD
  5
1837
102
{ACAD_XDICTIONARY
360
1860
102
}
330
1
100
AcDbSymbolTableRecord
100
AcDbBlockTableRecord
  2
*PAPER_SPACE
  0
ENDTAB
  0
ENDSEC
  0
SECTION
  2
BLOCKS
  0
BLOCK
  5
5D
330
2
100
AcDbEntity
  8
0
100
AcDbBlockBegin
  2
*MODEL_SPACE
 70
     0
 10
0.0
 20
0.0
 30
0.0
  3
*MODEL_SPACE
  1

  0
ENDBLK
  5
5F
330
2
100
AcDbEntity
  8
0
100
AcDbBlockEnd
  0
BLOCK
  5
1839
330
1837
100
AcDbEntity
 67
     1
  8
0
100
AcDbBlockBegin
  2
*PAPER_SPACE
 70
     0
 10
0.0
 20
0.0
 30
0.0
  3
*PAPER_SPACE
  1

  0
ENDBLK
  5
183A
330
1837
100
AcDbEntity
 67
     1
  8
0
100
AcDbBlockEnd
  0
ENDSEC
  0
SECTION
  2
ENTITIES
  0
LINE
  5
6B5
330
2
100
AcDbEntity
  8
CENTER
100
AcDbLine
 10
21.17406787232533
 20
101.8009568096074
 30
0.0
 11
131.6740148723251
 21
101.8009568096074
 31
0.0
  0
LINE
  5
6DE
330
2
100
AcDbEntity
  8
0
100
AcDbLine
 10
222.3038883974966
 20
65.09386880960744
 30
0.0
 11
234.5718933974965
 21
77.36185680960744
 31
0.0
  0
ARC
  5
6DF
330
2
100
AcDbEntity
  8
0
100
AcDbCircle
 10
267.0108893974965
 20
101.8009568096074
 30
0.0
 40
38.13999899999999
100
AcDbArc
 50
134.1197050000002
 51
212.8527980000013
  0
LINE
  5
6E0
330
2
100
AcDbEntity
  8
0
100
AcDbLine
 10
223.0108893974966
 20
64.80095680960744
 30
0.0
 11
237.0108893974966
 21
64.80095680960744
 31
0.0
  0
LINE
  5
6E1
330
2
100
AcDbEntity
  8
CENTER
100
AcDbLine
 10
223.8708903974966
 20
101.8009568096074
 30
0.0
 11
310.1508883974966
 21
101.8009568096074
 31
0.0
  0
LINE
  5
6E2
330
2
100
AcDbEntity
  8
0
100
AcDbLine
 10
223.0108893974966
 20
57.80095680960744
 30
0.0
 11
236.0108893974966
 21
57.80095680960744
 31
0.0
  0
LINE
  5
6E3
330
2
100
AcDbEntity
  8
0
100
AcDbLine
 10
222.0108893974966
 20
58.80095680960744
 30
0.0
 11
312.0109043974967
 21
58.80095680960744
 31
0.0
  0
LINE
  5
6E5
330
2
100
AcDbEntity
  8
0
100
AcDbLine
 10
129.6739688723252
 20
129.3009568096074
 30
0.0
 11
129.6739688723252
 21
96.30095680960744
 31
0.0
  0
LINE
  5
6E6
330
2
100
AcDbEntity
  8
0
100
AcDbLine
 10
85.6740068723252
 20
139.9409558096074
 30
0.0
 11
85.6740068723252
 21
64.80095680960744
 31
0.0
  0
ARC
  5
6E8
330
2
100
AcDbEntity
  8
0
100
AcDbCircle
 10
122.6740148723251
 20
81.14676680960746
 30
0.0
 40
4.0
100
AcDbArc
 50
270.4999999999996
 51
0.0
  0
LINE
  5
6E9
330
2
100
AcDbEntity
  8
0
100
AcDbLine
 10
110.1740148723251
 20
64.80095680960744
 30
0.0
 11
125.6740148723251
 21
64.80095680960744
 31
0.0
  0
LINE
  5
6EA
330
2
100
AcDbEntity
  8
0
100
AcDbLine
 10
112.1740148723251
 20
57.80095680960744
 30
0.0
 11
125.6740148723251
 21
57.80095680960744
 31
0.0
  0
LINE
  5
6EB
330
2
100
AcDbEntity
  8
0
100
AcDbLine
 10
76.67400687232521
 20
58.80095680960744
 30
0.0
 11
126.6740148723251
 21
58.80095680960744
 31
0.0
  0
LINE
  5
6EC
330
2
100
AcDbEntity
  8
0
100
AcDbLine
 10
87.68280687232504
 20
77.08545680960742
 30
0.0
 11
93.16530887232511
 21
77.03755780960745
 31
0.0
  0
LINE
  5
6ED
330
2
100
AcDbEntity
  8
0
100
AcDbLine
 10
77.6740068723252
 20
64.80095680960744
 30
0.0
 11
93.1740068723252
 21
64.80095680960744
 31
0.0
  0
LINE
  5
6EE
330
2
100
AcDbEntity
  8
0
100
AcDbLine
 10
77.6740068723252
 20
57.80095680960744
 30
0.0
 11
91.17400687232521
 21
57.80095680960744
 31
0.0
  0
LINE
  5
6F1
330
2
100
AcDbEntity
  8
0
100
AcDbLine
 10
86.6740068723252
 20
76.08545680960742
 30
0.0
 11
86.6740068723252
 21
64.80095680960744
 31
0.0
  0
LINE
  5
6F3
330
2
100
AcDbEntity
  8
CENTER
100
AcDbLine
 10
84.1740068723252
 20
67.30095680960744
 30
0.0
 11
84.1740068723252
 21
55.30095680960744
 31
0.0
  0
LINE
  5
6F4
330
2
100
AcDbEntity
  8
0
100
AcDbLine
 10
76.67400687232521
 20
63.80095680960744
 30
0.0
 11
76.67400687232521
 21
58.80095680960744
 31
0.0
  0
LINE
  5
6F5
330
2
100
AcDbEntity
  8
HIDS
  6
SEKKEI_H
100
AcDbLine
 10
80.92400687232521
 20
64.80095680960744
 30
0.0
 11
80.92400687232521
 21
57.80095680960744
 31
0.0
  0
LINE
  5
6F6
330
2
100
AcDbEntity
  8
0
100
AcDbLine
 10
76.67400687232521
 20
58.80095680960744
 30
0.0
 11
77.6740068723252
 21
57.80095680960744
 31
0.0
  0
ARC
  5
6F7
330
2
100
AcDbEntity
  8
0
100
AcDbCircle
 10
77.6740068723252
 20
63.80095680960744
 30
0.0
 40
1.0
100
AcDbArc
 50
90.0
 51
180.0
  0
LINE
  5
6F9
330
2
100
AcDbEntity
  8
HIDS
  6
SEKKEI_H
100
AcDbLine
 10
87.42400687232521
 20
64.80095680960744
 30
0.0
 11
87.42400687232521
 21
57.80095680960744
 31
0.0
  0
LINE
  5
6FF
330
2
100
AcDbEntity
  8
0
100
AcDbLine
 10
85.6740068723252
 20
73.56535680960746
 30
0.0
 11
86.6740068723252
 21
73.56535680960746
 31
0.0
  0
ARC
  5
700
330
2
100
AcDbEntity
  8
0
100
AcDbCircle
 10
87.67400687232521
 20
76.08545680960742
 30
0.0
 40
1.0
100
AcDbArc
 50
89.50000000000031
 51
180.0
  0
ARC
  5
701
330
2
100
AcDbEntity
  8
0
100
AcDbCircle
 10
110.1740148723251
 20
78.03755780960745
 30
0.0
 40
1.0
100
AcDbArc
 50
180.0
 51
270.4999999999996
  0
LINE
  5
702
330
2
100
AcDbEntity
  8
0
100
AcDbLine
 10
109.1740148723251
 20
78.25235780960747
 30
0.0
 11
109.1740148723251
 21
65.80095680960744
 31
0.0
  0
ARC
  5
703
330
2
100
AcDbEntity
  8
0
100
AcDbCircle
 10
93.1740068723252
 20
78.03755780960745
 30
0.0
 40
1.0
100
AcDbArc
 50
269.5000000000002
 51
0.0
  0
LINE
  5
704
330
2
100
AcDbEntity
  8
0
100
AcDbLine
 10
94.1740068723252
 20
78.13886680960741
 30
0.0
 11
94.1740068723252
 21
65.80095680960744
 31
0.0
  0
LINE
  5
705
330
2
100
AcDbEntity
  8
0
100
AcDbLine
 10
93.1740068723252
 20
64.80095680960744
 30
0.0
 11
110.1740148723251
 21
64.80095680960744
 31
0.0
  0
ARC
  5
706
330
2
100
AcDbEntity
  8
0
100
AcDbCircle
 10
93.1740068723252
 20
65.80095680960744
 30
0.0
 40
1.0
100
AcDbArc
 50
270.0
 51
0.0
  0
LINE
  5
707
330
2
100
AcDbEntity
  8
0
100
AcDbLine
 10
91.17400687232521
 20
57.80095680960744
 30
0.0
 11
92.17400687232521
 21
58.80095680960744
 31
0.0
  0
ARC
  5
708
330
2
100
AcDbEntity
  8
0
100
AcDbCircle
 10
110.1740148723251
 20
65.80095680960744
 30
0.0
 40
1.0
100
AcDbArc
 50
180.0
 51
270.0
  0
LINE
  5
709
330
2
100
AcDbEntity
  8
CENTER
100
AcDbLine
 10
119.1740148723251
 20
67.30095680960744
 30
0.0
 11
119.1740148723251
 21
55.30095680960744
 31
0.0
  0
LINE
  5
70A
330
2
100
AcDbEntity
  8
0
100
AcDbLine
 10
111.1740148723251
 20
58.80095680960744
 30
0.0
 11
112.1740148723251
 21
57.80095680960744
 31
0.0
  0
LINE
  5
70B
330
2
100
AcDbEntity
  8
HIDS
  6
SEKKEI_H
100
AcDbLine
 10
122.4240148723251
 20
64.80095680960744
 30
0.0
 11
122.4240148723251
 21
57.80095680960744
 31
0.0
  0
LINE
  5
70C
330
2
100
AcDbEntity
  8
HIDS
  6
SEKKEI_H
100
AcDbLine
 10
115.9240148723251
 20
64.80095680960744
 30
0.0
 11
115.9240148723251
 21
57.80095680960744
 31
0.0
  0
LINE
  5
70D
330
2
100
AcDbEntity
  8
0
100
AcDbLine
 10
110.1827038723252
 20
77.03755780960745
 30
0.0
 11
122.708910872325
 21
77.14685680960747
 31
0.0
  0
LINE
  5
70E
330
2
100
AcDbEntity
  8
0
100
AcDbLine
 10
95.1653088723251
 20
79.1388668096074
 30
0.0
 11
108.165316872325
 21
79.25226580960742
 31
0.0
  0
ARC
  5
70F
330
2
100
AcDbEntity
  8
0
100
AcDbCircle
 10
95.17400687232521
 20
78.13886680960741
 30
0.0
 40
1.0
100
AcDbArc
 50
90.4999999999997
 51
180.0
  0
LINE
  5
710
330
2
100
AcDbEntity
  8
0
100
AcDbLine
 10
94.1740068723252
 20
78.13886680960741
 30
0.0
 11
94.1740068723252
 21
78.03755780960745
 31
0.0
  0
LINE
  5
711
330
2
100
AcDbEntity
  8
0
100
AcDbLine
 10
109.1740148723251
 20
78.25235780960747
 30
0.0
 11
109.1740148723251
 21
78.03755780960745
 31
0.0
  0
ARC
  5
712
330
2
100
AcDbEntity
  8
0
100
AcDbCircle
 10
108.1740148723251
 20
78.25235780960747
 30
0.0
 40
1.0
100
AcDbArc
 50
0.0
 51
90.4999999999997
  0
LINE
  5
714
330
2
100
AcDbEntity
  8
0
100
AcDbLine
 10
126.6740148723251
 20
63.80095680960744
 30
0.0
 11
126.6740148723251
 21
58.80095680960744
 31
0.0
  0
LINE
  5
715
330
2
100
AcDbEntity
  8
0
100
AcDbLine
 10
125.6740148723251
 20
57.80095680960744
 30
0.0
 11
126.6740148723251
 21
58.80095680960744
 31
0.0
  0
ARC
  5
716
330
2
100
AcDbEntity
  8
0
100
AcDbCircle
 10
125.6740148723251
 20
63.80095680960744
 30
0.0
 40
1.0
100
AcDbArc
 50
0.0
 51
90.0
  0
ARC
  5
718
330
2
100
AcDbEntity
  8
0
100
AcDbCircle
 10
128.6739688723253
 20
93.30095680960743
 30
0.0
 40
2.0
100
AcDbArc
 50
90.0
 51
180.0
  0
ARC
  5
719
330
2
100
AcDbEntity
  8
0
100
AcDbCircle
 10
128.6739688723253
 20
96.30095680960744
 30
0.0
 40
1.0
100
AcDbArc
 50
270.0
 51
0.0
  0
LINE
  5
71A
330
2
100
AcDbEntity
  8
0
100
AcDbLine
 10
222.0108893974966
 20
64.38675680960745
 30
0.0
 11
222.0108893974966
 21
58.80095680960744
 31
0.0
  0
LINE
  5
71B
330
2
100
AcDbEntity
  8
HIDS
  6
SEKKEI_H
100
AcDbLine
 10
225.7608893974966
 20
64.80095680960744
 30
0.0
 11
225.7608893974966
 21
57.80095680960744
 31
0.0
  0
LINE
  5
71C
330
2
100
AcDbEntity
  8
0
100
AcDbLine
 10
222.0108893974966
 20
58.80095680960744
 30
0.0
 11
223.0108893974966
 21
57.80095680960744
 31
0.0
  0
ARC
  5
71D
330
2
100
AcDbEntity
  8
0
100
AcDbCircle
 10
223.0108893974966
 20
63.80095680960744
 30
0.0
 40
1.0
100
AcDbArc
 50
90.0
 51
180.0
  0
ARC
  5
71E
330
2
100
AcDbEntity
  8
0
100
AcDbCircle
 10
223.0108893974966
 20
64.38675680960745
 30
0.0
 40
1.0
100
AcDbArc
 50
135.0
 51
180.0
  0
ARC
  5
71F
330
2
100
AcDbEntity
  8
0
100
AcDbCircle
 10
122.6740148723251
 20
135.6179578096074
 30
0.0
 40
4.0
100
AcDbArc
 50
0.0
 51
89.50000000000031
  0
ARC
  5
720
330
2
100
AcDbEntity
  8
0
100
AcDbCircle
 10
122.6740148723251
 20
125.7134668096074
 30
0.0
 40
4.0
100
AcDbArc
 50
0.0
 51
89.50000000000031
  0
LINE
  5
721
330
2
100
AcDbEntity
  8
CENTER
100
AcDbLine
 10
157.6739688723252
 20
112.8009568096074
 30
0.0
 11
121.6740148723251
 21
112.8009568096074
 31
0.0
  0
LINE
  5
722
330
2
100
AcDbEntity
  8
0
100
AcDbLine
 10
85.6740068723252
 20
130.0365568096074
 30
0.0
 11
122.708910872325
 21
129.7133558096074
 31
0.0
  0
LINE
  5
723
330
2
100
AcDbEntity
  8
0
100
AcDbLine
 10
122.708910872325
 20
139.6177558096074
 30
0.0
 11
85.6740068723252
 21
139.9409558096074
 31
0.0
  0
LINE
  5
7D8
330
2
100
AcDbEntity
  8
0
100
AcDbLine
 10
152.6739688723253
 20
114.8009568096074
 30
0.0
 11
134.6739688723253
 21
114.8009568096074
 31
0.0
  0
LINE
  5
7D9
330
2
100
AcDbEntity
  8
0
100
AcDbLine
 10
152.6739688723253
 20
110.8009568096074
 30
0.0
 11
134.6739688723253
 21
110.8009568096074
 31
0.0
  0
LINE
  5
7DA
330
2
100
AcDbEntity
  8
0
100
AcDbLine
 10
152.1739688723253
 20
118.8009568096074
 30
0.0
 11
130.6739688723252
 21
118.8009568096074
 31
0.0
  0
LINE
  5
7DB
330
2
100
AcDbEntity
  8
0
100
AcDbLine
 10
152.1739688723253
 20
106.8009568096074
 30
0.0
 11
130.6739688723252
 21
106.8009568096074
 31
0.0
  0
ARC
  5
7DC
330
2
100
AcDbEntity
  8
0
100
AcDbCircle
 10
134.6739688723253
 20
112.8009568096074
 30
0.0
 40
2.0
100
AcDbArc
 50
180.0
 51
270.0
  0
LINE
  5
7DD
330
2
100
AcDbEntity
  8
0
100
AcDbLine
 10
130.6739688723252
 20
120.3009568096074
 30
0.0
 11
130.6739688723252
 21
105.3009568096074
 31
0.0
  0
LINE
  5
7DE
330
2
100
AcDbEntity
  8
0
100
AcDbLine
 10
130.6739688723252
 20
105.3009568096074
 30
0.0
 11
129.6739688723252
 21
105.3009568096074
 31
0.0
  0
LINE
  5
7DF
330
2
100
AcDbEntity
  8
0
100
AcDbLine
 10
130.6739688723252
 20
120.3009568096074
 30
0.0
 11
129.6739688723252
 21
120.3009568096074
 31
0.0
  0
ARC
  5
7E0
330
2
100
AcDbEntity
  8
0
100
AcDbCircle
 10
134.6739688723253
 20
112.8009568096074
 30
0.0
 40
2.0
100
AcDbArc
 50
90.0
 51
180.0
  0
LINE
  5
7E1
330
2
100
AcDbEntity
  8
0
100
AcDbLine
 10
152.6739688723253
 20
118.3009568096074
 30
0.0
 11
152.6739688723253
 21
107.3009568096074
 31
0.0
  0
LINE
  5
7E2
330
2
100
AcDbEntity
  8
0
100
AcDbLine
 10
152.1739688723253
 20
106.8009568096074
 30
0.0
 11
152.6739688723253
 21
107.3009568096074
 31
0.0
  0
LINE
  5
7E3
330
2
100
AcDbEntity
  8
0
100
AcDbLine
 10
152.1739688723253
 20
110.8009568096074
 30
0.0
 11
152.1739688723253
 21
106.8009568096074
 31
0.0
  0
LINE
  5
7E4
330
2
100
AcDbEntity
  8
0
100
AcDbLine
 10
152.1739688723253
 20
118.8009568096074
 30
0.0
 11
152.1739688723253
 21
114.8009568096074
 31
0.0
  0
LINE
  5
7E5
330
2
100
AcDbEntity
  8
0
100
AcDbLine
 10
152.1739688723253
 20
118.8009568096074
 30
0.0
 11
152.6739688723253
 21
118.3009568096074
 31
0.0
  0
LINE
  5
7E6
330
2
100
AcDbEntity
  8
0
100
AcDbLine
 10
126.6740148723251
 20
135.6179578096074
 30
0.0
 11
126.6740148723251
 21
63.80095680960744
 31
0.0
  0
ARC
  5
7E7
330
2
100
AcDbEntity
  8
0
100
AcDbCircle
 10
128.6739688723253
 20
129.3009568096074
 30
0.0
 40
1.0
100
AcDbArc
 50
0.0
 51
90.0
  0
ARC
  5
7E8
330
2
100
AcDbEntity
  8
0
100
AcDbCircle
 10
128.6739688723253
 20
132.3009568096074
 30
0.0
 40
2.0
100
AcDbArc
 50
180.0
 51
270.0
  0
CIRCLE
  5
7E9
330
2
100
AcDbEntity
  8
0
100
AcDbCircle
 10
267.0108893974965
 20
112.8009568096074
 30
0.0
 40
17.5
  0
ARC
  5
7EA
330
2
100
AcDbEntity
  8
0
100
AcDbCircle
 10
267.0108893974965
 20
101.8009568096074
 30
0.0
 40
38.13999899999999
100
AcDbArc
 50
327.1472210000007
 51
45.88032200000045
  0
LINE
  5
7EB
330
2
100
AcDbEntity
  8
CENTER
100
AcDbLine
 10
267.0108893974965
 20
159.502156428727
 30
0.0
 11
267.0108893974965
 21
53.80095680960744
 31
0.0
  0
LINE
  5
7EC
330
2
100
AcDbEntity
  8
0
100
AcDbLine
 10
258.5733893974966
 20
72.02745680960743
 30
0.0
 11
261.0108893974966
 21
72.02745680960743
 31
0.0
  0
LINE
  5
7ED
330
2
100
AcDbEntity
  8
0
100
AcDbLine
 10
260.1437933974966
 20
66.80095680960744
 30
0.0
 11
261.0108893974966
 21
66.80095680960744
 31
0.0
  0
LINE
  5
7EE
330
2
100
AcDbEntity
  8
0
100
AcDbLine
 10
260.1437933974966
 20
73.92595680960744
 30
0.0
 11
261.0108893974966
 21
73.92595680960744
 31
0.0
  0
ARC
  5
7EF
330
2
100
AcDbEntity
  8
0
100
AcDbCircle
 10
258.2687933974966
 20
69.73065580960747
 30
0.0
 40
1.875
100
AcDbArc
 50
270.0002140000007
 51
0.0001089999998967
  0
LINE
  5
7F0
330
2
100
AcDbEntity
  8
0
100
AcDbLine
 10
260.1347903974965
 20
75.80095680960744
 30
0.0
 11
261.0108893974966
 21
74.82855580960745
 31
0.0
  0
ARC
  5
7F1
330
2
100
AcDbEntity
  8
0
100
AcDbCircle
 10
236.0108893974966
 20
76.30156680960744
 30
0.0
 40
2.0
100
AcDbArc
 50
0.0
 51
39.43940000000074
  0
ARC
  5
7F2
330
2
100
AcDbEntity
  8
0
100
AcDbCircle
 10
232.4504943974966
 20
79.48325780960743
 30
0.0
 40
3.0
100
AcDbArc
 50
315.0
 51
32.85277899999902
  0
ARC
  5
7F3
330
2
100
AcDbEntity
  8
0
100
AcDbCircle
 10
237.0108893974966
 20
65.80095680960744
 30
0.0
 40
1.0
100
AcDbArc
 50
270.0
 51
0.0
  0
LINE
  5
7F4
330
2
100
AcDbEntity
  8
CENTER
100
AcDbLine
 10
229.0108893974966
 20
67.30095680960744
 30
0.0
 11
229.0108893974966
 21
55.30095680960744
 31
0.0
  0
LINE
  5
7F5
330
2
100
AcDbEntity
  8
HIDS
  6
SEKKEI_H
100
AcDbLine
 10
232.2608893974966
 20
64.80095680960744
 30
0.0
 11
232.2608893974966
 21
57.80095680960744
 31
0.0
  0
LINE
  5
7F6
330
2
100
AcDbEntity
  8
0
100
AcDbLine
 10
236.0108893974966
 20
57.80095680960744
 30
0.0
 11
237.0108893974966
 21
58.80095680960744
 31
0.0
  0
LINE
  5
7F7
330
2
100
AcDbEntity
  8
0
100
AcDbLine
 10
238.0108893974966
 20
76.30156680960744
 30
0.0
 11
238.0108893974966
 21
65.80095680960744
 31
0.0
  0
LINE
  5
7F8
330
2
100
AcDbEntity
  8
0
100
AcDbLine
 10
256.0187933974966
 20
73.76566680960741
 30
0.0
 11
256.0187933974966
 21
68.58066580960747
 31
0.0
  0
LINE
  5
7F9
330
2
100
AcDbEntity
  8
0
100
AcDbLine
 10
255.0108893974966
 20
74.40616580960744
 30
0.0
 11
255.0108893974966
 21
67.96886880960745
 31
0.0
  0
LINE
  5
7FA
330
2
100
AcDbEntity
  8
0
100
AcDbLine
 10
258.5733893974966
 20
72.02745680960743
 30
0.0
 11
258.5733893974966
 21
71.04315780960746
 31
0.0
  0
LINE
  5
7FB
330
2
100
AcDbEntity
  8
0
100
AcDbLine
 10
255.0108893974966
 20
67.96886880960745
 30
0.0
 11
256.1683903974965
 21
66.80095680960744
 31
0.0
  0
LINE
  5
7FC
330
2
100
AcDbEntity
  8
0
100
AcDbLine
 10
256.0187933974966
 20
68.58066580960747
 30
0.0
 11
256.7069953974964
 21
67.85565580960747
 31
0.0
  0
LINE
  5
7FD
330
2
100
AcDbEntity
  8
0
100
AcDbLine
 10
260.1437933974966
 20
67.51836780960741
 30
0.0
 11
259.2886903974965
 21
66.80095680960744
 31
0.0
  0
LINE
  5
7FE
330
2
100
AcDbEntity
  8
0
100
AcDbLine
 10
260.1437933974966
 20
67.51836780960741
 30
0.0
 11
260.1437933974966
 21
66.80095680960744
 31
0.0
  0
LINE
  5
7FF
330
2
100
AcDbEntity
  8
0
100
AcDbLine
 10
256.1683903974965
 20
66.80095680960744
 30
0.0
 11
259.2886903974965
 21
66.80095680960744
 31
0.0
  0
LINE
  5
800
330
2
100
AcDbEntity
  8
0
100
AcDbLine
 10
258.2687933974966
 20
67.85565580960747
 30
0.0
 11
256.7069953974964
 21
67.85565580960747
 31
0.0
  0
LINE
  5
801
330
2
100
AcDbEntity
  8
0
100
AcDbLine
 10
260.1437933974966
 20
71.04315780960746
 30
0.0
 11
260.1437933974966
 21
69.73065580960747
 31
0.0
  0
LINE
  5
802
330
2
100
AcDbEntity
  8
0
100
AcDbLine
 10
260.1437933974966
 20
70.10565780960746
 30
0.0
 11
260.1437933974966
 21
70.85565780960746
 31
0.0
  0
LINE
  5
803
330
2
100
AcDbEntity
  8
0
100
AcDbLine
 10
260.1437933974966
 20
71.04315780960746
 30
0.0
 11
258.5733893974966
 21
71.04315780960746
 31
0.0
  0
LINE
  5
804
330
2
100
AcDbEntity
  8
0
100
AcDbLine
 10
256.1001983974965
 20
75.80095680960744
 30
0.0
 11
260.1347903974965
 21
75.80095680960744
 31
0.0
  0
LINE
  5
805
330
2
100
AcDbEntity
  8
0
100
AcDbLine
 10
256.6961913974964
 20
74.60565780960746
 30
0.0
 11
256.0187933974966
 21
73.76566680960741
 31
0.0
  0
LINE
  5
806
330
2
100
AcDbEntity
  8
0
100
AcDbLine
 10
256.1001983974965
 20
75.80095680960744
 30
0.0
 11
255.0108893974966
 21
74.40616580960744
 31
0.0
  0
LINE
  5
807
330
2
100
AcDbEntity
  8
0
100
AcDbLine
 10
259.5873963974966
 20
74.60565780960746
 30
0.0
 11
256.6961913974964
 21
74.60565780960746
 31
0.0
  0
LINE
  5
808
330
2
100
AcDbEntity
  8
0
100
AcDbLine
 10
260.1437933974966
 20
74.06786780960743
 30
0.0
 11
260.1437933974966
 21
73.92595680960744
 31
0.0
  0
LINE
  5
809
330
2
100
AcDbEntity
  8
0
100
AcDbLine
 10
260.1437933974966
 20
74.06786780960743
 30
0.0
 11
259.5759983974967
 21
74.60565780960746
 31
0.0
  0
ARC
  5
80A
330
2
100
AcDbEntity
  8
0
100
AcDbCircle
 10
267.0108893974965
 20
101.8009568096074
 30
0.0
 40
38.13999899999999
100
AcDbArc
 50
212.8527980000013
 51
219.4394069999992
  0
LINE
  5
80B
330
2
100
AcDbEntity
  8
0
100
AcDbLine
 10
274.4874973974965
 20
71.94525680960743
 30
0.0
 11
276.7976933974964
 21
71.94525680960743
 31
0.0
  0
LINE
  5
80C
330
2
100
AcDbEntity
  8
0
100
AcDbLine
 10
274.4874973974965
 20
74.69936780960745
 30
0.0
 11
277.2872863974967
 21
74.69756680960745
 31
0.0
  0
LINE
  5
80D
330
2
100
AcDbEntity
  8
0
100
AcDbLine
 10
276.4078923974966
 20
71.00795780960743
 30
0.0
 11
277.8150883974965
 21
67.73845680960744
 31
0.0
  0
ARC
  5
80E
330
2
100
AcDbEntity
  8
0
100
AcDbCircle
 10
276.6086973974966
 20
73.39865680960747
 30
0.0
 40
2.402343999999999
100
AcDbArc
 50
286.0181270000008
 51
90.00351000000046
  0
LINE
  5
80F
330
2
100
AcDbEntity
  8
0
100
AcDbLine
 10
267.5499973974965
 20
74.69936780960745
 30
0.0
 11
269.1133973974965
 21
74.69936780960745
 31
0.0
  0
LINE
  5
810
330
2
100
AcDbEntity
  8
0
100
AcDbLine
 10
264.0109953974965
 20
75.80095680960744
 30
0.0
 11
270.0108893974966
 21
75.80095680960744
 31
0.0
  0
LINE
  5
811
330
2
100
AcDbEntity
  8
0
100
AcDbLine
 10
267.5499973974965
 20
74.69936780960745
 30
0.0
 11
267.5499973974965
 21
67.78536580960746
 31
0.0
  0
LINE
  5
812
330
2
100
AcDbEntity
  8
0
100
AcDbLine
 10
266.4249973974965
 20
74.69936780960745
 30
0.0
 11
266.4249973974965
 21
67.78536580960746
 31
0.0
  0
LINE
  5
813
330
2
100
AcDbEntity
  8
0
100
AcDbLine
 10
261.0108893974966
 20
72.02745680960743
 30
0.0
 11
261.0108893974966
 21
66.80095680960744
 31
0.0
  0
LINE
  5
814
330
2
100
AcDbEntity
  8
0
100
AcDbLine
 10
267.9249973974965
 20
67.78536580960746
 30
0.0
 11
267.9249973974965
 21
66.80095680960744
 31
0.0
  0
LINE
  5
815
330
2
100
AcDbEntity
  8
0
100
AcDbLine
 10
265.9796843974965
 20
67.78536580960746
 30
0.0
 11
265.9796843974965
 21
66.80095680960744
 31
0.0
  0
LINE
  5
816
330
2
100
AcDbEntity
  8
0
100
AcDbLine
 10
265.9796843974965
 20
66.80095680960744
 30
0.0
 11
267.9249973974965
 21
66.80095680960744
 31
0.0
  0
LINE
  5
817
330
2
100
AcDbEntity
  8
0
100
AcDbLine
 10
265.9796843974965
 20
67.78536580960746
 30
0.0
 11
266.4249973974965
 21
67.78536580960746
 31
0.0
  0
LINE
  5
818
330
2
100
AcDbEntity
  8
0
100
AcDbLine
 10
267.5499973974965
 20
67.78536580960746
 30
0.0
 11
267.9249973974965
 21
67.78536580960746
 31
0.0
  0
LINE
  5
819
330
2
100
AcDbEntity
  8
0
100
AcDbLine
 10
264.0109953974965
 20
73.92595680960744
 30
0.0
 11
264.6769963974966
 21
73.92595680960744
 31
0.0
  0
LINE
  5
81A
330
2
100
AcDbEntity
  8
0
100
AcDbLine
 10
261.0108893974966
 20
74.82855580960745
 30
0.0
 11
261.0108893974966
 21
73.92595680960744
 31
0.0
  0
LINE
  5
81B
330
2
100
AcDbEntity
  8
0
100
AcDbLine
 10
264.0109953974965
 20
73.92595680960744
 30
0.0
 11
264.0109953974965
 21
75.80095680960744
 31
0.0
  0
LINE
  5
81C
330
2
100
AcDbEntity
  8
0
100
AcDbLine
 10
266.4249973974965
 20
74.69936780960745
 30
0.0
 11
264.9992923974964
 21
74.69936780960745
 31
0.0
  0
LINE
  5
81D
330
2
100
AcDbEntity
  8
0
100
AcDbLine
 10
264.9992923974964
 20
74.69936780960745
 30
0.0
 11
264.6769963974966
 21
73.92595680960744
 31
0.0
  0
LINE
  5
81E
330
2
100
AcDbEntity
  8
0
100
AcDbLine
 10
273.4562933974966
 20
74.69936780960745
 30
0.0
 11
273.4562933974966
 21
67.73845680960744
 31
0.0
  0
LINE
  5
81F
330
2
100
AcDbEntity
  8
0
100
AcDbLine
 10
273.0108893974966
 20
67.73845680960744
 30
0.0
 11
273.0108893974966
 21
66.80095680960744
 31
0.0
  0
LINE
  5
820
330
2
100
AcDbEntity
  8
0
100
AcDbLine
 10
274.8976993974965
 20
67.73845680960744
 30
0.0
 11
274.8976993974965
 21
66.80095680960744
 31
0.0
  0
LINE
  5
821
330
2
100
AcDbEntity
  8
0
100
AcDbLine
 10
274.8976993974965
 20
66.80095680960744
 30
0.0
 11
273.0108893974966
 21
66.80095680960744
 31
0.0
  0
LINE
  5
822
330
2
100
AcDbEntity
  8
0
100
AcDbLine
 10
274.4874973974965
 20
71.00795780960743
 30
0.0
 11
274.4874973974965
 21
67.73845680960744
 31
0.0
  0
LINE
  5
823
330
2
100
AcDbEntity
  8
0
100
AcDbLine
 10
273.0108893974966
 20
67.73845680960744
 30
0.0
 11
273.4562933974966
 21
67.73845680960744
 31
0.0
  0
LINE
  5
824
330
2
100
AcDbEntity
  8
0
100
AcDbLine
 10
274.4874973974965
 20
67.73845680960744
 30
0.0
 11
274.8976993974965
 21
67.73845680960744
 31
0.0
  0
LINE
  5
825
330
2
100
AcDbEntity
  8
0
100
AcDbLine
 10
274.4874973974965
 20
71.00795780960743
 30
0.0
 11
276.4078923974966
 21
71.00795780960743
 31
0.0
  0
LINE
  5
826
330
2
100
AcDbEntity
  8
0
100
AcDbLine
 10
269.3850953974965
 20
73.92595680960744
 30
0.0
 11
270.0108893974966
 21
73.92595680960744
 31
0.0
  0
LINE
  5
827
330
2
100
AcDbEntity
  8
0
100
AcDbLine
 10
270.0108893974966
 20
73.92595680960744
 30
0.0
 11
270.0108893974966
 21
75.80095680960744
 31
0.0
  0
LINE
  5
828
330
2
100
AcDbEntity
  8
0
100
AcDbLine
 10
269.1133973974965
 20
74.69936780960745
 30
0.0
 11
269.3850953974965
 21
73.92595680960744
 31
0.0
  0
LINE
  5
829
330
2
100
AcDbEntity
  8
0
100
AcDbLine
 10
273.0108893974966
 20
75.80095680960744
 30
0.0
 11
276.6086973974966
 21
75.80095680960744
 31
0.0
  0
LINE
  5
82A
330
2
100
AcDbEntity
  8
0
100
AcDbLine
 10
274.4874973974965
 20
74.69936780960745
 30
0.0
 11
274.4874973974965
 21
71.94525680960743
 31
0.0
  0
LINE
  5
82B
330
2
100
AcDbEntity
  8
0
100
AcDbLine
 10
273.0108893974966
 20
74.69936780960745
 30
0.0
 11
273.4562933974966
 21
74.69936780960745
 31
0.0
  0
LINE
  5
82C
330
2
100
AcDbEntity
  8
0
100
AcDbLine
 10
273.0108893974966
 20
75.80095680960744
 30
0.0
 11
273.0108893974966
 21
74.69936780960745
 31
0.0
  0
LINE
  5
82D
330
2
100
AcDbEntity
  8
0
100
AcDbLine
 10
277.6281983974965
 20
67.73845680960744
 30
0.0
 11
277.6281983974965
 21
66.80095680960744
 31
0.0
  0
LINE
  5
82E
330
2
100
AcDbEntity
  8
0
100
AcDbLine
 10
279.0108893974966
 20
67.73845680960744
 30
0.0
 11
279.0108893974966
 21
66.80095680960744
 31
0.0
  0
LINE
  5
82F
330
2
100
AcDbEntity
  8
0
100
AcDbLine
 10
277.6281983974965
 20
66.80095680960744
 30
0.0
 11
279.0108893974966
 21
66.80095680960744
 31
0.0
  0
LINE
  5
830
330
2
100
AcDbEntity
  8
0
100
AcDbLine
 10
278.7582953974965
 20
67.73845680960744
 30
0.0
 11
279.0108893974966
 21
67.73845680960744
 31
0.0
  0
LINE
  5
831
330
2
100
AcDbEntity
  8
0
100
AcDbLine
 10
277.6281983974965
 20
67.73845680960744
 30
0.0
 11
277.8150883974965
 21
67.73845680960744
 31
0.0
  0
LINE
  5
832
330
2
100
AcDbEntity
  8
0
100
AcDbLine
 10
277.2715853974964
 20
71.08955780960741
 30
0.0
 11
278.7582953974965
 21
67.73845680960744
 31
0.0
  0
ARC
  5
833
330
2
100
AcDbEntity
  8
0
100
AcDbCircle
 10
276.6086973974966
 20
73.39865680960747
 30
0.0
 40
1.465594
100
AcDbArc
 50
277.4147260000003
 51
62.41185000000005
  0
ARC
  5
834
330
2
100
AcDbEntity
  8
0
100
AcDbCircle
 10
301.5712983974965
 20
79.48325780960743
 30
0.0
 40
3.0
100
AcDbArc
 50
147.1472019999986
 51
225.0
  0
ARC
  5
835
330
2
100
AcDbEntity
  8
0
100
AcDbCircle
 10
298.0108893974966
 20
76.30156680960744
 30
0.0
 40
2.0
100
AcDbArc
 50
140.5605930000007
 51
180.0
  0
LINE
  5
836
330
2
100
AcDbEntity
  8
0
100
AcDbLine
 10
311.7179963974965
 20
65.09386880960744
 30
0.0
 11
299.4498993974966
 21
77.36185680960744
 31
0.0
  0
LINE
  5
837
330
2
100
AcDbEntity
  8
0
100
AcDbLine
 10
297.0108893974966
 20
64.80095680960744
 30
0.0
 11
311.0109043974966
 21
64.80095680960744
 31
0.0
  0
LINE
  5
838
330
2
100
AcDbEntity
  8
0
100
AcDbLine
 10
298.0108893974966
 20
57.80095680960744
 30
0.0
 11
311.0109043974966
 21
57.80095680960744
 31
0.0
  0
ARC
  5
839
330
2
100
AcDbEntity
  8
0
100
AcDbCircle
 10
297.0108893974966
 20
65.80095680960744
 30
0.0
 40
1.0
100
AcDbArc
 50
180.0
 51
270.0
  0
LINE
  5
83A
330
2
100
AcDbEntity
  8
CENTER
100
AcDbLine
 10
305.0109043974966
 20
67.30095680960744
 30
0.0
 11
305.0109043974966
 21
55.30095680960744
 31
0.0
  0
LINE
  5
83B
330
2
100
AcDbEntity
  8
0
100
AcDbLine
 10
297.0108893974966
 20
58.80095680960744
 30
0.0
 11
298.0108893974966
 21
57.80095680960744
 31
0.0
  0
LINE
  5
83C
330
2
100
AcDbEntity
  8
HIDS
  6
SEKKEI_H
100
AcDbLine
 10
301.7609043974966
 20
64.80095680960744
 30
0.0
 11
301.7609043974966
 21
57.80095680960744
 31
0.0
  0
LINE
  5
83D
330
2
100
AcDbEntity
  8
HIDS
  6
SEKKEI_H
100
AcDbLine
 10
308.2609043974966
 20
64.80095680960744
 30
0.0
 11
308.2609043974966
 21
57.80095680960744
 31
0.0
  0
LINE
  5
83E
330
2
100
AcDbEntity
  8
0
100
AcDbLine
 10
296.0108893974966
 20
76.30156680960744
 30
0.0
 11
296.0108893974966
 21
65.80095680960744
 31
0.0
  0
LINE
  5
83F
330
2
100
AcDbEntity
  8
0
100
AcDbLine
 10
312.0109043974967
 20
64.38675680960745
 30
0.0
 11
312.0109043974967
 21
58.80095680960744
 31
0.0
  0
LINE
  5
840
330
2
100
AcDbEntity
  8
0
100
AcDbLine
 10
312.0109043974967
 20
58.80095680960744
 30
0.0
 11
311.0109043974966
 21
57.80095680960744
 31
0.0
  0
ARC
  5
841
330
2
100
AcDbEntity
  8
0
100
AcDbCircle
 10
311.0109043974966
 20
63.80095680960744
 30
0.0
 40
1.0
100
AcDbArc
 50
0.0
 51
90.0
  0
ARC
  5
842
330
2
100
AcDbEntity
  8
0
100
AcDbCircle
 10
311.0109043974966
 20
64.38675680960745
 30
0.0
 40
1.0
100
AcDbArc
 50
0.0
 51
45.0
  0
ARC
  5
843
330
2
100
AcDbEntity
  8
0
100
AcDbCircle
 10
267.0108893974965
 20
101.8009568096074
 30
0.0
 40
38.13999899999999
100
AcDbArc
 50
320.5606080000013
 51
327.1471860000012
  0
ARC
  5
844
330
2
100
AcDbEntity
  8
0
100
AcDbCircle
 10
288.6509953974964
 20
135.9009568096074
 30
0.0
 40
4.0
100
AcDbArc
 50
0.0
 51
90.0
  0
ARC
  5
845
330
2
100
AcDbEntity
  8
0
100
AcDbCircle
 10
295.6509953974964
 20
131.3348678096074
 30
0.0
 40
3.0
100
AcDbArc
 50
180.0
 51
225.8802949999997
  0
LINE
  5
846
330
2
100
AcDbEntity
  8
0
100
AcDbLine
 10
261.5111793974966
 20
156.8222470853785
 30
0.0
 11
261.5111793974965
 21
139.9409558096074
 31
0.0
  0
LINE
  5
847
330
2
100
AcDbEntity
  8
0
100
AcDbLine
 10
259.5105993974966
 20
156.4013759344879
 30
0.0
 11
259.5105993974966
 21
139.9409558096074
 31
0.0
  0
LINE
  5
848
330
2
100
AcDbEntity
  8
0
100
AcDbLine
 10
268.5105993974966
 20
156.4013759344879
 30
0.0
 11
268.5105993974966
 21
139.9409558096074
 31
0.0
  0
LINE
  5
849
330
2
100
AcDbEntity
  8
0
100
AcDbLine
 10
263.5111793974965
 20
155.9801063863439
 30
0.0
 11
263.5111793974965
 21
139.9409558096074
 31
0.0
  0
LINE
  5
84A
330
2
100
AcDbEntity
  8
0
100
AcDbLine
 10
274.5105993974966
 20
156.4013745237464
 30
0.0
 11
274.5105993974966
 21
139.9409558096074
 31
0.0
  0
LINE
  5
84B
330
2
100
AcDbEntity
  8
0
100
AcDbLine
 10
265.5105993974966
 20
156.4013745237466
 30
0.0
 11
265.5105993974966
 21
139.9409558096074
 31
0.0
  0
LINE
  5
84C
330
2
100
AcDbEntity
  8
0
100
AcDbLine
 10
259.5108893974966
 20
114.8009568096074
 30
0.0
 11
263.5108893974966
 21
114.8009568096074
 31
0.0
  0
LINE
  5
84D
330
2
100
AcDbEntity
  8
0
100
AcDbLine
 10
259.5108893974966
 20
110.8009568096074
 30
0.0
 11
263.5108893974966
 21
110.8009568096074
 31
0.0
  0
LINE
  5
84E
330
2
100
AcDbEntity
  8
CENTER
100
AcDbLine
 10
244.5108893974966
 20
112.8009568096074
 30
0.0
 11
289.5108893974965
 21
112.8009568096074
 31
0.0
  0
LINE
  5
84F
330
2
100
AcDbEntity
  8
0
100
AcDbLine
 10
245.3709963969934
 20
139.9009568096074
 30
0.0
 11
288.6509953974964
 21
139.9009568096074
 31
0.0
  0
ARC
  5
850
330
2
100
AcDbEntity
  8
0
100
AcDbCircle
 10
267.0108893974965
 20
112.8009568096074
 30
0.0
 40
7.5
100
AcDbArc
 50
195.4660029999981
 51
164.5339969999984
  0
LINE
  5
851
330
2
100
AcDbEntity
  8
0
100
AcDbLine
 10
259.5108893974966
 20
110.8009568096074
 30
0.0
 11
259.5108893974966
 21
114.8009568096074
 31
0.0
  0
ARC
  5
852
330
2
100
AcDbEntity
  8
0
100
AcDbCircle
 10
245.3710720603653
 20
135.9007741432835
 30
0.0
 40
4.000182667039413
100
AcDbArc
 50
90.00108374127156
 51
179.9973836171283
  0
LINE
  5
853
330
2
100
AcDbEntity
  8
0
100
AcDbLine
 10
241.3708893974965
 20
131.3348678096074
 30
0.0
 11
241.3708893974965
 21
135.9009568075014
 31
0.0
  0
ARC
  5
854
330
2
100
AcDbEntity
  8
0
100
AcDbCircle
 10
238.3708893974965
 20
131.3348678096074
 30
0.0
 40
3.0
100
AcDbArc
 50
314.1196779999995
 51
0.0
  0
LINE
  5
855
330
2
100
AcDbEntity
  8
0
100
AcDbLine
 10
263.5108893974966
 20
110.8009568096074
 30
0.0
 11
263.5108893974966
 21
114.8009568096074
 31
0.0
  0
ARC
  5
856
330
2
100
AcDbEntity
  8
0
100
AcDbCircle
 10
267.0108893974965
 20
112.8009568096074
 30
0.0
 40
6.0
100
AcDbArc
 50
199.4712069999985
 51
160.528793000001
  0
LINE
  5
857
330
2
100
AcDbEntity
  8
0
100
AcDbLine
 10
292.6509953974964
 20
131.3348678096074
 30
0.0
 11
292.6509953974964
 21
135.9009568096074
 31
0.0
  0
ARC
  5
858
330
2
100
AcDbEntity
  8
HOJO
100
AcDbCircle
 10
260.7605993974966
 20
155.401374428727
 30
0.0
 40
1.600781999999999
100
AcDbArc
 50
67.16467300000042
 51
141.3401949999998
  0
ARC
  5
859
330
2
100
AcDbEntity
  8
HOJO
100
AcDbCircle
 10
264.2605993974966
 20
157.401374428727
 30
0.0
 40
1.600781
100
AcDbArc
 50
247.1647030000001
 51
321.340194401624
  0
LINE
  5
85A
330
2
100
AcDbEntity
  8
HOJO
100
AcDbLine
 10
261.3818913974964
 20
156.876686428727
 30
0.0
 11
263.6394903974965
 21
155.926078428727
 31
0.0
  0
LINE
  5
85B
330
2
100
AcDbEntity
  8
HOJO
100
AcDbLine
 10
270.3818913974964
 20
156.876686428727
 30
0.0
 11
272.6394903974965
 21
155.926078428727
 31
0.0
  0
ARC
  5
85C
330
2
100
AcDbEntity
  8
HOJO
100
AcDbCircle
 10
269.7605993974966
 20
155.401374428727
 30
0.0
 40
1.600781999999999
100
AcDbArc
 50
67.16467300000042
 51
141.3401949999998
  0
ARC
  5
85D
330
2
100
AcDbEntity
  8
HOJO
100
AcDbCircle
 10
273.2605993974966
 20
157.401374428727
 30
0.0
 40
1.600781
100
AcDbArc
 50
247.1647030000001
 51
321.340194401624
  0
TEXT
  5
85E
330
2
100
AcDbEntity
  8
TITLE
100
AcDbText
 10
27.13479764728925
 20
15.39424519870016
 30
0.0
 40
6.0
  1
VGLC12-5～60N50
100
AcDbText
  0
MTEXT
  5
877
330
2
100
AcDbEntity
  8
TITLE
100
AcDbMText
 10
110.6625475832263
 20
24.61326819375625
 30
0.0
 40
4.242600000000001
 41
16.20949274093229
 71
     1
 72
     5
  1
L1\PL2
1001
ACAD
1000
MTEXTBEGIN
1070
    73
1070
     1
1070
    44
1040
1.0
1070
    74
1070
     0
1000
MTEXTEND
  0
LINE
  5
1172
330
2
100
AcDbEntity
  8
0
100
AcDbLine
 10
77.17400687232526
 20
138.3753588096074
 30
0.0
 11
77.17390787232517
 21
65.22635680960741
 31
0.0
  0
ARC
  5
1173
330
2
100
AcDbEntity
  8
0
100
AcDbCircle
 10
36.17406787232522
 20
137.8009568096074
 30
0.0
 40
1.0
100
AcDbArc
 50
0.0
 51
90.0
  0
ARC
  5
1174
330
2
100
AcDbEntity
  8
0
100
AcDbCircle
 10
27.17406787232522
 20
137.8009568096074
 30
0.0
 40
1.0
100
AcDbArc
 50
90.0
 51
180.0
  0
LINE
  5
1175
330
2
100
AcDbEntity
  8
0
100
AcDbLine
 10
29.17406787232522
 20
69.21976880960745
 30
0.0
 11
29.17406787232522
 21
125.8325578096074
 31
0.0
  0
LINE
  5
1176
330
2
100
AcDbEntity
  8
0
100
AcDbLine
 10
27.17406787232522
 20
125.8325578096074
 30
0.0
 11
27.17406787232522
 21
70.5285568096075
 31
0.0
  0
LINE
  5
1177
330
2
100
AcDbEntity
  8
0
100
AcDbLine
 10
77.17400687232526
 20
71.91776680960742
 30
0.0
 11
29.17406787232522
 21
72.33655780960737
 31
0.0
  0
LINE
  5
1178
330
2
100
AcDbEntity
  8
0
100
AcDbLine
 10
75.68710687232516
 20
68.81395680960747
 30
0.0
 11
29.17406787232522
 21
69.21976880960745
 31
0.0
  0
ARC
  5
1179
330
2
100
AcDbEntity
  8
0
100
AcDbCircle
 10
28.17406787232522
 20
70.5285568096075
 30
0.0
 40
1.0
100
AcDbArc
 50
180.0
 51
269.5000000000019
  0
LINE
  5
117A
330
2
100
AcDbEntity
  8
0
100
AcDbLine
 10
29.17406787232522
 20
69.51985580960741
 30
0.0
 11
28.16532887232535
 21
69.52855680960749
 31
0.0
  0
ARC
  5
117C
330
2
100
AcDbEntity
  8
0
100
AcDbCircle
 10
78.67400687232526
 20
65.22655480960747
 30
0.0
 40
1.5
100
AcDbArc
 50
180.0
 51
200.0096135603225
  0
ARC
  5
117D
330
2
100
AcDbEntity
  8
0
100
AcDbCircle
 10
74.96420587232529
 20
66.80095680960744
 30
0.0
 40
1.0
100
AcDbArc
 50
213.0556950000024
 51
270.0
  0
ARC
  5
117E
330
2
100
AcDbEntity
  8
0
100
AcDbCircle
 10
79.57400787232524
 20
69.80095680960744
 30
0.0
 40
6.5
100
AcDbArc
 50
188.5359949999983
 51
213.0556950000024
  0
LINE
  5
117F
330
2
100
AcDbEntity
  8
0
100
AcDbLine
 10
76.17400687232526
 20
65.80095680960744
 30
0.0
 11
74.96420587232529
 21
65.80095680960744
 31
0.0
  0
LINE
  5
1180
330
2
100
AcDbEntity
  8
0
100
AcDbLine
 10
76.17400687232526
 20
66.00086580960748
 30
0.0
 11
77.17400687232526
 21
66.00086580960748
 31
0.0
  0
LINE
  5
1181
330
2
100
AcDbEntity
  8
0
100
AcDbLine
 10
76.17400687232526
 20
65.80095680960744
 30
0.0
 11
76.17400687232526
 21
68.72815680960741
 31
0.0
  0
ARC
  5
1182
330
2
100
AcDbEntity
  8
0
100
AcDbCircle
 10
75.67400687232527
 20
67.31395680960748
 30
0.0
 40
1.5
100
AcDbArc
 50
0.0
 51
89.50000000000192
  0
LINE
  5
1184
330
2
100
AcDbEntity
  8
0
100
AcDbLine
 10
73.4397078723253
 20
131.6513578096074
 30
0.0
 11
30.17406787232522
 21
131.2738568096074
 31
0.0
  0
LINE
  5
1185
330
2
100
AcDbEntity
  8
0
100
AcDbLine
 10
73.14600687232524
 20
134.7657588096074
 30
0.0
 11
30.17406787232522
 21
134.3906668096074
 31
0.0
  0
LINE
  5
1186
330
2
100
AcDbEntity
  8
0
100
AcDbLine
 10
26.17406787232522
 20
137.8009568096074
 30
0.0
 11
26.17406787232522
 21
114.8009568096074
 31
0.0
  0
ARC
  5
1187
330
2
100
AcDbEntity
  8
0
100
AcDbCircle
 10
27.17406787232522
 20
114.8009568096074
 30
0.0
 40
1.0
100
AcDbArc
 50
180.0
 51
270.0
  0
LINE
  5
1188
330
2
100
AcDbEntity
  8
0
100
AcDbLine
 10
30.17406787232522
 20
134.3906668096074
 30
0.0
 11
30.17406787232522
 21
125.8325578096074
 31
0.0
  0
LINE
  5
1189
330
2
100
AcDbEntity
  8
0
100
AcDbLine
 10
27.17406787232522
 20
125.8325578096074
 30
0.0
 11
30.17406787232522
 21
125.8325578096074
 31
0.0
  0
LINE
  5
118A
330
2
100
AcDbEntity
  8
0
100
AcDbLine
 10
26.17406787232522
 20
132.3809568096074
 30
0.0
 11
30.17406787232522
 21
132.3809568096074
 31
0.0
  0
LINE
  5
118B
330
2
100
AcDbEntity
  8
0
100
AcDbLine
 10
85.70040787232512
 20
73.57535780960745
 30
0.0
 11
77.20040787232512
 21
73.50136780960747
 31
0.0
  0
LINE
  5
118C
330
2
100
AcDbEntity
  8
0
100
AcDbLine
 10
37.17406787232522
 20
137.8009568096074
 30
0.0
 11
37.17406787232522
 21
134.4517558096074
 31
0.0
  0
LINE
  5
118D
330
2
100
AcDbEntity
  8
0
100
AcDbLine
 10
85.67400687232526
 20
130.0261578096074
 30
0.0
 11
77.17400687232526
 21
130.1003668096074
 31
0.0
  0
ARC
  5
118E
330
2
100
AcDbEntity
  8
0
100
AcDbCircle
 10
74.96420587232529
 20
130.8008668096074
 30
0.0
 40
1.0
100
AcDbArc
 50
213.0556950000024
 51
270.0
  0
LINE
  5
118F
330
2
100
AcDbEntity
  8
0
100
AcDbLine
 10
76.17400687232526
 20
137.8008648096074
 30
0.0
 11
76.17400687232526
 21
129.8008668096074
 31
0.0
  0
LINE
  5
1190
330
2
100
AcDbEntity
  8
0
100
AcDbLine
 10
76.17400687232526
 20
129.8008668096074
 30
0.0
 11
74.96420587232529
 21
129.8008668096074
 31
0.0
  0
LINE
  5
1191
330
2
100
AcDbEntity
  8
0
100
AcDbLine
 10
77.17400687232526
 20
130.0009578096074
 30
0.0
 11
76.17400687232526
 21
130.0009578096074
 31
0.0
  0
LINE
  5
1192
330
2
100
AcDbEntity
  8
CENTER
100
AcDbLine
 10
72.02010687232524
 20
133.8008668096074
 30
0.0
 11
78.06150787232519
 21
133.8008668096074
 31
0.0
  0
ARC
  5
1193
330
2
100
AcDbEntity
  8
0
100
AcDbCircle
 10
74.96420587232529
 20
136.8008648096074
 30
0.0
 40
1.0
100
AcDbArc
 50
90.0
 51
146.9443049999975
  0
ARC
  5
1194
330
2
100
AcDbEntity
  8
0
100
AcDbCircle
 10
79.57400787232524
 20
133.8008668096074
 30
0.0
 40
6.5
100
AcDbArc
 50
146.9443049999975
 51
213.0556950000024
  0
LINE
  5
1195
330
2
100
AcDbEntity
  8
0
100
AcDbLine
 10
76.17400687232526
 20
137.8008648096074
 30
0.0
 11
74.96420587232529
 21
137.8008648096074
 31
0.0
  0
LINE
  5
1196
330
2
100
AcDbEntity
  8
0
100
AcDbLine
 10
76.17400687232526
 20
137.6009558096074
 30
0.0
 11
77.17400687232526
 21
137.6009558096074
 31
0.0
  0
LINE
  5
1197
330
2
100
AcDbEntity
  8
0
100
AcDbLine
 10
77.17400687232549
 20
232.1117457406724
 30
0.0
 11
77.17400687232538
 21
304.3917457406722
 31
0.0
  0
LINE
  5
1198
330
2
100
AcDbEntity
  8
0
100
AcDbLine
 10
85.67400687232526
 20
230.1117457406724
 30
0.0
 11
85.67400687232538
 21
306.3917457406723
 31
0.0
  0
LINE
  5
1199
330
2
100
AcDbEntity
  8
0
100
AcDbLine
 10
30.17406787232522
 20
279.2779283380647
 30
0.0
 11
30.17406787232522
 21
290.2517457406723
 31
0.0
  0
LINE
  5
119A
330
2
100
AcDbEntity
  8
0
100
AcDbLine
 10
26.17406787232534
 20
289.2517457406723
 30
0.0
 11
26.17406787232522
 21
247.2517457406723
 31
0.0
  0
LINE
  5
119B
330
2
100
AcDbEntity
  8
0
100
AcDbLine
 10
103.733280414333
 20
177.2866999919943
 30
0.0
 11
95.93067845862567
 21
177.2866999919942
 31
0.0
  0
LINE
  5
119C
330
2
100
AcDbEntity
  8
0
100
AcDbLine
 10
103.733280414333
 20
178.4866999919943
 30
0.0
 11
95.87828532713553
 21
178.4866999919942
 31
0.0
  0
LINE
  5
119D
330
2
100
AcDbEntity
  8
0
100
AcDbLine
 10
103.733280414333
 20
179.7866999919942
 30
0.0
 11
97.47204925890953
 21
179.7866999919942
 31
0.0
  0
LINE
  5
119E
330
2
100
AcDbEntity
  8
0
100
AcDbLine
 10
103.733280414333
 20
180.9866999919943
 30
0.0
 11
97.36706286267855
 21
180.9866999919943
 31
0.0
  0
LINE
  5
119F
330
2
100
AcDbEntity
  8
0
100
AcDbLine
 10
103.733280414333
 20
169.7866999919944
 30
0.0
 11
97.36706286267901
 21
169.7866999919942
 31
0.0
  0
LINE
  5
11A0
330
2
100
AcDbEntity
  8
0
100
AcDbLine
 10
103.733280414333
 20
170.9866999919943
 30
0.0
 11
97.47204925891089
 21
170.9866999919942
 31
0.0
  0
LINE
  5
11A1
330
2
100
AcDbEntity
  8
0
100
AcDbLine
 10
103.733280414333
 20
172.2866999919942
 30
0.0
 11
95.87828532713871
 21
172.2866999919942
 31
0.0
  0
LINE
  5
11A2
330
2
100
AcDbEntity
  8
0
100
AcDbLine
 10
103.733280414333
 20
173.4866999919943
 30
0.0
 11
95.93067845862975
 21
173.4866999919942
 31
0.0
  0
LINE
  5
11A3
330
2
100
AcDbEntity
  8
0
100
AcDbLine
 10
103.733280414333
 20
175.9866999919943
 30
0.0
 11
87.85501342598156
 21
175.9866999919943
 31
0.0
  0
LINE
  5
11A4
330
2
100
AcDbEntity
  8
0
100
AcDbLine
 10
103.733280414333
 20
174.7866999919944
 30
0.0
 11
87.85501342598156
 21
174.7866999919941
 31
0.0
  0
LINE
  5
11A5
330
2
100
AcDbEntity
  8
0
100
AcDbLine
 10
109.8704270887777
 20
158.751573277026
 30
0.0
 11
79.9797826515192
 21
158.751573277026
 31
0.0
  0
LINE
  5
11A6
330
2
100
AcDbEntity
  8
0
100
AcDbLine
 10
109.8704270887777
 20
160.751573277026
 30
0.0
 11
79.97978265151965
 21
160.751573277026
 31
0.0
  0
LINE
  5
11A7
330
2
100
AcDbEntity
  8
0
100
AcDbLine
 10
80.37042708877772
 20
156.751573277026
 30
0.0
 11
109.7514420972227
 21
154.181067540902
 31
0.0
  0
LINE
  5
11A8
330
2
100
AcDbEntity
  8
0
100
AcDbLine
 10
80.45774897459484
 20
158.751573277026
 30
0.0
 11
109.925753582718
 21
156.1734569370855
 31
0.0
  0
LINE
  5
11A9
330
2
100
AcDbEntity
  8
0
100
AcDbLine
 10
80.45774897459484
 20
160.751573277026
 30
0.0
 11
109.9324821679795
 21
163.3302782918984
 31
0.0
  0
LINE
  5
11AA
330
2
100
AcDbEntity
  8
0
100
AcDbLine
 10
80.37042708877772
 20
162.751573277026
 30
0.0
 11
109.7581706824842
 21
165.3226676880819
 31
0.0
  0
LINE
  5
11AB
330
2
100
AcDbEntity
  8
HOJO
100
AcDbLine
 10
30.54538987232541
 20
159.1004942693485
 30
0.0
 11
32.80298887232544
 21
158.1498862693486
 31
0.0
  0
LINE
  5
11AC
330
2
100
AcDbEntity
  8
HOJO
100
AcDbLine
 10
30.54538987232541
 20
161.1004942693485
 30
0.0
 11
32.80298887232544
 21
160.1498862693486
 31
0.0
  0
ARC
  5
11AD
330
2
100
AcDbEntity
  8
0
100
AcDbCircle
 10
39.67411787232532
 20
167.3873604287269
 30
0.0
 40
11.0
100
AcDbArc
 50
90.0
 51
180.0
  0
ARC
  5
11AE
330
2
100
AcDbEntity
  8
0
100
AcDbCircle
 10
39.67411908551031
 20
160.6251311512091
 30
0.0
 40
7.000051213203854
100
AcDbArc
 50
90.0002430827012
 51
179.9998428472123
  0
ARC
  5
11AF
330
2
100
AcDbEntity
  8
0
100
AcDbCircle
 10
39.67411908551031
 20
160.6251311512091
 30
0.0
 40
11.00005121320385
100
AcDbArc
 50
90.0002430827012
 51
179.9998428472123
  0
ARC
  5
11B0
330
2
100
AcDbEntity
  8
0
100
AcDbCircle
 10
39.67411908551031
 20
160.6251311512091
 30
0.0
 40
9.000051213203853
100
AcDbArc
 50
90.0002430827012
 51
177.3436678381908
  0
LINE
  5
11B1
330
2
100
AcDbEntity
  8
0
100
AcDbLine
 10
36.17406787232522
 20
138.8009568096074
 30
0.0
 11
27.17406787232522
 21
138.8009568096074
 31
0.0
  0
LINE
  5
11B2
330
2
100
AcDbEntity
  8
0
100
AcDbLine
 10
28.67411787232532
 20
167.3873604287269
 30
0.0
 11
28.67406787232534
 21
160.6251462740126
 31
0.0
  0
LINE
  5
11B3
330
2
100
AcDbEntity
  8
0
100
AcDbLine
 10
28.67406787232522
 20
158.6251462740127
 30
0.0
 11
28.67406787232522
 21
138.8009568096074
 31
0.0
  0
LINE
  5
11B4
330
2
100
AcDbEntity
  8
0
100
AcDbLine
 10
30.67406787232511
 20
159.0463117789135
 30
0.0
 11
30.67406787232522
 21
138.8009568096074
 31
0.0
  0
LINE
  5
11B5
330
2
100
AcDbEntity
  8
HOJO
100
AcDbLine
 10
28.67406787232522
 20
158.6252182646844
 30
0.0
 11
28.67406787232522
 21
158.386385945348
 31
0.0
  0
ARC
  5
11B6
330
2
100
AcDbEntity
  8
HOJO
100
AcDbCircle
 10
29.92409787232537
 20
157.6251822693485
 30
0.0
 40
1.600781999999999
100
AcDbArc
 50
67.16467299999867
 51
141.3418685641821
  0
ARC
  5
11B7
330
2
100
AcDbEntity
  8
HOJO
100
AcDbCircle
 10
29.92409787232537
 20
159.6251822693485
 30
0.0
 40
1.600781999999999
100
AcDbArc
 50
67.16467299999867
 51
141.3418685642133
  0
ARC
  5
11B8
330
2
100
AcDbEntity
  8
0
100
AcDbCircle
 10
40.10647466571919
 20
125.6250723627948
 30
0.0
 40
42.0
100
AcDbArc
 50
70.56084818740761
 51
90.0
  0
ARC
  5
11B9
330
2
100
AcDbEntity
  8
0
100
AcDbCircle
 10
40.10647466571919
 20
125.6250723627948
 30
0.0
 40
40.0
100
AcDbArc
 50
70.56084818740761
 51
90.0
  0
LINE
  5
11BA
330
2
100
AcDbEntity
  8
0
100
AcDbLine
 10
55.41553156525157
 20
169.0028636487383
 30
0.0
 11
66.6675592606303
 21
165.0317547675102
 31
0.0
  0
LINE
  5
11BB
330
2
100
AcDbEntity
  8
0
100
AcDbLine
 10
54.74992039570685
 20
167.1168727232624
 30
0.0
 11
66.00194809108512
 21
163.1457638420344
 31
0.0
  0
ARC
  5
11BC
330
2
100
AcDbEntity
  8
0
100
AcDbCircle
 10
39.67411908551031
 20
160.6251311512091
 30
0.0
 40
5.000051213203854
100
AcDbArc
 50
90.0002430827012
 51
179.9998428472123
  0
ARC
  5
11BD
330
2
100
AcDbEntity
  8
0
100
AcDbCircle
 10
79.9797826515283
 20
202.751573277026
 30
0.0
 40
42.0
100
AcDbArc
 50
250.5608481874076
 51
270.0
  0
ARC
  5
11BE
330
2
100
AcDbEntity
  8
0
100
AcDbCircle
 10
79.9797826515283
 20
202.751573277026
 30
0.0
 40
44.0
100
AcDbArc
 50
250.5608481874076
 51
270.0
  0
ARC
  5
11BF
330
2
100
AcDbEntity
  8
0
100
AcDbCircle
 10
79.9797826515283
 20
202.751573277026
 30
0.0
 40
46.0
100
AcDbArc
 50
250.5608481874076
 51
270.0
  0
LINE
  5
11C0
330
2
100
AcDbEntity
  8
0
100
AcDbLine
 10
34.67406787232511
 20
158.6251448655173
 30
0.0
 11
34.67406787232522
 21
138.8009568096074
 31
0.0
  0
LINE
  5
11C1
330
2
100
AcDbEntity
  8
0
100
AcDbLine
 10
32.67406787232511
 20
158.2109846844755
 30
0.0
 11
32.67406787232522
 21
138.8009568096074
 31
0.0
  0
LINE
  5
11C2
330
2
100
AcDbEntity
  8
0
100
AcDbLine
 10
39.67393183768041
 20
165.6250723627948
 30
0.0
 11
40.10647466571919
 21
165.6250723627948
 31
0.0
  0
ARC
  5
11C3
330
2
100
AcDbEntity
  8
HOJO
100
AcDbCircle
 10
33.42409787232537
 20
159.6251822693485
 30
0.0
 40
1.600781
100
AcDbArc
 50
247.1647029999996
 51
321.3401944016201
  0
ARC
  5
11C4
330
2
100
AcDbEntity
  8
HOJO
100
AcDbCircle
 10
33.42409787232537
 20
161.6251822693485
 30
0.0
 40
1.600781
100
AcDbArc
 50
247.1647029999996
 51
321.3401944016201
  0
LINE
  5
11C5
330
2
100
AcDbEntity
  8
0
100
AcDbLine
 10
32.67406787232522
 20
160.6251311512091
 30
0.0
 11
32.67406787232511
 21
160.2041710798788
 31
0.0
  0
LINE
  5
11C6
330
2
100
AcDbEntity
  8
0
100
AcDbLine
 10
53.41869805661719
 20
163.3448908723108
 30
0.0
 11
64.67072575199546
 21
159.3737819910828
 31
0.0
  0
LINE
  5
11C7
330
2
100
AcDbEntity
  8
0
100
AcDbLine
 10
54.08430922616168
 20
165.2308817977866
 30
0.0
 11
65.3363369215404
 21
161.2597729165586
 31
0.0
  0
LINE
  5
11C8
330
2
100
AcDbEntity
  8
0
100
AcDbLine
 10
85.67400687232526
 20
139.9365578096074
 30
0.0
 11
78.66100587232523
 21
139.8753588096073
 31
0.0
  0
ARC
  5
11C9
330
2
100
AcDbEntity
  8
0
100
AcDbCircle
 10
78.67400687232526
 20
138.3753588096074
 30
0.0
 40
1.5
100
AcDbArc
 50
90.49999999999805
 51
180.0
  0
LINE
  5
11CA
330
2
100
AcDbEntity
  8
0
100
AcDbLine
 10
80.37042708877772
 20
156.751573277026
 30
0.0
 11
79.97978265151875
 21
156.751573277026
 31
0.0
  0
ARC
  5
11CB
330
2
100
AcDbEntity
  8
0
100
AcDbCircle
 10
79.9797826515283
 20
202.751573277026
 30
0.0
 40
40.0
100
AcDbArc
 50
250.5608481874076
 51
270.0
  0
LINE
  5
11CC
330
2
100
AcDbEntity
  8
0
100
AcDbLine
 10
80.37042708877772
 20
162.751573277026
 30
0.0
 11
79.9797826515283
 21
162.751573277026
 31
0.0
  0
LINE
  5
11CD
330
2
100
AcDbEntity
  8
0
100
AcDbLine
 10
39.67409787232537
 20
172.387360428727
 30
0.0
 11
78.09422019946538
 21
172.387360428727
 31
0.0
  0
LINE
  5
11CE
330
2
100
AcDbEntity
  8
0
100
AcDbLine
 10
39.67411787232532
 20
178.3873604287269
 30
0.0
 11
78.09474360286327
 21
178.3873604287269
 31
0.0
  0
ARC
  5
11CF
330
2
100
AcDbEntity
  8
0
100
AcDbCircle
 10
40.10647466571919
 20
125.6250723627948
 30
0.0
 40
44.0
100
AcDbArc
 50
70.56084818740761
 51
90.0
  0
ARC
  5
11D0
330
2
100
AcDbEntity
  8
0
100
AcDbCircle
 10
40.10647466571919
 20
125.6250723627948
 30
0.0
 40
46.0
100
AcDbArc
 50
70.56084818740761
 51
90.0
  0
LINE
  5
11D1
330
2
100
AcDbEntity
  8
0
100
AcDbLine
 10
39.67393183768041
 20
167.6250723627948
 30
0.0
 11
40.10647466571919
 21
167.6250723627948
 31
0.0
  0
LINE
  5
11D2
330
2
100
AcDbEntity
  8
0
100
AcDbLine
 10
39.67393183768041
 20
169.6250723627948
 30
0.0
 11
40.10647466571919
 21
169.6250723627948
 31
0.0
  0
LINE
  5
11D3
330
2
100
AcDbEntity
  8
0
100
AcDbLine
 10
39.67393183768041
 20
171.6250723627948
 30
0.0
 11
40.10647466571919
 21
171.6250723627948
 31
0.0
  0
ARC
  5
11D4
330
2
100
AcDbEntity
  8
0
100
AcDbCircle
 10
39.67409787232537
 20
160.625182364368
 30
0.0
 40
9.0
100
AcDbArc
 50
90.0
 51
123.3057915968513
  0
ARC
  5
11D5
330
2
100
AcDbEntity
  8
0
100
AcDbCircle
 10
39.67409787232537
 20
167.3873604287269
 30
0.0
 40
5.0
100
AcDbArc
 50
90.0
 51
131.9745634210933
  0
LINE
  5
11D6
330
2
100
AcDbEntity
  8
0
100
AcDbLine
 10
86.06893878731449
 20
179.7491290828312
 30
0.0
 11
81.02344240336202
 21
178.637360428727
 31
0.0
  0
LINE
  5
11D7
330
2
100
AcDbEntity
  8
0
100
AcDbLine
 10
85.06550833811372
 20
171.2036220816721
 30
0.0
 11
80.9984226660868
 21
172.1373604287269
 31
0.0
  0
LINE
  5
11D8
330
2
100
AcDbEntity
  8
0
100
AcDbLine
 10
78.08839277017347
 20
172.337360428727
 30
0.0
 11
78.08839277017347
 21
178.437360428727
 31
0.0
  0
LINE
  5
11D9
330
2
100
AcDbEntity
  8
0
100
AcDbLine
 10
78.28839277017351
 20
172.1373604287269
 30
0.0
 11
80.99842266608659
 21
172.1373604287269
 31
0.0
  0
ARC
  5
11DA
330
2
100
AcDbEntity
  8
0
100
AcDbCircle
 10
78.28839277017351
 20
172.337360428727
 30
0.0
 40
0.2
100
AcDbArc
 50
180.0
 51
270.0
  0
LINE
  5
11DB
330
2
100
AcDbEntity
  8
0
100
AcDbLine
 10
78.28839277017351
 20
178.6373604287271
 30
0.0
 11
81.02344240336202
 21
178.6373604287271
 31
0.0
  0
ARC
  5
11DC
330
2
100
AcDbEntity
  8
0
100
AcDbCircle
 10
78.28839277017351
 20
178.437360428727
 30
0.0
 40
0.2
100
AcDbArc
 50
90.0
 51
180.0
  0
LINE
  5
11DD
330
2
100
AcDbEntity
  8
0
100
AcDbLine
 10
87.85501342598156
 20
171.1906641079437
 30
0.0
 11
87.85501342598156
 21
179.5827358760452
 31
0.0
  0
LINE
  5
11DE
330
2
100
AcDbEntity
  8
0
100
AcDbLine
 10
94.18756360367643
 20
173.5628060301593
 30
0.0
 11
87.85501342598156
 21
174.1168323819166
 31
0.0
  0
LINE
  5
11DF
330
2
100
AcDbEntity
  8
0
100
AcDbLine
 10
87.85197497658401
 20
171.1559344724103
 30
0.0
 11
93.89409930934021
 21
170.0905449317501
 31
0.0
  0
LINE
  5
11E0
330
2
100
AcDbEntity
  8
0
100
AcDbLine
 10
87.85501342598156
 20
172.3739106460648
 30
0.0
 11
93.99908570557187
 21
171.2905449317501
 31
0.0
  0
LINE
  5
11E1
330
2
100
AcDbEntity
  8
0
100
AcDbLine
 10
94.13517047218538
 20
172.3628060301593
 30
0.0
 11
87.85501342598156
 21
172.9122485768646
 31
0.0
  0
ARC
  5
11E2
330
2
100
AcDbEntity
  8
0
100
AcDbCircle
 10
87.65501342598151
 20
171.1906641079437
 30
0.0
 40
0.2
100
AcDbArc
 50
260.0000000000014
 51
0.0
  0
LINE
  5
11E3
330
2
100
AcDbEntity
  8
0
100
AcDbLine
 10
85.48670148098706
 20
171.3699106840615
 30
0.0
 11
87.62028379044824
 21
170.9937025573411
 31
0.0
  0
ARC
  5
11E4
330
2
100
AcDbEntity
  8
0
100
AcDbCircle
 10
85.15501342598174
 20
171.5934795418364
 30
0.0
 40
0.4
100
AcDbArc
 50
257.0698677002803
 51
326.0187104207611
  0
ARC
  5
11E5
330
2
100
AcDbEntity
  8
0
100
AcDbCircle
 10
97.47204925891066
 20
190.9866999919943
 30
0.0
 40
20.0
100
AcDbArc
 50
260.0000000000014
 51
270.0
  0
ARC
  5
11E6
330
2
100
AcDbEntity
  8
0
100
AcDbCircle
 10
97.36706286267901
 20
189.7866999919943
 30
0.0
 40
20.0
100
AcDbArc
 50
260.0000000000014
 51
270.0
  0
ARC
  5
11E7
330
2
100
AcDbEntity
  8
0
100
AcDbCircle
 10
95.93067845862975
 20
193.4866999919942
 30
0.0
 40
20.0
100
AcDbArc
 50
265.0000000000002
 51
270.0
  0
ARC
  5
11E8
330
2
100
AcDbEntity
  8
0
100
AcDbCircle
 10
95.87828532713871
 20
192.2866999919942
 30
0.0
 40
20.0
100
AcDbArc
 50
265.0000000000002
 51
270.0
  0
LINE
  5
11E9
330
2
100
AcDbEntity
  8
0
100
AcDbLine
 10
94.18756360367257
 20
177.2105939538291
 30
0.0
 11
87.85501342598156
 21
176.6565676020722
 31
0.0
  0
LINE
  5
11EA
330
2
100
AcDbEntity
  8
0
100
AcDbLine
 10
87.85501342598156
 20
178.3994893379238
 30
0.0
 11
93.99908570557119
 21
179.4828550522383
 31
0.0
  0
LINE
  5
11EB
330
2
100
AcDbEntity
  8
0
100
AcDbLine
 10
94.13517047218267
 20
178.4105939538292
 30
0.0
 11
87.85501342598156
 21
177.8611514071241
 31
0.0
  0
LINE
  5
11EC
330
2
100
AcDbEntity
  8
0
100
AcDbLine
 10
87.85197497658401
 20
179.6174655115785
 30
0.0
 11
93.89409930933998
 21
180.6828550522385
 31
0.0
  0
ARC
  5
11ED
330
2
100
AcDbEntity
  8
0
100
AcDbCircle
 10
87.65501342598151
 20
179.5827358760452
 30
0.0
 40
0.2
100
AcDbArc
 50
0.0
 51
99.99999999999856
  0
ARC
  5
11EE
330
2
100
AcDbEntity
  8
0
100
AcDbCircle
 10
86.15501342598173
 20
179.3584999024333
 30
0.0
 40
0.4
100
AcDbArc
 50
33.6339940220128
 51
102.4264747477324
  0
LINE
  5
11EF
330
2
100
AcDbEntity
  8
0
100
AcDbLine
 10
86.48805053106645
 20
179.580054154563
 30
0.0
 11
87.62028379044824
 21
179.7796974266476
 31
0.0
  0
ARC
  5
11F0
330
2
100
AcDbEntity
  8
0
100
AcDbCircle
 10
97.36706286267855
 20
160.9866999919943
 30
0.0
 40
20.0
100
AcDbArc
 50
90.0
 51
99.99999999999856
  0
ARC
  5
11F1
330
2
100
AcDbEntity
  8
0
100
AcDbCircle
 10
97.47204925890976
 20
159.7866999919941
 30
0.0
 40
20.0
100
AcDbArc
 50
90.0
 51
99.99999999999856
  0
ARC
  5
11F2
330
2
100
AcDbEntity
  8
0
100
AcDbCircle
 10
95.87828532713576
 20
158.4866999919942
 30
0.0
 40
20.0
100
AcDbArc
 50
90.0
 51
94.99999999999976
  0
ARC
  5
11F3
330
2
100
AcDbEntity
  8
0
100
AcDbCircle
 10
95.9306784586259
 20
157.2866999919942
 30
0.0
 40
20.0
100
AcDbArc
 50
90.0
 51
94.99999999999976
  0
LINE
  5
11F4
330
2
100
AcDbEntity
  8
0
100
AcDbLine
 10
31.67406787232533
 20
269.7017457406724
 30
0.0
 11
42.79944731156269
 21
269.7017457406722
 31
0.0
  0
LINE
  5
11F5
330
2
100
AcDbEntity
  8
0
100
AcDbLine
 10
31.67406787232533
 20
275.7017457406724
 30
0.0
 11
42.72165696770179
 21
275.7017457406724
 31
0.0
  0
LINE
  5
11F6
330
2
100
AcDbEntity
  8
0
100
AcDbLine
 10
31.67457661725819
 20
279.2517368604965
 30
0.0
 11
36.2089673690279
 21
279.0933924462684
 31
0.0
  0
ARC
  5
11F7
330
2
100
AcDbEntity
  8
0
100
AcDbCircle
 10
31.67406787232533
 20
262.3517457406723
 30
0.0
 40
2.0
100
AcDbArc
 50
235.2729312954192
 51
304.7270687045807
  0
LINE
  5
11F8
330
2
100
AcDbEntity
  8
0
100
AcDbLine
 10
31.67406787232533
 20
261.3517457406723
 30
0.0
 11
42.49702388351846
 21
261.3517457406723
 31
0.0
  0
LINE
  5
11F9
330
2
100
AcDbEntity
  8
0
100
AcDbLine
 10
31.67406787232533
 20
257.2517457406723
 30
0.0
 11
36.20896736902813
 21
257.4101079206649
 31
0.0
  0
LINE
  5
11FA
330
2
100
AcDbEntity
  8
0
100
AcDbLine
 10
31.67406787232533
 20
263.3517457406723
 30
0.0
 11
42.40276429005866
 21
263.3517457406723
 31
0.0
  0
LINE
  5
11FB
330
2
100
AcDbEntity
  8
0
100
AcDbLine
 10
29.87406787232629
 20
267.4517457406723
 30
0.0
 11
33.47406787232438
 21
267.4517457406723
 31
0.0
  0
LINE
  5
11FC
330
2
100
AcDbEntity
  8
0
100
AcDbLine
 10
29.87406787232538
 20
266.4517457406723
 30
0.0
 11
40.60276429005869
 21
266.4517457406723
 31
0.0
  0
LINE
  5
11FD
330
2
100
AcDbEntity
  8
0
100
AcDbLine
 10
29.87406787232538
 20
264.4517457406723
 30
0.0
 11
40.69702388351851
 21
264.4517457406723
 31
0.0
  0
LINE
  5
1200
330
2
100
AcDbEntity
  8
0
100
AcDbLine
 10
77.17400687232572
 20
254.2430190467948
 30
0.0
 11
30.17406787232511
 21
254.6531731267113
 31
0.0
  0
LINE
  5
1201
330
2
100
AcDbEntity
  8
0
100
AcDbLine
 10
75.19145936233343
 20
235.2603200174332
 30
0.0
 11
28.1653416273212
 21
235.6706970672416
 31
0.0
  0
LINE
  5
1202
330
2
100
AcDbEntity
  8
0
100
AcDbLine
 10
77.17400687232572
 20
282.2604724345499
 30
0.0
 11
30.17406787232522
 21
281.8503183546333
 31
0.0
  0
LINE
  5
1203
330
2
100
AcDbEntity
  8
0
100
AcDbLine
 10
30.17406787232522
 20
257.22556314328
 30
0.0
 11
30.17406787232522
 21
246.2517457406724
 31
0.0
  0
ARC
  5
1204
330
2
100
AcDbEntity
  8
0
100
AcDbCircle
 10
28.17406787232533
 20
236.6706589928408
 30
0.0
 40
1.0
100
AcDbArc
 50
180.0
 51
269.5000166447272
  0
LINE
  5
1205
330
2
100
AcDbEntity
  8
0
100
AcDbLine
 10
27.17406787232533
 20
236.6706589928408
 30
0.0
 11
27.17406787232522
 21
246.2517457406724
 31
0.0
  0
LINE
  5
1206
330
2
100
AcDbEntity
  8
0
100
AcDbLine
 10
30.17406787232522
 20
246.2517457406724
 30
0.0
 11
27.17406787232522
 21
246.2517457406724
 31
0.0
  0
ARC
  5
1207
330
2
100
AcDbEntity
  8
0
100
AcDbCircle
 10
27.17406787232533
 20
247.2517457406723
 30
0.0
 40
1.0
100
AcDbArc
 50
180.0
 51
270.0
  0
LINE
  5
1208
330
2
100
AcDbEntity
  8
0
100
AcDbLine
 10
31.67406787232533
 20
269.7017457406724
 30
0.0
 11
31.67406787232533
 21
267.4517457406724
 31
0.0
  0
ARC
  5
1209
330
2
100
AcDbEntity
  8
0
100
AcDbCircle
 10
31.67406787232533
 20
263.7517457406722
 30
0.0
 40
3.25
100
AcDbArc
 50
176.1778378686731
 51
249.4781325999764
  0
LINE
  5
120A
330
2
100
AcDbEntity
  8
0
100
AcDbLine
 10
31.67406787232533
 20
260.3517457406723
 30
0.0
 11
31.67406787232533
 21
257.2517457406723
 31
0.0
  0
LINE
  5
120B
330
2
100
AcDbEntity
  8
0
100
AcDbLine
 10
31.67406787232533
 20
257.2517457406723
 30
0.0
 11
27.17406787232533
 21
257.1731979484953
 31
0.0
  0
LINE
  5
120C
330
2
100
AcDbEntity
  8
0
100
AcDbLine
 10
28.05573001679949
 20
264.6188907453928
 30
0.0
 11
28.43129665635109
 21
263.9683902440616
 31
0.0
  0
ARC
  5
120D
330
2
100
AcDbEntity
  8
0
100
AcDbCircle
 10
29.87406787232538
 20
265.4517457406723
 30
0.0
 40
1.0
100
AcDbArc
 50
90.0
 51
270.0
  0
ARC
  5
120E
330
2
100
AcDbEntity
  8
0
100
AcDbCircle
 10
29.87406787232538
 20
265.4517457406723
 30
0.0
 40
2.0
100
AcDbArc
 50
89.99999999997395
 51
204.6092450239455
  0
ARC
  5
120F
330
2
100
AcDbEntity
  8
0
100
AcDbCircle
 10
31.67406787232533
 20
262.3517457406723
 30
0.0
 40
1.0
100
AcDbArc
 50
90.0
 51
270.0
  0
LINE
  5
1210
330
2
100
AcDbEntity
  8
0
100
AcDbLine
 10
31.67406787232533
 20
279.2517457406723
 30
0.0
 11
31.67406787232533
 21
275.7017457406724
 31
0.0
  0
ARC
  5
1211
330
2
100
AcDbEntity
  8
0
100
AcDbCircle
 10
31.67406787232533
 20
272.7517457406723
 30
0.0
 40
2.95
100
AcDbArc
 50
90.0
 51
270.0
  0
LINE
  5
1212
330
2
100
AcDbEntity
  8
0
100
AcDbLine
 10
31.67406787232533
 20
279.2517457406723
 30
0.0
 11
27.17406787232533
 21
279.3302935328493
 31
0.0
  0
LINE
  5
1213
330
2
100
AcDbEntity
  8
0
100
AcDbLine
 10
79.17400687232549
 20
230.1117457406724
 30
0.0
 11
85.67400687232526
 21
230.1117457406724
 31
0.0
  0
ARC
  5
1214
330
2
100
AcDbEntity
  8
0
100
AcDbCircle
 10
75.17400687232515
 20
233.2603961662346
 30
0.0
 40
2.0
100
AcDbArc
 50
0.0000000000032569
 51
89.50001664472077
  0
ARC
  5
1215
330
2
100
AcDbEntity
  8
0
100
AcDbCircle
 10
79.17400687232549
 20
232.1117457406724
 30
0.0
 40
2.0
100
AcDbArc
 50
180.0
 51
270.0
  0
LINE
  5
1216
330
2
100
AcDbEntity
  8
0
100
AcDbLine
 10
79.17400687232526
 20
242.6617457406725
 30
0.0
 11
85.67400687232538
 21
242.6617457406724
 31
0.0
  0
ARC
  5
1217
330
2
100
AcDbEntity
  8
0
100
AcDbCircle
 10
74.96420587232552
 20
245.2517457406723
 30
0.0
 40
1.0
100
AcDbArc
 50
213.0556950000024
 51
270.0
  0
LINE
  5
1218
330
2
100
AcDbEntity
  8
0
100
AcDbLine
 10
77.17400687232549
 20
244.2343467406723
 30
0.0
 11
77.17400687232549
 21
252.2763467406724
 31
0.0
  0
LINE
  5
1219
330
2
100
AcDbEntity
  8
0
100
AcDbLine
 10
76.17400687232549
 20
252.2517457406724
 30
0.0
 11
76.17400687232549
 21
244.2517457406724
 31
0.0
  0
ARC
  5
121A
330
2
100
AcDbEntity
  8
0
100
AcDbCircle
 10
79.17400687232526
 20
244.6617457406724
 30
0.0
 40
2.0
100
AcDbArc
 50
180.0
 51
270.0
  0
LINE
  5
121B
330
2
100
AcDbEntity
  8
0
100
AcDbLine
 10
76.17400687232549
 20
244.2517457406724
 30
0.0
 11
74.96420587232552
 21
244.2517457406724
 31
0.0
  0
LINE
  5
121C
330
2
100
AcDbEntity
  8
0
100
AcDbLine
 10
77.2256048723255
 20
244.4518457406724
 30
0.0
 11
76.17400687232549
 21
244.4518457406724
 31
0.0
  0
ARC
  5
121D
330
2
100
AcDbEntity
  8
0
100
AcDbCircle
 10
74.96420587232552
 20
251.2517457406723
 30
0.0
 40
1.0
100
AcDbArc
 50
90.0
 51
146.9443049999975
  0
LINE
  5
121E
330
2
100
AcDbEntity
  8
CENTER
100
AcDbLine
 10
71.86710687232556
 20
248.2517457406724
 30
0.0
 11
82.0657078723255
 21
248.2517457406724
 31
0.0
  0
ARC
  5
121F
330
2
100
AcDbEntity
  8
0
100
AcDbCircle
 10
79.57400887232558
 20
248.2517457406724
 30
0.0
 40
6.5
100
AcDbArc
 50
146.9443049999975
 51
213.0556950000024
  0
LINE
  5
1220
330
2
100
AcDbEntity
  8
0
100
AcDbLine
 10
76.17400687232549
 20
252.2517457406724
 30
0.0
 11
74.96420587232552
 21
252.2517457406724
 31
0.0
  0
LINE
  5
1221
330
2
100
AcDbEntity
  8
0
100
AcDbLine
 10
76.17400687232549
 20
252.0518557406723
 30
0.0
 11
77.17400687232549
 21
252.0518557406723
 31
0.0
  0
LINE
  5
1222
330
2
100
AcDbEntity
  8
0
100
AcDbLine
 10
37.17406787232454
 20
269.7017457406724
 30
0.0
 11
37.17406787232545
 21
266.4517457406723
 31
0.0
  0
LINE
  5
1223
330
2
100
AcDbEntity
  8
0
100
AcDbLine
 10
37.17406787232545
 20
261.3517457406721
 30
0.0
 11
37.17406787232533
 21
258.4094987476841
 31
0.0
  0
ARC
  5
1224
330
2
100
AcDbEntity
  8
0
100
AcDbCircle
 10
31.67406787232533
 20
263.7517457406722
 30
0.0
 40
3.25
100
AcDbArc
 50
290.5218674000235
 51
312.3994733644457
  0
ARC
  5
1225
330
2
100
AcDbEntity
  8
0
100
AcDbCircle
 10
36.17406787232534
 20
258.4094987476839
 30
0.0
 40
1.0
100
AcDbArc
 50
272.0000000000036
 51
0.0
  0
LINE
  5
1226
330
2
100
AcDbEntity
  8
0
100
AcDbLine
 10
37.17406787232533
 20
264.4517457406722
 30
0.0
 11
37.17406787232545
 21
263.3517457406723
 31
0.0
  0
LINE
  5
1227
330
2
100
AcDbEntity
  8
0
100
AcDbLine
 10
35.19590451438188
 20
264.4517457406723
 30
0.0
 11
34.91683908829958
 21
263.9683902440616
 31
0.0
  0
LINE
  5
1228
330
2
100
AcDbEntity
  8
0
100
AcDbLine
 10
35.19590451438188
 20
264.4517457406723
 30
0.0
 11
34.91683908829958
 21
263.9683902440616
 31
0.0
  0
ARC
  5
1229
330
2
100
AcDbEntity
  8
0
100
AcDbCircle
 10
33.47406787232529
 20
265.4517457406723
 30
0.0
 40
2.0
100
AcDbArc
 50
30.00000000000098
 51
90.00000000002605
  0
ARC
  5
122A
330
2
100
AcDbEntity
  8
0
100
AcDbCircle
 10
31.67406787232533
 20
263.7517457406722
 30
0.0
 40
3.25
100
AcDbArc
 50
352.9302859576946
 51
3.822162131326857
  0
SPLINE
  5
122B
330
2
100
AcDbEntity
  8
HOJO
100
AcDbSpline
210
0.0
220
0.0
230
1.0
 70
     8
 71
     3
 72
    10
 73
     6
 74
     4
 42
0.0000000001
 43
0.0000000001
 44
0.0000000001
 40
0.0
 40
0.0
 40
0.0
 40
0.0
 40
0.697190763405494
 40
1.694952319108353
 40
2.335350738679082
 40
2.335350738679082
 40
2.335350738679082
 40
2.335350738679082
 10
40.69702388351851
 20
264.4517457406723
 30
0.0
 10
40.86423802562669
 20
264.6727307527959
 30
0.0
 10
41.27075516961409
 20
265.2099711731332
 30
0.0
 10
40.09444605883087
 20
265.7204182188062
 30
0.0
 10
40.45989931339017
 20
266.2462030649825
 30
0.0
 10
40.60276429005869
 20
266.4517457406723
 30
0.0
 11
40.69702388351851
 21
264.4517457406723
 31
0.0
 11
40.98543633264779
 21
265.0864844426318
 31
0.0
 11
40.35611846515502
 21
265.8607499937787
 31
0.0
 11
40.60276429005869
 21
266.4517457406723
 31
0.0
  0
SPLINE
  5
122C
330
2
100
AcDbEntity
  8
HOJO
100
AcDbSpline
210
0.0
220
0.0
230
1.0
 70
     8
 71
     3
 72
    10
 73
     6
 74
     4
 42
0.0000000001
 43
0.0000000001
 44
0.0000000001
 40
0.0
 40
0.0
 40
0.0
 40
0.0
 40
0.697190763405494
 40
1.694952319108353
 40
2.335350738679082
 40
2.335350738679082
 40
2.335350738679082
 40
2.335350738679082
 10
42.49702388351846
 20
261.3517457406723
 30
0.0
 10
42.66423802562665
 20
261.5727307527959
 30
0.0
 10
43.07075516961405
 20
262.1099711731332
 30
0.0
 10
41.89444605883081
 20
262.6204182188061
 30
0.0
 10
42.25989931339014
 20
263.1462030649825
 30
0.0
 10
42.40276429005866
 20
263.3517457406723
 30
0.0
 11
42.49702388351846
 21
261.3517457406723
 31
0.0
 11
42.78543633264774
 21
261.9864844426317
 31
0.0
 11
42.15611846515497
 21
262.7607499937787
 31
0.0
 11
42.40276429005866
 21
263.3517457406723
 31
0.0
  0
LINE
  5
122D
330
2
100
AcDbEntity
  8
0
100
AcDbLine
 10
37.17406787232533
 20
278.0940016192492
 30
0.0
 11
37.17406787232556
 21
275.7017457406724
 31
0.0
  0
SPLINE
  5
122E
330
2
100
AcDbEntity
  8
HOJO
100
AcDbSpline
210
0.0
220
0.0
230
1.0
 70
     8
 71
     3
 72
    12
 73
     8
 74
     6
 42
0.0000000001
 43
0.0000000001
 44
0.0000000001
 40
0.0
 40
0.0
 40
0.0
 40
0.0
 40
1.684659730310349
 40
2.786160565551575
 40
4.550934817628674
 40
5.718899366607204
 40
6.335570522767257
 40
6.335570522767257
 40
6.335570522767257
 40
6.335570522767257
 10
42.79944731156269
 20
269.7017457406722
 30
0.0
 10
42.52253570328897
 20
270.2527055543557
 30
0.0
 10
42.06456772955842
 20
271.163905886666
 30
0.0
 10
42.94719234749604
 20
272.5009071186885
 30
0.0
 10
43.50927018534337
 20
273.8267265851583
 30
0.0
 10
43.01186069386509
 20
274.9609197937676
 30
0.0
 10
42.79618316434052
 20
275.5114968388955
 30
0.0
 10
42.72165696770179
 20
275.7017457406724
 30
0.0
 11
42.79944731156269
 21
269.7017457406722
 31
0.0
 11
42.33370542768096
 21
271.3207463288523
 31
0.0
 11
42.79543526404739
 21
272.3208011514726
 31
0.0
 11
43.29564283933604
 21
274.0132019735057
 31
0.0
 11
42.94934520950318
 21
275.1286476867714
 31
0.0
 11
42.72165696770179
 21
275.7017457406724
 31
0.0
  0
ARC
  5
122F
330
2
100
AcDbEntity
  8
0
100
AcDbCircle
 10
36.17406787232534
 20
278.0940016192492
 30
0.0
 40
1.0
100
AcDbArc
 50
0.0
 51
87.99999999999634
  0
LINE
  5
1230
330
2
100
AcDbEntity
  8
0
100
AcDbLine
 10
109.7514420972227
 20
154.181067540902
 30
0.0
 11
109.925753582718
 21
156.1734569370854
 31
0.0
  0
LINE
  5
1231
330
2
100
AcDbEntity
  8
0
100
AcDbLine
 10
114.8568044256522
 20
155.0895629946557
 30
0.0
 11
109.8758309351936
 21
155.5253417083938
 31
0.0
  0
LINE
  5
1232
330
2
100
AcDbEntity
  8
0
100
AcDbLine
 10
114.9041907824501
 20
155.4367541687702
 30
0.0
 11
109.9063354451553
 21
155.8740098527259
 31
0.0
  0
LINE
  5
1233
330
2
100
AcDbEntity
  8
0
100
AcDbLine
 10
114.7652908957673
 20
154.0435585616593
 30
0.0
 11
109.7843174053085
 21
154.4793372753975
 31
0.0
  0
LINE
  5
1234
330
2
100
AcDbEntity
  8
0
100
AcDbLine
 10
114.795795405729
 20
154.3922267059914
 30
0.0
 11
109.8148219152702
 21
154.8280054197297
 31
0.0
  0
LINE
  5
1235
330
2
100
AcDbEntity
  8
0
100
AcDbLine
 10
114.8262999156905
 20
154.7408948503235
 30
0.0
 11
109.8453264252319
 21
155.1766735640618
 31
0.0
  0
LINE
  5
1236
330
2
100
AcDbEntity
  8
0
100
AcDbLine
 10
109.8704270887777
 20
158.751573277026
 30
0.0
 11
109.8704270887777
 21
160.751573277026
 31
0.0
  0
LINE
  5
1237
330
2
100
AcDbEntity
  8
0
100
AcDbLine
 10
114.8704270887777
 20
159.401573277026
 30
0.0
 11
109.8704270887777
 21
159.401573277026
 31
0.0
  0
LINE
  5
1238
330
2
100
AcDbEntity
  8
0
100
AcDbLine
 10
114.8704270887777
 20
159.051573277026
 30
0.0
 11
109.8704270887777
 21
159.051573277026
 31
0.0
  0
LINE
  5
1239
330
2
100
AcDbEntity
  8
0
100
AcDbLine
 10
114.7652908957673
 20
165.4595879923927
 30
0.0
 11
109.7843174053085
 21
165.0238092786544
 31
0.0
  0
LINE
  5
123A
330
2
100
AcDbEntity
  8
0
100
AcDbLine
 10
114.8568044256522
 20
164.4135835593963
 30
0.0
 11
109.8758309351936
 21
163.977804845658
 31
0.0
  0
LINE
  5
123B
330
2
100
AcDbEntity
  8
0
100
AcDbLine
 10
114.9041907824503
 20
164.0663923852818
 30
0.0
 11
109.9063354451553
 21
163.6291367013259
 31
0.0
  0
LINE
  5
123C
330
2
100
AcDbEntity
  8
0
100
AcDbLine
 10
114.8704270887777
 20
159.751573277026
 30
0.0
 11
109.8704270887777
 21
159.751573277026
 31
0.0
  0
LINE
  5
123D
330
2
100
AcDbEntity
  8
0
100
AcDbLine
 10
114.8704270887777
 20
160.1015732770259
 30
0.0
 11
109.8704270887777
 21
160.1015732770259
 31
0.0
  0
LINE
  5
123E
330
2
100
AcDbEntity
  8
0
100
AcDbLine
 10
114.8704270887777
 20
160.4515732770259
 30
0.0
 11
109.8704270887777
 21
160.4515732770259
 31
0.0
  0
LINE
  5
123F
330
2
100
AcDbEntity
  8
0
100
AcDbLine
 10
114.8262999156905
 20
164.7622517037284
 30
0.0
 11
109.8453264252319
 21
164.3264729899901
 31
0.0
  0
LINE
  5
1240
330
2
100
AcDbEntity
  8
0
100
AcDbLine
 10
114.795795405729
 20
165.1109198480605
 30
0.0
 11
109.8148219152702
 21
164.6751411343223
 31
0.0
  0
LINE
  5
1241
330
2
100
AcDbEntity
  8
0
100
AcDbLine
 10
109.7581706824842
 20
165.3226676880819
 30
0.0
 11
109.9324821679795
 21
163.3302782918984
 31
0.0
  0
LINE
  5
1242
330
2
100
AcDbEntity
  8
0
100
AcDbLine
 10
115.233280414333
 20
181.6366999919942
 30
0.0
 11
115.233280414333
 21
169.1366999919942
 31
0.0
  0
LINE
  5
1243
330
2
100
AcDbEntity
  8
0
100
AcDbLine
 10
115.233280414333
 20
181.6366999919942
 30
0.0
 11
115.233280414333
 21
169.1366999919942
 31
0.0
  0
ARC
  5
1244
330
2
100
AcDbEntity
  8
0
100
AcDbCircle
 10
111.6332804143331
 20
173.7866999919942
 30
0.0
 40
0.1
100
AcDbArc
 50
0.0
 51
90.0
  0
LINE
  5
1245
330
2
100
AcDbEntity
  8
0
100
AcDbLine
 10
113.233280414333
 20
174.1366999919943
 30
0.0
 11
113.233280414333
 21
173.7866999919942
 31
0.0
  0
LINE
  5
1246
330
2
100
AcDbEntity
  8
0
100
AcDbLine
 10
103.733280414333
 20
181.6366999919942
 30
0.0
 11
103.733280414333
 21
169.1366999919942
 31
0.0
  0
LINE
  5
1247
330
2
100
AcDbEntity
  8
0
100
AcDbLine
 10
105.733280414333
 20
181.6366999919942
 30
0.0
 11
105.733280414333
 21
169.1366999919942
 31
0.0
  0
LINE
  5
1248
330
2
100
AcDbEntity
  8
0
100
AcDbLine
 10
111.6332804143331
 20
169.3866999919943
 30
0.0
 11
108.3332804143329
 21
169.3866999919943
 31
0.0
  0
LINE
  5
1249
330
2
100
AcDbEntity
  8
0
100
AcDbLine
 10
111.6332804143331
 20
171.3866999919943
 30
0.0
 11
108.3332804143329
 21
171.3866999919943
 31
0.0
  0
LINE
  5
124A
330
2
100
AcDbEntity
  8
0
100
AcDbLine
 10
111.6332804143331
 20
171.8866999919943
 30
0.0
 11
108.3332804143329
 21
171.8866999919943
 31
0.0
  0
LINE
  5
124B
330
2
100
AcDbEntity
  8
0
100
AcDbLine
 10
115.233280414333
 20
169.1366999919942
 30
0.0
 11
103.733280414333
 21
169.1366999919942
 31
0.0
  0
LINE
  5
124C
330
2
100
AcDbEntity
  8
0
100
AcDbLine
 10
108.233280414333
 20
169.2866999919942
 30
0.0
 11
108.233280414333
 21
169.1366999919942
 31
0.0
  0
ARC
  5
124D
330
2
100
AcDbEntity
  8
0
100
AcDbCircle
 10
108.3332804143329
 20
169.2866999919942
 30
0.0
 40
0.1
100
AcDbArc
 50
90.0
 51
180.0
  0
LINE
  5
124E
330
2
100
AcDbEntity
  8
0
100
AcDbLine
 10
108.233280414333
 20
171.6366999919943
 30
0.0
 11
108.233280414333
 21
171.4866999919943
 31
0.0
  0
ARC
  5
124F
330
2
100
AcDbEntity
  8
0
100
AcDbCircle
 10
108.3332804143329
 20
171.4866999919943
 30
0.0
 40
0.1
100
AcDbArc
 50
180.0
 51
270.0
  0
LINE
  5
1250
330
2
100
AcDbEntity
  8
0
100
AcDbLine
 10
108.233280414333
 20
171.6366999919943
 30
0.0
 11
108.233280414333
 21
171.7866999919943
 31
0.0
  0
ARC
  5
1251
330
2
100
AcDbEntity
  8
0
100
AcDbCircle
 10
108.3332804143329
 20
171.7866999919943
 30
0.0
 40
0.1
100
AcDbArc
 50
90.0
 51
180.0
  0
LINE
  5
1252
330
2
100
AcDbEntity
  8
0
100
AcDbLine
 10
111.733280414333
 20
171.2866999919942
 30
0.0
 11
111.733280414333
 21
169.4866999919943
 31
0.0
  0
LINE
  5
1253
330
2
100
AcDbEntity
  8
0
100
AcDbLine
 10
114.233280414333
 20
171.0866999919943
 30
0.0
 11
114.233280414333
 21
169.6866999919943
 31
0.0
  0
ARC
  5
1254
330
2
100
AcDbEntity
  8
0
100
AcDbCircle
 10
111.6332804143331
 20
169.4866999919943
 30
0.0
 40
0.1
100
AcDbArc
 50
270.0
 51
0.0
  0
ARC
  5
1255
330
2
100
AcDbEntity
  8
0
100
AcDbCircle
 10
114.1332804143328
 20
169.6866999919943
 30
0.0
 40
0.1
100
AcDbArc
 50
270.0
 51
0.0
  0
ARC
  5
1256
330
2
100
AcDbEntity
  8
0
100
AcDbCircle
 10
113.3332804143329
 20
169.4866999919943
 30
0.0
 40
0.1
100
AcDbArc
 50
90.0
 51
180.0
  0
LINE
  5
1257
330
2
100
AcDbEntity
  8
0
100
AcDbLine
 10
113.233280414333
 20
169.1366999919942
 30
0.0
 11
113.233280414333
 21
169.4866999919943
 31
0.0
  0
LINE
  5
1258
330
2
100
AcDbEntity
  8
0
100
AcDbLine
 10
114.1332804143328
 20
169.5866999919943
 30
0.0
 11
113.3332804143329
 21
169.5866999919943
 31
0.0
  0
ARC
  5
1259
330
2
100
AcDbEntity
  8
0
100
AcDbCircle
 10
114.1332804143328
 20
173.5866999919943
 30
0.0
 40
0.1
100
AcDbArc
 50
0.0
 51
90.0
  0
ARC
  5
125A
330
2
100
AcDbEntity
  8
0
100
AcDbCircle
 10
113.3332804143329
 20
173.7866999919942
 30
0.0
 40
0.1
100
AcDbArc
 50
180.0
 51
270.0
  0
LINE
  5
125B
330
2
100
AcDbEntity
  8
0
100
AcDbLine
 10
114.1332804143328
 20
173.6866999919943
 30
0.0
 11
113.3332804143329
 21
173.6866999919943
 31
0.0
  0
ARC
  5
125C
330
2
100
AcDbEntity
  8
0
100
AcDbCircle
 10
111.6332804143331
 20
171.2866999919942
 30
0.0
 40
0.1
100
AcDbArc
 50
0.0
 51
90.0
  0
ARC
  5
125D
330
2
100
AcDbEntity
  8
0
100
AcDbCircle
 10
111.6332804143331
 20
171.9866999919943
 30
0.0
 40
0.1
100
AcDbArc
 50
270.0
 51
0.0
  0
LINE
  5
125E
330
2
100
AcDbEntity
  8
0
100
AcDbLine
 10
113.233280414333
 20
171.6366999919943
 30
0.0
 11
113.233280414333
 21
171.2866999919942
 31
0.0
  0
ARC
  5
125F
330
2
100
AcDbEntity
  8
0
100
AcDbCircle
 10
114.1332804143328
 20
171.0866999919943
 30
0.0
 40
0.1
100
AcDbArc
 50
0.0
 51
90.0
  0
ARC
  5
1260
330
2
100
AcDbEntity
  8
0
100
AcDbCircle
 10
113.3332804143329
 20
171.2866999919942
 30
0.0
 40
0.1
100
AcDbArc
 50
180.0
 51
270.0
  0
LINE
  5
1261
330
2
100
AcDbEntity
  8
0
100
AcDbLine
 10
114.1332804143328
 20
171.1866999919943
 30
0.0
 11
113.3332804143329
 21
171.1866999919943
 31
0.0
  0
ARC
  5
1262
330
2
100
AcDbEntity
  8
0
100
AcDbCircle
 10
114.1332804143328
 20
172.1866999919942
 30
0.0
 40
0.1
100
AcDbArc
 50
270.0
 51
0.0
  0
ARC
  5
1263
330
2
100
AcDbEntity
  8
0
100
AcDbCircle
 10
113.3332804143329
 20
171.9866999919943
 30
0.0
 40
0.1
100
AcDbArc
 50
90.0
 51
180.0
  0
LINE
  5
1264
330
2
100
AcDbEntity
  8
0
100
AcDbLine
 10
113.233280414333
 20
171.6366999919943
 30
0.0
 11
113.233280414333
 21
171.9866999919943
 31
0.0
  0
LINE
  5
1265
330
2
100
AcDbEntity
  8
0
100
AcDbLine
 10
114.1332804143328
 20
172.0866999919943
 30
0.0
 11
113.3332804143329
 21
172.0866999919943
 31
0.0
  0
LINE
  5
1266
330
2
100
AcDbEntity
  8
0
100
AcDbLine
 10
111.733280414333
 20
171.9866999919943
 30
0.0
 11
111.733280414333
 21
173.7866999919942
 31
0.0
  0
LINE
  5
1267
330
2
100
AcDbEntity
  8
0
100
AcDbLine
 10
114.233280414333
 20
172.1866999919942
 30
0.0
 11
114.233280414333
 21
173.5866999919943
 31
0.0
  0
LINE
  5
1268
330
2
100
AcDbEntity
  8
0
100
AcDbLine
 10
111.6332804143331
 20
181.3866999919943
 30
0.0
 11
108.3332804143329
 21
181.3866999919943
 31
0.0
  0
LINE
  5
1269
330
2
100
AcDbEntity
  8
0
100
AcDbLine
 10
111.6332804143331
 20
176.3866999919943
 30
0.0
 11
108.3332804143329
 21
176.3866999919943
 31
0.0
  0
LINE
  5
126A
330
2
100
AcDbEntity
  8
0
100
AcDbLine
 10
111.6332804143331
 20
176.8866999919943
 30
0.0
 11
108.3332804143329
 21
176.8866999919943
 31
0.0
  0
LINE
  5
126B
330
2
100
AcDbEntity
  8
0
100
AcDbLine
 10
111.6332804143331
 20
178.8866999919943
 30
0.0
 11
108.3332804143329
 21
178.8866999919943
 31
0.0
  0
LINE
  5
126C
330
2
100
AcDbEntity
  8
0
100
AcDbLine
 10
111.6332804143331
 20
179.3866999919942
 30
0.0
 11
108.3332804143329
 21
179.3866999919942
 31
0.0
  0
LINE
  5
126D
330
2
100
AcDbEntity
  8
0
100
AcDbLine
 10
111.6332804143331
 20
173.8866999919943
 30
0.0
 11
108.3332804143329
 21
173.8866999919943
 31
0.0
  0
LINE
  5
126E
330
2
100
AcDbEntity
  8
0
100
AcDbLine
 10
111.6332804143331
 20
174.3866999919942
 30
0.0
 11
108.3332804143329
 21
174.3866999919942
 31
0.0
  0
LINE
  5
126F
330
2
100
AcDbEntity
  8
0
100
AcDbLine
 10
115.233280414333
 20
181.6366999919942
 30
0.0
 11
103.733280414333
 21
181.6366999919942
 31
0.0
  0
ARC
  5
1270
330
2
100
AcDbEntity
  8
0
100
AcDbCircle
 10
108.3332804143329
 20
181.4866999919943
 30
0.0
 40
0.1
100
AcDbArc
 50
180.0
 51
270.0
  0
LINE
  5
1271
330
2
100
AcDbEntity
  8
0
100
AcDbLine
 10
108.233280414333
 20
181.4866999919943
 30
0.0
 11
108.233280414333
 21
181.6366999919942
 31
0.0
  0
LINE
  5
1272
330
2
100
AcDbEntity
  8
0
100
AcDbLine
 10
108.233280414333
 20
179.1366999919943
 30
0.0
 11
108.233280414333
 21
178.9866999919943
 31
0.0
  0
ARC
  5
1273
330
2
100
AcDbEntity
  8
0
100
AcDbCircle
 10
108.3332804143329
 20
179.2866999919942
 30
0.0
 40
0.1
100
AcDbArc
 50
90.0
 51
180.0
  0
LINE
  5
1274
330
2
100
AcDbEntity
  8
0
100
AcDbLine
 10
108.233280414333
 20
179.1366999919943
 30
0.0
 11
108.233280414333
 21
179.2866999919942
 31
0.0
  0
ARC
  5
1275
330
2
100
AcDbEntity
  8
0
100
AcDbCircle
 10
108.3332804143329
 20
176.4866999919943
 30
0.0
 40
0.1
100
AcDbArc
 50
180.0
 51
270.0
  0
ARC
  5
1276
330
2
100
AcDbEntity
  8
0
100
AcDbCircle
 10
108.3332804143329
 20
176.7866999919942
 30
0.0
 40
0.1
100
AcDbArc
 50
90.0
 51
180.0
  0
LINE
  5
1277
330
2
100
AcDbEntity
  8
0
100
AcDbLine
 10
108.233280414333
 20
176.7866999919942
 30
0.0
 11
108.233280414333
 21
176.4866999919943
 31
0.0
  0
ARC
  5
1278
330
2
100
AcDbEntity
  8
0
100
AcDbCircle
 10
108.3332804143329
 20
178.9866999919943
 30
0.0
 40
0.1
100
AcDbArc
 50
180.0
 51
270.0
  0
ARC
  5
1279
330
2
100
AcDbEntity
  8
0
100
AcDbCircle
 10
108.3332804143329
 20
173.9866999919943
 30
0.0
 40
0.1
100
AcDbArc
 50
180.0
 51
270.0
  0
LINE
  5
127A
330
2
100
AcDbEntity
  8
0
100
AcDbLine
 10
108.233280414333
 20
173.9866999919943
 30
0.0
 11
108.233280414333
 21
174.2866999919942
 31
0.0
  0
ARC
  5
127B
330
2
100
AcDbEntity
  8
0
100
AcDbCircle
 10
108.3332804143329
 20
174.2866999919942
 30
0.0
 40
0.1
100
AcDbArc
 50
90.0
 51
180.0
  0
ARC
  5
127C
330
2
100
AcDbEntity
  8
0
100
AcDbCircle
 10
111.6332804143331
 20
181.2866999919942
 30
0.0
 40
0.1
100
AcDbArc
 50
0.0
 51
90.0
  0
ARC
  5
127D
330
2
100
AcDbEntity
  8
0
100
AcDbCircle
 10
114.1332804143328
 20
181.0866999919943
 30
0.0
 40
0.1
100
AcDbArc
 50
0.0
 51
90.0
  0
LINE
  5
127E
330
2
100
AcDbEntity
  8
0
100
AcDbLine
 10
113.233280414333
 20
181.6366999919942
 30
0.0
 11
113.233280414333
 21
181.2866999919942
 31
0.0
  0
ARC
  5
127F
330
2
100
AcDbEntity
  8
0
100
AcDbCircle
 10
113.3332804143329
 20
181.2866999919942
 30
0.0
 40
0.1
100
AcDbArc
 50
180.0
 51
270.0
  0
LINE
  5
1280
330
2
100
AcDbEntity
  8
0
100
AcDbLine
 10
114.1332804143328
 20
181.1866999919943
 30
0.0
 11
113.3332804143329
 21
181.1866999919943
 31
0.0
  0
LINE
  5
1281
330
2
100
AcDbEntity
  8
0
100
AcDbLine
 10
111.733280414333
 20
174.4866999919943
 30
0.0
 11
111.733280414333
 21
175.3866999919942
 31
0.0
  0
LINE
  5
1282
330
2
100
AcDbEntity
  8
0
100
AcDbLine
 10
114.233280414333
 20
175.3866999919942
 30
0.0
 11
114.233280414333
 21
174.6866999919942
 31
0.0
  0
LINE
  5
1283
330
2
100
AcDbEntity
  8
0
100
AcDbLine
 10
113.233280414333
 20
179.1366999919943
 30
0.0
 11
113.233280414333
 21
178.7866999919942
 31
0.0
  0
ARC
  5
1284
330
2
100
AcDbEntity
  8
0
100
AcDbCircle
 10
111.6332804143331
 20
179.4866999919943
 30
0.0
 40
0.1
100
AcDbArc
 50
270.0
 51
0.0
  0
ARC
  5
1285
330
2
100
AcDbEntity
  8
0
100
AcDbCircle
 10
114.1332804143328
 20
179.6866999919942
 30
0.0
 40
0.1
100
AcDbArc
 50
270.0
 51
0.0
  0
ARC
  5
1286
330
2
100
AcDbEntity
  8
0
100
AcDbCircle
 10
113.3332804143329
 20
179.4866999919943
 30
0.0
 40
0.1
100
AcDbArc
 50
90.0
 51
180.0
  0
LINE
  5
1287
330
2
100
AcDbEntity
  8
0
100
AcDbLine
 10
113.233280414333
 20
179.1366999919943
 30
0.0
 11
113.233280414333
 21
179.4866999919943
 31
0.0
  0
LINE
  5
1288
330
2
100
AcDbEntity
  8
0
100
AcDbLine
 10
114.1332804143328
 20
179.5866999919943
 30
0.0
 11
113.3332804143329
 21
179.5866999919943
 31
0.0
  0
LINE
  5
1289
330
2
100
AcDbEntity
  8
0
100
AcDbLine
 10
111.733280414333
 20
176.2866999919942
 30
0.0
 11
111.733280414333
 21
175.3866999919942
 31
0.0
  0
ARC
  5
128A
330
2
100
AcDbEntity
  8
0
100
AcDbCircle
 10
111.6332804143331
 20
176.2866999919942
 30
0.0
 40
0.1
100
AcDbArc
 50
0.0
 51
90.0
  0
ARC
  5
128B
330
2
100
AcDbEntity
  8
0
100
AcDbCircle
 10
111.6332804143331
 20
176.9866999919943
 30
0.0
 40
0.1
100
AcDbArc
 50
270.0
 51
0.0
  0
LINE
  5
128C
330
2
100
AcDbEntity
  8
0
100
AcDbLine
 10
114.233280414333
 20
175.3866999919942
 30
0.0
 11
114.233280414333
 21
176.0866999919943
 31
0.0
  0
ARC
  5
128D
330
2
100
AcDbEntity
  8
0
100
AcDbCircle
 10
114.1332804143328
 20
176.0866999919943
 30
0.0
 40
0.1
100
AcDbArc
 50
0.0
 51
90.0
  0
ARC
  5
128E
330
2
100
AcDbEntity
  8
0
100
AcDbCircle
 10
114.1332804143328
 20
178.5866999919943
 30
0.0
 40
0.1
100
AcDbArc
 50
0.0
 51
90.0
  0
LINE
  5
128F
330
2
100
AcDbEntity
  8
0
100
AcDbLine
 10
114.233280414333
 20
178.5866999919943
 30
0.0
 11
114.233280414333
 21
177.1866999919943
 31
0.0
  0
ARC
  5
1290
330
2
100
AcDbEntity
  8
0
100
AcDbCircle
 10
114.1332804143328
 20
177.1866999919943
 30
0.0
 40
0.1
100
AcDbArc
 50
270.0
 51
0.0
  0
ARC
  5
1291
330
2
100
AcDbEntity
  8
0
100
AcDbCircle
 10
113.3332804143329
 20
176.2866999919942
 30
0.0
 40
0.1
100
AcDbArc
 50
180.0
 51
270.0
  0
ARC
  5
1292
330
2
100
AcDbEntity
  8
0
100
AcDbCircle
 10
113.3332804143329
 20
176.9866999919943
 30
0.0
 40
0.1
100
AcDbArc
 50
90.0
 51
180.0
  0
LINE
  5
1293
330
2
100
AcDbEntity
  8
0
100
AcDbLine
 10
113.233280414333
 20
176.6366999919943
 30
0.0
 11
113.233280414333
 21
176.9866999919943
 31
0.0
  0
LINE
  5
1294
330
2
100
AcDbEntity
  8
0
100
AcDbLine
 10
113.233280414333
 20
176.6366999919943
 30
0.0
 11
113.233280414333
 21
176.2866999919942
 31
0.0
  0
LINE
  5
1295
330
2
100
AcDbEntity
  8
0
100
AcDbLine
 10
114.1332804143328
 20
178.6866999919943
 30
0.0
 11
113.3332804143329
 21
178.6866999919943
 31
0.0
  0
LINE
  5
1296
330
2
100
AcDbEntity
  8
0
100
AcDbLine
 10
114.1332804143328
 20
177.0866999919943
 30
0.0
 11
113.3332804143329
 21
177.0866999919943
 31
0.0
  0
LINE
  5
1297
330
2
100
AcDbEntity
  8
0
100
AcDbLine
 10
114.1332804143328
 20
176.1866999919943
 30
0.0
 11
113.3332804143329
 21
176.1866999919943
 31
0.0
  0
ARC
  5
1298
330
2
100
AcDbEntity
  8
0
100
AcDbCircle
 10
111.6332804143331
 20
178.7866999919942
 30
0.0
 40
0.1
100
AcDbArc
 50
0.0
 51
90.0
  0
LINE
  5
1299
330
2
100
AcDbEntity
  8
0
100
AcDbLine
 10
111.733280414333
 20
178.7866999919942
 30
0.0
 11
111.733280414333
 21
176.9866999919943
 31
0.0
  0
ARC
  5
129A
330
2
100
AcDbEntity
  8
0
100
AcDbCircle
 10
113.3332804143329
 20
178.7866999919942
 30
0.0
 40
0.1
100
AcDbArc
 50
180.0
 51
270.0
  0
ARC
  5
129B
330
2
100
AcDbEntity
  8
0
100
AcDbCircle
 10
111.6332804143331
 20
174.4866999919943
 30
0.0
 40
0.1
100
AcDbArc
 50
270.0
 51
0.0
  0
LINE
  5
129C
330
2
100
AcDbEntity
  8
0
100
AcDbLine
 10
113.233280414333
 20
174.1366999919943
 30
0.0
 11
113.233280414333
 21
174.4866999919943
 31
0.0
  0
ARC
  5
129D
330
2
100
AcDbEntity
  8
0
100
AcDbCircle
 10
113.3332804143329
 20
174.4866999919943
 30
0.0
 40
0.1
100
AcDbArc
 50
90.0
 51
180.0
  0
LINE
  5
129E
330
2
100
AcDbEntity
  8
0
100
AcDbLine
 10
114.1332804143328
 20
174.5866999919943
 30
0.0
 11
113.3332804143329
 21
174.5866999919943
 31
0.0
  0
ARC
  5
129F
330
2
100
AcDbEntity
  8
0
100
AcDbCircle
 10
114.1332804143328
 20
174.6866999919942
 30
0.0
 40
0.1
100
AcDbArc
 50
270.0
 51
0.0
  0
LINE
  5
12A0
330
2
100
AcDbEntity
  8
0
100
AcDbLine
 10
111.733280414333
 20
179.4866999919943
 30
0.0
 11
111.733280414333
 21
181.2866999919942
 31
0.0
  0
LINE
  5
12A1
330
2
100
AcDbEntity
  8
0
100
AcDbLine
 10
114.233280414333
 20
179.6866999919942
 30
0.0
 11
114.233280414333
 21
181.0866999919943
 31
0.0
  0
LINE
  5
12A3
330
2
100
AcDbEntity
  8
0
100
AcDbLine
 10
75.19145936233343
 20
301.2431714639115
 30
0.0
 11
28.16534162732085
 21
300.8327944141033
 31
0.0
  0
LINE
  5
12A4
330
2
100
AcDbEntity
  8
0
100
AcDbLine
 10
27.174067872325
 20
299.832832488504
 30
0.0
 11
27.17406787232545
 21
290.2517457406724
 31
0.0
  0
LINE
  5
12A5
330
2
100
AcDbEntity
  8
0
100
AcDbLine
 10
30.17406787232522
 20
290.2517457406723
 30
0.0
 11
27.17406787232533
 21
290.2517457406723
 31
0.0
  0
ARC
  5
12A6
330
2
100
AcDbEntity
  8
0
100
AcDbCircle
 10
27.17406787232545
 20
289.2517457406723
 30
0.0
 40
1.0
100
AcDbArc
 50
90.0
 51
180.0
  0
ARC
  5
12A7
330
2
100
AcDbEntity
  8
0
100
AcDbCircle
 10
28.17406787232499
 20
299.832832488504
 30
0.0
 40
1.0
100
AcDbArc
 50
90.4999833552727
 51
180.0000000000032
  0
ARC
  5
12A8
330
2
100
AcDbEntity
  8
0
100
AcDbCircle
 10
75.17400687232515
 20
303.2430953151101
 30
0.0
 40
2.0
100
AcDbArc
 50
270.4999833552792
 51
359.9999999999967
  0
LINE
  5
12A9
330
2
100
AcDbEntity
  8
0
100
AcDbLine
 10
79.17400687232526
 20
293.8417457406724
 30
0.0
 11
85.67400687232538
 21
293.8417457406723
 31
0.0
  0
ARC
  5
12AA
330
2
100
AcDbEntity
  8
0
100
AcDbCircle
 10
79.17400687232526
 20
291.8417457406723
 30
0.0
 40
2.0
100
AcDbArc
 50
90.0
 51
180.0
  0
LINE
  5
12AB
330
2
100
AcDbEntity
  8
0
100
AcDbLine
 10
79.17400687232538
 20
306.3917457406722
 30
0.0
 11
85.67400687232538
 21
306.3917457406723
 31
0.0
  0
ARC
  5
12AC
330
2
100
AcDbEntity
  8
0
100
AcDbCircle
 10
79.17400687232538
 20
304.3917457406722
 30
0.0
 40
2.0
100
AcDbArc
 50
90.0
 51
180.0
  0
LINE
  5
13A9
330
2
100
AcDbEntity
  8
0
100
AcDbLine
 10
132.6740068723252
 20
262.5947477406723
 30
0.0
 11
152.6740068723252
 21
262.5947477406723
 31
0.0
  0
LINE
  5
13AA
330
2
100
AcDbEntity
  8
0
100
AcDbLine
 10
132.6740068723252
 20
260.7517457406724
 30
0.0
 11
152.6740068723252
 21
260.7517457406724
 31
0.0
  0
LINE
  5
13AB
330
2
100
AcDbEntity
  8
0
100
AcDbLine
 10
152.1740068723252
 20
274.2517457406723
 30
0.0
 11
130.6740068723252
 21
274.2517457406723
 31
0.0
  0
LINE
  5
13AC
330
2
100
AcDbEntity
  8
CENTER
100
AcDbLine
 10
157.6739688723252
 20
268.2517457406723
 30
0.0
 11
21.17406787232533
 21
268.2517457406723
 31
0.0
  0
LINE
  5
13EA
330
2
100
AcDbEntity
  8
0
100
AcDbLine
 10
126.6740068723252
 20
311.7366697406724
 30
0.0
 11
126.6740068723252
 21
224.7668217406724
 31
0.0
  0
LINE
  5
13EB
330
2
100
AcDbEntity
  8
0
100
AcDbLine
 10
130.6740068723252
 20
275.7517457406724
 30
0.0
 11
130.6740068723252
 21
260.7517457406724
 31
0.0
  0
LINE
  5
13EC
330
2
100
AcDbEntity
  8
0
100
AcDbLine
 10
129.6740068723252
 20
284.7517457406723
 30
0.0
 11
129.6740068723252
 21
251.7517457406723
 31
0.0
  0
LINE
  5
13ED
330
2
100
AcDbEntity
  8
0
100
AcDbLine
 10
77.65655787232526
 20
223.5749727406723
 30
0.0
 11
96.17400687232526
 21
223.2517457406724
 31
0.0
  0
LINE
  5
13EE
330
2
100
AcDbEntity
  8
0
100
AcDbLine
 10
85.67400687232533
 20
242.6161107406723
 30
0.0
 11
122.7089108723253
 21
242.9393067406724
 31
0.0
  0
LINE
  5
13EF
330
2
100
AcDbEntity
  8
0
100
AcDbLine
 10
122.7089108723253
 20
230.4393067406724
 30
0.0
 11
85.67400687232533
 21
230.1161107406724
 31
0.0
  0
ARC
  5
13F0
330
2
100
AcDbEntity
  8
HIDS
100
AcDbCircle
 10
84.17400687232532
 20
230.2517457406723
 30
0.0
 40
3.25
100
AcDbArc
 50
357.8772009999993
 51
181.660858000001
  0
ARC
  5
13F1
330
2
100
AcDbEntity
  8
0
100
AcDbCircle
 10
84.17400687232532
 20
230.2517457406723
 30
0.0
 40
3.25
100
AcDbArc
 50
181.660858000001
 51
357.8772009999993
  0
ARC
  5
13F2
330
2
100
AcDbEntity
  8
0
100
AcDbCircle
 10
77.67400687232532
 20
224.5748197406724
 30
0.0
 40
1.0
100
AcDbArc
 50
180.0
 51
268.9999999999998
  0
LINE
  5
13F3
330
2
100
AcDbEntity
  8
0
100
AcDbLine
 10
76.67400687232532
 20
224.5748197406724
 30
0.0
 11
76.67400687232526
 21
234.5832718217667
 31
0.0
  0
LINE
  5
13F4
330
2
100
AcDbEntity
  8
0
100
AcDbLine
 10
94.17400687232532
 20
230.1902837406724
 30
0.0
 11
94.17400687232532
 21
223.2866577406724
 31
0.0
  0
LINE
  5
13F5
330
2
100
AcDbEntity
  8
0
100
AcDbLine
 10
125.6914628723253
 20
223.7669737406723
 30
0.0
 11
96.17400687232526
 21
223.2517457406724
 31
0.0
  0
ARC
  5
13F6
330
2
100
AcDbEntity
  8
HIDS
100
AcDbCircle
 10
119.1740068723252
 20
230.2517457406723
 30
0.0
 40
3.25
100
AcDbArc
 50
3.263732999999678
 51
177.736266999999
  0
ARC
  5
13F7
330
2
100
AcDbEntity
  8
0
100
AcDbCircle
 10
119.1740068723252
 20
230.2517457406723
 30
0.0
 40
3.25
100
AcDbArc
 50
177.736266999999
 51
3.263739999999915
  0
LINE
  5
13F8
330
2
100
AcDbEntity
  8
0
100
AcDbLine
 10
109.1740068723252
 20
230.3211887406723
 30
0.0
 11
109.1740068723252
 21
223.4786587406724
 31
0.0
  0
ARC
  5
13F9
330
2
100
AcDbEntity
  8
0
100
AcDbCircle
 10
122.6740068723252
 20
246.9391537406723
 30
0.0
 40
4.0
100
AcDbArc
 50
270.4999999999996
 51
0.0
  0
ARC
  5
13FA
330
2
100
AcDbEntity
  8
0
100
AcDbCircle
 10
122.6740068723252
 20
234.4391537406723
 30
0.0
 40
4.0
100
AcDbArc
 50
270.4999999999996
 51
0.0
  0
ARC
  5
13FB
330
2
100
AcDbEntity
  8
0
100
AcDbCircle
 10
125.6740068723252
 20
224.7668217406724
 30
0.0
 40
1.0
100
AcDbArc
 50
271.0000000000001
 51
0.0
  0
LINE
  5
13FC
330
2
100
AcDbEntity
  8
0
100
AcDbLine
 10
130.6740068723252
 20
260.7517457406724
 30
0.0
 11
129.6740068723252
 21
260.7517457406724
 31
0.0
  0
ARC
  5
13FD
330
2
100
AcDbEntity
  8
0
100
AcDbCircle
 10
128.6740068723252
 20
248.7517457406724
 30
0.0
 40
2.0
100
AcDbArc
 50
90.0
 51
180.0
  0
ARC
  5
13FE
330
2
100
AcDbEntity
  8
0
100
AcDbCircle
 10
128.6740068723252
 20
251.7517457406723
 30
0.0
 40
1.0
100
AcDbArc
 50
270.0
 51
0.0
  0
LINE
  5
13FF
330
2
100
AcDbEntity
  8
0
100
AcDbLine
 10
132.6740068723252
 20
262.5947477406723
 30
0.0
 11
132.6740068723252
 21
260.7517457406724
 31
0.0
  0
LINE
  5
1400
330
2
100
AcDbEntity
  8
0
100
AcDbLine
 10
132.6740068723252
 20
262.2517457406723
 30
0.0
 11
130.6740068723252
 21
262.2517457406723
 31
0.0
  0
LINE
  5
1401
330
2
100
AcDbEntity
  8
0
100
AcDbLine
 10
77.65655787232526
 20
312.9285187406724
 30
0.0
 11
96.17400687232526
 21
313.2517457406724
 31
0.0
  0
LINE
  5
1402
330
2
100
AcDbEntity
  8
0
100
AcDbLine
 10
85.67400687232533
 20
293.8873807406723
 30
0.0
 11
122.7089108723253
 21
293.5641847406723
 31
0.0
  0
LINE
  5
1403
330
2
100
AcDbEntity
  8
0
100
AcDbLine
 10
122.7089108723253
 20
306.0641847406723
 30
0.0
 11
85.67400687232533
 21
306.3873807406723
 31
0.0
  0
ARC
  5
1404
330
2
100
AcDbEntity
  8
HIDS
100
AcDbCircle
 10
84.17400687232532
 20
306.2517457406724
 30
0.0
 40
3.25
100
AcDbArc
 50
178.3391420000005
 51
2.122799000000671
  0
LINE
  5
1405
330
2
100
AcDbEntity
  8
CENTER
100
AcDbLine
 10
84.17400687232532
 20
311.8873657406725
 30
0.0
 11
84.17400687232532
 21
300.6161257406724
 31
0.0
  0
ARC
  5
1407
330
2
100
AcDbEntity
  8
0
100
AcDbCircle
 10
84.17400687232532
 20
306.2517457406724
 30
0.0
 40
3.25
100
AcDbArc
 50
2.122799000000671
 51
178.3391420000005
  0
LINE
  5
1408
330
2
100
AcDbEntity
  8
CENTER
100
AcDbLine
 10
78.53838687232519
 20
306.2517457406724
 30
0.0
 11
89.80962687232533
 21
306.2517457406724
 31
0.0
  0
ARC
  5
1409
330
2
100
AcDbEntity
  8
0
100
AcDbCircle
 10
77.67400687232532
 20
311.9286717406724
 30
0.0
 40
1.0
100
AcDbArc
 50
91.00000000000013
 51
180.0
  0
LINE
  5
140A
330
2
100
AcDbEntity
  8
0
100
AcDbLine
 10
76.67400687232532
 20
311.9286717406724
 30
0.0
 11
76.67400687232526
 21
301.920219659578
 31
0.0
  0
LINE
  5
140B
330
2
100
AcDbEntity
  8
0
100
AcDbLine
 10
94.17400687232532
 20
306.3132077406723
 30
0.0
 11
94.17400687232532
 21
313.2168337406723
 31
0.0
  0
ARC
  5
140C
330
2
100
AcDbEntity
  8
HIDS
100
AcDbCircle
 10
119.1740068723252
 20
306.2517457406724
 30
0.0
 40
3.25
100
AcDbArc
 50
182.2637330000009
 51
356.7362670000003
  0
ARC
  5
140D
330
2
100
AcDbEntity
  8
0
100
AcDbCircle
 10
119.1740068723252
 20
306.2517457406724
 30
0.0
 40
3.25
100
AcDbArc
 50
356.73626
 51
182.2637330000009
  0
ARC
  5
140E
330
2
100
AcDbEntity
  8
0
100
AcDbCircle
 10
122.6740068723252
 20
302.0643377406723
 30
0.0
 40
4.0
100
AcDbArc
 50
0.0
 51
89.50000000000031
  0
LINE
  5
140F
330
2
100
AcDbEntity
  8
0
100
AcDbLine
 10
130.6740068723252
 20
275.7517457406724
 30
0.0
 11
129.6740068723252
 21
275.7517457406724
 31
0.0
  0
ARC
  5
1410
330
2
100
AcDbEntity
  8
0
100
AcDbCircle
 10
122.6740068723252
 20
289.5643377406723
 30
0.0
 40
4.0
100
AcDbArc
 50
0.0
 51
89.50000000000031
  0
ARC
  5
1411
330
2
100
AcDbEntity
  8
0
100
AcDbCircle
 10
128.6740068723252
 20
287.7517457406724
 30
0.0
 40
2.0
100
AcDbArc
 50
180.0
 51
270.0
  0
ARC
  5
1412
330
2
100
AcDbEntity
  8
0
100
AcDbCircle
 10
128.6740068723252
 20
284.7517457406723
 30
0.0
 40
1.0
100
AcDbArc
 50
0.0
 51
90.0
  0
LINE
  5
1413
330
2
100
AcDbEntity
  8
0
100
AcDbLine
 10
125.6914628723253
 20
312.7365177406723
 30
0.0
 11
96.17400687232526
 21
313.2517457406724
 31
0.0
  0
LINE
  5
1414
330
2
100
AcDbEntity
  8
0
100
AcDbLine
 10
109.1740068723252
 20
306.1823027406724
 30
0.0
 11
109.1740068723252
 21
313.0248317406723
 31
0.0
  0
ARC
  5
1415
330
2
100
AcDbEntity
  8
0
100
AcDbCircle
 10
125.6740068723252
 20
311.7366697406724
 30
0.0
 40
1.0
100
AcDbArc
 50
0.0
 51
88.99999999999987
  0
LINE
  5
148F
330
2
100
AcDbEntity
  8
0
100
AcDbLine
 10
152.6740068723252
 20
273.7517457406724
 30
0.0
 11
152.6740068723252
 21
262.7517457406724
 31
0.0
  0
LINE
  5
1490
330
2
100
AcDbEntity
  8
0
100
AcDbLine
 10
152.1740068723252
 20
274.2517457406723
 30
0.0
 11
152.1740068723252
 21
262.5947477406723
 31
0.0
  0
LINE
  5
1491
330
2
100
AcDbEntity
  8
0
100
AcDbLine
 10
152.6740068723252
 20
262.5947477406723
 30
0.0
 11
152.6740068723252
 21
260.7517457406724
 31
0.0
  0
LINE
  5
1492
330
2
100
AcDbEntity
  8
0
100
AcDbLine
 10
152.5170088723252
 20
262.5947477406723
 30
0.0
 11
152.6740068723252
 21
262.7517457406724
 31
0.0
  0
LINE
  5
1493
330
2
100
AcDbEntity
  8
0
100
AcDbLine
 10
152.1740068723252
 20
274.2517457406723
 30
0.0
 11
152.6740068723252
 21
273.7517457406724
 31
0.0
  0
LINE
  5
1494
330
2
100
AcDbEntity
  8
CENTER
100
AcDbLine
 10
113.5383868723252
 20
306.2517457406724
 30
0.0
 11
124.8096268723253
 21
306.2517457406724
 31
0.0
  0
LINE
  5
1495
330
2
100
AcDbEntity
  8
CENTER
100
AcDbLine
 10
119.1740068723252
 20
311.8873657406725
 30
0.0
 11
119.1740068723252
 21
300.6161257406724
 31
0.0
  0
LINE
  5
1496
330
2
100
AcDbEntity
  8
CENTER
100
AcDbLine
 10
113.5383868723252
 20
230.2517457406723
 30
0.0
 11
124.8096268723253
 21
230.2517457406723
 31
0.0
  0
LINE
  5
1497
330
2
100
AcDbEntity
  8
CENTER
100
AcDbLine
 10
119.1740068723252
 20
235.8873657406724
 30
0.0
 11
119.1740068723252
 21
224.6161257406723
 31
0.0
  0
LINE
  5
1498
330
2
100
AcDbEntity
  8
CENTER
100
AcDbLine
 10
78.53838687232519
 20
230.2517457406723
 30
0.0
 11
89.80962687232533
 21
230.2517457406723
 31
0.0
  0
LINE
  5
1499
330
2
100
AcDbEntity
  8
CENTER
100
AcDbLine
 10
84.17400687232532
 20
235.8873657406724
 30
0.0
 11
84.17400687232532
 21
224.6161257406723
 31
0.0
  0
ENDSEC
  0
SECTION
  2
OBJECTS
  0
DICTIONARY
  5
7
330
0
100
AcDbDictionary
  3
ACAD_GROUP
350
75
  3
ACAD_LAYOUT
350
61
  3
ACAD_MLINESTYLE
350
76
  3
ACAD_PLOTSETTINGS
350
77
  3
ACAD_PLOTSTYLENAME
350
6
  3
ACADDIM
350
480
  3
ACDBHEADERROUNDTRIPXREC
350
183D
  3
ACDBVARIABLEDICTIONARY
350
102
  3
DWGPROPS
350
3D2
  0
DICTIONARY
  5
185E
330
2
100
AcDbDictionary
280
     1
  3
ACAD_LAYOUTSELFREF
360
185F
  0
DICTIONARY
  5
1860
330
1837
100
AcDbDictionary
280
     1
  3
ACAD_LAYOUTSELFREF
360
1861
  0
DICTIONARY
  5
75
102
{ACAD_REACTORS
330
7
102
}
330
7
100
AcDbDictionary
  0
DICTIONARY
  5
61
102
{ACAD_REACTORS
330
7
102
}
330
7
100
AcDbDictionary
  0
DICTIONARY
  5
76
102
{ACAD_REACTORS
330
7
102
}
330
7
100
AcDbDictionary
  3
STANDARD
350
78
  0
DICTIONARY
  5
77
102
{ACAD_REACTORS
330
7
102
}
330
7
100
AcDbDictionary
  0
ACDBDICTIONARYWDFLT
  5
6
102
{ACAD_REACTORS
330
7
102
}
330
7
100
AcDbDictionary
281
     1
  3
Normal
350
5
100
AcDbDictionaryWithDefault
340
5
  0
XRECORD
  5
480
102
{ACAD_REACTORS
330
7
102
}
330
7
100
AcDbXrecord
 90
   990106
  3

 60
     0
 61
     0
 62
     1
 63
     3
 64
     1
 65
     0
 66
     0
 67
     3
 68
     1
 69
     0
 70
     0
 71
     0
 72
     0
 40
0.0
170
     2
340
0
  0
DICTIONARY
  5
183D
102
{ACAD_REACTORS
330
7
102
}
330
7
100
AcDbDictionary
  3
CEPSNTYPE
350
1847
  3
DIMSTYLEDATA
350
184B
  3
FINGERPRINTGUID
350
1848
  3
HYPERLINKBASE
350
1840
  3
INSUNITS
350
1846
  3
LAYOUTDICT
350
1842
  3
LWETCUNION
350
1845
  3
PLOTSETDICT
350
1843
  3
PLOTSTYLNAMDICT
350
1844
  3
PSVPSCALE
350
184A
  3
PUCSBASE
350
184E
  3
PUCSORGBACK
350
1854
  3
PUCSORGBOTTOM
350
1850
  3
PUCSORGFRONT
350
1853
  3
PUCSORGLEFT
350
1851
  3
PUCSORGRIGHT
350
1852
  3
PUCSORGTOP
350
184F
  3
PUCSORTHOREF
350
184C
  3
PUCSORTHOVIEW
350
184D
  3
STYLESHEET
350
1841
  3
TSTACKALIGN
350
183E
  3
TSTACKSIZE
350
183F
  3
UCSBASE
350
1857
  3
UCSORGBACK
350
185D
  3
UCSORGBOTTOM
350
1859
  3
UCSORGFRONT
350
185C
  3
UCSORGLEFT
350
185A
  3
UCSORGRIGHT
350
185B
  3
UCSORGTOP
350
1858
  3
UCSORTHOREF
350
1855
  3
UCSORTHOVIEW
350
1856
  3
VERSIONGUID
350
1849
  0
DICTIONARY
  5
102
102
{ACAD_REACTORS
330
7
102
}
330
7
100
AcDbDictionary
  3
DIMASSOC
350
103
  0
XRECORD
  5
3D2
102
{ACAD_REACTORS
330
7
102
}
330
7
100
AcDbXrecord
  1
DWGPROPS COOKIE
  2

  3

  4

  6

  7

  8

  9

300
=
301
=
302
=
303
=
304
=
305
=
306
=
307
=
308
=
309
=
 40
0.5353330671296296
 41
2452052.431989363
 42
2453406.550756377
  1

 90
        0
  0
XRECORD
  5
185F
102
{ACAD_REACTORS
330
185E
102
}
330
185E
100
AcDbXrecord
340
2
  0
XRECORD
  5
1861
102
{ACAD_REACTORS
330
1860
102
}
330
1860
100
AcDbXrecord
340
1837
  0
MLINESTYLE
  5
78
102
{ACAD_REACTORS
330
76
102
}
330
76
100
AcDbMlineStyle
  2
STANDARD
 70
     0
  3

 62
     0
 51
90.0
 52
90.0
 71
     2
 49
0.5
 62
   256
  6
BYLAYER
 49
-0.5
 62
   256
  6
BYLAYER
  0
ACDBPLACEHOLDER
  5
5
102
{ACAD_REACTORS
330
6
102
}
330
6
100
AcDbPlaceHolder
280
     0
  0
XRECORD
  5
1847
102
{ACAD_REACTORS
330
183D
102
}
330
183D
100
AcDbXrecord
 90
        0
  0
XRECORD
  5
184B
102
{ACAD_REACTORS
330
183D
102
}
330
183D
100
AcDbXrecord
1000
DSTYLE
1002
{
1070
   179
 70
     2
1070
   277
 70
     6
1002
}
  0
XRECORD
  5
1848
102
{ACAD_REACTORS
330
183D
102
}
330
183D
100
AcDbXrecord
  1
{6385560B-F4B1-4644-A7C2-A3E32AC3D232}
  0
XRECORD
  5
1840
102
{ACAD_REACTORS
330
183D
102
}
330
183D
100
AcDbXrecord
  1

  0
XRECORD
  5
1846
102
{ACAD_REACTORS
330
183D
102
}
330
183D
100
AcDbXrecord
 90
        0
  0
XRECORD
  5
1842
102
{ACAD_REACTORS
330
183D
102
}
330
183D
100
AcDbXrecord
340
61
  0
XRECORD
  5
1845
102
{ACAD_REACTORS
330
183D
102
}
330
183D
100
AcDbXrecord
 90
    10781
  0
XRECORD
  5
1843
102
{ACAD_REACTORS
330
183D
102
}
330
183D
100
AcDbXrecord
340
77
  0
XRECORD
  5
1844
102
{ACAD_REACTORS
330
183D
102
}
330
183D
100
AcDbXrecord
340
6
  0
XRECORD
  5
184A
102
{ACAD_REACTORS
330
183D
102
}
330
183D
100
AcDbXrecord
 40
0.0
  0
XRECORD
  5
184E
102
{ACAD_REACTORS
330
183D
102
}
330
183D
100
AcDbXrecord
340
0
  0
XRECORD
  5
1854
102
{ACAD_REACTORS
330
183D
102
}
330
183D
100
AcDbXrecord
 10
0.0
 20
0.0
 30
0.0
  0
XRECORD
  5
1850
102
{ACAD_REACTORS
330
183D
102
}
330
183D
100
AcDbXrecord
 10
0.0
 20
0.0
 30
0.0
  0
XRECORD
  5
1853
102
{ACAD_REACTORS
330
183D
102
}
330
183D
100
AcDbXrecord
 10
0.0
 20
0.0
 30
0.0
  0
XRECORD
  5
1851
102
{ACAD_REACTORS
330
183D
102
}
330
183D
100
AcDbXrecord
 10
0.0
 20
0.0
 30
0.0
  0
XRECORD
  5
1852
102
{ACAD_REACTORS
330
183D
102
}
330
183D
100
AcDbXrecord
 10
0.0
 20
0.0
 30
0.0
  0
XRECORD
  5
184F
102
{ACAD_REACTORS
330
183D
102
}
330
183D
100
AcDbXrecord
 10
0.0
 20
0.0
 30
0.0
  0
XRECORD
  5
184C
102
{ACAD_REACTORS
330
183D
102
}
330
183D
100
AcDbXrecord
340
0
  0
XRECORD
  5
184D
102
{ACAD_REACTORS
330
183D
102
}
330
183D
100
AcDbXrecord
 70
     0
  0
XRECORD
  5
1841
102
{ACAD_REACTORS
330
183D
102
}
330
183D
100
AcDbXrecord
  1
Sekkei.ctb
  0
XRECORD
  5
183E
102
{ACAD_REACTORS
330
183D
102
}
330
183D
100
AcDbXrecord
 90
        1
  0
XRECORD
  5
183F
102
{ACAD_REACTORS
330
183D
102
}
330
183D
100
AcDbXrecord
 90
       70
  0
XRECORD
  5
1857
102
{ACAD_REACTORS
330
183D
102
}
330
183D
100
AcDbXrecord
340
0
  0
XRECORD
  5
185D
102
{ACAD_REACTORS
330
183D
102
}
330
183D
100
AcDbXrecord
 10
0.0
 20
0.0
 30
0.0
  0
XRECORD
  5
1859
102
{ACAD_REACTORS
330
183D
102
}
330
183D
100
AcDbXrecord
 10
0.0
 20
0.0
 30
0.0
  0
XRECORD
  5
185C
102
{ACAD_REACTORS
330
183D
102
}
330
183D
100
AcDbXrecord
 10
0.0
 20
0.0
 30
0.0
  0
XRECORD
  5
185A
102
{ACAD_REACTORS
330
183D
102
}
330
183D
100
AcDbXrecord
 10
0.0
 20
0.0
 30
0.0
  0
XRECORD
  5
185B
102
{ACAD_REACTORS
330
183D
102
}
330
183D
100
AcDbXrecord
 10
0.0
 20
0.0
 30
0.0
  0
XRECORD
  5
1858
102
{ACAD_REACTORS
330
183D
102
}
330
183D
100
AcDbXrecord
 10
0.0
 20
0.0
 30
0.0
  0
XRECORD
  5
1855
102
{ACAD_REACTORS
330
183D
102
}
330
183D
100
AcDbXrecord
340
0
  0
XRECORD
  5
1856
102
{ACAD_REACTORS
330
183D
102
}
330
183D
100
AcDbXrecord
 70
     0
  0
XRECORD
  5
1849
102
{ACAD_REACTORS
330
183D
102
}
330
183D
100
AcDbXrecord
  1
{72CE8487-BA21-474B-824B-E4E20737E776}
  0
DICTIONARYVAR
  5
103
102
{ACAD_REACTORS
330
102
102
}
330
102
100
DictionaryVariables
280
     0
  1
1
  0
ENDSEC
  0
EOF
