  0
SECTION
  2
HEADER
  9
$ACADVER
  1
AC1014
  9
$ACADMAINTVER
 70
     9
  9
$DWGCODEPAGE
  3
ANSI_932
  9
$INSBASE
 10
0.0
 20
0.0
 30
0.0
  9
$EXTMIN
 10
23.53695287465382
 20
12.46746185777667
 30
0.0
  9
$EXTMAX
 10
400.9010885929268
 20
364.0708145819751
 30
0.0
  9
$LIMMIN
 10
0.0
 20
0.0
  9
$LIMMAX
 10
297.0
 20
210.0
  9
$ORTHOMODE
 70
     1
  9
$REGENMODE
 70
     1
  9
$FILLMODE
 70
     1
  9
$QTEXTMODE
 70
     0
  9
$MIRRTEXT
 70
     0
  9
$DRAGMODE
 70
     2
  9
$LTSCALE
 40
2.0
  9
$OSMODE
 70
    37
  9
$ATTMODE
 70
     1
  9
$TEXTSIZE
 40
6.0
  9
$TRACEWID
 40
1.0
  9
$TEXTSTYLE
  7
STANDARD
  9
$CLAYER
  8
0
  9
$CELTYPE
  6
BYLAYER
  9
$CECOLOR
 62
   256
  9
$CELTSCALE
 40
1.0
  9
$DELOBJ
 70
     1
  9
$DISPSILH
 70
     0
  9
$DIMSCALE
 40
2.0
  9
$DIMASZ
 40
1.8
  9
$DIMEXO
 40
0.625
  9
$DIMDLI
 40
3.75
  9
$DIMRND
 40
0.0
  9
$DIMDLE
 40
0.0
  9
$DIMEXE
 40
0.8
  9
$DIMTP
 40
0.0
  9
$DIMTM
 40
0.0
  9
$DIMTXT
 40
1.8
  9
$DIMCEN
 40
2.5
  9
$DIMTSZ
 40
0.0
  9
$DIMTOL
 70
     0
  9
$DIMLIM
 70
     0
  9
$DIMTIH
 70
     0
  9
$DIMTOH
 70
     0
  9
$DIMSE1
 70
     0
  9
$DIMSE2
 70
     0
  9
$DIMTAD
 70
     1
  9
$DIMZIN
 70
     8
  9
$DIMBLK
  1

  9
$DIMASO
 70
     1
  9
$DIMSHO
 70
     1
  9
$DIMPOST
  1

  9
$DIMAPOST
  1

  9
$DIMALT
 70
     0
  9
$DIMALTD
 70
     4
  9
$DIMALTF
 40
0.0394
  9
$DIMLFAC
 40
1.0
  9
$DIMTOFL
 70
     1
  9
$DIMTVP
 40
0.0
  9
$DIMTIX
 70
     0
  9
$DIMSOXD
 70
     0
  9
$DIMSAH
 70
     0
  9
$DIMBLK1
  1

  9
$DIMBLK2
  1

  9
$DIMSTYLE
  2
STANDARD
  9
$DIMCLRD
 70
     0
  9
$DIMCLRE
 70
     0
  9
$DIMCLRT
 70
     0
  9
$DIMTFAC
 40
1.0
  9
$DIMGAP
 40
0.75
  9
$DIMJUST
 70
     0
  9
$DIMSD1
 70
     0
  9
$DIMSD2
 70
     0
  9
$DIMTOLJ
 70
     1
  9
$DIMTZIN
 70
     0
  9
$DIMALTZ
 70
     0
  9
$DIMALTTZ
 70
     0
  9
$DIMFIT
 70
     3
  9
$DIMUPT
 70
     0
  9
$DIMUNIT
 70
     8
  9
$DIMDEC
 70
     2
  9
$DIMTDEC
 70
     2
  9
$DIMALTU
 70
     8
  9
$DIMALTTD
 70
     4
  9
$DIMTXSTY
  7
STANDARD
  9
$DIMAUNIT
 70
     0
  9
$LUNITS
 70
     2
  9
$LUPREC
 70
     3
  9
$SKETCHINC
 40
1.0
  9
$FILLETRAD
 40
10.0
  9
$AUNITS
 70
     0
  9
$AUPREC
 70
     2
  9
$MENU
  1
.
  9
$ELEVATION
 40
0.0
  9
$PELEVATION
 40
0.0
  9
$THICKNESS
 40
0.0
  9
$LIMCHECK
 70
     0
  9
$BLIPMODE
 70
     0
  9
$CHAMFERA
 40
0.0
  9
$CHAMFERB
 40
0.0
  9
$CHAMFERC
 40
20.0
  9
$CHAMFERD
 40
0.0
  9
$SKPOLY
 70
     0
  9
$TDCREATE
 40
2453692.609686955
  9
$TDUPDATE
 40
2453928.616783854
  9
$TDINDWG
 40
0.0723263889
  9
$TDUSRTIMER
 40
0.0723263889
  9
$USRTIMER
 70
     1
  9
$ANGBASE
 50
0.0
  9
$ANGDIR
 70
     0
  9
$PDMODE
 70
     0
  9
$PDSIZE
 40
-10.0
  9
$PLINEWID
 40
0.0
  9
$COORDS
 70
     0
  9
$SPLFRAME
 70
     0
  9
$SPLINETYPE
 70
     6
  9
$SPLINESEGS
 70
     8
  9
$ATTDIA
 70
     0
  9
$ATTREQ
 70
     1
  9
$HANDLING
 70
-16383
  9
$HANDSEED
  5
28AE
  9
$SURFTAB1
 70
     6
  9
$SURFTAB2
 70
     6
  9
$SURFTYPE
 70
     6
  9
$SURFU
 70
     6
  9
$SURFV
 70
     6
  9
$UCSNAME
  2

  9
$UCSORG
 10
0.0
 20
0.0
 30
0.0
  9
$UCSXDIR
 10
1.0
 20
0.0
 30
0.0
  9
$UCSYDIR
 10
0.0
 20
1.0
 30
0.0
  9
$PUCSNAME
  2

  9
$PUCSORG
 10
0.0
 20
0.0
 30
0.0
  9
$PUCSXDIR
 10
1.0
 20
0.0
 30
0.0
  9
$PUCSYDIR
 10
0.0
 20
1.0
 30
0.0
  9
$USERI1
 70
     0
  9
$USERI2
 70
     0
  9
$USERI3
 70
     0
  9
$USERI4
 70
     0
  9
$USERI5
 70
     0
  9
$USERR1
 40
0.0
  9
$USERR2
 40
0.0
  9
$USERR3
 40
0.0
  9
$USERR4
 40
0.0
  9
$USERR5
 40
0.0
  9
$WORLDVIEW
 70
     1
  9
$SHADEDGE
 70
     3
  9
$SHADEDIF
 70
    70
  9
$TILEMODE
 70
     1
  9
$MAXACTVP
 70
    48
  9
$PINSBASE
 10
0.0
 20
0.0
 30
0.0
  9
$PLIMCHECK
 70
     0
  9
$PEXTMIN
 10
0.0
 20
0.0
 30
0.0
  9
$PEXTMAX
 10
0.0
 20
0.0
 30
0.0
  9
$PLIMMIN
 10
0.0
 20
0.0
  9
$PLIMMAX
 10
12.0
 20
9.0
  9
$UNITMODE
 70
     0
  9
$VISRETAIN
 70
     1
  9
$PLINEGEN
 70
     0
  9
$PSLTSCALE
 70
     1
  9
$TREEDEPTH
 70
  3020
  9
$PICKSTYLE
 70
     1
  9
$CMLSTYLE
  2
STANDARD
  9
$CMLJUST
 70
     0
  9
$CMLSCALE
 40
1.0
  9
$PROXYGRAPHICS
 70
     1
  9
$MEASUREMENT
 70
     0
  0
ENDSEC
  0
SECTION
  2
CLASSES
  0
CLASS
  1
DICTIONARYVAR
  2
AcDbDictionaryVar
  3
AutoCAD 2000
 90
        0
280
     0
281
     0
  0
CLASS
  1
ACDBDICTIONARYWDFLT
  2
AcDbDictionaryWithDefault
  3
AutoCAD 2000
 90
        0
280
     0
281
     0
  0
CLASS
  1
ACDBPLACEHOLDER
  2
AcDbPlaceHolder
  3
AutoCAD 2000
 90
        0
280
     0
281
     0
  0
CLASS
  1
LAYOUT
  2
AcDbLayout
  3
AutoCAD 2000
 90
        0
280
     0
281
     0
  0
CLASS
  1
LONG_TRANSACTION
  2
AcDbLongTransaction
  3
AutoCAD 2000
 90
        0
280
     0
281
     0
  0
CLASS
  1
LWPOLYLINE
  2
AcDbPolyline
  3
AutoCAD 2000
 90
        0
280
     0
281
     1
  0
CLASS
  1
HATCH
  2
AcDbHatch
  3
AutoCAD 2000
 90
        0
280
     0
281
     1
  0
CLASS
  1
XRECORD
  2
AcDbXrecord
  3
AutoCAD 2000
 90
        0
280
     0
281
     0
  0
ENDSEC
  0
SECTION
  2
TABLES
  0
TABLE
  2
VPORT
  5
6E
330
0
100
AcDbSymbolTable
 70
     2
  0
VPORT
  5
2888
330
6E
100
AcDbSymbolTableRecord
100
AcDbViewportTableRecord
  2
*ACTIVE
 70
     0
 10
0.0
 20
0.0
 11
1.0
 21
1.0
 12
229.3375363072828
 22
188.2711635580757
 13
0.0
 23
0.0
 14
10.0
 24
10.0
 15
10.0
 25
10.0
 16
0.0
 26
0.0
 36
1.0
 17
0.0
 27
0.0
 37
0.0
 40
354.7611399354783
 41
1.566970091027308
 42
50.0
 43
0.0
 44
0.0
 50
0.0
 51
0.0
 71
     0
 72
   100
 73
     1
 74
     3
 75
     0
 76
     0
 77
     0
 78
     0
  0
ENDTAB
  0
TABLE
  2
LTYPE
  5
69
330
0
100
AcDbSymbolTable
 70
     4
  0
LTYPE
  5
6A
330
69
100
AcDbSymbolTableRecord
100
AcDbLinetypeTableRecord
  2
BYBLOCK
 70
     0
  3

 72
    65
 73
     0
 40
0.0
  0
LTYPE
  5
6B
330
69
100
AcDbSymbolTableRecord
100
AcDbLinetypeTableRecord
  2
BYLAYER
 70
     0
  3

 72
    65
 73
     0
 40
0.0
  0
LTYPE
  5
8
330
69
100
AcDbSymbolTableRecord
100
AcDbLinetypeTableRecord
  2
CONTINUOUS
 70
     0
  3
Solid line
 72
    65
 73
     0
 40
0.0
  0
LTYPE
  5
27C
330
69
100
AcDbSymbolTableRecord
100
AcDbLinetypeTableRecord
  2
SEKKEI_A2_
 70
     0
  3
center(A2)  ____ _ ____ _ ____ _ ____ _ ____ _ 
 72
    65
 73
     4
 40
14.28749999999999
 49
9.525
 74
     0
 49
-1.587499999999999
 74
     0
 49
1.587499999999999
 74
     0
 49
-1.587499999999999
 74
     0
  0
LTYPE
  5
2B4
330
69
100
AcDbSymbolTableRecord
100
AcDbLinetypeTableRecord
  2
HIDDEN2
 70
     0
  3
Hidden (.5x) _ _ _ _ _ _ _ _ _ _ _ _ _ _ _ _ _
 72
    65
 73
     2
 40
4.762499999999999
 49
3.174999999999999
 74
     0
 49
-1.587499999999999
 74
     0
  0
LTYPE
  5
48F
330
69
100
AcDbSymbolTableRecord
100
AcDbLinetypeTableRecord
  2
SEKKEI_H
 70
     0
  3
Hidden-S _ _ _ _ _ _ _ _ _ _ _ _ _ _ _ _ _
 72
    65
 73
     2
 40
2.381249999999999
 49
1.587499999999999
 74
     0
 49
-0.79375
 74
     0
  0
ENDTAB
  0
TABLE
  2
LAYER
  5
66
330
0
100
AcDbSymbolTable
 70
     9
  0
LAYER
  5
5E
330
66
100
AcDbSymbolTableRecord
100
AcDbLayerTableRecord
  2
0
 70
     0
 62
     7
  6
CONTINUOUS
  0
LAYER
  5
3E
330
66
100
AcDbSymbolTableRecord
100
AcDbLayerTableRecord
  2
CENTER
 70
     0
 62
     3
  6
SEKKEI_A2_
  0
LAYER
  5
2B5
330
66
100
AcDbSymbolTableRecord
100
AcDbLayerTableRecord
  2
HIDS
 70
     0
 62
     1
  6
HIDDEN2
  0
LAYER
  5
2BA
330
66
100
AcDbSymbolTableRecord
100
AcDbLayerTableRecord
  2
HOJO
 70
     0
 62
     4
  6
CONTINUOUS
  0
LAYER
  5
3FA
330
66
100
AcDbSymbolTableRecord
100
AcDbLayerTableRecord
  2
TITLE
 70
     0
 62
     4
  6
CONTINUOUS
  0
ENDTAB
  0
TABLE
  2
STYLE
  5
67
330
0
100
AcDbSymbolTable
 70
     1
  0
STYLE
  5
16
330
67
100
AcDbSymbolTableRecord
100
AcDbTextStyleTableRecord
  2
STANDARD
 70
     0
 40
0.0
 41
1.0
 50
0.0
 71
     0
 42
6.0
  3
simplex.shx
  4
extfont.shx
  0
ENDTAB
  0
TABLE
  2
VIEW
  5
6C
330
0
100
AcDbSymbolTable
 70
     0
  0
ENDTAB
  0
TABLE
  2
UCS
  5
6D
330
0
100
AcDbSymbolTable
 70
     0
  0
ENDTAB
  0
TABLE
  2
APPID
  5
70
330
0
100
AcDbSymbolTable
 70
     1
  0
APPID
  5
71
330
70
100
AcDbSymbolTableRecord
100
AcDbRegAppTableRecord
  2
ACAD
 70
     0
  0
ENDTAB
  0
TABLE
  2
DIMSTYLE
  5
72
330
0
100
AcDbSymbolTable
 70
     1
  0
DIMSTYLE
105
73
102
{ACAD_REACTORS
330
21BA
330
21D3
330
2270
102
}
330
72
100
AcDbSymbolTableRecord
100
AcDbDimStyleTableRecord
  2
STANDARD
 70
     0
  3

  4

  5

  6

  7

 40
2.0
 41
1.8
 42
0.625
 43
3.75
 44
0.8
 45
0.0
 46
0.0
 47
0.0
 48
0.0
140
1.8
141
2.5
142
0.0
143
0.0394
144
1.0
145
0.0
146
1.0
147
0.75
 71
     0
 72
     0
 73
     0
 74
     0
 75
     0
 76
     0
 77
     1
 78
     8
170
     0
171
     4
172
     1
173
     0
174
     0
175
     0
176
     0
177
     0
178
     0
270
     8
271
     2
272
     2
273
     8
274
     4
340
16
275
     0
280
     0
281
     0
282
     0
283
     1
284
     0
285
     0
286
     0
287
     3
288
     0
  0
ENDTAB
  0
TABLE
  2
BLOCK_RECORD
  5
1
330
0
100
AcDbSymbolTable
 70
    34
  0
BLOCK_RECORD
  5
2
102
{ACAD_XDICTIONARY
360
28AA
102
}
330
1
100
AcDbSymbolTableRecord
100
AcDbBlockTableRecord
  2
*MODEL_SPACE
  0
BLOCK_RECORD
  5
2883
102
{ACAD_XDICTIONARY
360
28AC
102
}
330
1
100
AcDbSymbolTableRecord
100
AcDbBlockTableRecord
  2
*PAPER_SPACE
  0
ENDTAB
  0
ENDSEC
  0
SECTION
  2
BLOCKS
  0
BLOCK
  5
5D
330
2
100
AcDbEntity
  8
0
100
AcDbBlockBegin
  2
*MODEL_SPACE
 70
     0
 10
0.0
 20
0.0
 30
0.0
  3
*MODEL_SPACE
  1

  0
ENDBLK
  5
5F
330
2
100
AcDbEntity
  8
0
100
AcDbBlockEnd
  0
BLOCK
  5
2885
330
2883
100
AcDbEntity
 67
     1
  8
0
100
AcDbBlockBegin
  2
*PAPER_SPACE
 70
     0
 10
0.0
 20
0.0
 30
0.0
  3
*PAPER_SPACE
  1

  0
ENDBLK
  5
2886
330
2883
100
AcDbEntity
 67
     1
  8
0
100
AcDbBlockEnd
  0
ENDSEC
  0
SECTION
  2
ENTITIES
  0
LINE
  5
690
330
2
100
AcDbEntity
  8
0
100
AcDbLine
 10
98.53698387465385
 20
77.07502099998748
 30
0.0
 11
41.53695287465382
 21
77.07502099998748
 31
0.0
  0
LINE
  5
691
330
2
100
AcDbEntity
  8
CENTER
100
AcDbLine
 10
23.53695287465382
 20
111.4843229999875
 30
0.0
 11
165.5369528746538
 21
111.4843229999875
 31
0.0
  0
LINE
  5
692
330
2
100
AcDbEntity
  8
0
100
AcDbLine
 10
156.5369528746538
 20
145.8936249999875
 30
0.0
 11
41.53696287465402
 21
145.8936249999875
 31
0.0
  0
LINE
  5
693
330
2
100
AcDbEntity
  8
0
100
AcDbLine
 10
41.53695287465382
 20
156.4843229999875
 30
0.0
 11
156.5369528746538
 21
156.4843229999875
 31
0.0
  0
LINE
  5
694
330
2
100
AcDbEntity
  8
0
100
AcDbLine
 10
41.53695287465382
 20
66.48432299998751
 30
0.0
 11
100.5369528746538
 21
66.48432299998751
 31
0.0
  0
LINE
  5
697
330
2
100
AcDbEntity
  8
0
100
AcDbLine
 10
41.53695287465382
 20
156.4843229999875
 30
0.0
 11
41.53695287465382
 21
66.48432299998751
 31
0.0
  0
LINE
  5
6E0
330
2
100
AcDbEntity
  8
0
100
AcDbLine
 10
330.400958988902
 20
157.8493319999874
 30
0.0
 11
337.427661988902
 21
160.4843229999875
 31
0.0
  0
LINE
  5
6E1
330
2
100
AcDbEntity
  8
0
100
AcDbLine
 10
333.927661988902
 20
86.4843229999875
 30
0.0
 11
343.677661988902
 21
86.4843229999875
 31
0.0
  0
ARC
  5
6E2
330
2
100
AcDbEntity
  8
0
100
AcDbCircle
 10
339.0379561065488
 20
90.27108770586982
 30
0.0
 40
6.360400373134885
100
AcDbArc
 50
109.330727832983
 51
216.5387118574264
  0
CIRCLE
  5
6E3
330
2
100
AcDbEntity
  8
0
100
AcDbCircle
 10
348.427661988902
 20
124.4843229999875
 30
0.0
 40
20.0
  0
ARC
  5
6E4
330
2
100
AcDbEntity
  8
0
100
AcDbCircle
 10
348.427661988902
 20
111.4843229999875
 30
0.0
 40
42.5
100
AcDbArc
 50
90.0
 51
160.2501070000011
  0
LINE
  5
6E5
330
2
100
AcDbEntity
  8
CENTER
100
AcDbLine
 10
323.9759393094807
 20
124.4843229999875
 30
0.0
 11
372.8793846683233
 21
124.4843229999875
 31
0.0
  0
LINE
  5
6E6
330
2
100
AcDbEntity
  8
CENTER
100
AcDbLine
 10
295.9542353848772
 20
111.4843229999875
 30
0.0
 11
400.9010885929268
 21
111.4843229999875
 31
0.0
  0
LINE
  5
6E7
330
2
100
AcDbEntity
  8
0
100
AcDbLine
 10
321.3927499889022
 20
156.0124339999874
 30
0.0
 11
348.427661988902
 21
156.4843229999875
 31
0.0
  0
LINE
  5
6E8
330
2
100
AcDbEntity
  8
0
100
AcDbLine
 10
316.427661988902
 20
60.48432299998751
 30
0.0
 11
348.427661988902
 21
60.48432299998751
 31
0.0
  0
ARC
  5
6E9
330
2
100
AcDbEntity
  8
0
100
AcDbCircle
 10
348.427661988902
 20
111.4843229999875
 30
0.0
 40
42.5
100
AcDbArc
 50
199.7498929999988
 51
270.0
  0
ARC
  5
6EA
330
2
100
AcDbEntity
  8
0
100
AcDbCircle
 10
348.427661988902
 20
111.4843229999875
 30
0.0
 40
45.0
100
AcDbArc
 50
130.1240999999987
 51
218.9423980000011
  0
LINE
  5
6EB
330
2
100
AcDbEntity
  8
0
100
AcDbLine
 10
308.427661988902
 20
125.8457229999875
 30
0.0
 11
308.427661988902
 21
97.12322299998755
 31
0.0
  0
LINE
  5
6EC
330
2
100
AcDbEntity
  8
0
100
AcDbLine
 10
160.5369528746538
 20
105.4843229999875
 30
0.0
 11
160.5369528746538
 21
143.4843229999875
 31
0.0
  0
LINE
  5
6ED
330
2
100
AcDbEntity
  8
0
100
AcDbLine
 10
156.5369528746538
 20
156.4843229999875
 30
0.0
 11
156.5369528746538
 21
59.48432299998751
 31
0.0
  0
ARC
  5
6EE
330
2
100
AcDbEntity
  8
0
100
AcDbCircle
 10
140.5369528746538
 20
84.48432299998751
 30
0.0
 40
2.0
100
AcDbArc
 50
90.0
 51
180.0
  0
ARC
  5
6EF
330
2
100
AcDbEntity
  8
0
100
AcDbCircle
 10
140.5369528746538
 20
69.48432299998751
 30
0.0
 40
2.0
100
AcDbArc
 50
180.0
 51
270.0
  0
LINE
  5
6F0
330
2
100
AcDbEntity
  8
0
100
AcDbLine
 10
102.5369758746538
 20
67.48432299998751
 30
0.0
 11
154.5369528746538
 21
67.48432299998751
 31
0.0
  0
LINE
  5
6F1
330
2
100
AcDbEntity
  8
0
100
AcDbLine
 10
100.5369528746538
 20
59.48432299998751
 30
0.0
 11
156.5369528746538
 21
59.48432299998751
 31
0.0
  0
ARC
  5
6F2
330
2
100
AcDbEntity
  8
0
100
AcDbCircle
 10
102.5369758746538
 20
65.48432299998751
 30
0.0
 40
2.0
100
AcDbArc
 50
90.0
 51
180.0
  0
LINE
  5
6F3
330
2
100
AcDbEntity
  8
CENTER
100
AcDbLine
 10
108.5369528746538
 20
69.98432299998751
 30
0.0
 11
108.5369528746538
 21
56.98432299998751
 31
0.0
  0
LINE
  5
6F4
330
2
100
AcDbEntity
  8
0
100
AcDbLine
 10
100.5369528746538
 20
75.07502099998749
 30
0.0
 11
100.5369528746538
 21
59.48432299998751
 31
0.0
  0
LINE
  5
6F5
330
2
100
AcDbEntity
  8
HIDS
  6
SEKKEI_H
100
AcDbLine
 10
105.2869528746538
 20
67.48432299998751
 30
0.0
 11
105.2869528746538
 21
59.48432299998751
 31
0.0
  0
LINE
  5
6F6
330
2
100
AcDbEntity
  8
HIDS
  6
SEKKEI_H
100
AcDbLine
 10
111.7869528746538
 20
67.48432299998751
 30
0.0
 11
111.7869528746538
 21
59.48432299998751
 31
0.0
  0
LINE
  5
6F7
330
2
100
AcDbEntity
  8
0
100
AcDbLine
 10
117.9119528746538
 20
77.07502099998748
 30
0.0
 11
100.2244528746538
 21
77.07502099998748
 31
0.0
  0
ARC
  5
6F8
330
2
100
AcDbEntity
  8
0
100
AcDbCircle
 10
98.53698387465385
 20
75.07502099998749
 30
0.0
 40
2.0
100
AcDbArc
 50
0.0
 51
90.0
  0
LINE
  5
6F9
330
2
100
AcDbEntity
  8
0
100
AcDbLine
 10
137.9119528746538
 20
83.9169229999875
 30
0.0
 11
119.0369528746538
 21
83.9169229999875
 31
0.0
  0
LINE
  5
6FA
330
2
100
AcDbEntity
  8
0
100
AcDbLine
 10
118.5369528746538
 20
69.48432299998751
 30
0.0
 11
118.5369528746538
 21
84.48432299998751
 31
0.0
  0
ARC
  5
6FB
330
2
100
AcDbEntity
  8
0
100
AcDbCircle
 10
116.5369528746538
 20
69.48432299998751
 30
0.0
 40
2.0
100
AcDbArc
 50
270.0
 51
0.0
  0
ARC
  5
6FC
330
2
100
AcDbEntity
  8
0
100
AcDbCircle
 10
116.5369528746538
 20
84.48432299998751
 30
0.0
 40
2.0
100
AcDbArc
 50
0.0
 51
90.0
  0
LINE
  5
6FD
330
2
100
AcDbEntity
  8
0
100
AcDbLine
 10
138.5369528746538
 20
69.48432299998751
 30
0.0
 11
138.5369528746538
 21
84.48432299998751
 31
0.0
  0
ARC
  5
6FE
330
2
100
AcDbEntity
  8
0
100
AcDbCircle
 10
154.5369528746538
 20
65.48432299998751
 30
0.0
 40
2.0
100
AcDbArc
 50
0.0
 51
90.0
  0
LINE
  5
6FF
330
2
100
AcDbEntity
  8
CENTER
100
AcDbLine
 10
148.5369528746538
 20
69.98432299998751
 30
0.0
 11
148.5369528746538
 21
56.98432299998751
 31
0.0
  0
LINE
  5
700
330
2
100
AcDbEntity
  8
HIDS
  6
SEKKEI_H
100
AcDbLine
 10
151.7869528746538
 20
67.48432299998751
 30
0.0
 11
151.7869528746538
 21
59.48432299998751
 31
0.0
  0
LINE
  5
701
330
2
100
AcDbEntity
  8
HIDS
  6
SEKKEI_H
100
AcDbLine
 10
145.2869528746538
 20
67.48432299998751
 30
0.0
 11
145.2869528746538
 21
59.48432299998751
 31
0.0
  0
LINE
  5
702
330
2
100
AcDbEntity
  8
0
100
AcDbLine
 10
156.5369528746538
 20
77.07502099998748
 30
0.0
 11
139.5369528746538
 21
77.07502099998748
 31
0.0
  0
LINE
  5
703
330
2
100
AcDbEntity
  8
0
100
AcDbLine
 10
159.5369528746538
 20
104.4843229999875
 30
0.0
 11
156.5369528746538
 21
104.4843229999875
 31
0.0
  0
ARC
  5
704
330
2
100
AcDbEntity
  8
0
100
AcDbCircle
 10
159.5369528746538
 20
105.4843229999875
 30
0.0
 40
1.0
100
AcDbArc
 50
270.0
 51
0.0
  0
ARC
  5
705
330
2
100
AcDbEntity
  8
0
100
AcDbCircle
 10
298.427661988902
 20
65.48432299998751
 30
0.0
 40
2.0
100
AcDbArc
 50
90.0
 51
180.0
  0
LINE
  5
706
330
2
100
AcDbEntity
  8
CENTER
100
AcDbLine
 10
303.427661988902
 20
69.98432299998751
 30
0.0
 11
303.427661988902
 21
56.98432299998751
 31
0.0
  0
LINE
  5
707
330
2
100
AcDbEntity
  8
HIDS
  6
SEKKEI_H
100
AcDbLine
 10
306.677661988902
 20
67.48432299998751
 30
0.0
 11
306.677661988902
 21
59.48432299998751
 31
0.0
  0
LINE
  5
708
330
2
100
AcDbEntity
  8
HIDS
  6
SEKKEI_H
100
AcDbLine
 10
300.177661988902
 20
67.48432299998751
 30
0.0
 11
300.177661988902
 21
59.48432299998751
 31
0.0
  0
LINE
  5
709
330
2
100
AcDbEntity
  8
0
100
AcDbLine
 10
315.427661988902
 20
59.48432299998751
 30
0.0
 11
296.427661988902
 21
59.48432299998751
 31
0.0
  0
LINE
  5
70A
330
2
100
AcDbEntity
  8
0
100
AcDbLine
 10
296.427661988902
 20
65.48432299998751
 30
0.0
 11
296.427661988902
 21
59.48432299998751
 31
0.0
  0
LINE
  5
70B
330
2
100
AcDbEntity
  8
0
100
AcDbLine
 10
315.427661988902
 20
59.48432299998751
 30
0.0
 11
316.427661988902
 21
60.48432299998751
 31
0.0
  0
LINE
  5
70C
330
2
100
AcDbEntity
  8
0
100
AcDbLine
 10
298.427661988902
 20
67.48432299998751
 30
0.0
 11
310.427661988902
 21
67.48432299998751
 31
0.0
  0
LINE
  5
70D
330
2
100
AcDbEntity
  8
0
100
AcDbLine
 10
297.0134619889021
 20
66.89852299998751
 30
0.0
 11
313.3772619889022
 21
83.26252299998747
 31
0.0
  0
LINE
  5
70E
330
2
100
AcDbEntity
  8
0
100
AcDbLine
 10
313.427661988902
 20
70.48432299998751
 30
0.0
 11
313.427661988902
 21
83.20002299998748
 31
0.0
  0
ARC
  5
70F
330
2
100
AcDbEntity
  8
0
100
AcDbCircle
 10
310.427661988902
 20
70.48432299998751
 30
0.0
 40
3.0
100
AcDbArc
 50
270.0
 51
0.0
  0
LINE
  5
7B4
330
2
100
AcDbEntity
  8
CENTER
100
AcDbLine
 10
151.5369528746538
 20
124.4843229999875
 30
0.0
 11
194.5369528746538
 21
124.4843229999875
 31
0.0
  0
LINE
  5
7B5
330
2
100
AcDbEntity
  8
0
100
AcDbLine
 10
168.0369528746538
 20
126.9843229999875
 30
0.0
 11
189.5369528746538
 21
126.9843229999875
 31
0.0
  0
LINE
  5
7B6
330
2
100
AcDbEntity
  8
0
100
AcDbLine
 10
162.5369528746538
 20
131.9843229999875
 30
0.0
 11
189.5369528746538
 21
131.9843229999875
 31
0.0
  0
LINE
  5
7B7
330
2
100
AcDbEntity
  8
0
100
AcDbLine
 10
168.0369528746538
 20
121.9843229999875
 30
0.0
 11
189.5369528746538
 21
121.9843229999875
 31
0.0
  0
LINE
  5
7B8
330
2
100
AcDbEntity
  8
0
100
AcDbLine
 10
162.5369528746538
 20
116.9843229999875
 30
0.0
 11
189.5369528746538
 21
116.9843229999875
 31
0.0
  0
LINE
  5
7B9
330
2
100
AcDbEntity
  8
0
100
AcDbLine
 10
162.5369528746538
 20
132.9843229999875
 30
0.0
 11
162.5369528746538
 21
115.9843229999875
 31
0.0
  0
ARC
  5
7BA
330
2
100
AcDbEntity
  8
0
100
AcDbCircle
 10
168.0369528746538
 20
124.4843229999875
 30
0.0
 40
2.5
100
AcDbArc
 50
180.0
 51
270.0
  0
LINE
  5
7BB
330
2
100
AcDbEntity
  8
0
100
AcDbLine
 10
160.5369528746538
 20
115.9843229999875
 30
0.0
 11
162.5369528746538
 21
115.9843229999875
 31
0.0
  0
LINE
  5
7BC
330
2
100
AcDbEntity
  8
0
100
AcDbLine
 10
160.5369528746538
 20
132.9843229999875
 30
0.0
 11
162.5369528746538
 21
132.9843229999875
 31
0.0
  0
ARC
  5
7BD
330
2
100
AcDbEntity
  8
0
100
AcDbCircle
 10
168.0369528746538
 20
124.4843229999875
 30
0.0
 40
2.5
100
AcDbArc
 50
90.0
 51
180.0
  0
LINE
  5
7BE
330
2
100
AcDbEntity
  8
0
100
AcDbLine
 10
159.5369528746538
 20
144.4843229999875
 30
0.0
 11
156.5369528746538
 21
144.4843229999875
 31
0.0
  0
ARC
  5
7BF
330
2
100
AcDbEntity
  8
0
100
AcDbCircle
 10
159.5369528746538
 20
143.4843229999875
 30
0.0
 40
1.0
100
AcDbArc
 50
0.0
 51
90.0
  0
LINE
  5
7C0
330
2
100
AcDbEntity
  8
0
100
AcDbLine
 10
189.5369528746538
 20
131.9843229999875
 30
0.0
 11
189.5369528746538
 21
116.9843229999875
 31
0.0
  0
ARC
  5
7C1
330
2
100
AcDbEntity
  8
0
100
AcDbCircle
 10
321.427661988902
 20
154.0127229999875
 30
0.0
 40
2.0
100
AcDbArc
 50
90.99980900000012
 51
180.0
  0
LINE
  5
7C2
330
2
100
AcDbEntity
  8
0
100
AcDbLine
 10
319.427661988902
 20
154.0127229999875
 30
0.0
 11
319.427661988902
 21
145.8936249999875
 31
0.0
  0
LINE
  5
7C3
330
2
100
AcDbEntity
  8
0
100
AcDbLine
 10
329.427661988902
 20
156.4448139999875
 30
0.0
 11
329.427661988902
 21
156.1527229999875
 31
0.0
  0
ARC
  5
7C4
330
2
100
AcDbEntity
  8
0
100
AcDbCircle
 10
330.927661988902
 20
156.4448139999875
 30
0.0
 40
1.5
100
AcDbArc
 50
110.5565030000002
 51
180.0005040000005
  0
ARC
  5
7C5
330
2
100
AcDbEntity
  8
0
100
AcDbCircle
 10
348.427661988902
 20
111.4843229999875
 30
0.0
 40
45.0
100
AcDbArc
 50
321.0575900000013
 51
49.87591199999904
  0
LINE
  5
7C6
330
2
100
AcDbEntity
  8
0
100
AcDbLine
 10
388.427661988902
 20
125.8457229999875
 30
0.0
 11
388.427661988902
 21
97.12322299998755
 31
0.0
  0
LINE
  5
7C7
330
2
100
AcDbEntity
  8
CENTER
100
AcDbLine
 10
348.427661988902
 20
55.48432299998751
 30
0.0
 11
348.427661988902
 21
180.085522619107
 31
0.0
  0
ARC
  5
7C8
330
2
100
AcDbEntity
  8
0
100
AcDbCircle
 10
398.427661988902
 20
65.48432299998751
 30
0.0
 40
2.0
100
AcDbArc
 50
0.0
 51
90.0
  0
LINE
  5
7C9
330
2
100
AcDbEntity
  8
HIDS
  6
SEKKEI_H
100
AcDbLine
 10
396.677661988902
 20
67.48432299998751
 30
0.0
 11
396.677661988902
 21
59.48432299998751
 31
0.0
  0
LINE
  5
7CA
330
2
100
AcDbEntity
  8
HIDS
  6
SEKKEI_H
100
AcDbLine
 10
390.177661988902
 20
67.48432299998751
 30
0.0
 11
390.177661988902
 21
59.48432299998751
 31
0.0
  0
LINE
  5
7CB
330
2
100
AcDbEntity
  8
CENTER
100
AcDbLine
 10
393.427661988902
 20
69.98432299998751
 30
0.0
 11
393.427661988902
 21
56.98432299998751
 31
0.0
  0
ARC
  5
7CC
330
2
100
AcDbEntity
  8
0
100
AcDbCircle
 10
348.427661988902
 20
111.4843229999875
 30
0.0
 40
42.5
100
AcDbArc
 50
270.0
 51
340.2500920000018
  0
LINE
  5
7CD
330
2
100
AcDbEntity
  8
0
100
AcDbLine
 10
380.427661988902
 20
60.48432299998751
 30
0.0
 11
348.427661988902
 21
60.48432299998751
 31
0.0
  0
LINE
  5
7CE
330
2
100
AcDbEntity
  8
0
100
AcDbLine
 10
381.427661988902
 20
59.48432299998751
 30
0.0
 11
400.427661988902
 21
59.48432299998751
 31
0.0
  0
LINE
  5
7CF
330
2
100
AcDbEntity
  8
0
100
AcDbLine
 10
381.427661988902
 20
59.48432299998751
 30
0.0
 11
380.427661988902
 21
60.48432299998751
 31
0.0
  0
LINE
  5
7D0
330
2
100
AcDbEntity
  8
0
100
AcDbLine
 10
400.427661988902
 20
65.48432299998751
 30
0.0
 11
400.427661988902
 21
59.48432299998751
 31
0.0
  0
ARC
  5
7D1
330
2
100
AcDbEntity
  8
0
100
AcDbCircle
 10
359.8252912992467
 20
92.38734024136681
 30
0.0
 40
4.60491370615741
100
AcDbArc
 50
312.379409433819
 51
49.34908835590179
  0
LINE
  5
7D2
330
2
100
AcDbEntity
  8
0
100
AcDbLine
 10
360.677661988902
 20
86.4843229999875
 30
0.0
 11
357.677661988902
 21
91.4843229999875
 31
0.0
  0
LINE
  5
7D3
330
2
100
AcDbEntity
  8
0
100
AcDbLine
 10
356.427661988902
 20
86.4843229999875
 30
0.0
 11
356.427661988902
 21
92.98432299998751
 31
0.0
  0
LINE
  5
7D4
330
2
100
AcDbEntity
  8
0
100
AcDbLine
 10
350.177661988902
 20
92.98432299998751
 30
0.0
 11
350.177661988902
 21
86.4843229999875
 31
0.0
  0
LINE
  5
7D5
330
2
100
AcDbEntity
  8
0
100
AcDbLine
 10
350.177661988902
 20
92.98432299998751
 30
0.0
 11
350.177661988902
 21
86.4843229999875
 31
0.0
  0
LINE
  5
7D6
330
2
100
AcDbEntity
  8
0
100
AcDbLine
 10
350.177661988902
 20
92.98432299998751
 30
0.0
 11
350.177661988902
 21
86.4843229999875
 31
0.0
  0
LINE
  5
7D7
330
2
100
AcDbEntity
  8
0
100
AcDbLine
 10
350.177661988902
 20
86.4843229999875
 30
0.0
 11
350.177661988902
 21
92.98432299998751
 31
0.0
  0
LINE
  5
7D8
330
2
100
AcDbEntity
  8
0
100
AcDbLine
 10
346.677661988902
 20
92.98432299998751
 30
0.0
 11
346.677661988902
 21
86.4843229999875
 31
0.0
  0
LINE
  5
7D9
330
2
100
AcDbEntity
  8
0
100
AcDbLine
 10
346.677661988902
 20
92.98432299998751
 30
0.0
 11
346.677661988902
 21
86.4843229999875
 31
0.0
  0
LINE
  5
7DA
330
2
100
AcDbEntity
  8
0
100
AcDbLine
 10
353.177661988902
 20
86.4843229999875
 30
0.0
 11
353.177661988902
 21
96.48432299998752
 31
0.0
  0
LINE
  5
7DB
330
2
100
AcDbEntity
  8
0
100
AcDbLine
 10
340.427661988902
 20
91.4843229999875
 30
0.0
 11
340.427661988902
 21
87.48432299998752
 31
0.0
  0
ARC
  5
7DC
330
2
100
AcDbEntity
  8
0
100
AcDbCircle
 10
340.2348889335695
 20
90.11485049193538
 30
0.0
 40
4.060400373134885
100
AcDbArc
 50
166.3033947545365
 51
214.615505381436
  0
LINE
  5
7DD
330
2
100
AcDbEntity
  8
0
100
AcDbLine
 10
343.677661988902
 20
86.4843229999875
 30
0.0
 11
343.677661988902
 21
91.4843229999875
 31
0.0
  0
LINE
  5
7DE
330
2
100
AcDbEntity
  8
0
100
AcDbLine
 10
340.427661988902
 20
87.48432299998752
 30
0.0
 11
337.5104868005356
 21
87.48432299998752
 31
0.0
  0
ARC
  5
7DF
330
2
100
AcDbEntity
  8
0
100
AcDbCircle
 10
337.5104868005356
 20
88.23432299998751
 30
0.0
 40
0.75
100
AcDbArc
 50
214.615505381436
 51
270.0
  0
LINE
  5
7E0
330
2
100
AcDbEntity
  8
0
100
AcDbLine
 10
346.677661988902
 20
86.4843229999875
 30
0.0
 11
350.177661988902
 21
86.4843229999875
 31
0.0
  0
LINE
  5
7E1
330
2
100
AcDbEntity
  8
0
100
AcDbLine
 10
353.177661988902
 20
86.4843229999875
 30
0.0
 11
356.427661988902
 21
86.4843229999875
 31
0.0
  0
LINE
  5
7E2
330
2
100
AcDbEntity
  8
0
100
AcDbLine
 10
364.4776619889022
 20
86.4843229999875
 30
0.0
 11
362.9287147087453
 21
88.98256846691561
 31
0.0
  0
LINE
  5
7E3
330
2
100
AcDbEntity
  8
0
100
AcDbLine
 10
364.4776619889022
 20
86.4843229999875
 30
0.0
 11
360.677661988902
 21
86.4843229999875
 31
0.0
  0
ARC
  5
7E4
330
2
100
AcDbEntity
  8
0
100
AcDbCircle
 10
362.9308584410597
 20
88.98385470630421
 30
0.0
 40
0.0025
100
AcDbArc
 50
132.3794094338536
 51
210.963756532034
  0
LINE
  5
7E5
330
2
100
AcDbEntity
  8
0
100
AcDbLine
 10
343.677661988902
 20
96.48432299998752
 30
0.0
 11
343.677661988902
 21
92.98432299998751
 31
0.0
  0
LINE
  5
7E6
330
2
100
AcDbEntity
  8
0
100
AcDbLine
 10
343.677661988902
 20
92.98432299998751
 30
0.0
 11
338.7188614304306
 21
92.98432299998751
 31
0.0
  0
ARC
  5
7E7
330
2
100
AcDbEntity
  8
0
100
AcDbCircle
 10
338.7188614304306
 20
90.48432299998751
 30
0.0
 40
2.5
100
AcDbArc
 50
90.0
 51
166.3033947545365
  0
LINE
  5
7E8
330
2
100
AcDbEntity
  8
0
100
AcDbLine
 10
343.677661988902
 20
91.4843229999875
 30
0.0
 11
340.427661988902
 21
91.4843229999875
 31
0.0
  0
LINE
  5
7E9
330
2
100
AcDbEntity
  8
0
100
AcDbLine
 10
338.1738600506179
 20
96.48432299998752
 30
0.0
 11
343.677661988902
 21
96.48432299998752
 31
0.0
  0
ARC
  5
7EA
330
2
100
AcDbEntity
  8
0
100
AcDbCircle
 10
338.1738600506179
 20
92.7343229999875
 30
0.0
 40
3.75
100
AcDbArc
 50
90.0
 51
109.330727832983
  0
LINE
  5
7EB
330
2
100
AcDbEntity
  8
0
100
AcDbLine
 10
344.927661988902
 20
96.48432299998752
 30
0.0
 11
344.927661988902
 21
92.98432299998751
 31
0.0
  0
LINE
  5
7EC
330
2
100
AcDbEntity
  8
0
100
AcDbLine
 10
351.927661988902
 20
92.98432299998751
 30
0.0
 11
351.927661988902
 21
96.48432299998752
 31
0.0
  0
LINE
  5
7ED
330
2
100
AcDbEntity
  8
0
100
AcDbLine
 10
344.927661988902
 20
92.98432299998751
 30
0.0
 11
346.677661988902
 21
92.98432299998751
 31
0.0
  0
LINE
  5
7EE
330
2
100
AcDbEntity
  8
0
100
AcDbLine
 10
350.177661988902
 20
92.98432299998751
 30
0.0
 11
351.927661988902
 21
92.98432299998751
 31
0.0
  0
LINE
  5
7EF
330
2
100
AcDbEntity
  8
0
100
AcDbLine
 10
351.927661988902
 20
96.48432299998752
 30
0.0
 11
344.927661988902
 21
96.48432299998752
 31
0.0
  0
ARC
  5
7F0
330
2
100
AcDbEntity
  8
0
100
AcDbCircle
 10
359.9526619889021
 20
92.25932299998749
 30
0.0
 40
0.7250000000000001
100
AcDbArc
 50
359.9999999999967
 51
90.0
  0
ARC
  5
7F1
330
2
100
AcDbEntity
  8
0
100
AcDbCircle
 10
359.9526619889021
 20
92.20932299998754
 30
0.0
 40
0.7250000000000001
100
AcDbArc
 50
270.0
 51
0.0
  0
LINE
  5
7F2
330
2
100
AcDbEntity
  8
0
100
AcDbLine
 10
353.177661988902
 20
96.48432299998752
 30
0.0
 11
361.1965344502006
 21
96.48432299998752
 31
0.0
  0
LINE
  5
7F3
330
2
100
AcDbEntity
  8
0
100
AcDbLine
 10
357.677661988902
 20
91.4843229999875
 30
0.0
 11
359.9526619889021
 21
91.4843229999875
 31
0.0
  0
LINE
  5
7F4
330
2
100
AcDbEntity
  8
0
100
AcDbLine
 10
356.427661988902
 20
92.98432299998751
 30
0.0
 11
359.9526619889021
 21
92.98432299998751
 31
0.0
  0
LINE
  5
7F5
330
2
100
AcDbEntity
  8
0
100
AcDbLine
 10
360.677661988902
 20
92.25932299998749
 30
0.0
 11
360.677661988902
 21
92.20932299998754
 31
0.0
  0
ARC
  5
7F6
330
2
100
AcDbEntity
  8
0
100
AcDbCircle
 10
361.1965344502006
 20
93.9843229999875
 30
0.0
 40
2.5
100
AcDbArc
 50
49.34908835590179
 51
90.0
  0
ARC
  5
7F7
330
2
100
AcDbEntity
  8
0
100
AcDbCircle
 10
386.427661988902
 20
70.48432299998751
 30
0.0
 40
3.0
100
AcDbArc
 50
180.0
 51
270.0
  0
LINE
  5
7F8
330
2
100
AcDbEntity
  8
0
100
AcDbLine
 10
399.8418769889021
 20
66.89852299998751
 30
0.0
 11
383.495074988902
 21
83.24541199998748
 31
0.0
  0
LINE
  5
7F9
330
2
100
AcDbEntity
  8
0
100
AcDbLine
 10
383.427661988902
 20
83.20002299998748
 30
0.0
 11
383.427661988902
 21
70.48432299998751
 31
0.0
  0
LINE
  5
7FA
330
2
100
AcDbEntity
  8
0
100
AcDbLine
 10
398.427661988902
 20
67.48432299998751
 30
0.0
 11
386.427661988902
 21
67.48432299998751
 31
0.0
  0
LINE
  5
7FB
330
2
100
AcDbEntity
  8
0
100
AcDbLine
 10
359.427661988902
 20
160.4843229999875
 30
0.0
 11
359.427661988902
 21
156.2923219999875
 31
0.0
  0
LINE
  5
7FC
330
2
100
AcDbEntity
  8
0
100
AcDbLine
 10
366.454272988902
 20
157.8493319999874
 30
0.0
 11
359.427661988902
 21
160.4843229999875
 31
0.0
  0
ARC
  5
7FD
330
2
100
AcDbEntity
  8
0
100
AcDbCircle
 10
348.427661988902
 20
111.4843229999875
 30
0.0
 40
42.5
100
AcDbArc
 50
19.74990099999923
 51
90.0
  0
LINE
  5
7FE
330
2
100
AcDbEntity
  8
0
100
AcDbLine
 10
337.427661988902
 20
160.4843229999875
 30
0.0
 11
337.427661988902
 21
156.2923219999875
 31
0.0
  0
LINE
  5
7FF
330
2
100
AcDbEntity
  8
0
100
AcDbLine
 10
375.4625739889021
 20
156.0124339999874
 30
0.0
 11
348.427661988902
 21
156.4843229999875
 31
0.0
  0
ARC
  5
800
330
2
100
AcDbEntity
  8
0
100
AcDbCircle
 10
348.427661988902
 20
124.4843229999875
 30
0.0
 40
7.5
100
AcDbArc
 50
199.4712070000018
 51
160.528792999998
  0
LINE
  5
801
330
2
100
AcDbEntity
  8
0
100
AcDbLine
 10
343.927661988902
 20
126.9843229999875
 30
0.0
 11
343.927661988902
 21
121.9843229999875
 31
0.0
  0
LINE
  5
802
330
2
100
AcDbEntity
  8
0
100
AcDbLine
 10
338.927661988902
 20
121.9843229999875
 30
0.0
 11
338.927661988902
 21
126.9843229999875
 31
0.0
  0
LINE
  5
803
330
2
100
AcDbEntity
  8
0
100
AcDbLine
 10
338.927661988902
 20
121.9843229999875
 30
0.0
 11
343.927661988902
 21
121.9843229999875
 31
0.0
  0
LINE
  5
804
330
2
100
AcDbEntity
  8
0
100
AcDbLine
 10
338.927661988902
 20
126.9843229999875
 30
0.0
 11
343.927661988902
 21
126.9843229999875
 31
0.0
  0
LINE
  5
805
330
2
100
AcDbEntity
  8
0
100
AcDbLine
 10
367.427661988902
 20
156.4448139999875
 30
0.0
 11
367.427661988902
 21
156.1527229999875
 31
0.0
  0
ARC
  5
806
330
2
100
AcDbEntity
  8
0
100
AcDbCircle
 10
365.927661988902
 20
156.4448139999875
 30
0.0
 40
1.5
100
AcDbArc
 50
0.0001300000000561
 51
69.4441989999993
  0
LINE
  5
807
330
2
100
AcDbEntity
  8
0
100
AcDbLine
 10
377.427661988902
 20
154.0127229999875
 30
0.0
 11
377.427661988902
 21
145.8936249999875
 31
0.0
  0
ARC
  5
808
330
2
100
AcDbEntity
  8
0
100
AcDbCircle
 10
375.427661988902
 20
154.0127229999875
 30
0.0
 40
2.0
100
AcDbArc
 50
0.0
 51
89.00019099999987
  0
ARC
  5
809
330
2
100
AcDbEntity
  8
HOJO
100
AcDbCircle
 10
351.6772662804661
 20
177.9847401975056
 30
0.0
 40
1.600781
100
AcDbArc
 50
247.1647030000001
 51
321.340194401624
  0
LINE
  5
80A
330
2
100
AcDbEntity
  8
0
100
AcDbLine
 10
359.427661988902
 20
160.4843229999875
 30
0.0
 11
337.427661988902
 21
160.4843229999875
 31
0.0
  0
LINE
  5
80B
330
2
100
AcDbEntity
  8
0
100
AcDbLine
 10
346.9272654891536
 20
176.9847407141266
 30
0.0
 11
346.9272654891536
 21
160.5243219999874
 31
0.0
  0
LINE
  5
80C
330
2
100
AcDbEntity
  8
0
100
AcDbLine
 10
344.9280584886504
 20
176.5633828889514
 30
0.0
 11
344.9280584886504
 21
160.5243219999874
 31
0.0
  0
LINE
  5
80D
330
2
100
AcDbEntity
  8
0
100
AcDbLine
 10
349.9272654891536
 20
176.9847870586409
 30
0.0
 11
349.9272654891536
 21
160.5243219999874
 31
0.0
  0
LINE
  5
80E
330
2
100
AcDbEntity
  8
0
100
AcDbLine
 10
340.9272654891537
 20
176.9847421248679
 30
0.0
 11
340.9272654891537
 21
160.5243219999874
 31
0.0
  0
LINE
  5
80F
330
2
100
AcDbEntity
  8
HOJO
100
AcDbLine
 10
342.7985574891537
 20
177.4600526191071
 30
0.0
 11
345.0561564891537
 21
176.509444619107
 31
0.0
  0
ARC
  5
810
330
2
100
AcDbEntity
  8
HOJO
100
AcDbCircle
 10
342.1772654891536
 20
175.984740619107
 30
0.0
 40
1.600781999999999
100
AcDbArc
 50
67.16467299999876
 51
141.3401949999988
  0
ARC
  5
811
330
2
100
AcDbEntity
  8
HOJO
100
AcDbCircle
 10
345.6772654891536
 20
177.984740619107
 30
0.0
 40
1.600781
100
AcDbArc
 50
247.1647030000001
 51
321.340194401624
  0
LINE
  5
812
330
2
100
AcDbEntity
  8
HOJO
100
AcDbLine
 10
349.9272654891536
 20
176.9847870586409
 30
0.0
 11
351.0561572804661
 21
176.5094441975056
 31
0.0
  0
LINE
  5
813
330
2
100
AcDbEntity
  8
0
100
AcDbLine
 10
355.9272654891536
 20
176.9847870586407
 30
0.0
 11
355.9272654891536
 21
160.5243219999874
 31
0.0
  0
LINE
  5
814
330
2
100
AcDbEntity
  8
0
100
AcDbLine
 10
342.9280584886504
 20
177.4055235879861
 30
0.0
 11
342.9280584886504
 21
160.5243219999874
 31
0.0
  0
LINE
  5
815
330
2
100
AcDbEntity
  8
HOJO
100
AcDbLine
 10
354.7985582804662
 20
177.4600521975056
 30
0.0
 11
355.9272654891536
 21
176.9847870586407
 31
0.0
  0
ARC
  5
816
330
2
100
AcDbEntity
  8
HOJO
100
AcDbCircle
 10
354.1772662804661
 20
175.9847401975055
 30
0.0
 40
1.600781999999999
100
AcDbArc
 50
67.16467299999876
 51
141.3401949999988
  0
TEXT
  5
817
330
2
100
AcDbEntity
  8
TITLE
100
AcDbText
 10
29.23531819856112
 20
15.22940181260241
 30
0.0
 40
6.0
  1
VGLC15-5～60N100
100
AcDbText
  0
MTEXT
  5
828
330
2
100
AcDbEntity
  8
TITLE
100
AcDbMText
 10
116.9133521170293
 20
24.72386185777667
 30
0.0
 40
2.8284
 41
11.6777565
 71
     1
 72
     5
  1
L1\PL2\PL4
1001
ACAD
1000
MTEXTBEGIN
1070
    73
1070
     1
1070
    44
1040
1.0
1070
    74
1070
     0
1000
MTEXTEND
  0
LINE
  5
903
330
2
100
AcDbEntity
  8
0
100
AcDbLine
 10
165.5369528746538
 20
304.3784952384154
 30
0.0
 11
189.5369528746538
 21
304.3784952384154
 31
0.0
  0
LINE
  5
904
330
2
100
AcDbEntity
  8
0
100
AcDbLine
 10
165.5369528746538
 20
301.9494942384154
 30
0.0
 11
189.5369528746538
 21
301.9494942384154
 31
0.0
  0
LINE
  5
905
330
2
100
AcDbEntity
  8
0
100
AcDbLine
 10
162.5369528746538
 20
318.9494942384154
 30
0.0
 11
189.5369528746538
 21
318.9494942384154
 31
0.0
  0
LINE
  5
906
330
2
100
AcDbEntity
  8
CENTER
100
AcDbLine
 10
23.53695287465382
 20
311.4494942384154
 30
0.0
 11
194.5369528746538
 21
311.4494942384154
 31
0.0
  0
LINE
  5
933
330
2
100
AcDbEntity
  8
0
100
AcDbLine
 10
41.53695287465382
 20
282.4494942384154
 30
0.0
 11
156.5369528746538
 21
282.4494942384154
 31
0.0
  0
LINE
  5
934
330
2
100
AcDbEntity
  8
0
100
AcDbLine
 10
41.53695287465382
 20
266.4494942384154
 30
0.0
 11
156.5369528746538
 21
266.4494942384154
 31
0.0
  0
LINE
  5
935
330
2
100
AcDbEntity
  8
0
100
AcDbLine
 10
41.53695287465382
 20
356.4494942384154
 30
0.0
 11
156.5369528746538
 21
356.4494942384154
 31
0.0
  0
LINE
  5
936
330
2
100
AcDbEntity
  8
0
100
AcDbLine
 10
41.53695287465382
 20
340.4494942384154
 30
0.0
 11
156.5369528746538
 21
340.4494942384154
 31
0.0
  0
LINE
  5
938
330
2
100
AcDbEntity
  8
0
100
AcDbLine
 10
160.5369528746538
 20
292.4494942384154
 30
0.0
 11
160.5369528746538
 21
330.4494942384154
 31
0.0
  0
LINE
  5
939
330
2
100
AcDbEntity
  8
0
100
AcDbLine
 10
162.5369528746538
 20
319.9494942384154
 30
0.0
 11
162.5369528746538
 21
302.9494942384154
 31
0.0
  0
LINE
  5
93A
330
2
100
AcDbEntity
  8
0
100
AcDbLine
 10
156.5369528746538
 20
360.4494942384154
 30
0.0
 11
156.5369528746538
 21
262.4494942384154
 31
0.0
  0
LINE
  5
93B
330
2
100
AcDbEntity
  8
0
100
AcDbLine
 10
103.5369528746538
 20
259.4494942384154
 30
0.0
 11
153.5369528746538
 21
259.4494942384154
 31
0.0
  0
ARC
  5
93C
330
2
100
AcDbEntity
  8
HIDS
100
AcDbCircle
 10
108.5369528746538
 20
266.4494942384154
 30
0.0
 40
3.25
100
AcDbArc
 50
0.0
 51
180.0
  0
ARC
  5
93D
330
2
100
AcDbEntity
  8
0
100
AcDbCircle
 10
108.5369528746538
 20
266.4494942384154
 30
0.0
 40
3.25
100
AcDbArc
 50
180.0
 51
0.0
  0
LINE
  5
93E
330
2
100
AcDbEntity
  8
0
100
AcDbLine
 10
100.5369528746538
 20
262.4494942384154
 30
0.0
 11
100.5369528746538
 21
266.4494942384154
 31
0.0
  0
ARC
  5
93F
330
2
100
AcDbEntity
  8
0
100
AcDbCircle
 10
103.5369528746538
 20
262.4494942384154
 30
0.0
 40
3.0
100
AcDbArc
 50
180.0
 51
270.0
  0
ARC
  5
940
330
2
100
AcDbEntity
  8
0
100
AcDbCircle
 10
148.5369528746538
 20
266.4494942384154
 30
0.0
 40
3.25
100
AcDbArc
 50
180.0
 51
0.0
  0
ARC
  5
941
330
2
100
AcDbEntity
  8
HIDS
100
AcDbCircle
 10
148.5369528746538
 20
266.4494942384154
 30
0.0
 40
3.25
100
AcDbArc
 50
0.0
 51
180.0
  0
ARC
  5
942
330
2
100
AcDbEntity
  8
0
100
AcDbCircle
 10
153.5369528746538
 20
262.4494942384154
 30
0.0
 40
3.0
100
AcDbArc
 50
270.0
 51
0.0
  0
ARC
  5
943
330
2
100
AcDbEntity
  8
0
100
AcDbCircle
 10
159.5369528746538
 20
292.4494942384154
 30
0.0
 40
1.0
100
AcDbArc
 50
270.0
 51
0.0
  0
LINE
  5
944
330
2
100
AcDbEntity
  8
0
100
AcDbLine
 10
159.5369528746538
 20
291.4494942384154
 30
0.0
 11
156.5369528746538
 21
291.4494942384154
 31
0.0
  0
LINE
  5
945
330
2
100
AcDbEntity
  8
0
100
AcDbLine
 10
160.5369528746538
 20
302.9494942384154
 30
0.0
 11
162.5369528746538
 21
302.9494942384154
 31
0.0
  0
LINE
  5
946
330
2
100
AcDbEntity
  8
0
100
AcDbLine
 10
165.5369528746538
 20
304.3784952384154
 30
0.0
 11
165.5369528746538
 21
301.9494942384154
 31
0.0
  0
LINE
  5
947
330
2
100
AcDbEntity
  8
0
100
AcDbLine
 10
162.5369528746538
 20
303.9494942384154
 30
0.0
 11
165.5369528746538
 21
303.9494942384154
 31
0.0
  0
LINE
  5
948
330
2
100
AcDbEntity
  8
0
100
AcDbLine
 10
103.5369528746538
 20
363.4494942384154
 30
0.0
 11
153.5369528746538
 21
363.4494942384154
 31
0.0
  0
ARC
  5
949
330
2
100
AcDbEntity
  8
0
100
AcDbCircle
 10
108.5369528746538
 20
356.4494942384154
 30
0.0
 40
3.25
100
AcDbArc
 50
0.0
 51
180.0
  0
LINE
  5
94A
330
2
100
AcDbEntity
  8
0
100
AcDbLine
 10
100.5369528746538
 20
360.4494942384154
 30
0.0
 11
100.5369528746538
 21
356.4494942384154
 31
0.0
  0
ARC
  5
94B
330
2
100
AcDbEntity
  8
HIDS
100
AcDbCircle
 10
108.5369528746538
 20
356.4494942384154
 30
0.0
 40
3.25
100
AcDbArc
 50
180.0
 51
0.0
  0
ARC
  5
94C
330
2
100
AcDbEntity
  8
0
100
AcDbCircle
 10
103.5369528746538
 20
360.4494942384154
 30
0.0
 40
3.0
100
AcDbArc
 50
90.0
 51
180.0
  0
ARC
  5
94D
330
2
100
AcDbEntity
  8
0
100
AcDbCircle
 10
148.5369528746538
 20
356.4494942384154
 30
0.0
 40
3.25
100
AcDbArc
 50
0.0
 51
180.0
  0
LINE
  5
94E
330
2
100
AcDbEntity
  8
CENTER
100
AcDbLine
 10
148.5369528746538
 20
362.2305922384155
 30
0.0
 11
148.5369528746538
 21
350.6683962384154
 31
0.0
  0
ARC
  5
94F
330
2
100
AcDbEntity
  8
HIDS
100
AcDbCircle
 10
148.5369528746538
 20
356.4494942384154
 30
0.0
 40
3.25
100
AcDbArc
 50
180.0
 51
0.0
  0
LINE
  5
950
330
2
100
AcDbEntity
  8
CENTER
100
AcDbLine
 10
142.7558548746538
 20
356.4494942384154
 30
0.0
 11
154.3180508746537
 21
356.4494942384154
 31
0.0
  0
LINE
  5
951
330
2
100
AcDbEntity
  8
0
100
AcDbLine
 10
160.5369528746538
 20
319.9494942384154
 30
0.0
 11
162.5369528746538
 21
319.9494942384154
 31
0.0
  0
LINE
  5
952
330
2
100
AcDbEntity
  8
0
100
AcDbLine
 10
159.5369528746538
 20
331.4494942384154
 30
0.0
 11
156.5369528746538
 21
331.4494942384154
 31
0.0
  0
ARC
  5
953
330
2
100
AcDbEntity
  8
0
100
AcDbCircle
 10
159.5369528746538
 20
330.4494942384154
 30
0.0
 40
1.0
100
AcDbArc
 50
0.0
 51
90.0
  0
ARC
  5
954
330
2
100
AcDbEntity
  8
0
100
AcDbCircle
 10
153.5369528746538
 20
360.4494942384154
 30
0.0
 40
3.0
100
AcDbArc
 50
0.0
 51
90.0
  0
LINE
  5
9C5
330
2
100
AcDbEntity
  8
0
100
AcDbLine
 10
189.5369528746538
 20
318.9494942384154
 30
0.0
 11
189.5369528746538
 21
301.9494942384154
 31
0.0
  0
LINE
  5
9C6
330
2
100
AcDbEntity
  8
CENTER
100
AcDbLine
 10
102.7558548746537
 20
356.4494942384154
 30
0.0
 11
114.3180508746538
 21
356.4494942384154
 31
0.0
  0
LINE
  5
9C7
330
2
100
AcDbEntity
  8
CENTER
100
AcDbLine
 10
108.5369528746538
 20
362.2305922384155
 30
0.0
 11
108.5369528746538
 21
350.6683962384154
 31
0.0
  0
LINE
  5
9C8
330
2
100
AcDbEntity
  8
CENTER
100
AcDbLine
 10
102.7558548746537
 20
266.4494942384154
 30
0.0
 11
114.3180508746538
 21
266.4494942384154
 31
0.0
  0
LINE
  5
9C9
330
2
100
AcDbEntity
  8
CENTER
100
AcDbLine
 10
108.5369528746538
 20
272.2305922384155
 30
0.0
 11
108.5369528746538
 21
260.6683962384154
 31
0.0
  0
LINE
  5
9CA
330
2
100
AcDbEntity
  8
CENTER
100
AcDbLine
 10
142.7558548746538
 20
266.4494942384154
 30
0.0
 11
154.3180508746537
 21
266.4494942384154
 31
0.0
  0
LINE
  5
9CB
330
2
100
AcDbEntity
  8
CENTER
100
AcDbLine
 10
148.5369528746538
 20
272.2305922384155
 30
0.0
 11
148.5369528746538
 21
260.6683962384154
 31
0.0
  0
LINE
  5
1D15
330
2
100
AcDbEntity
  8
0
100
AcDbLine
 10
36.03695687465392
 20
185.3085110558975
 30
0.0
 11
36.03695687465381
 21
160.4843229999875
 31
0.0
  0
LINE
  5
1D16
330
2
100
AcDbEntity
  8
0
100
AcDbLine
 10
30.03695687465381
 20
185.3085124643928
 30
0.0
 11
30.03695687465381
 21
160.4843229999875
 31
0.0
  0
LINE
  5
1D17
330
2
100
AcDbEntity
  8
0
100
AcDbLine
 10
32.03695687465369
 20
185.7296779692936
 30
0.0
 11
32.03695687465381
 21
160.4843229999875
 31
0.0
  0
LINE
  5
1D18
330
2
100
AcDbEntity
  8
0
100
AcDbLine
 10
34.03695687465369
 20
184.8943508748556
 30
0.0
 11
34.03695687465381
 21
160.4843229999875
 31
0.0
  0
LINE
  5
1D19
330
2
100
AcDbEntity
  8
0
100
AcDbLine
 10
28.53695287465382
 20
75.44128598563531
 30
0.0
 11
28.53695287465382
 21
147.5273219999875
 31
0.0
  0
ARC
  5
1D1A
330
2
100
AcDbEntity
  8
0
100
AcDbCircle
 10
31.03695687465381
 20
78.2163139999875
 30
0.0
 40
1.0
100
AcDbArc
 50
180.0
 51
240.0001979999977
  0
ARC
  5
1D1B
330
2
100
AcDbEntity
  8
0
100
AcDbCircle
 10
29.53695687465381
 20
78.48432299998751
 30
0.0
 40
1.0
100
AcDbArc
 50
180.0
 51
270.0
  0
LINE
  5
1D1D
330
2
100
AcDbEntity
  8
0
100
AcDbLine
 10
30.03695687465381
 20
75.28432199998753
 30
0.0
 11
31.03695687465381
 21
75.28432199998753
 31
0.0
  0
ARC
  5
1D1E
330
2
100
AcDbEntity
  8
0
100
AcDbCircle
 10
30.03695687465381
 20
76.48432299998751
 30
0.0
 40
1.0
100
AcDbArc
 50
0.0
 51
90.0
  0
LINE
  5
1D1F
330
2
100
AcDbEntity
  8
CENTER
100
AcDbLine
 10
24.43696587465399
 20
71.48432299998751
 30
0.0
 11
33.53695687465381
 21
71.48432299998751
 31
0.0
  0
LINE
  5
1D20
330
2
100
AcDbEntity
  8
0
100
AcDbLine
 10
31.03695687465381
 20
67.6843239999875
 30
0.0
 11
30.03695687465381
 21
67.6843239999875
 31
0.0
  0
LINE
  5
1D21
330
2
100
AcDbEntity
  8
0
100
AcDbLine
 10
30.03695687465381
 20
75.48432299998751
 30
0.0
 11
30.03695687465381
 21
67.48432299998751
 31
0.0
  0
ARC
  5
1D22
330
2
100
AcDbEntity
  8
0
100
AcDbCircle
 10
33.43696587465399
 20
71.48432299998751
 30
0.0
 40
6.5
100
AcDbArc
 50
146.9443049999971
 51
213.0556950000028
  0
ARC
  5
1D23
330
2
100
AcDbEntity
  8
0
100
AcDbCircle
 10
28.82716287465393
 20
68.48432299998751
 30
0.0
 40
1.0
100
AcDbArc
 50
213.0556950000028
 51
270.0
  0
LINE
  5
1D24
330
2
100
AcDbEntity
  8
0
100
AcDbLine
 10
30.03695687465381
 20
67.48432299998751
 30
0.0
 11
28.82716287465393
 21
67.48432299998751
 31
0.0
  0
LINE
  5
1D25
330
2
100
AcDbEntity
  8
0
100
AcDbLine
 10
30.03695687465381
 20
75.48432299998751
 30
0.0
 11
28.82716287465393
 21
75.48432299998751
 31
0.0
  0
ARC
  5
1D26
330
2
100
AcDbEntity
  8
0
100
AcDbCircle
 10
28.82716287465393
 20
74.48432299998751
 30
0.0
 40
1.0
100
AcDbArc
 50
90.0
 51
146.9443049999971
  0
LINE
  5
1D27
330
2
100
AcDbEntity
  8
0
100
AcDbLine
 10
29.53695687465381
 20
77.48432299998751
 30
0.0
 11
30.03695687465381
 21
77.48432299998751
 31
0.0
  0
LINE
  5
1D28
330
2
100
AcDbEntity
  8
0
100
AcDbLine
 10
41.53695287465382
 20
77.07513199998754
 30
0.0
 11
30.84376687465385
 21
77.07513199998754
 31
0.0
  0
LINE
  5
1D29
330
2
100
AcDbEntity
  8
0
100
AcDbLine
 10
41.53695287465382
 20
66.48432299998751
 30
0.0
 11
32.47515887465385
 21
66.48432299998751
 31
0.0
  0
LINE
  5
1D2A
330
2
100
AcDbEntity
  8
0
100
AcDbLine
 10
31.03695687465381
 20
76.48432299998751
 30
0.0
 11
31.03695687465381
 21
67.48432299998751
 31
0.0
  0
ARC
  5
1D2B
330
2
100
AcDbEntity
  8
0
100
AcDbCircle
 10
32.47515887465385
 20
68.0165229999875
 30
0.0
 40
1.533470999999999
100
AcDbArc
 50
200.3083040000001
 51
272.3116150000011
  0
LINE
  5
1D2C
330
2
100
AcDbEntity
  8
0
100
AcDbLine
 10
27.53692287465389
 20
148.7567229999875
 30
0.0
 11
27.53690287465394
 21
127.9843229999875
 31
0.0
  0
LINE
  5
1D2D
330
2
100
AcDbEntity
  8
0
100
AcDbLine
 10
30.03695687465381
 20
144.7522219999875
 30
0.0
 11
30.03684687465386
 21
78.2163139999875
 31
0.0
  0
ARC
  5
1D2F
330
2
100
AcDbEntity
  8
0
100
AcDbCircle
 10
28.53695287465382
 20
127.9843229999875
 30
0.0
 40
1.0
100
AcDbArc
 50
180.0
 51
270.0
  0
LINE
  5
1D30
330
2
100
AcDbEntity
  8
0
100
AcDbLine
 10
28.53695287465382
 20
160.4843229999875
 30
0.0
 11
37.53695687465381
 21
160.4843229999875
 31
0.0
  0
LINE
  5
1D31
330
2
100
AcDbEntity
  8
0
100
AcDbLine
 10
30.03695687465381
 20
155.2843219999875
 30
0.0
 11
31.03695687465381
 21
155.2843219999875
 31
0.0
  0
LINE
  5
1D32
330
2
100
AcDbEntity
  8
CENTER
100
AcDbLine
 10
24.43696587465399
 20
151.4843229999875
 30
0.0
 11
33.53695687465381
 21
151.4843229999875
 31
0.0
  0
ARC
  5
1D33
330
2
100
AcDbEntity
  8
0
100
AcDbCircle
 10
31.03695687465381
 20
144.7522219999875
 30
0.0
 40
1.0
100
AcDbArc
 50
120.0002980000033
 51
180.0
  0
LINE
  5
1D34
330
2
100
AcDbEntity
  8
0
100
AcDbLine
 10
31.03695687465381
 20
147.6843239999874
 30
0.0
 11
30.03695687465381
 21
147.6843239999874
 31
0.0
  0
ARC
  5
1D35
330
2
100
AcDbEntity
  8
0
100
AcDbCircle
 10
30.03695687465381
 20
146.4843229999875
 30
0.0
 40
1.0
100
AcDbArc
 50
270.0
 51
0.0
  0
LINE
  5
1D36
330
2
100
AcDbEntity
  8
0
100
AcDbLine
 10
30.03695687465381
 20
155.4843229999875
 30
0.0
 11
30.03695687465381
 21
147.4843229999875
 31
0.0
  0
ARC
  5
1D37
330
2
100
AcDbEntity
  8
0
100
AcDbCircle
 10
33.43696587465399
 20
151.4843229999875
 30
0.0
 40
6.5
100
AcDbArc
 50
146.9443049999971
 51
213.0556950000028
  0
ARC
  5
1D38
330
2
100
AcDbEntity
  8
0
100
AcDbCircle
 10
28.82716287465393
 20
148.4843229999875
 30
0.0
 40
1.0
100
AcDbArc
 50
213.0556950000028
 51
270.0
  0
ARC
  5
1D39
330
2
100
AcDbEntity
  8
0
100
AcDbCircle
 10
29.53695687465381
 20
144.4843229999875
 30
0.0
 40
1.0
100
AcDbArc
 50
90.0
 51
180.0
  0
LINE
  5
1D3A
330
2
100
AcDbEntity
  8
0
100
AcDbLine
 10
30.03695687465381
 20
147.4843229999875
 30
0.0
 11
28.82716287465393
 21
147.4843229999875
 31
0.0
  0
LINE
  5
1D3B
330
2
100
AcDbEntity
  8
0
100
AcDbLine
 10
29.53695687465381
 20
145.4843229999875
 30
0.0
 11
30.03695687465381
 21
145.4843229999875
 31
0.0
  0
ARC
  5
1D3C
330
2
100
AcDbEntity
  8
0
100
AcDbCircle
 10
28.53695287465382
 20
159.4843229999875
 30
0.0
 40
1.0
100
AcDbArc
 50
90.0
 51
180.0
  0
ARC
  5
1D3D
330
2
100
AcDbEntity
  8
0
100
AcDbCircle
 10
28.82716287465393
 20
154.4843229999875
 30
0.0
 40
1.0
100
AcDbArc
 50
90.0
 51
146.9443049999971
  0
LINE
  5
1D3E
330
2
100
AcDbEntity
  8
0
100
AcDbLine
 10
30.03695687465381
 20
155.4843229999875
 30
0.0
 11
28.82716287465393
 21
155.4843229999875
 31
0.0
  0
LINE
  5
1D3F
330
2
100
AcDbEntity
  8
0
100
AcDbLine
 10
27.53693287465387
 20
159.4843229999875
 30
0.0
 11
27.53692287465389
 21
154.2119229999875
 31
0.0
  0
LINE
  5
1D40
330
2
100
AcDbEntity
  8
0
100
AcDbLine
 10
31.03695687465381
 20
146.4843229999875
 30
0.0
 11
31.03695687465381
 21
155.4843229999875
 31
0.0
  0
LINE
  5
1D41
330
2
100
AcDbEntity
  8
0
100
AcDbLine
 10
41.53695287465382
 20
145.8935139999874
 30
0.0
 11
30.84376687465385
 21
145.8935139999874
 31
0.0
  0
LINE
  5
1D42
330
2
100
AcDbEntity
  8
0
100
AcDbLine
 10
41.53695287465382
 20
156.4843229999875
 30
0.0
 11
32.47515887465385
 21
156.4843229999875
 31
0.0
  0
ARC
  5
1D43
330
2
100
AcDbEntity
  8
0
100
AcDbCircle
 10
37.53695687465381
 20
159.4843229999875
 30
0.0
 40
1.0
100
AcDbArc
 50
0.0
 51
90.0
  0
ARC
  5
1D44
330
2
100
AcDbEntity
  8
0
100
AcDbCircle
 10
32.47515887465385
 20
154.9521229999875
 30
0.0
 40
1.533470999999999
100
AcDbArc
 50
87.68839299999994
 51
159.6916959999983
  0
LINE
  5
1D45
330
2
100
AcDbEntity
  8
0
100
AcDbLine
 10
38.53695287465382
 20
159.4843229999875
 30
0.0
 11
38.53695287465382
 21
156.4843229999875
 31
0.0
  0
LINE
  5
1D46
330
2
100
AcDbEntity
  8
0
100
AcDbLine
 10
28.53695687465352
 20
269.4494942384154
 30
0.0
 11
28.5369568746533
 21
283.4925359169604
 31
0.0
  0
LINE
  5
1D47
330
2
100
AcDbEntity
  8
0
100
AcDbLine
 10
41.53695287465353
 20
266.4494942384154
 30
0.0
 11
41.53695287465353
 21
304.5494942384153
 31
0.0
  0
LINE
  5
1D48
330
2
100
AcDbEntity
  8
0
100
AcDbLine
 10
41.03698687465396
 20
199.070726619107
 30
0.0
 11
79.45710920179386
 21
199.070726619107
 31
0.0
  0
LINE
  5
1D49
330
2
100
AcDbEntity
  8
0
100
AcDbLine
 10
41.03700687465391
 20
205.070726619107
 30
0.0
 11
79.45763260519175
 21
205.070726619107
 31
0.0
  0
LINE
  5
1D4A
330
2
100
AcDbEntity
  8
0
100
AcDbLine
 10
54.78158705894589
 20
190.0282570626909
 30
0.0
 11
66.03361475432416
 21
186.0571481814629
 31
0.0
  0
LINE
  5
1D4B
330
2
100
AcDbEntity
  8
0
100
AcDbLine
 10
55.44719822849015
 20
191.9142479881667
 30
0.0
 11
66.69922592386888
 21
187.9431391069386
 31
0.0
  0
LINE
  5
1D4C
330
2
100
AcDbEntity
  8
0
100
AcDbLine
 10
56.77842056758004
 20
195.6862298391183
 30
0.0
 11
68.03044826295877
 21
191.7151209578903
 31
0.0
  0
LINE
  5
1D4D
330
2
100
AcDbEntity
  8
0
100
AcDbLine
 10
56.11280939803532
 20
193.8002389136424
 30
0.0
 11
67.3648370934136
 21
189.8291300324144
 31
0.0
  0
ARC
  5
1D4E
330
2
100
AcDbEntity
  8
HOJO
100
AcDbCircle
 10
31.28698687465396
 20
184.3085484597286
 30
0.0
 40
1.600781999999999
100
AcDbArc
 50
67.16467299999876
 51
141.3418685641826
  0
ARC
  5
1D4F
330
2
100
AcDbEntity
  8
HOJO
100
AcDbCircle
 10
31.28698687465396
 20
186.3085484597286
 30
0.0
 40
1.600781999999999
100
AcDbArc
 50
67.16467299999876
 51
141.3418685642139
  0
ARC
  5
1D50
330
2
100
AcDbEntity
  8
0
100
AcDbCircle
 10
41.03700687465391
 20
194.070726619107
 30
0.0
 40
11.0
100
AcDbArc
 50
90.0
 51
180.0
  0
ARC
  5
1D51
330
2
100
AcDbEntity
  8
0
100
AcDbCircle
 10
41.0370080878389
 20
187.3084973415892
 30
0.0
 40
9.000051213203853
100
AcDbArc
 50
90.0002430827012
 51
177.3436678381908
  0
ARC
  5
1D52
330
2
100
AcDbEntity
  8
0
100
AcDbCircle
 10
41.0370080878389
 20
187.3084973415892
 30
0.0
 40
11.00005121320385
100
AcDbArc
 50
90.0002430827012
 51
179.9998428472123
  0
LINE
  5
1D53
330
2
100
AcDbEntity
  8
0
100
AcDbLine
 10
30.03700687465391
 20
194.070726619107
 30
0.0
 11
30.03695687465392
 21
187.3085124643927
 31
0.0
  0
LINE
  5
1D54
330
2
100
AcDbEntity
  8
HOJO
100
AcDbLine
 10
30.03695687465381
 20
185.3085844550645
 30
0.0
 11
30.03695687465381
 21
185.069752135728
 31
0.0
  0
ARC
  5
1D55
330
2
100
AcDbEntity
  8
0
100
AcDbCircle
 10
41.46936366804777
 20
152.3084385531749
 30
0.0
 40
44.0
100
AcDbArc
 50
70.56084818740743
 51
90.0
  0
ARC
  5
1D56
330
2
100
AcDbEntity
  8
0
100
AcDbCircle
 10
41.46936366804777
 20
152.3084385531749
 30
0.0
 40
46.0
100
AcDbArc
 50
70.56084818740743
 51
90.0
  0
ARC
  5
1D57
330
2
100
AcDbEntity
  8
0
100
AcDbCircle
 10
41.46936366804777
 20
152.3084385531749
 30
0.0
 40
42.0
100
AcDbArc
 50
70.56084818740743
 51
90.0
  0
ARC
  5
1D58
330
2
100
AcDbEntity
  8
0
100
AcDbCircle
 10
41.46936366804777
 20
152.3084385531749
 30
0.0
 40
40.0
100
AcDbArc
 50
70.56084818740743
 51
90.0
  0
ARC
  5
1D59
330
2
100
AcDbEntity
  8
0
100
AcDbCircle
 10
41.0370080878389
 20
187.3084973415892
 30
0.0
 40
5.000051213203854
100
AcDbArc
 50
90.0002430827012
 51
179.9998428472123
  0
ARC
  5
1D5A
330
2
100
AcDbEntity
  8
0
100
AcDbCircle
 10
41.0370080878389
 20
187.3084973415892
 30
0.0
 40
7.000051213203854
100
AcDbArc
 50
90.0002430827012
 51
179.9998428472123
  0
LINE
  5
1D5B
330
2
100
AcDbEntity
  8
HOJO
100
AcDbLine
 10
31.908278874654
 20
185.7838604597286
 30
0.0
 11
34.16587787465402
 21
184.8332524597286
 31
0.0
  0
ARC
  5
1D5C
330
2
100
AcDbEntity
  8
HOJO
100
AcDbCircle
 10
34.78698687465396
 20
186.3085484597286
 30
0.0
 40
1.600781
100
AcDbArc
 50
247.1647029999995
 51
321.3401944016206
  0
ARC
  5
1D5D
330
2
100
AcDbEntity
  8
HOJO
100
AcDbCircle
 10
34.78698687465396
 20
188.3085484597286
 30
0.0
 40
1.600781
100
AcDbArc
 50
247.1647029999995
 51
321.3401944016206
  0
LINE
  5
1D5E
330
2
100
AcDbEntity
  8
HOJO
100
AcDbLine
 10
31.908278874654
 20
187.7838604597286
 30
0.0
 11
34.16587787465402
 21
186.8332524597286
 31
0.0
  0
LINE
  5
1D5F
330
2
100
AcDbEntity
  8
0
100
AcDbLine
 10
34.03695687465381
 20
187.3084973415892
 30
0.0
 11
34.03695687465369
 21
186.8875372702589
 31
0.0
  0
ARC
  5
1D60
330
2
100
AcDbEntity
  8
0
100
AcDbCircle
 10
41.03698687465396
 20
194.070726619107
 30
0.0
 40
5.0
100
AcDbArc
 50
90.0
 51
131.9745634210934
  0
ARC
  5
1D61
330
2
100
AcDbEntity
  8
0
100
AcDbCircle
 10
41.03698687465396
 20
187.308548554748
 30
0.0
 40
9.0
100
AcDbArc
 50
90.0
 51
123.3057915968515
  0
LINE
  5
1D62
330
2
100
AcDbEntity
  8
0
100
AcDbLine
 10
41.036820840009
 20
194.3084385531749
 30
0.0
 11
41.46936366804777
 21
194.3084385531749
 31
0.0
  0
LINE
  5
1D63
330
2
100
AcDbEntity
  8
0
100
AcDbLine
 10
41.036820840009
 20
196.3084385531749
 30
0.0
 11
41.46936366804777
 21
196.3084385531749
 31
0.0
  0
LINE
  5
1D64
330
2
100
AcDbEntity
  8
0
100
AcDbLine
 10
41.036820840009
 20
192.3084385531749
 30
0.0
 11
41.46936366804777
 21
192.3084385531749
 31
0.0
  0
LINE
  5
1D65
330
2
100
AcDbEntity
  8
0
100
AcDbLine
 10
41.036820840009
 20
198.3084385531749
 30
0.0
 11
41.46936366804777
 21
198.3084385531749
 31
0.0
  0
ARC
  5
1D66
330
2
100
AcDbEntity
  8
0
100
AcDbCircle
 10
31.53695687465353
 20
269.4494942384153
 30
0.0
 40
3.0
100
AcDbArc
 50
179.9999999999967
 51
270.0
  0
LINE
  5
1D67
330
2
100
AcDbEntity
  8
0
100
AcDbLine
 10
31.53695687465353
 20
266.4494942384154
 30
0.0
 11
41.53695287465353
 21
266.4494942384154
 31
0.0
  0
LINE
  5
1D68
330
2
100
AcDbEntity
  8
0
100
AcDbLine
 10
105.0961694166614
 20
202.6700661823744
 30
0.0
 11
89.21790242831026
 21
202.6700661823744
 31
0.0
  0
LINE
  5
1D69
330
2
100
AcDbEntity
  8
0
100
AcDbLine
 10
105.0961694166614
 20
201.4700661823744
 30
0.0
 11
89.21790242831026
 21
201.4700661823742
 31
0.0
  0
LINE
  5
1D6A
330
2
100
AcDbEntity
  8
0
100
AcDbLine
 10
89.21486397891271
 20
197.8393006627903
 30
0.0
 11
95.25698831166868
 21
196.7739111221302
 31
0.0
  0
LINE
  5
1D6B
330
2
100
AcDbEntity
  8
0
100
AcDbLine
 10
95.55045260600104
 20
203.8939601442092
 30
0.0
 11
89.21790242831026
 21
203.3399337924522
 31
0.0
  0
LINE
  5
1D6C
330
2
100
AcDbEntity
  8
0
100
AcDbLine
 10
89.21790242831026
 20
205.0828555283038
 30
0.0
 11
95.36197470789989
 21
206.1662212426184
 31
0.0
  0
LINE
  5
1D6D
330
2
100
AcDbEntity
  8
0
100
AcDbLine
 10
95.49805947451137
 20
205.0939601442093
 30
0.0
 11
89.21790242831026
 21
204.5445175975042
 31
0.0
  0
LINE
  5
1D6E
330
2
100
AcDbEntity
  8
0
100
AcDbLine
 10
95.55045260600513
 20
200.2461722205393
 30
0.0
 11
89.21790242831026
 21
200.8001985722967
 31
0.0
  0
LINE
  5
1D6F
330
2
100
AcDbEntity
  8
0
100
AcDbLine
 10
89.21790242831026
 20
199.0572768364448
 30
0.0
 11
95.36197470790034
 21
197.9739111221301
 31
0.0
  0
LINE
  5
1D70
330
2
100
AcDbEntity
  8
0
100
AcDbLine
 10
95.49805947451408
 20
199.0461722205394
 30
0.0
 11
89.21790242831026
 21
199.5956147672446
 31
0.0
  0
LINE
  5
1D71
330
2
100
AcDbEntity
  8
0
100
AcDbLine
 10
89.21486397891271
 20
206.3008317019586
 30
0.0
 11
95.25698831166868
 21
207.3662212426186
 31
0.0
  0
LINE
  5
1D72
330
2
100
AcDbEntity
  8
0
100
AcDbLine
 10
111.2333160911064
 20
185.4349394674061
 30
0.0
 11
81.34267165384768
 21
185.4349394674061
 31
0.0
  0
LINE
  5
1D73
330
2
100
AcDbEntity
  8
0
100
AcDbLine
 10
111.2333160911064
 20
187.4349394674061
 30
0.0
 11
81.34267165384812
 21
187.4349394674061
 31
0.0
  0
LINE
  5
1D74
330
2
100
AcDbEntity
  8
0
100
AcDbLine
 10
81.73331609110642
 20
183.4349394674061
 30
0.0
 11
111.1143310995514
 21
180.8644337312821
 31
0.0
  0
LINE
  5
1D75
330
2
100
AcDbEntity
  8
0
100
AcDbLine
 10
81.82063797692331
 20
185.4349394674061
 30
0.0
 11
111.2886425850467
 21
182.8568231274656
 31
0.0
  0
LINE
  5
1D76
330
2
100
AcDbEntity
  8
0
100
AcDbLine
 10
81.82063797692331
 20
187.4349394674061
 30
0.0
 11
111.2953711703082
 21
190.0136444822785
 31
0.0
  0
LINE
  5
1D77
330
2
100
AcDbEntity
  8
0
100
AcDbLine
 10
81.73331609110642
 20
189.4349394674061
 30
0.0
 11
111.1210596848129
 21
192.006033878462
 31
0.0
  0
LINE
  5
1D78
330
2
100
AcDbEntity
  8
0
100
AcDbLine
 10
79.45128177250194
 20
199.020726619107
 30
0.0
 11
79.45128177250194
 21
205.1207266191071
 31
0.0
  0
LINE
  5
1D79
330
2
100
AcDbEntity
  8
0
100
AcDbLine
 10
89.21790242831026
 20
197.8740302983237
 30
0.0
 11
89.21790242831026
 21
206.2661020664253
 31
0.0
  0
ARC
  5
1D7A
330
2
100
AcDbEntity
  8
0
100
AcDbCircle
 10
81.34267165385677
 20
229.4349394674061
 30
0.0
 40
42.0
100
AcDbArc
 50
250.5608481874074
 51
270.0
  0
ARC
  5
1D7B
330
2
100
AcDbEntity
  8
0
100
AcDbCircle
 10
81.34267165385677
 20
229.4349394674061
 30
0.0
 40
44.0
100
AcDbArc
 50
250.5608481874074
 51
270.0
  0
ARC
  5
1D7C
330
2
100
AcDbEntity
  8
0
100
AcDbCircle
 10
81.34267165385677
 20
229.4349394674061
 30
0.0
 40
40.0
100
AcDbArc
 50
250.5608481874074
 51
270.0
  0
ARC
  5
1D7D
330
2
100
AcDbEntity
  8
0
100
AcDbCircle
 10
81.34267165385677
 20
229.4349394674061
 30
0.0
 40
46.0
100
AcDbArc
 50
250.5608481874074
 51
270.0
  0
LINE
  5
1D7E
330
2
100
AcDbEntity
  8
0
100
AcDbLine
 10
81.73331609110642
 20
183.4349394674061
 30
0.0
 11
81.34267165384722
 21
183.4349394674061
 31
0.0
  0
LINE
  5
1D7F
330
2
100
AcDbEntity
  8
0
100
AcDbLine
 10
81.73331609110642
 20
189.4349394674061
 30
0.0
 11
81.34267165385677
 21
189.4349394674061
 31
0.0
  0
LINE
  5
1D80
330
2
100
AcDbEntity
  8
0
100
AcDbLine
 10
86.42839734044242
 20
197.8869882720522
 30
0.0
 11
82.36131166841529
 21
198.820726619107
 31
0.0
  0
LINE
  5
1D81
330
2
100
AcDbEntity
  8
0
100
AcDbLine
 10
79.65128177250221
 20
198.820726619107
 30
0.0
 11
82.36131166841529
 21
198.820726619107
 31
0.0
  0
ARC
  5
1D82
330
2
100
AcDbEntity
  8
0
100
AcDbCircle
 10
79.65128177250221
 20
199.020726619107
 30
0.0
 40
0.2
100
AcDbArc
 50
180.0
 51
270.0
  0
ARC
  5
1D83
330
2
100
AcDbEntity
  8
0
100
AcDbCircle
 10
89.01790242830998
 20
197.8740302983237
 30
0.0
 40
0.2
100
AcDbArc
 50
260.0000000000013
 51
0.0
  0
LINE
  5
1D84
330
2
100
AcDbEntity
  8
0
100
AcDbLine
 10
86.84959048331553
 20
198.0532768744416
 30
0.0
 11
88.98317279277694
 21
197.6770687477212
 31
0.0
  0
ARC
  5
1D85
330
2
100
AcDbEntity
  8
0
100
AcDbCircle
 10
86.51790242831044
 20
198.2768457322165
 30
0.0
 40
0.4
100
AcDbArc
 50
257.0698677002805
 51
326.0187104207608
  0
LINE
  5
1D86
330
2
100
AcDbEntity
  8
0
100
AcDbLine
 10
87.43182778964296
 20
206.4324952732113
 30
0.0
 11
82.38633140569049
 21
205.320726619107
 31
0.0
  0
LINE
  5
1D87
330
2
100
AcDbEntity
  8
0
100
AcDbLine
 10
79.65128177250221
 20
205.3207266191071
 30
0.0
 11
82.38633140569049
 21
205.3207266191071
 31
0.0
  0
ARC
  5
1D88
330
2
100
AcDbEntity
  8
0
100
AcDbCircle
 10
79.65128177250221
 20
205.1207266191071
 30
0.0
 40
0.2
100
AcDbArc
 50
90.0
 51
180.0
  0
ARC
  5
1D89
330
2
100
AcDbEntity
  8
0
100
AcDbCircle
 10
89.01790242830998
 20
206.2661020664253
 30
0.0
 40
0.2
100
AcDbArc
 50
0.0
 51
99.99999999999861
  0
ARC
  5
1D8A
330
2
100
AcDbEntity
  8
0
100
AcDbCircle
 10
87.51790242831043
 20
206.0418660928133
 30
0.0
 40
0.4
100
AcDbArc
 50
33.63399402201315
 51
102.4264747477324
  0
LINE
  5
1D8B
330
2
100
AcDbEntity
  8
0
100
AcDbLine
 10
87.85093953339515
 20
206.2634203449431
 30
0.0
 11
88.98317279277694
 21
206.4630636170277
 31
0.0
  0
LINE
  5
1D8C
330
2
100
AcDbEntity
  8
0
100
AcDbLine
 10
115.5961694166615
 20
205.2700661823744
 30
0.0
 11
115.5961694166615
 21
203.8700661823744
 31
0.0
  0
LINE
  5
1D8D
330
2
100
AcDbEntity
  8
0
100
AcDbLine
 10
113.0961694166614
 20
205.4700661823743
 30
0.0
 11
113.0961694166614
 21
203.6700661823743
 31
0.0
  0
LINE
  5
1D8E
330
2
100
AcDbEntity
  8
0
100
AcDbLine
 10
116.5961694166614
 20
208.3200661823743
 30
0.0
 11
116.5961694166614
 21
195.8200661823743
 31
0.0
  0
LINE
  5
1D8F
330
2
100
AcDbEntity
  8
0
100
AcDbLine
 10
116.5961694166614
 20
208.3200661823743
 30
0.0
 11
116.5961694166614
 21
195.8200661823743
 31
0.0
  0
LINE
  5
1D90
330
2
100
AcDbEntity
  8
0
100
AcDbLine
 10
105.0961694166614
 20
208.3200661823743
 30
0.0
 11
105.0961694166614
 21
195.8200661823743
 31
0.0
  0
LINE
  5
1D91
330
2
100
AcDbEntity
  8
0
100
AcDbLine
 10
107.0961694166614
 20
208.3200661823743
 30
0.0
 11
107.0961694166614
 21
195.8200661823743
 31
0.0
  0
LINE
  5
1D92
330
2
100
AcDbEntity
  8
0
100
AcDbLine
 10
112.9961694166615
 20
203.0700661823743
 30
0.0
 11
109.6961694166614
 21
203.0700661823743
 31
0.0
  0
LINE
  5
1D93
330
2
100
AcDbEntity
  8
0
100
AcDbLine
 10
112.9961694166615
 20
203.5700661823743
 30
0.0
 11
109.6961694166614
 21
203.5700661823743
 31
0.0
  0
LINE
  5
1D94
330
2
100
AcDbEntity
  8
0
100
AcDbLine
 10
112.9961694166615
 20
200.5700661823743
 30
0.0
 11
109.6961694166614
 21
200.5700661823743
 31
0.0
  0
LINE
  5
1D95
330
2
100
AcDbEntity
  8
0
100
AcDbLine
 10
112.9961694166615
 20
201.0700661823743
 30
0.0
 11
109.6961694166614
 21
201.0700661823743
 31
0.0
  0
LINE
  5
1D96
330
2
100
AcDbEntity
  8
0
100
AcDbLine
 10
112.9961694166615
 20
196.0700661823743
 30
0.0
 11
109.6961694166614
 21
196.0700661823743
 31
0.0
  0
LINE
  5
1D97
330
2
100
AcDbEntity
  8
0
100
AcDbLine
 10
112.9961694166615
 20
198.0700661823743
 30
0.0
 11
109.6961694166614
 21
198.0700661823743
 31
0.0
  0
LINE
  5
1D98
330
2
100
AcDbEntity
  8
0
100
AcDbLine
 10
112.9961694166615
 20
198.5700661823743
 30
0.0
 11
109.6961694166614
 21
198.5700661823743
 31
0.0
  0
LINE
  5
1D99
330
2
100
AcDbEntity
  8
0
100
AcDbLine
 10
116.5961694166614
 20
195.8200661823743
 30
0.0
 11
105.0961694166614
 21
195.8200661823743
 31
0.0
  0
LINE
  5
1D9A
330
2
100
AcDbEntity
  8
0
100
AcDbLine
 10
105.0961694166614
 20
203.9700661823744
 30
0.0
 11
97.29356746095414
 21
203.9700661823743
 31
0.0
  0
LINE
  5
1D9B
330
2
100
AcDbEntity
  8
0
100
AcDbLine
 10
105.0961694166614
 20
196.4700661823744
 30
0.0
 11
98.72995186500771
 21
196.4700661823743
 31
0.0
  0
LINE
  5
1D9C
330
2
100
AcDbEntity
  8
0
100
AcDbLine
 10
105.0961694166614
 20
197.6700661823743
 30
0.0
 11
98.83493826123936
 21
197.6700661823742
 31
0.0
  0
LINE
  5
1D9D
330
2
100
AcDbEntity
  8
0
100
AcDbLine
 10
105.0961694166614
 20
198.9700661823743
 30
0.0
 11
97.24117432946719
 21
198.9700661823743
 31
0.0
  0
LINE
  5
1D9E
330
2
100
AcDbEntity
  8
0
100
AcDbLine
 10
105.0961694166614
 20
200.1700661823743
 30
0.0
 11
97.29356746095824
 21
200.1700661823742
 31
0.0
  0
ARC
  5
1D9F
330
2
100
AcDbEntity
  8
0
100
AcDbCircle
 10
98.83493826123936
 20
217.6700661823744
 30
0.0
 40
20.0
100
AcDbArc
 50
260.0000000000013
 51
270.0
  0
ARC
  5
1DA0
330
2
100
AcDbEntity
  8
0
100
AcDbCircle
 10
98.72995186500771
 20
216.4700661823744
 30
0.0
 40
20.0
100
AcDbArc
 50
260.0000000000013
 51
270.0
  0
ARC
  5
1DA1
330
2
100
AcDbEntity
  8
0
100
AcDbCircle
 10
97.2935674609546
 20
183.9700661823743
 30
0.0
 40
20.0
100
AcDbArc
 50
90.0
 51
94.99999999999975
  0
ARC
  5
1DA2
330
2
100
AcDbEntity
  8
0
100
AcDbCircle
 10
97.29356746095824
 20
220.1700661823742
 30
0.0
 40
20.0
100
AcDbArc
 50
265.0000000000003
 51
270.0
  0
ARC
  5
1DA3
330
2
100
AcDbEntity
  8
0
100
AcDbCircle
 10
97.24117432946719
 20
218.9700661823743
 30
0.0
 40
20.0
100
AcDbArc
 50
265.0000000000003
 51
270.0
  0
LINE
  5
1DA4
330
2
100
AcDbEntity
  8
0
100
AcDbLine
 10
109.5961694166615
 20
198.3200661823743
 30
0.0
 11
109.5961694166615
 21
198.1700661823744
 31
0.0
  0
LINE
  5
1DA5
330
2
100
AcDbEntity
  8
0
100
AcDbLine
 10
109.5961694166615
 20
195.9700661823743
 30
0.0
 11
109.5961694166615
 21
195.8200661823743
 31
0.0
  0
ARC
  5
1DA6
330
2
100
AcDbEntity
  8
0
100
AcDbCircle
 10
109.6961694166614
 20
195.9700661823743
 30
0.0
 40
0.1
100
AcDbArc
 50
90.0
 51
180.0
  0
ARC
  5
1DA7
330
2
100
AcDbEntity
  8
0
100
AcDbCircle
 10
109.6961694166614
 20
198.1700661823744
 30
0.0
 40
0.1
100
AcDbArc
 50
180.0
 51
270.0
  0
ARC
  5
1DA8
330
2
100
AcDbEntity
  8
0
100
AcDbCircle
 10
109.6961694166614
 20
203.1700661823744
 30
0.0
 40
0.1
100
AcDbArc
 50
180.0
 51
270.0
  0
ARC
  5
1DA9
330
2
100
AcDbEntity
  8
0
100
AcDbCircle
 10
109.6961694166614
 20
203.4700661823743
 30
0.0
 40
0.1
100
AcDbArc
 50
90.0
 51
180.0
  0
LINE
  5
1DAA
330
2
100
AcDbEntity
  8
0
100
AcDbLine
 10
109.5961694166615
 20
203.4700661823743
 30
0.0
 11
109.5961694166615
 21
203.1700661823744
 31
0.0
  0
ARC
  5
1DAB
330
2
100
AcDbEntity
  8
0
100
AcDbCircle
 10
109.6961694166614
 20
200.6700661823744
 30
0.0
 40
0.1
100
AcDbArc
 50
180.0
 51
270.0
  0
LINE
  5
1DAC
330
2
100
AcDbEntity
  8
0
100
AcDbLine
 10
109.5961694166615
 20
200.6700661823744
 30
0.0
 11
109.5961694166615
 21
200.9700661823743
 31
0.0
  0
ARC
  5
1DAD
330
2
100
AcDbEntity
  8
0
100
AcDbCircle
 10
109.6961694166614
 20
200.9700661823743
 30
0.0
 40
0.1
100
AcDbArc
 50
90.0
 51
180.0
  0
LINE
  5
1DAE
330
2
100
AcDbEntity
  8
0
100
AcDbLine
 10
109.5961694166615
 20
198.3200661823743
 30
0.0
 11
109.5961694166615
 21
198.4700661823743
 31
0.0
  0
ARC
  5
1DAF
330
2
100
AcDbEntity
  8
0
100
AcDbCircle
 10
109.6961694166614
 20
198.4700661823743
 30
0.0
 40
0.1
100
AcDbArc
 50
90.0
 51
180.0
  0
LINE
  5
1DB0
330
2
100
AcDbEntity
  8
0
100
AcDbLine
 10
116.128179898096
 20
192.1429541827727
 30
0.0
 11
111.1472064076372
 21
191.7071754690345
 31
0.0
  0
LINE
  5
1DB1
330
2
100
AcDbEntity
  8
0
100
AcDbLine
 10
111.1210596848129
 20
192.006033878462
 30
0.0
 11
111.2953711703082
 21
190.0136444822785
 31
0.0
  0
LINE
  5
1DB2
330
2
100
AcDbEntity
  8
0
100
AcDbLine
 10
111.2333160911064
 20
185.4349394674061
 30
0.0
 11
111.2333160911064
 21
187.4349394674061
 31
0.0
  0
LINE
  5
1DB3
330
2
100
AcDbEntity
  8
0
100
AcDbLine
 10
116.2196934279807
 20
181.7729291850357
 30
0.0
 11
111.2387199375223
 21
182.2087078987739
 31
0.0
  0
LINE
  5
1DB4
330
2
100
AcDbEntity
  8
0
100
AcDbLine
 10
116.2670797847788
 20
182.1201203591503
 30
0.0
 11
111.269224447484
 21
182.557376043106
 31
0.0
  0
LINE
  5
1DB5
330
2
100
AcDbEntity
  8
0
100
AcDbLine
 10
116.128179898096
 20
180.7269247520394
 30
0.0
 11
111.1472064076372
 21
181.1627034657776
 31
0.0
  0
LINE
  5
1DB6
330
2
100
AcDbEntity
  8
0
100
AcDbLine
 10
116.1586844080577
 20
181.0755928963715
 30
0.0
 11
111.1777109175989
 21
181.5113716101097
 31
0.0
  0
LINE
  5
1DB7
330
2
100
AcDbEntity
  8
0
100
AcDbLine
 10
116.1891889180189
 20
181.4242610407036
 30
0.0
 11
111.2082154275606
 21
181.8600397544419
 31
0.0
  0
LINE
  5
1DB8
330
2
100
AcDbEntity
  8
0
100
AcDbLine
 10
111.1143310995514
 20
180.8644337312821
 30
0.0
 11
111.2886425850467
 21
182.8568231274655
 31
0.0
  0
LINE
  5
1DB9
330
2
100
AcDbEntity
  8
0
100
AcDbLine
 10
116.2333160911064
 20
186.0849394674061
 30
0.0
 11
111.2333160911064
 21
186.0849394674061
 31
0.0
  0
LINE
  5
1DBA
330
2
100
AcDbEntity
  8
0
100
AcDbLine
 10
116.2333160911064
 20
185.734939467406
 30
0.0
 11
111.2333160911064
 21
185.734939467406
 31
0.0
  0
LINE
  5
1DBB
330
2
100
AcDbEntity
  8
0
100
AcDbLine
 10
116.2196934279807
 20
191.0969497497763
 30
0.0
 11
111.2387199375223
 21
190.6611710360381
 31
0.0
  0
LINE
  5
1DBC
330
2
100
AcDbEntity
  8
0
100
AcDbLine
 10
116.2670797847788
 20
190.7497585756618
 30
0.0
 11
111.269224447484
 21
190.312502891706
 31
0.0
  0
LINE
  5
1DBD
330
2
100
AcDbEntity
  8
0
100
AcDbLine
 10
116.2333160911064
 20
186.4349394674061
 30
0.0
 11
111.2333160911064
 21
186.4349394674061
 31
0.0
  0
LINE
  5
1DBE
330
2
100
AcDbEntity
  8
0
100
AcDbLine
 10
116.2333160911064
 20
186.784939467406
 30
0.0
 11
111.2333160911064
 21
186.784939467406
 31
0.0
  0
LINE
  5
1DBF
330
2
100
AcDbEntity
  8
0
100
AcDbLine
 10
116.2333160911064
 20
187.134939467406
 30
0.0
 11
111.2333160911064
 21
187.134939467406
 31
0.0
  0
LINE
  5
1DC0
330
2
100
AcDbEntity
  8
0
100
AcDbLine
 10
116.1891889180189
 20
191.4456178941085
 30
0.0
 11
111.2082154275606
 21
191.0098391803702
 31
0.0
  0
LINE
  5
1DC1
330
2
100
AcDbEntity
  8
0
100
AcDbLine
 10
116.1586844080577
 20
191.7942860384406
 30
0.0
 11
111.1777109175989
 21
191.3585073247023
 31
0.0
  0
LINE
  5
1DC2
330
2
100
AcDbEntity
  8
0
100
AcDbLine
 10
114.5961694166615
 20
198.3200661823743
 30
0.0
 11
114.5961694166615
 21
197.9700661823743
 31
0.0
  0
LINE
  5
1DC3
330
2
100
AcDbEntity
  8
0
100
AcDbLine
 10
113.0961694166614
 20
197.9700661823743
 30
0.0
 11
113.0961694166614
 21
196.1700661823743
 31
0.0
  0
ARC
  5
1DC4
330
2
100
AcDbEntity
  8
0
100
AcDbCircle
 10
112.9961694166615
 20
196.1700661823743
 30
0.0
 40
0.1
100
AcDbArc
 50
270.0
 51
0.0
  0
ARC
  5
1DC5
330
2
100
AcDbEntity
  8
0
100
AcDbCircle
 10
112.9961694166615
 20
197.9700661823743
 30
0.0
 40
0.1
100
AcDbArc
 50
0.0
 51
90.0
  0
LINE
  5
1DC6
330
2
100
AcDbEntity
  8
0
100
AcDbLine
 10
115.5961694166615
 20
197.7700661823744
 30
0.0
 11
115.5961694166615
 21
196.3700661823744
 31
0.0
  0
ARC
  5
1DC7
330
2
100
AcDbEntity
  8
0
100
AcDbCircle
 10
115.4961694166615
 20
196.3700661823744
 30
0.0
 40
0.1
100
AcDbArc
 50
270.0
 51
0.0
  0
ARC
  5
1DC8
330
2
100
AcDbEntity
  8
0
100
AcDbCircle
 10
114.6961694166614
 20
196.1700661823743
 30
0.0
 40
0.1
100
AcDbArc
 50
90.0
 51
180.0
  0
LINE
  5
1DC9
330
2
100
AcDbEntity
  8
0
100
AcDbLine
 10
114.5961694166615
 20
195.8200661823743
 30
0.0
 11
114.5961694166615
 21
196.1700661823743
 31
0.0
  0
LINE
  5
1DCA
330
2
100
AcDbEntity
  8
0
100
AcDbLine
 10
115.4961694166615
 20
196.2700661823744
 30
0.0
 11
114.6961694166614
 21
196.2700661823744
 31
0.0
  0
ARC
  5
1DCB
330
2
100
AcDbEntity
  8
0
100
AcDbCircle
 10
115.4961694166615
 20
197.7700661823744
 30
0.0
 40
0.1
100
AcDbArc
 50
0.0
 51
90.0
  0
ARC
  5
1DCC
330
2
100
AcDbEntity
  8
0
100
AcDbCircle
 10
114.6961694166614
 20
197.9700661823743
 30
0.0
 40
0.1
100
AcDbArc
 50
180.0
 51
270.0
  0
LINE
  5
1DCD
330
2
100
AcDbEntity
  8
0
100
AcDbLine
 10
115.4961694166615
 20
197.8700661823744
 30
0.0
 11
114.6961694166614
 21
197.8700661823744
 31
0.0
  0
LINE
  5
1DCE
330
2
100
AcDbEntity
  8
0
100
AcDbLine
 10
113.0961694166614
 20
201.1700661823744
 30
0.0
 11
113.0961694166614
 21
202.0700661823743
 31
0.0
  0
LINE
  5
1DCF
330
2
100
AcDbEntity
  8
0
100
AcDbLine
 10
113.0961694166614
 20
202.9700661823743
 30
0.0
 11
113.0961694166614
 21
202.0700661823743
 31
0.0
  0
ARC
  5
1DD0
330
2
100
AcDbEntity
  8
0
100
AcDbCircle
 10
112.9961694166615
 20
202.9700661823743
 30
0.0
 40
0.1
100
AcDbArc
 50
0.0
 51
90.0
  0
ARC
  5
1DD1
330
2
100
AcDbEntity
  8
0
100
AcDbCircle
 10
112.9961694166615
 20
203.6700661823743
 30
0.0
 40
0.1
100
AcDbArc
 50
270.0
 51
0.0
  0
ARC
  5
1DD2
330
2
100
AcDbEntity
  8
0
100
AcDbCircle
 10
112.9961694166615
 20
201.1700661823744
 30
0.0
 40
0.1
100
AcDbArc
 50
270.0
 51
0.0
  0
ARC
  5
1DD3
330
2
100
AcDbEntity
  8
0
100
AcDbCircle
 10
112.9961694166615
 20
198.6700661823743
 30
0.0
 40
0.1
100
AcDbArc
 50
270.0
 51
0.0
  0
LINE
  5
1DD4
330
2
100
AcDbEntity
  8
0
100
AcDbLine
 10
113.0961694166614
 20
198.6700661823743
 30
0.0
 11
113.0961694166614
 21
200.4700661823743
 31
0.0
  0
ARC
  5
1DD5
330
2
100
AcDbEntity
  8
0
100
AcDbCircle
 10
112.9961694166615
 20
200.4700661823743
 30
0.0
 40
0.1
100
AcDbArc
 50
0.0
 51
90.0
  0
LINE
  5
1DD6
330
2
100
AcDbEntity
  8
0
100
AcDbLine
 10
115.5961694166615
 20
202.0700661823743
 30
0.0
 11
115.5961694166615
 21
201.3700661823743
 31
0.0
  0
LINE
  5
1DD7
330
2
100
AcDbEntity
  8
0
100
AcDbLine
 10
115.5961694166615
 20
202.0700661823743
 30
0.0
 11
115.5961694166615
 21
202.7700661823744
 31
0.0
  0
ARC
  5
1DD8
330
2
100
AcDbEntity
  8
0
100
AcDbCircle
 10
115.4961694166615
 20
202.7700661823744
 30
0.0
 40
0.1
100
AcDbArc
 50
0.0
 51
90.0
  0
ARC
  5
1DD9
330
2
100
AcDbEntity
  8
0
100
AcDbCircle
 10
115.4961694166615
 20
203.8700661823744
 30
0.0
 40
0.1
100
AcDbArc
 50
270.0
 51
0.0
  0
ARC
  5
1DDA
330
2
100
AcDbEntity
  8
0
100
AcDbCircle
 10
114.6961694166614
 20
202.9700661823743
 30
0.0
 40
0.1
100
AcDbArc
 50
180.0
 51
270.0
  0
ARC
  5
1DDB
330
2
100
AcDbEntity
  8
0
100
AcDbCircle
 10
114.6961694166614
 20
203.6700661823743
 30
0.0
 40
0.1
100
AcDbArc
 50
90.0
 51
180.0
  0
LINE
  5
1DDC
330
2
100
AcDbEntity
  8
0
100
AcDbLine
 10
114.5961694166615
 20
203.3200661823743
 30
0.0
 11
114.5961694166615
 21
203.6700661823743
 31
0.0
  0
LINE
  5
1DDD
330
2
100
AcDbEntity
  8
0
100
AcDbLine
 10
114.5961694166615
 20
203.3200661823743
 30
0.0
 11
114.5961694166615
 21
202.9700661823743
 31
0.0
  0
LINE
  5
1DDE
330
2
100
AcDbEntity
  8
0
100
AcDbLine
 10
115.4961694166615
 20
203.7700661823744
 30
0.0
 11
114.6961694166614
 21
203.7700661823744
 31
0.0
  0
LINE
  5
1DDF
330
2
100
AcDbEntity
  8
0
100
AcDbLine
 10
115.4961694166615
 20
202.8700661823744
 30
0.0
 11
114.6961694166614
 21
202.8700661823744
 31
0.0
  0
LINE
  5
1DE0
330
2
100
AcDbEntity
  8
0
100
AcDbLine
 10
114.5961694166615
 20
200.8200661823743
 30
0.0
 11
114.5961694166615
 21
201.1700661823744
 31
0.0
  0
ARC
  5
1DE1
330
2
100
AcDbEntity
  8
0
100
AcDbCircle
 10
114.6961694166614
 20
201.1700661823744
 30
0.0
 40
0.1
100
AcDbArc
 50
90.0
 51
180.0
  0
LINE
  5
1DE2
330
2
100
AcDbEntity
  8
0
100
AcDbLine
 10
115.4961694166615
 20
201.2700661823744
 30
0.0
 11
114.6961694166614
 21
201.2700661823744
 31
0.0
  0
ARC
  5
1DE3
330
2
100
AcDbEntity
  8
0
100
AcDbCircle
 10
115.4961694166615
 20
201.3700661823743
 30
0.0
 40
0.1
100
AcDbArc
 50
270.0
 51
0.0
  0
ARC
  5
1DE4
330
2
100
AcDbEntity
  8
0
100
AcDbCircle
 10
115.4961694166615
 20
200.2700661823744
 30
0.0
 40
0.1
100
AcDbArc
 50
0.0
 51
90.0
  0
ARC
  5
1DE5
330
2
100
AcDbEntity
  8
0
100
AcDbCircle
 10
114.6961694166614
 20
200.4700661823743
 30
0.0
 40
0.1
100
AcDbArc
 50
180.0
 51
270.0
  0
LINE
  5
1DE6
330
2
100
AcDbEntity
  8
0
100
AcDbLine
 10
115.4961694166615
 20
200.3700661823744
 30
0.0
 11
114.6961694166614
 21
200.3700661823744
 31
0.0
  0
ARC
  5
1DE7
330
2
100
AcDbEntity
  8
0
100
AcDbCircle
 10
115.4961694166615
 20
198.8700661823743
 30
0.0
 40
0.1
100
AcDbArc
 50
270.0
 51
0.0
  0
ARC
  5
1DE8
330
2
100
AcDbEntity
  8
0
100
AcDbCircle
 10
114.6961694166614
 20
198.6700661823743
 30
0.0
 40
0.1
100
AcDbArc
 50
90.0
 51
180.0
  0
LINE
  5
1DE9
330
2
100
AcDbEntity
  8
0
100
AcDbLine
 10
114.5961694166615
 20
198.3200661823743
 30
0.0
 11
114.5961694166615
 21
198.6700661823743
 31
0.0
  0
LINE
  5
1DEA
330
2
100
AcDbEntity
  8
0
100
AcDbLine
 10
115.4961694166615
 20
198.7700661823744
 30
0.0
 11
114.6961694166614
 21
198.7700661823744
 31
0.0
  0
LINE
  5
1DEB
330
2
100
AcDbEntity
  8
0
100
AcDbLine
 10
115.5961694166615
 20
198.8700661823743
 30
0.0
 11
115.5961694166615
 21
200.2700661823744
 31
0.0
  0
LINE
  5
1DEC
330
2
100
AcDbEntity
  8
0
100
AcDbLine
 10
114.5961694166615
 20
200.8200661823743
 30
0.0
 11
114.5961694166615
 21
200.4700661823743
 31
0.0
  0
LINE
  5
1DED
330
2
100
AcDbEntity
  8
0
100
AcDbLine
 10
112.9961694166615
 20
208.0700661823743
 30
0.0
 11
109.6961694166614
 21
208.0700661823743
 31
0.0
  0
LINE
  5
1DEE
330
2
100
AcDbEntity
  8
0
100
AcDbLine
 10
112.9961694166615
 20
205.5700661823743
 30
0.0
 11
109.6961694166614
 21
205.5700661823743
 31
0.0
  0
LINE
  5
1DEF
330
2
100
AcDbEntity
  8
0
100
AcDbLine
 10
112.9961694166615
 20
206.0700661823744
 30
0.0
 11
109.6961694166614
 21
206.0700661823744
 31
0.0
  0
LINE
  5
1DF0
330
2
100
AcDbEntity
  8
0
100
AcDbLine
 10
116.5961694166614
 20
208.3200661823743
 30
0.0
 11
105.0961694166614
 21
208.3200661823743
 31
0.0
  0
LINE
  5
1DF1
330
2
100
AcDbEntity
  8
0
100
AcDbLine
 10
105.0961694166614
 20
205.1700661823744
 30
0.0
 11
97.241174329464
 21
205.1700661823742
 31
0.0
  0
LINE
  5
1DF2
330
2
100
AcDbEntity
  8
0
100
AcDbLine
 10
105.0961694166614
 20
206.4700661823743
 30
0.0
 11
98.834938261238
 21
206.4700661823743
 31
0.0
  0
LINE
  5
1DF3
330
2
100
AcDbEntity
  8
0
100
AcDbLine
 10
105.0961694166614
 20
207.6700661823744
 30
0.0
 11
98.72995186500725
 21
207.6700661823744
 31
0.0
  0
ARC
  5
1DF4
330
2
100
AcDbEntity
  8
0
100
AcDbCircle
 10
98.72995186500725
 20
187.6700661823744
 30
0.0
 40
20.0
100
AcDbArc
 50
90.0
 51
99.99999999999861
  0
ARC
  5
1DF5
330
2
100
AcDbEntity
  8
0
100
AcDbCircle
 10
98.83493826123846
 20
186.4700661823742
 30
0.0
 40
20.0
100
AcDbArc
 50
90.0
 51
99.99999999999861
  0
ARC
  5
1DF6
330
2
100
AcDbEntity
  8
0
100
AcDbCircle
 10
97.24117432946446
 20
185.1700661823742
 30
0.0
 40
20.0
100
AcDbArc
 50
90.0
 51
94.99999999999975
  0
ARC
  5
1DF7
330
2
100
AcDbEntity
  8
0
100
AcDbCircle
 10
109.6961694166614
 20
208.1700661823743
 30
0.0
 40
0.1
100
AcDbArc
 50
180.0
 51
270.0
  0
LINE
  5
1DF8
330
2
100
AcDbEntity
  8
0
100
AcDbLine
 10
109.5961694166615
 20
208.1700661823743
 30
0.0
 11
109.5961694166615
 21
208.3200661823743
 31
0.0
  0
LINE
  5
1DF9
330
2
100
AcDbEntity
  8
0
100
AcDbLine
 10
109.5961694166615
 20
205.8200661823743
 30
0.0
 11
109.5961694166615
 21
205.6700661823744
 31
0.0
  0
ARC
  5
1DFA
330
2
100
AcDbEntity
  8
0
100
AcDbCircle
 10
109.6961694166614
 20
205.9700661823743
 30
0.0
 40
0.1
100
AcDbArc
 50
90.0
 51
180.0
  0
LINE
  5
1DFB
330
2
100
AcDbEntity
  8
0
100
AcDbLine
 10
109.5961694166615
 20
205.8200661823743
 30
0.0
 11
109.5961694166615
 21
205.9700661823743
 31
0.0
  0
ARC
  5
1DFC
330
2
100
AcDbEntity
  8
0
100
AcDbCircle
 10
109.6961694166614
 20
205.6700661823744
 30
0.0
 40
0.1
100
AcDbArc
 50
180.0
 51
270.0
  0
ARC
  5
1DFD
330
2
100
AcDbEntity
  8
0
100
AcDbCircle
 10
112.9961694166615
 20
207.9700661823743
 30
0.0
 40
0.1
100
AcDbArc
 50
0.0
 51
90.0
  0
ARC
  5
1DFE
330
2
100
AcDbEntity
  8
0
100
AcDbCircle
 10
112.9961694166615
 20
206.1700661823743
 30
0.0
 40
0.1
100
AcDbArc
 50
270.0
 51
0.0
  0
ARC
  5
1DFF
330
2
100
AcDbEntity
  8
0
100
AcDbCircle
 10
112.9961694166615
 20
205.4700661823743
 30
0.0
 40
0.1
100
AcDbArc
 50
0.0
 51
90.0
  0
LINE
  5
1E00
330
2
100
AcDbEntity
  8
0
100
AcDbLine
 10
113.0961694166614
 20
206.1700661823743
 30
0.0
 11
113.0961694166614
 21
207.9700661823743
 31
0.0
  0
ARC
  5
1E01
330
2
100
AcDbEntity
  8
0
100
AcDbCircle
 10
115.4961694166615
 20
207.7700661823744
 30
0.0
 40
0.1
100
AcDbArc
 50
0.0
 51
90.0
  0
LINE
  5
1E02
330
2
100
AcDbEntity
  8
0
100
AcDbLine
 10
114.5961694166615
 20
208.3200661823743
 30
0.0
 11
114.5961694166615
 21
207.9700661823743
 31
0.0
  0
ARC
  5
1E03
330
2
100
AcDbEntity
  8
0
100
AcDbCircle
 10
114.6961694166614
 20
207.9700661823743
 30
0.0
 40
0.1
100
AcDbArc
 50
180.0
 51
270.0
  0
LINE
  5
1E04
330
2
100
AcDbEntity
  8
0
100
AcDbLine
 10
115.4961694166615
 20
207.8700661823744
 30
0.0
 11
114.6961694166614
 21
207.8700661823744
 31
0.0
  0
LINE
  5
1E05
330
2
100
AcDbEntity
  8
0
100
AcDbLine
 10
114.5961694166615
 20
205.8200661823743
 30
0.0
 11
114.5961694166615
 21
205.4700661823743
 31
0.0
  0
ARC
  5
1E06
330
2
100
AcDbEntity
  8
0
100
AcDbCircle
 10
115.4961694166615
 20
206.3700661823743
 30
0.0
 40
0.1
100
AcDbArc
 50
270.0
 51
0.0
  0
ARC
  5
1E07
330
2
100
AcDbEntity
  8
0
100
AcDbCircle
 10
114.6961694166614
 20
206.1700661823743
 30
0.0
 40
0.1
100
AcDbArc
 50
90.0
 51
180.0
  0
LINE
  5
1E08
330
2
100
AcDbEntity
  8
0
100
AcDbLine
 10
114.5961694166615
 20
205.8200661823743
 30
0.0
 11
114.5961694166615
 21
206.1700661823743
 31
0.0
  0
LINE
  5
1E09
330
2
100
AcDbEntity
  8
0
100
AcDbLine
 10
115.4961694166615
 20
206.2700661823744
 30
0.0
 11
114.6961694166614
 21
206.2700661823744
 31
0.0
  0
ARC
  5
1E0A
330
2
100
AcDbEntity
  8
0
100
AcDbCircle
 10
115.4961694166615
 20
205.2700661823744
 30
0.0
 40
0.1
100
AcDbArc
 50
0.0
 51
90.0
  0
LINE
  5
1E0B
330
2
100
AcDbEntity
  8
0
100
AcDbLine
 10
115.4961694166615
 20
205.3700661823744
 30
0.0
 11
114.6961694166614
 21
205.3700661823744
 31
0.0
  0
ARC
  5
1E0C
330
2
100
AcDbEntity
  8
0
100
AcDbCircle
 10
114.6961694166614
 20
205.4700661823743
 30
0.0
 40
0.1
100
AcDbArc
 50
180.0
 51
270.0
  0
LINE
  5
1E0D
330
2
100
AcDbEntity
  8
0
100
AcDbLine
 10
115.5961694166615
 20
206.3700661823743
 30
0.0
 11
115.5961694166615
 21
207.7700661823744
 31
0.0
  0
LINE
  5
1E0E
330
2
100
AcDbEntity
  8
0
100
AcDbLine
 10
41.53695287465365
 20
318.9494942384154
 30
0.0
 11
41.53695287465353
 21
356.4494942384154
 31
0.0
  0
LINE
  5
1E0F
330
2
100
AcDbEntity
  8
0
100
AcDbLine
 10
31.53693287465358
 20
322.4756768358078
 30
0.0
 11
31.53693287465358
 21
330.4494942384154
 31
0.0
  0
LINE
  5
1E10
330
2
100
AcDbEntity
  8
0
100
AcDbLine
 10
27.53693287465358
 20
329.4494942384155
 30
0.0
 11
27.53693287465358
 21
293.4494942384154
 31
0.0
  0
LINE
  5
1E11
330
2
100
AcDbEntity
  8
0
100
AcDbLine
 10
33.03693287465859
 20
300.4494942384154
 30
0.0
 11
28.53693287465858
 21
300.3709464462384
 31
0.0
  0
ARC
  5
1E12
330
2
100
AcDbEntity
  8
0
100
AcDbCircle
 10
31.23693287465863
 20
308.6494942384153
 30
0.0
 40
2.0
100
AcDbArc
 50
89.99999999997395
 51
204.6092450239451
  0
ARC
  5
1E13
330
2
100
AcDbEntity
  8
0
100
AcDbCircle
 10
31.23693287465863
 20
308.6494942384153
 30
0.0
 40
1.0
100
AcDbArc
 50
90.0
 51
270.0
  0
ARC
  5
1E14
330
2
100
AcDbEntity
  8
0
100
AcDbCircle
 10
33.03693287465859
 20
306.9494942384153
 30
0.0
 40
3.25
100
AcDbArc
 50
176.1778378686729
 51
249.4781325999764
  0
LINE
  5
1E15
330
2
100
AcDbEntity
  8
0
100
AcDbLine
 10
33.03693287465859
 20
322.4494942384154
 30
0.0
 11
28.53693287465858
 21
322.5280420305923
 31
0.0
  0
LINE
  5
1E17
330
2
100
AcDbEntity
  8
0
100
AcDbLine
 10
31.53693287465358
 20
292.4494942384154
 30
0.0
 11
28.53693287465381
 21
292.4494942384154
 31
0.0
  0
LINE
  5
1E19
330
2
100
AcDbEntity
  8
0
100
AcDbLine
 10
30.03695687465352
 20
291.2493902384154
 30
0.0
 11
31.03695687465352
 21
291.2493902384154
 31
0.0
  0
LINE
  5
1E1A
330
2
100
AcDbEntity
  8
0
100
AcDbLine
 10
31.03695687465352
 20
283.6493922384154
 30
0.0
 11
30.03695687465352
 21
283.6493922384154
 31
0.0
  0
LINE
  5
1E1B
330
2
100
AcDbEntity
  8
CENTER
100
AcDbLine
 10
23.87435087465342
 20
287.4495022384154
 30
0.0
 11
35.6793518746536
 21
287.4495022384154
 31
0.0
  0
ARC
  5
1E1C
330
2
100
AcDbEntity
  8
0
100
AcDbCircle
 10
33.43695687465339
 20
287.4495022384154
 30
0.0
 40
6.5
100
AcDbArc
 50
146.9443049999971
 51
213.0556950000028
  0
LINE
  5
1E1D
330
2
100
AcDbEntity
  8
0
100
AcDbLine
 10
30.03695687465352
 20
291.4495022384154
 30
0.0
 11
30.03695687465352
 21
283.4495022384154
 31
0.0
  0
LINE
  5
1E1E
330
2
100
AcDbEntity
  8
0
100
AcDbLine
 10
30.03695687465352
 20
283.4495022384154
 30
0.0
 11
28.82715587465332
 21
283.4495022384154
 31
0.0
  0
ARC
  5
1E1F
330
2
100
AcDbEntity
  8
0
100
AcDbCircle
 10
28.82715587465332
 20
284.4495022384154
 30
0.0
 40
1.0
100
AcDbArc
 50
213.0556950000028
 51
270.0
  0
ARC
  5
1E20
330
2
100
AcDbEntity
  8
0
100
AcDbCircle
 10
28.53693287465358
 20
293.4494942384154
 30
0.0
 40
1.0
100
AcDbArc
 50
180.0
 51
270.0
  0
LINE
  5
1E21
330
2
100
AcDbEntity
  8
0
100
AcDbLine
 10
30.03695687465352
 20
291.4495022384154
 30
0.0
 11
28.82715587465332
 21
291.4495022384154
 31
0.0
  0
ARC
  5
1E22
330
2
100
AcDbEntity
  8
0
100
AcDbCircle
 10
28.82715587465332
 20
290.4495022384154
 30
0.0
 40
1.0
100
AcDbArc
 50
90.0
 51
146.9443049999971
  0
LINE
  5
1E23
330
2
100
AcDbEntity
  8
0
100
AcDbLine
 10
28.5369568746533
 20
291.4064685598704
 30
0.0
 11
28.53695687465352
 21
292.4494942387034
 31
0.0
  0
LINE
  5
1E24
330
2
100
AcDbEntity
  8
0
100
AcDbLine
 10
29.41859501913274
 20
307.8166392431359
 30
0.0
 11
29.79416165868434
 21
307.1661387418047
 31
0.0
  0
LINE
  5
1E25
330
2
100
AcDbEntity
  8
0
100
AcDbLine
 10
33.03693287465859
 20
303.5494942384153
 30
0.0
 11
33.03693287465859
 21
300.4494942384154
 31
0.0
  0
ARC
  5
1E26
330
2
100
AcDbEntity
  8
0
100
AcDbCircle
 10
37.53693287465859
 20
301.607247245427
 30
0.0
 40
1.0
100
AcDbArc
 50
272.0000000000036
 51
0.0
  0
LINE
  5
1E27
330
2
100
AcDbEntity
  8
0
100
AcDbLine
 10
31.03695687465352
 20
283.4495022384154
 30
0.0
 11
31.03695687465352
 21
292.4494942384154
 31
0.0
  0
LINE
  5
1E28
330
2
100
AcDbEntity
  8
0
100
AcDbLine
 10
31.03695687465352
 20
283.4495022384154
 30
0.0
 11
31.03695687465352
 21
292.4494942384154
 31
0.0
  0
LINE
  5
1E29
330
2
100
AcDbEntity
  8
0
100
AcDbLine
 10
32.03695687465352
 20
282.4495022384154
 30
0.0
 11
41.53695287465353
 21
282.4495022384154
 31
0.0
  0
ARC
  5
1E2A
330
2
100
AcDbEntity
  8
0
100
AcDbCircle
 10
32.03695687465352
 20
283.4495022384154
 30
0.0
 40
1.0
100
AcDbArc
 50
180.0
 51
270.0
  0
LINE
  5
1E2B
330
2
100
AcDbEntity
  8
0
100
AcDbLine
 10
31.53693287465358
 20
300.4233116410231
 30
0.0
 11
31.53693287465358
 21
292.4494942384154
 31
0.0
  0
LINE
  5
1E2C
330
2
100
AcDbEntity
  8
0
100
AcDbLine
 10
33.03693287465859
 20
300.4494942384154
 30
0.0
 11
37.57183237136138
 21
300.6078564184079
 31
0.0
  0
SPLINE
  5
1E2D
330
2
100
AcDbEntity
  8
HOJO
100
AcDbSpline
210
0.0
220
0.0
230
1.0
 70
     8
 71
     3
 72
    12
 73
     8
 74
     6
 42
0.0000000001
 43
0.0000000001
 44
0.0000000001
 40
0.0
 40
0.0
 40
0.0
 40
0.0
 40
1.684659730310349
 40
2.786160565551575
 40
4.550934817628674
 40
5.718899366607204
 40
6.335570522767257
 40
6.335570522767257
 40
6.335570522767257
 40
6.335570522767257
 10
44.16231231389594
 20
312.9494942384152
 30
0.0
 10
43.88540070562222
 20
313.5004540520987
 30
0.0
 10
43.42743273189167
 20
314.4116543844091
 30
0.0
 10
44.31005734982929
 20
315.7486556164315
 30
0.0
 10
44.87213518767662
 20
317.0744750829014
 30
0.0
 10
44.37472569619834
 20
318.2086682915105
 30
0.0
 10
44.15904816667377
 20
318.7592453366387
 30
0.0
 10
44.08452197003504
 20
318.9494942384154
 30
0.0
 11
44.16231231389594
 21
312.9494942384152
 31
0.0
 11
43.69657043001422
 21
314.5684948265953
 31
0.0
 11
44.15830026638064
 21
315.5685496492157
 31
0.0
 11
44.65850784166929
 21
317.2609504712487
 31
0.0
 11
44.31221021183643
 21
318.3763961845144
 31
0.0
 11
44.08452197003504
 21
318.9494942384154
 31
0.0
  0
LINE
  5
1E2E
330
2
100
AcDbEntity
  8
0
100
AcDbLine
 10
31.23693287465863
 20
307.6494942384154
 30
0.0
 11
42.05988888585176
 21
307.6494942384154
 31
0.0
  0
LINE
  5
1E2F
330
2
100
AcDbEntity
  8
0
100
AcDbLine
 10
31.23693287465863
 20
309.6494942384154
 30
0.0
 11
41.96562929239195
 21
309.6494942384154
 31
0.0
  0
LINE
  5
1E30
330
2
100
AcDbEntity
  8
0
100
AcDbLine
 10
33.03693287465859
 20
306.5494942384153
 30
0.0
 11
43.76562929239191
 21
306.5494942384153
 31
0.0
  0
LINE
  5
1E31
330
2
100
AcDbEntity
  8
0
100
AcDbLine
 10
33.03693287465859
 20
304.5494942384153
 30
0.0
 11
43.85988888585171
 21
304.5494942384153
 31
0.0
  0
LINE
  5
1E32
330
2
100
AcDbEntity
  8
0
100
AcDbLine
 10
33.03693287465859
 20
312.9494942384154
 30
0.0
 11
44.16231231389594
 21
312.9494942384152
 31
0.0
  0
ARC
  5
1E33
330
2
100
AcDbEntity
  8
0
100
AcDbCircle
 10
33.03693287465859
 20
306.9494942384153
 30
0.0
 40
3.25
100
AcDbArc
 50
352.930285957695
 51
3.822162131327067
  0
ARC
  5
1E34
330
2
100
AcDbEntity
  8
0
100
AcDbCircle
 10
33.03693287465859
 20
306.9494942384153
 30
0.0
 40
3.25
100
AcDbArc
 50
290.5218674000235
 51
312.3994733644442
  0
ARC
  5
1E35
330
2
100
AcDbEntity
  8
0
100
AcDbCircle
 10
33.03693287465859
 20
305.5494942384153
 30
0.0
 40
1.0
100
AcDbArc
 50
90.0
 51
270.0
  0
ARC
  5
1E36
330
2
100
AcDbEntity
  8
0
100
AcDbCircle
 10
33.03693287465859
 20
305.5494942384153
 30
0.0
 40
2.0
100
AcDbArc
 50
235.272931295419
 51
304.7270687045809
  0
LINE
  5
1E37
330
2
100
AcDbEntity
  8
0
100
AcDbLine
 10
31.23693287465954
 20
310.6494942384153
 30
0.0
 11
34.83693287465763
 21
310.6494942384153
 31
0.0
  0
LINE
  5
1E38
330
2
100
AcDbEntity
  8
0
100
AcDbLine
 10
33.03693287465859
 20
312.9494942384154
 30
0.0
 11
33.03693287465859
 21
310.6494942384155
 31
0.0
  0
ARC
  5
1E39
330
2
100
AcDbEntity
  8
0
100
AcDbCircle
 10
34.83693287465854
 20
308.6494942384153
 30
0.0
 40
2.0
100
AcDbArc
 50
30.00000000000054
 51
90.00000000002605
  0
LINE
  5
1E3A
330
2
100
AcDbEntity
  8
0
100
AcDbLine
 10
36.55876951671513
 20
307.6494942384154
 30
0.0
 11
36.27970409063283
 21
307.1661387418047
 31
0.0
  0
LINE
  5
1E3B
330
2
100
AcDbEntity
  8
0
100
AcDbLine
 10
36.55876951671513
 20
307.6494942384154
 30
0.0
 11
36.27970409063283
 21
307.1661387418047
 31
0.0
  0
LINE
  5
1E3C
330
2
100
AcDbEntity
  8
0
100
AcDbLine
 10
41.53695287465353
 20
306.5494942384153
 30
0.0
 11
41.53695287465353
 21
307.6494942384154
 31
0.0
  0
LINE
  5
1E3D
330
2
100
AcDbEntity
  8
0
100
AcDbLine
 10
38.53693287465858
 20
307.6494942384152
 30
0.0
 11
38.5369328746587
 21
306.5494942384153
 31
0.0
  0
LINE
  5
1E3E
330
2
100
AcDbEntity
  8
0
100
AcDbLine
 10
38.5369328746587
 20
304.5494942384152
 30
0.0
 11
38.53693287465858
 21
301.6072472454272
 31
0.0
  0
SPLINE
  5
1E3F
330
2
100
AcDbEntity
  8
HOJO
100
AcDbSpline
210
0.0
220
0.0
230
1.0
 70
     8
 71
     3
 72
    10
 73
     6
 74
     4
 42
0.0000000001
 43
0.0000000001
 44
0.0000000001
 40
0.0
 40
0.0
 40
0.0
 40
0.0
 40
0.697190763405494
 40
1.694952319108353
 40
2.335350738679082
 40
2.335350738679082
 40
2.335350738679082
 40
2.335350738679082
 10
43.85988888585171
 20
304.5494942384153
 30
0.0
 10
44.0271030279599
 20
304.770479250539
 30
0.0
 10
44.43362017194729
 20
305.3077196708763
 30
0.0
 10
43.25731106116408
 20
305.8181667165492
 30
0.0
 10
43.62276431572339
 20
306.3439515627256
 30
0.0
 10
43.76562929239191
 20
306.5494942384153
 30
0.0
 11
43.85988888585171
 21
304.5494942384153
 31
0.0
 11
44.14830133498099
 21
305.1842329403748
 31
0.0
 11
43.51898346748822
 21
305.9584984915218
 31
0.0
 11
43.76562929239191
 21
306.5494942384153
 31
0.0
  0
SPLINE
  5
1E40
330
2
100
AcDbEntity
  8
HOJO
100
AcDbSpline
210
0.0
220
0.0
230
1.0
 70
     8
 71
     3
 72
    10
 73
     6
 74
     4
 42
0.0000000001
 43
0.0000000001
 44
0.0000000001
 40
0.0
 40
0.0
 40
0.0
 40
0.0
 40
0.697190763405494
 40
1.694952319108353
 40
2.335350738679082
 40
2.335350738679082
 40
2.335350738679082
 40
2.335350738679082
 10
42.05988888585176
 20
307.6494942384154
 30
0.0
 10
42.22710302795994
 20
307.870479250539
 30
0.0
 10
42.63362017194734
 20
308.4077196708763
 30
0.0
 10
41.45731106116412
 20
308.9181667165493
 30
0.0
 10
41.82276431572343
 20
309.4439515627255
 30
0.0
 10
41.96562929239195
 20
309.6494942384154
 30
0.0
 11
42.05988888585176
 21
307.6494942384154
 31
0.0
 11
42.34830133498104
 21
308.2842329403748
 31
0.0
 11
41.71898346748827
 21
309.0584984915218
 31
0.0
 11
41.96562929239195
 21
309.6494942384154
 31
0.0
  0
LINE
  5
1E41
330
2
100
AcDbEntity
  8
0
100
AcDbLine
 10
38.53693287465779
 20
312.9494942384153
 30
0.0
 11
38.5369328746587
 21
309.6494942384154
 31
0.0
  0
LINE
  5
1E43
330
2
100
AcDbEntity
  8
0
100
AcDbLine
 10
41.53695287465388
 20
309.6494942384153
 30
0.0
 11
41.53695287465376
 21
312.9494942384153
 31
0.0
  0
ARC
  5
1E44
330
2
100
AcDbEntity
  8
0
100
AcDbCircle
 10
37.53693287465859
 20
321.2917501169923
 30
0.0
 40
1.0
100
AcDbArc
 50
0.0
 51
87.99999999999633
  0
LINE
  5
1E45
330
2
100
AcDbEntity
  8
0
100
AcDbLine
 10
33.03693287465859
 20
318.9494942384154
 30
0.0
 11
44.08452197003504
 21
318.9494942384154
 31
0.0
  0
LINE
  5
1E46
330
2
100
AcDbEntity
  8
0
100
AcDbLine
 10
33.03693287465859
 20
322.4494942384154
 30
0.0
 11
33.03693287465859
 21
318.9494942384154
 31
0.0
  0
LINE
  5
1E47
330
2
100
AcDbEntity
  8
0
100
AcDbLine
 10
33.03744161959144
 20
322.4494853582395
 30
0.0
 11
37.57183237136115
 21
322.2911409440115
 31
0.0
  0
LINE
  5
1E48
330
2
100
AcDbEntity
  8
0
100
AcDbLine
 10
38.53693287465858
 20
321.2917501169923
 30
0.0
 11
38.53693287465882
 21
318.9494942384154
 31
0.0
  0
LINE
  5
1E49
330
2
100
AcDbEntity
  8
0
100
AcDbLine
 10
31.53693287465358
 20
330.4494942384154
 30
0.0
 11
28.53693287465358
 21
330.4494942384154
 31
0.0
  0
ARC
  5
1E4A
330
2
100
AcDbEntity
  8
0
100
AcDbCircle
 10
31.53695687465375
 20
353.4494942384154
 30
0.0
 40
3.0
100
AcDbArc
 50
90.0
 51
180.0
  0
LINE
  5
1E4B
330
2
100
AcDbEntity
  8
0
100
AcDbLine
 10
31.03695687465352
 20
339.2495962384155
 30
0.0
 11
30.03695687465352
 21
339.2495962384155
 31
0.0
  0
LINE
  5
1E4C
330
2
100
AcDbEntity
  8
0
100
AcDbLine
 10
30.03695687465352
 20
331.6495982384154
 30
0.0
 11
31.03695687465352
 21
331.6495982384154
 31
0.0
  0
LINE
  5
1E4D
330
2
100
AcDbEntity
  8
CENTER
100
AcDbLine
 10
23.87435087465342
 20
335.4495092384154
 30
0.0
 11
35.6793518746536
 21
335.4495092384154
 31
0.0
  0
LINE
  5
1E4E
330
2
100
AcDbEntity
  8
0
100
AcDbLine
 10
28.5369568746533
 20
339.4495092384154
 30
0.0
 11
28.53695687465352
 21
353.4494942384154
 31
0.0
  0
ARC
  5
1E4F
330
2
100
AcDbEntity
  8
0
100
AcDbCircle
 10
33.43695687465339
 20
335.4494862384155
 30
0.0
 40
6.5
100
AcDbArc
 50
146.9443049999971
 51
213.0556950000028
  0
LINE
  5
1E50
330
2
100
AcDbEntity
  8
0
100
AcDbLine
 10
30.03695687465352
 20
331.4494862384155
 30
0.0
 11
30.03695687465352
 21
339.4494862384155
 31
0.0
  0
ARC
  5
1E51
330
2
100
AcDbEntity
  8
0
100
AcDbCircle
 10
28.53693287465358
 20
329.4494942384154
 30
0.0
 40
1.0
100
AcDbArc
 50
90.0
 51
180.0
  0
LINE
  5
1E52
330
2
100
AcDbEntity
  8
0
100
AcDbLine
 10
30.03695687465352
 20
331.4494862384155
 30
0.0
 11
28.82715587465332
 21
331.4494862384155
 31
0.0
  0
LINE
  5
1E53
330
2
100
AcDbEntity
  8
0
100
AcDbLine
 10
28.5369568746533
 20
330.4494942381275
 30
0.0
 11
28.53695687465352
 21
331.4495092384154
 31
0.0
  0
ARC
  5
1E54
330
2
100
AcDbEntity
  8
0
100
AcDbCircle
 10
28.82715587465332
 20
332.4494862384154
 30
0.0
 40
1.0
100
AcDbArc
 50
213.0556950000028
 51
270.0
  0
LINE
  5
1E55
330
2
100
AcDbEntity
  8
0
100
AcDbLine
 10
30.03695687465352
 20
339.4494862384155
 30
0.0
 11
28.82715587465332
 21
339.4494862384155
 31
0.0
  0
ARC
  5
1E56
330
2
100
AcDbEntity
  8
0
100
AcDbCircle
 10
28.82715587465332
 20
338.4494862384154
 30
0.0
 40
1.0
100
AcDbArc
 50
90.0
 51
146.9443049999971
  0
LINE
  5
1E57
330
2
100
AcDbEntity
  8
0
100
AcDbLine
 10
31.03695687465375
 20
339.4495092384154
 30
0.0
 11
31.03695687465352
 21
330.4494942384154
 31
0.0
  0
LINE
  5
1E58
330
2
100
AcDbEntity
  8
0
100
AcDbLine
 10
32.03695687465352
 20
340.4495092384154
 30
0.0
 11
41.53695287465353
 21
340.4495092384154
 31
0.0
  0
ARC
  5
1E59
330
2
100
AcDbEntity
  8
0
100
AcDbCircle
 10
32.03695687465352
 20
339.4495092384154
 30
0.0
 40
1.0
100
AcDbArc
 50
90.0
 51
180.0
  0
LINE
  5
1E5A
330
2
100
AcDbEntity
  8
0
100
AcDbLine
 10
31.53695687465353
 20
356.4494942384154
 30
0.0
 11
41.53695287465353
 21
356.4494942384154
 31
0.0
  0
ARC
  5
1E9B
330
2
100
AcDbEntity
  8
0
100
AcDbCircle
 10
33.03693287465859
 20
315.9494942384154
 30
0.0
 40
3.0
100
AcDbArc
 50
90.0
 51
269.9999999999987
  0
ENDSEC
  0
SECTION
  2
OBJECTS
  0
DICTIONARY
  5
7
330
0
100
AcDbDictionary
  3
ACAD_GROUP
350
75
  3
ACAD_LAYOUT
350
61
  3
ACAD_MLINESTYLE
350
76
  3
ACAD_PLOTSETTINGS
350
77
  3
ACAD_PLOTSTYLENAME
350
6
  3
ACADDIM
350
480
  3
ACDBHEADERROUNDTRIPXREC
350
2889
  3
ACDBVARIABLEDICTIONARY
350
102
  3
DWGPROPS
350
3D2
  0
DICTIONARY
  5
28AA
330
2
100
AcDbDictionary
280
     1
  3
ACAD_LAYOUTSELFREF
360
28AB
  0
DICTIONARY
  5
28AC
330
2883
100
AcDbDictionary
280
     1
  3
ACAD_LAYOUTSELFREF
360
28AD
  0
DICTIONARY
  5
75
102
{ACAD_REACTORS
330
7
102
}
330
7
100
AcDbDictionary
  0
DICTIONARY
  5
61
102
{ACAD_REACTORS
330
7
102
}
330
7
100
AcDbDictionary
  0
DICTIONARY
  5
76
102
{ACAD_REACTORS
330
7
102
}
330
7
100
AcDbDictionary
  3
STANDARD
350
78
  0
DICTIONARY
  5
77
102
{ACAD_REACTORS
330
7
102
}
330
7
100
AcDbDictionary
  0
ACDBDICTIONARYWDFLT
  5
6
102
{ACAD_REACTORS
330
7
102
}
330
7
100
AcDbDictionary
281
     1
  3
Normal
350
5
100
AcDbDictionaryWithDefault
340
5
  0
XRECORD
  5
480
102
{ACAD_REACTORS
330
7
102
}
330
7
100
AcDbXrecord
 90
   990106
  3

 60
     0
 61
     0
 62
     1
 63
     3
 64
     1
 65
     0
 66
     0
 67
     3
 68
     1
 69
     0
 70
     0
 71
     0
 72
     0
 40
0.0
170
     2
340
0
  0
DICTIONARY
  5
2889
102
{ACAD_REACTORS
330
7
102
}
330
7
100
AcDbDictionary
  3
CEPSNTYPE
350
2893
  3
DIMSTYLEDATA
350
2897
  3
FINGERPRINTGUID
350
2894
  3
HYPERLINKBASE
350
288C
  3
INSUNITS
350
2892
  3
LAYOUTDICT
350
288E
  3
LWETCUNION
350
2891
  3
PLOTSETDICT
350
288F
  3
PLOTSTYLNAMDICT
350
2890
  3
PSVPSCALE
350
2896
  3
PUCSBASE
350
289A
  3
PUCSORGBACK
350
28A0
  3
PUCSORGBOTTOM
350
289C
  3
PUCSORGFRONT
350
289F
  3
PUCSORGLEFT
350
289D
  3
PUCSORGRIGHT
350
289E
  3
PUCSORGTOP
350
289B
  3
PUCSORTHOREF
350
2898
  3
PUCSORTHOVIEW
350
2899
  3
STYLESHEET
350
288D
  3
TSTACKALIGN
350
288A
  3
TSTACKSIZE
350
288B
  3
UCSBASE
350
28A3
  3
UCSORGBACK
350
28A9
  3
UCSORGBOTTOM
350
28A5
  3
UCSORGFRONT
350
28A8
  3
UCSORGLEFT
350
28A6
  3
UCSORGRIGHT
350
28A7
  3
UCSORGTOP
350
28A4
  3
UCSORTHOREF
350
28A1
  3
UCSORTHOVIEW
350
28A2
  3
VERSIONGUID
350
2895
  0
DICTIONARY
  5
102
102
{ACAD_REACTORS
330
7
102
}
330
7
100
AcDbDictionary
  3
DIMASSOC
350
103
  0
XRECORD
  5
3D2
102
{ACAD_REACTORS
330
7
102
}
330
7
100
AcDbXrecord
  1
DWGPROPS COOKIE
  2

  3

  4

  6

  7

  8

  9

300
=
301
=
302
=
303
=
304
=
305
=
306
=
307
=
308
=
309
=
 40
0.5353330671296296
 41
2452052.431989363
 42
2453406.550756377
  1

 90
        0
  0
XRECORD
  5
28AB
102
{ACAD_REACTORS
330
28AA
102
}
330
28AA
100
AcDbXrecord
340
2
  0
XRECORD
  5
28AD
102
{ACAD_REACTORS
330
28AC
102
}
330
28AC
100
AcDbXrecord
340
2883
  0
MLINESTYLE
  5
78
102
{ACAD_REACTORS
330
76
102
}
330
76
100
AcDbMlineStyle
  2
STANDARD
 70
     0
  3

 62
     0
 51
90.0
 52
90.0
 71
     2
 49
0.5
 62
   256
  6
BYLAYER
 49
-0.5
 62
   256
  6
BYLAYER
  0
ACDBPLACEHOLDER
  5
5
102
{ACAD_REACTORS
330
6
102
}
330
6
100
AcDbPlaceHolder
280
     0
  0
XRECORD
  5
2893
102
{ACAD_REACTORS
330
2889
102
}
330
2889
100
AcDbXrecord
 90
        0
  0
XRECORD
  5
2897
102
{ACAD_REACTORS
330
2889
102
}
330
2889
100
AcDbXrecord
1000
DSTYLE
1002
{
1070
   179
 70
     2
1070
   277
 70
     6
1002
}
  0
XRECORD
  5
2894
102
{ACAD_REACTORS
330
2889
102
}
330
2889
100
AcDbXrecord
  1
{6385560B-F4B1-4644-A7C2-A3E32AC3D232}
  0
XRECORD
  5
288C
102
{ACAD_REACTORS
330
2889
102
}
330
2889
100
AcDbXrecord
  1

  0
XRECORD
  5
2892
102
{ACAD_REACTORS
330
2889
102
}
330
2889
100
AcDbXrecord
 90
        0
  0
XRECORD
  5
288E
102
{ACAD_REACTORS
330
2889
102
}
330
2889
100
AcDbXrecord
340
61
  0
XRECORD
  5
2891
102
{ACAD_REACTORS
330
2889
102
}
330
2889
100
AcDbXrecord
 90
    10781
  0
XRECORD
  5
288F
102
{ACAD_REACTORS
330
2889
102
}
330
2889
100
AcDbXrecord
340
77
  0
XRECORD
  5
2890
102
{ACAD_REACTORS
330
2889
102
}
330
2889
100
AcDbXrecord
340
6
  0
XRECORD
  5
2896
102
{ACAD_REACTORS
330
2889
102
}
330
2889
100
AcDbXrecord
 40
0.0
  0
XRECORD
  5
289A
102
{ACAD_REACTORS
330
2889
102
}
330
2889
100
AcDbXrecord
340
0
  0
XRECORD
  5
28A0
102
{ACAD_REACTORS
330
2889
102
}
330
2889
100
AcDbXrecord
 10
0.0
 20
0.0
 30
0.0
  0
XRECORD
  5
289C
102
{ACAD_REACTORS
330
2889
102
}
330
2889
100
AcDbXrecord
 10
0.0
 20
0.0
 30
0.0
  0
XRECORD
  5
289F
102
{ACAD_REACTORS
330
2889
102
}
330
2889
100
AcDbXrecord
 10
0.0
 20
0.0
 30
0.0
  0
XRECORD
  5
289D
102
{ACAD_REACTORS
330
2889
102
}
330
2889
100
AcDbXrecord
 10
0.0
 20
0.0
 30
0.0
  0
XRECORD
  5
289E
102
{ACAD_REACTORS
330
2889
102
}
330
2889
100
AcDbXrecord
 10
0.0
 20
0.0
 30
0.0
  0
XRECORD
  5
289B
102
{ACAD_REACTORS
330
2889
102
}
330
2889
100
AcDbXrecord
 10
0.0
 20
0.0
 30
0.0
  0
XRECORD
  5
2898
102
{ACAD_REACTORS
330
2889
102
}
330
2889
100
AcDbXrecord
340
0
  0
XRECORD
  5
2899
102
{ACAD_REACTORS
330
2889
102
}
330
2889
100
AcDbXrecord
 70
     0
  0
XRECORD
  5
288D
102
{ACAD_REACTORS
330
2889
102
}
330
2889
100
AcDbXrecord
  1
Sekkei.ctb
  0
XRECORD
  5
288A
102
{ACAD_REACTORS
330
2889
102
}
330
2889
100
AcDbXrecord
 90
        1
  0
XRECORD
  5
288B
102
{ACAD_REACTORS
330
2889
102
}
330
2889
100
AcDbXrecord
 90
       70
  0
XRECORD
  5
28A3
102
{ACAD_REACTORS
330
2889
102
}
330
2889
100
AcDbXrecord
340
0
  0
XRECORD
  5
28A9
102
{ACAD_REACTORS
330
2889
102
}
330
2889
100
AcDbXrecord
 10
0.0
 20
0.0
 30
0.0
  0
XRECORD
  5
28A5
102
{ACAD_REACTORS
330
2889
102
}
330
2889
100
AcDbXrecord
 10
0.0
 20
0.0
 30
0.0
  0
XRECORD
  5
28A8
102
{ACAD_REACTORS
330
2889
102
}
330
2889
100
AcDbXrecord
 10
0.0
 20
0.0
 30
0.0
  0
XRECORD
  5
28A6
102
{ACAD_REACTORS
330
2889
102
}
330
2889
100
AcDbXrecord
 10
0.0
 20
0.0
 30
0.0
  0
XRECORD
  5
28A7
102
{ACAD_REACTORS
330
2889
102
}
330
2889
100
AcDbXrecord
 10
0.0
 20
0.0
 30
0.0
  0
XRECORD
  5
28A4
102
{ACAD_REACTORS
330
2889
102
}
330
2889
100
AcDbXrecord
 10
0.0
 20
0.0
 30
0.0
  0
XRECORD
  5
28A1
102
{ACAD_REACTORS
330
2889
102
}
330
2889
100
AcDbXrecord
340
0
  0
XRECORD
  5
28A2
102
{ACAD_REACTORS
330
2889
102
}
330
2889
100
AcDbXrecord
 70
     0
  0
XRECORD
  5
2895
102
{ACAD_REACTORS
330
2889
102
}
330
2889
100
AcDbXrecord
  1
{28C91851-2D6A-4145-9CC2-D9CB6B127B7E}
  0
DICTIONARYVAR
  5
103
102
{ACAD_REACTORS
330
102
102
}
330
102
100
DictionaryVariables
280
     0
  1
1
  0
ENDSEC
  0
EOF
