  0
SECTION
  2
HEADER
  9
$ACADVER
  1
AC1014
  9
$ACADMAINTVER
 70
     9
  9
$DWGCODEPAGE
  3
ANSI_932
  9
$INSBASE
 10
0.0
 20
0.0
 30
0.0
  9
$EXTMIN
 10
31.47065597189271
 20
17.8422723644453
 30
0.0
  9
$EXTMAX
 10
506.0070754432872
 20
490.3470408869424
 30
0.0
  9
$LIMMIN
 10
-132.6472506848988
 20
-92.64482430914666
  9
$LIMMAX
 10
688.017063033341
 20
377.9886555871767
  9
$ORTHOMODE
 70
     0
  9
$REGENMODE
 70
     1
  9
$FILLMODE
 70
     1
  9
$QTEXTMODE
 70
     0
  9
$MIRRTEXT
 70
     0
  9
$DRAGMODE
 70
     2
  9
$LTSCALE
 40
3.0
  9
$OSMODE
 70
    37
  9
$ATTMODE
 70
     1
  9
$TEXTSIZE
 40
9.0
  9
$TRACEWID
 40
1.0
  9
$TEXTSTYLE
  7
STANDARD
  9
$CLAYER
  8
0
  9
$CELTYPE
  6
BYLAYER
  9
$CECOLOR
 62
   256
  9
$CELTSCALE
 40
1.0
  9
$DELOBJ
 70
     1
  9
$DISPSILH
 70
     0
  9
$DIMSCALE
 40
3.0
  9
$DIMASZ
 40
1.8
  9
$DIMEXO
 40
0.625
  9
$DIMDLI
 40
3.75
  9
$DIMRND
 40
0.0
  9
$DIMDLE
 40
0.0
  9
$DIMEXE
 40
0.8
  9
$DIMTP
 40
0.0
  9
$DIMTM
 40
0.0
  9
$DIMTXT
 40
1.8
  9
$DIMCEN
 40
2.5
  9
$DIMTSZ
 40
0.0
  9
$DIMTOL
 70
     0
  9
$DIMLIM
 70
     0
  9
$DIMTIH
 70
     0
  9
$DIMTOH
 70
     0
  9
$DIMSE1
 70
     0
  9
$DIMSE2
 70
     0
  9
$DIMTAD
 70
     1
  9
$DIMZIN
 70
     8
  9
$DIMBLK
  1

  9
$DIMASO
 70
     1
  9
$DIMSHO
 70
     1
  9
$DIMPOST
  1

  9
$DIMAPOST
  1

  9
$DIMALT
 70
     0
  9
$DIMALTD
 70
     4
  9
$DIMALTF
 40
0.0394
  9
$DIMLFAC
 40
1.0
  9
$DIMTOFL
 70
     1
  9
$DIMTVP
 40
0.0
  9
$DIMTIX
 70
     0
  9
$DIMSOXD
 70
     0
  9
$DIMSAH
 70
     0
  9
$DIMBLK1
  1

  9
$DIMBLK2
  1

  9
$DIMSTYLE
  2
STANDARD
  9
$DIMCLRD
 70
     0
  9
$DIMCLRE
 70
     0
  9
$DIMCLRT
 70
     0
  9
$DIMTFAC
 40
1.0
  9
$DIMGAP
 40
0.75
  9
$DIMJUST
 70
     0
  9
$DIMSD1
 70
     0
  9
$DIMSD2
 70
     0
  9
$DIMTOLJ
 70
     1
  9
$DIMTZIN
 70
     0
  9
$DIMALTZ
 70
     0
  9
$DIMALTTZ
 70
     0
  9
$DIMFIT
 70
     3
  9
$DIMUPT
 70
     0
  9
$DIMUNIT
 70
     8
  9
$DIMDEC
 70
     2
  9
$DIMTDEC
 70
     2
  9
$DIMALTU
 70
     8
  9
$DIMALTTD
 70
     4
  9
$DIMTXSTY
  7
STANDARD
  9
$DIMAUNIT
 70
     0
  9
$LUNITS
 70
     2
  9
$LUPREC
 70
     3
  9
$SKETCHINC
 40
1.0
  9
$FILLETRAD
 40
10.0
  9
$AUNITS
 70
     0
  9
$AUPREC
 70
     2
  9
$MENU
  1
.
  9
$ELEVATION
 40
0.0
  9
$PELEVATION
 40
0.0
  9
$THICKNESS
 40
0.0
  9
$LIMCHECK
 70
     0
  9
$BLIPMODE
 70
     0
  9
$CHAMFERA
 40
0.0
  9
$CHAMFERB
 40
0.0
  9
$CHAMFERC
 40
20.0
  9
$CHAMFERD
 40
0.0
  9
$SKPOLY
 70
     0
  9
$TDCREATE
 40
2453692.585557361
  9
$TDUPDATE
 40
2454501.562699109
  9
$TDINDWG
 40
0.0781589815
  9
$TDUSRTIMER
 40
0.0781586227
  9
$USRTIMER
 70
     1
  9
$ANGBASE
 50
0.0
  9
$ANGDIR
 70
     0
  9
$PDMODE
 70
     0
  9
$PDSIZE
 40
-10.0
  9
$PLINEWID
 40
0.0
  9
$COORDS
 70
     0
  9
$SPLFRAME
 70
     0
  9
$SPLINETYPE
 70
     6
  9
$SPLINESEGS
 70
     8
  9
$ATTDIA
 70
     0
  9
$ATTREQ
 70
     1
  9
$HANDLING
 70
-16383
  9
$HANDSEED
  5
23C1
  9
$SURFTAB1
 70
     6
  9
$SURFTAB2
 70
     6
  9
$SURFTYPE
 70
     6
  9
$SURFU
 70
     6
  9
$SURFV
 70
     6
  9
$UCSNAME
  2

  9
$UCSORG
 10
0.0
 20
0.0
 30
0.0
  9
$UCSXDIR
 10
1.0
 20
0.0
 30
0.0
  9
$UCSYDIR
 10
0.0
 20
1.0
 30
0.0
  9
$PUCSNAME
  2

  9
$PUCSORG
 10
0.0
 20
0.0
 30
0.0
  9
$PUCSXDIR
 10
1.0
 20
0.0
 30
0.0
  9
$PUCSYDIR
 10
0.0
 20
1.0
 30
0.0
  9
$USERI1
 70
     0
  9
$USERI2
 70
     0
  9
$USERI3
 70
     0
  9
$USERI4
 70
     0
  9
$USERI5
 70
     0
  9
$USERR1
 40
0.0
  9
$USERR2
 40
0.0
  9
$USERR3
 40
0.0
  9
$USERR4
 40
0.0
  9
$USERR5
 40
0.0
  9
$WORLDVIEW
 70
     1
  9
$SHADEDGE
 70
     3
  9
$SHADEDIF
 70
    70
  9
$TILEMODE
 70
     1
  9
$MAXACTVP
 70
    48
  9
$PINSBASE
 10
0.0
 20
0.0
 30
0.0
  9
$PLIMCHECK
 70
     0
  9
$PEXTMIN
 10
0.0
 20
0.0
 30
0.0
  9
$PEXTMAX
 10
0.0
 20
0.0
 30
0.0
  9
$PLIMMIN
 10
0.0
 20
0.0
  9
$PLIMMAX
 10
12.0
 20
9.0
  9
$UNITMODE
 70
     0
  9
$VISRETAIN
 70
     1
  9
$PLINEGEN
 70
     0
  9
$PSLTSCALE
 70
     1
  9
$TREEDEPTH
 70
  3020
  9
$PICKSTYLE
 70
     1
  9
$CMLSTYLE
  2
STANDARD
  9
$CMLJUST
 70
     0
  9
$CMLSCALE
 40
1.0
  9
$PROXYGRAPHICS
 70
     1
  9
$MEASUREMENT
 70
     0
  0
ENDSEC
  0
SECTION
  2
CLASSES
  0
CLASS
  1
DICTIONARYVAR
  2
AcDbDictionaryVar
  3
AutoCAD 2000
 90
        0
280
     0
281
     0
  0
CLASS
  1
ACDBDICTIONARYWDFLT
  2
AcDbDictionaryWithDefault
  3
AutoCAD 2000
 90
        0
280
     0
281
     0
  0
CLASS
  1
ACDBPLACEHOLDER
  2
AcDbPlaceHolder
  3
AutoCAD 2000
 90
        0
280
     0
281
     0
  0
CLASS
  1
LAYOUT
  2
AcDbLayout
  3
AutoCAD 2000
 90
        0
280
     0
281
     0
  0
CLASS
  1
MATERIAL
  2
AcDbMaterial
  3
ObjectDBX Classes
 90
     1153
280
     0
281
     0
  0
CLASS
  1
VISUALSTYLE
  2
AcDbVisualStyle
  3
ObjectDBX Classes
 90
     4095
280
     0
281
     0
  0
CLASS
  1
TABLESTYLE
  2
AcDbTableStyle
  3
ObjectDBX Classes
 90
     4095
280
     0
281
     0
  0
CLASS
  1
SCALE
  2
AcDbScale
  3
ObjectDBX Classes
 90
     1153
280
     0
281
     0
  0
CLASS
  1
MLEADERSTYLE
  2
AcDbMLeaderStyle
  3
ACDB_MLEADERSTYLE_CLASS
 90
     4095
280
     0
281
     0
  0
CLASS
  1
SORTENTSTABLE
  2
AcDbSortentsTable
  3
AutoCAD 2000
 90
        0
280
     0
281
     0
  0
CLASS
  1
CELLSTYLEMAP
  2
AcDbCellStyleMap
  3
ObjectDBX Classes
 90
     1152
280
     0
281
     0
  0
CLASS
  1
ACAD_PROXY_OBJECT_WRAPPER
  2
AcDbProxyObjectWrapper
  3
AutoCAD 2000
 90
        0
280
     0
281
     0
  0
CLASS
  1
LONG_TRANSACTION
  2
AcDbLongTransaction
  3
AutoCAD 2000
 90
        0
280
     0
281
     0
  0
CLASS
  1
LWPOLYLINE
  2
AcDbPolyline
  3
AutoCAD 2000
 90
        0
280
     0
281
     1
  0
CLASS
  1
HATCH
  2
AcDbHatch
  3
AutoCAD 2000
 90
        0
280
     0
281
     1
  0
CLASS
  1
XRECORD
  2
AcDbXrecord
  3
AutoCAD 2000
 90
        0
280
     0
281
     0
  0
ENDSEC
  0
SECTION
  2
TABLES
  0
TABLE
  2
VPORT
  5
6E
102
{ACAD_XDICTIONARY
360
2323
102
}
330
0
100
AcDbSymbolTable
 70
     2
  0
VPORT
  5
239B
330
6E
100
AcDbSymbolTableRecord
100
AcDbViewportTableRecord
  2
*ACTIVE
 70
     0
 10
0.0
 20
0.0
 11
1.0
 21
1.0
 12
300.788601367441
 22
253.1374234509212
 13
0.0
 23
0.0
 14
10.0
 24
10.0
 15
18.0
 25
18.0
 16
0.0
 26
0.0
 36
1.0
 17
0.0
 27
0.0
 37
0.0
 40
473.816756353217
 41
1.763038548752834
 42
50.0
 43
0.0
 44
0.0
 50
0.0
 51
0.0
 71
     0
 72
   100
 73
     1
 74
     3
 75
     0
 76
     0
 77
     0
 78
     0
  0
ENDTAB
  0
TABLE
  2
LTYPE
  5
69
330
0
100
AcDbSymbolTable
 70
     4
  0
LTYPE
  5
6A
330
69
100
AcDbSymbolTableRecord
100
AcDbLinetypeTableRecord
  2
BYBLOCK
 70
     0
  3

 72
    65
 73
     0
 40
0.0
  0
LTYPE
  5
6B
330
69
100
AcDbSymbolTableRecord
100
AcDbLinetypeTableRecord
  2
BYLAYER
 70
     0
  3

 72
    65
 73
     0
 40
0.0
  0
LTYPE
  5
8
330
69
100
AcDbSymbolTableRecord
100
AcDbLinetypeTableRecord
  2
CONTINUOUS
 70
     0
  3
Solid line
 72
    65
 73
     0
 40
0.0
  0
LTYPE
  5
27C
330
69
100
AcDbSymbolTableRecord
100
AcDbLinetypeTableRecord
  2
SEKKEI_A2_
 70
     0
  3
center(A2)  ____ _ ____ _ ____ _ ____ _ ____ _ 
 72
    65
 73
     4
 40
14.28749999999999
 49
9.525
 74
     0
 49
-1.587499999999999
 74
     0
 49
1.587499999999999
 74
     0
 49
-1.587499999999999
 74
     0
  0
LTYPE
  5
2B4
330
69
100
AcDbSymbolTableRecord
100
AcDbLinetypeTableRecord
  2
HIDDEN2
 70
     0
  3
Hidden (.5x) _ _ _ _ _ _ _ _ _ _ _ _ _ _ _ _ _
 72
    65
 73
     2
 40
4.762499999999999
 49
3.174999999999999
 74
     0
 49
-1.587499999999999
 74
     0
  0
LTYPE
  5
48F
330
69
100
AcDbSymbolTableRecord
100
AcDbLinetypeTableRecord
  2
SEKKEI_H
 70
     0
  3
Hidden-S _ _ _ _ _ _ _ _ _ _ _ _ _ _ _ _ _
 72
    65
 73
     2
 40
2.381249999999999
 49
1.587499999999999
 74
     0
 49
-0.79375
 74
     0
  0
ENDTAB
  0
TABLE
  2
LAYER
  5
66
102
{ACAD_XDICTIONARY
360
2066
102
}
330
0
100
AcDbSymbolTable
 70
     9
  0
LAYER
  5
5E
102
{ACAD_XDICTIONARY
360
2308
102
}
330
66
100
AcDbSymbolTableRecord
100
AcDbLayerTableRecord
  2
0
 70
     0
 62
     7
  6
CONTINUOUS
  0
LAYER
  5
3E
102
{ACAD_XDICTIONARY
360
230A
102
}
330
66
100
AcDbSymbolTableRecord
100
AcDbLayerTableRecord
  2
CENTER
 70
     0
 62
     3
  6
SEKKEI_A2_
  0
LAYER
  5
2B5
102
{ACAD_XDICTIONARY
360
2310
102
}
330
66
100
AcDbSymbolTableRecord
100
AcDbLayerTableRecord
  2
HIDS
 70
     0
 62
     1
  6
HIDDEN2
  0
LAYER
  5
2BA
102
{ACAD_XDICTIONARY
360
2312
102
}
330
66
100
AcDbSymbolTableRecord
100
AcDbLayerTableRecord
  2
HOJO
 70
     0
 62
     4
  6
CONTINUOUS
  0
LAYER
  5
3FA
102
{ACAD_XDICTIONARY
360
2316
102
}
330
66
100
AcDbSymbolTableRecord
100
AcDbLayerTableRecord
  2
TITLE
 70
     0
 62
     4
  6
CONTINUOUS
  0
ENDTAB
  0
TABLE
  2
STYLE
  5
67
330
0
100
AcDbSymbolTable
 70
     1
  0
STYLE
  5
16
330
67
100
AcDbSymbolTableRecord
100
AcDbTextStyleTableRecord
  2
STANDARD
 70
     0
 40
0.0
 41
1.0
 50
0.0
 71
     0
 42
9.0
  3
simplex.shx
  4
extfont.shx
  0
ENDTAB
  0
TABLE
  2
VIEW
  5
6C
330
0
100
AcDbSymbolTable
 70
     0
  0
ENDTAB
  0
TABLE
  2
UCS
  5
6D
330
0
100
AcDbSymbolTable
 70
     0
  0
ENDTAB
  0
TABLE
  2
APPID
  5
70
330
0
100
AcDbSymbolTable
 70
     2
  0
APPID
  5
71
330
70
100
AcDbSymbolTableRecord
100
AcDbRegAppTableRecord
  2
ACAD
 70
     0
  0
APPID
  5
2063
330
70
100
AcDbSymbolTableRecord
100
AcDbRegAppTableRecord
  2
ACAD_MLEADERVER
 70
     0
  0
ENDTAB
  0
TABLE
  2
DIMSTYLE
  5
72
330
0
100
AcDbSymbolTable
 70
     1
  0
DIMSTYLE
105
73
330
72
100
AcDbSymbolTableRecord
100
AcDbDimStyleTableRecord
  2
STANDARD
 70
     0
  3

  4

  5

  6

  7

 40
3.0
 41
1.8
 42
0.625
 43
3.75
 44
0.8
 45
0.0
 46
0.0
 47
0.0
 48
0.0
140
1.8
141
2.5
142
0.0
143
0.0394
144
1.0
145
0.0
146
1.0
147
0.75
 71
     0
 72
     0
 73
     0
 74
     0
 75
     0
 76
     0
 77
     1
 78
     8
170
     0
171
     4
172
     1
173
     0
174
     0
175
     0
176
     0
177
     0
178
     0
270
     8
271
     2
272
     2
273
     8
274
     4
340
16
275
     0
280
     0
281
     0
282
     0
283
     1
284
     0
285
     0
286
     0
287
     3
288
     0
  0
ENDTAB
  0
TABLE
  2
BLOCK_RECORD
  5
1
330
0
100
AcDbSymbolTable
 70
    39
  0
BLOCK_RECORD
  5
2
102
{ACAD_XDICTIONARY
360
23BD
102
}
330
1
100
AcDbSymbolTableRecord
100
AcDbBlockTableRecord
  2
*MODEL_SPACE
  0
BLOCK_RECORD
  5
2396
102
{ACAD_XDICTIONARY
360
23BF
102
}
330
1
100
AcDbSymbolTableRecord
100
AcDbBlockTableRecord
  2
*PAPER_SPACE
  0
ENDTAB
  0
ENDSEC
  0
SECTION
  2
BLOCKS
  0
BLOCK
  5
5D
330
2
100
AcDbEntity
  8
0
100
AcDbBlockBegin
  2
*MODEL_SPACE
 70
     0
 10
0.0
 20
0.0
 30
0.0
  3
*MODEL_SPACE
  1

  0
ENDBLK
  5
5F
330
2
100
AcDbEntity
  8
0
100
AcDbBlockEnd
  0
BLOCK
  5
2398
330
2396
100
AcDbEntity
 67
     1
  8
0
100
AcDbBlockBegin
  2
*PAPER_SPACE
 70
     0
 10
0.0
 20
0.0
 30
0.0
  3
*PAPER_SPACE
  1

  0
ENDBLK
  5
2399
330
2396
100
AcDbEntity
 67
     1
  8
0
100
AcDbBlockEnd
  0
ENDSEC
  0
SECTION
  2
ENTITIES
  0
LINE
  5
6A0
330
2
100
AcDbEntity
  8
0
100
AcDbLine
 10
116.7606990060189
 20
229.0181474609046
 30
0.0
 11
126.003520006019
 21
228.8568694609046
 31
0.0
  0
LINE
  5
6A9
330
2
100
AcDbEntity
  8
0
100
AcDbLine
 10
117.840655006019
 20
124.5214274609046
 30
0.0
 11
126.090655006019
 21
124.5214274609046
 31
0.0
  0
LINE
  5
6AA
330
2
100
AcDbEntity
  8
CENTER
100
AcDbLine
 10
31.47065597189271
 20
161.0183074609046
 30
0.0
 11
146.7606990060189
 21
161.0183074609046
 31
0.0
  0
LINE
  5
6AB
330
2
100
AcDbEntity
  8
0
100
AcDbLine
 10
117.840655006019
 20
107.7014094609046
 30
0.0
 11
126.090655006019
 21
107.7014094609046
 31
0.0
  0
LINE
  5
6AC
330
2
100
AcDbEntity
  8
0
100
AcDbLine
 10
105.0594960060191
 20
102.0182464609047
 30
0.0
 11
123.804057006019
 21
102.3454294609047
 31
0.0
  0
LINE
  5
6AD
330
2
100
AcDbEntity
  8
0
100
AcDbLine
 10
101.2606950060189
 20
90.01824646090467
 30
0.0
 11
191.2606910060189
 21
90.01824646090467
 31
0.0
  0
ARC
  5
6AE
330
2
100
AcDbEntity
  8
0
100
AcDbCircle
 10
-111.239308993981
 20
102.8026664609046
 30
0.0
 40
240.0
100
AcDbArc
 50
1.10746399999805
 51
18.19492899999975
  0
LINE
  5
6B1
330
2
100
AcDbEntity
  8
0
100
AcDbLine
 10
110.7606990060189
 20
102.1177684609047
 30
0.0
 11
110.7606990060189
 21
227.0183454609047
 31
0.0
  0
LINE
  5
6B2
330
2
100
AcDbEntity
  8
0
100
AcDbLine
 10
103.2606950060189
 20
218.5183074609046
 30
0.0
 11
103.2606950060189
 21
103.5183074609046
 31
0.0
  0
LINE
  5
6B3
330
2
100
AcDbEntity
  8
0
100
AcDbLine
 10
116.7606990060189
 20
229.0181474609046
 30
0.0
 11
116.7606990060189
 21
102.2224894609046
 31
0.0
  0
LINE
  5
6BC
330
2
100
AcDbEntity
  8
CENTER
100
AcDbLine
 10
113.7606990060189
 20
104.7661259498481
 30
0.0
 11
113.7606990060189
 21
87.51824646090472
 31
0.0
  0
ARC
  5
6BE
330
2
100
AcDbEntity
  8
0
100
AcDbCircle
 10
105.0594960060191
 20
99.01824646090473
 30
0.0
 40
3.0
100
AcDbArc
 50
90.0
 51
175.000503999998
  0
LINE
  5
6BF
330
2
100
AcDbEntity
  8
0
100
AcDbLine
 10
102.0709180060191
 20
99.27968646090471
 30
0.0
 11
101.2606950060189
 21
90.01824646090467
 31
0.0
  0
LINE
  5
6C1
330
2
100
AcDbEntity
  8
HIDS
  6
SEKKEI_H
100
AcDbLine
 10
108.2606990060189
 20
102.0741274609046
 30
0.0
 11
108.2606990060189
 21
90.01824646090467
 31
0.0
  0
ARC
  5
6C2
330
2
100
AcDbEntity
  8
0
100
AcDbCircle
 10
107.760714006019
 20
100.5182884609046
 30
0.0
 40
3.0
100
AcDbArc
 50
32.03855900000005
 51
90.0
  0
LINE
  5
6C3
330
2
100
AcDbEntity
  8
0
100
AcDbLine
 10
103.2606950060189
 20
103.5183074609046
 30
0.0
 11
107.760714006019
 21
103.5183074609046
 31
0.0
  0
LINE
  5
6C4
330
2
100
AcDbEntity
  8
0
100
AcDbLine
 10
116.1356990060189
 20
107.7014094609046
 30
0.0
 11
111.6356990060189
 21
107.7014094609046
 31
0.0
  0
LINE
  5
6CC
330
2
100
AcDbEntity
  8
0
100
AcDbLine
 10
116.1356990060189
 20
124.5214274609046
 30
0.0
 11
111.6356990060189
 21
124.5214274609046
 31
0.0
  0
ARC
  5
6F1
330
2
100
AcDbEntity
  8
0
100
AcDbCircle
 10
112.7606990060189
 20
227.0183454609047
 30
0.0
 40
2.0
100
AcDbArc
 50
90.0
 51
180.0
  0
ARC
  5
701
330
2
100
AcDbEntity
  8
0
100
AcDbCircle
 10
107.7606990060189
 20
221.5183074609047
 30
0.0
 40
3.0
100
AcDbArc
 50
270.0
 51
0.0
  0
LINE
  5
702
330
2
100
AcDbEntity
  8
0
100
AcDbLine
 10
103.2606950060189
 20
218.5183074609046
 30
0.0
 11
107.7606760060191
 21
218.5183074609046
 31
0.0
  0
LINE
  5
705
330
2
100
AcDbEntity
  8
0
100
AcDbLine
 10
112.7606990060189
 20
229.0183074609046
 30
0.0
 11
116.7606990060189
 21
229.0181474609046
 31
0.0
  0
ARC
  5
741
330
2
100
AcDbEntity
  8
0
100
AcDbCircle
 10
400.5714674432872
 20
193.8201264609047
 30
0.0
 40
24.5
100
AcDbArc
 50
110.7676009999999
 51
152.6867069999992
  0
ARC
  5
742
330
2
100
AcDbEntity
  8
0
100
AcDbCircle
 10
398.7074534432872
 20
193.0866054609047
 30
0.0
 40
30.0
100
AcDbArc
 50
112.2020030000003
 51
159.6000060000005
  0
LINE
  5
743
330
2
100
AcDbEntity
  8
0
100
AcDbLine
 10
380.1344554432871
 20
105.3081064609046
 30
0.0
 11
385.5252634432872
 21
120.1184084609046
 31
0.0
  0
LINE
  5
744
330
2
100
AcDbEntity
  8
0
100
AcDbLine
 10
351.8678544432873
 20
90.01830746090467
 30
0.0
 11
394.937251443287
 21
90.01830746090467
 31
0.0
  0
LINE
  5
745
330
2
100
AcDbEntity
  8
0
100
AcDbLine
 10
390.6716564432872
 20
102.0183074609046
 30
0.0
 11
375.436457443287
 21
102.0183074609046
 31
0.0
  0
ARC
  5
746
330
2
100
AcDbEntity
  8
0
100
AcDbCircle
 10
492.9374644432873
 20
180.0183074609046
 30
0.0
 40
125.0
100
AcDbArc
 50
190.0164030000004
 51
208.9069060000007
  0
ARC
  5
747
330
2
100
AcDbEntity
  8
0
100
AcDbCircle
 10
453.4374644432871
 20
166.5183074609046
 30
0.0
 40
84.0
100
AcDbArc
 50
152.6869050000003
 51
185.6307069999993
  0
LINE
  5
748
330
2
100
AcDbEntity
  8
0
100
AcDbLine
 10
364.0892594432871
 20
177.7420624609046
 30
0.0
 11
351.8678544432873
 21
90.01830746090467
 31
0.0
  0
LINE
  5
749
330
2
100
AcDbEntity
  8
0
100
AcDbLine
 10
191.760691006019
 20
202.5183074609046
 30
0.0
 11
191.760691006019
 21
157.5183054609046
 31
0.0
  0
ARC
  5
74A
330
2
100
AcDbEntity
  8
0
100
AcDbCircle
 10
285.7606760060191
 20
154.0183074609046
 30
0.0
 40
130.0
100
AcDbArc
 50
147.7115939999997
 51
180.0
  0
ARC
  5
74B
330
2
100
AcDbEntity
  8
0
100
AcDbCircle
 10
-510.239750993981
 20
161.0183074609046
 30
0.0
 40
700.0
100
AcDbArc
 50
356.6426089999987
 51
3.603821000000682
  0
ARC
  5
74C
330
2
100
AcDbEntity
  8
0
100
AcDbCircle
 10
171.5879010060191
 20
121.0183684609046
 30
0.0
 40
17.0
100
AcDbArc
 50
313.6499940000001
 51
356.6427920000005
  0
LINE
  5
74D
330
2
100
AcDbEntity
  8
0
100
AcDbLine
 10
167.405696006019
 20
102.3682674609046
 30
0.0
 11
187.461894006019
 21
102.0182464609047
 31
0.0
  0
ARC
  5
74E
330
2
100
AcDbEntity
  8
0
100
AcDbCircle
 10
261.063883006019
 20
127.6280064609046
 30
0.0
 40
80.0
100
AcDbArc
 50
184.0191040000008
 51
197.075302
  0
ARC
  5
74F
330
2
100
AcDbEntity
  8
0
100
AcDbCircle
 10
325.7606760060191
 20
154.0183074609046
 30
0.0
 40
170.0
100
AcDbArc
 50
180.0
 51
196.4234920000008
  0
LINE
  5
750
330
2
100
AcDbEntity
  8
HIDS
  6
SEKKEI_H
100
AcDbLine
 10
119.2606990060189
 20
102.2661294609046
 30
0.0
 11
119.2606990060189
 21
90.01824646090467
 31
0.0
  0
ARC
  5
751
330
2
100
AcDbEntity
  8
0
100
AcDbCircle
 10
123.716799006019
 20
107.3446894609046
 30
0.0
 40
5.0
100
AcDbArc
 50
271.0000920000003
 51
1.107672999999401
  0
LINE
  5
752
330
2
100
AcDbEntity
  8
0
100
AcDbLine
 10
118.7606990060189
 20
102.3060884609046
 30
0.0
 11
118.7606990060189
 21
107.7014094609046
 31
0.0
  0
LINE
  5
753
330
2
100
AcDbEntity
  8
CENTER
100
AcDbLine
 10
178.7606910060189
 20
104.7661259498481
 30
0.0
 11
178.7606910060189
 21
87.51824646090467
 31
0.0
  0
ARC
  5
754
330
2
100
AcDbEntity
  8
0
100
AcDbCircle
 10
167.4929000060189
 20
107.3674474609047
 30
0.0
 40
5.0
100
AcDbArc
 50
196.4232940000012
 51
269.0006099999996
  0
LINE
  5
755
330
2
100
AcDbEntity
  8
HIDS
  6
SEKKEI_H
100
AcDbLine
 10
173.2606910060189
 20
102.2660874609047
 30
0.0
 11
173.2606910060189
 21
90.01824646090467
 31
0.0
  0
ARC
  5
756
330
2
100
AcDbEntity
  8
0
100
AcDbCircle
 10
154.535899006019
 20
261.8799484609047
 30
0.0
 40
142.392197
100
AcDbArc
 50
273.5635990000005
 51
280.3001100000004
  0
ARC
  5
757
330
2
100
AcDbEntity
  8
0
100
AcDbCircle
 10
184.260493006019
 20
122.0205274609046
 30
0.0
 40
3.0
100
AcDbArc
 50
129.0888059999994
 51
180.0
  0
ARC
  5
758
330
2
100
AcDbEntity
  8
0
100
AcDbCircle
 10
187.461894006019
 20
99.01822746090466
 30
0.0
 40
3.0
100
AcDbArc
 50
5.000380000000087
 51
90.0
  0
LINE
  5
759
330
2
100
AcDbEntity
  8
HIDS
  6
SEKKEI_H
100
AcDbLine
 10
184.2606910060189
 20
102.0741084609046
 30
0.0
 11
184.2606910060189
 21
90.01824646090467
 31
0.0
  0
LINE
  5
75A
330
2
100
AcDbEntity
  8
0
100
AcDbLine
 10
190.450495006019
 20
99.27972846090467
 30
0.0
 11
191.2606910060189
 21
90.01824646090467
 31
0.0
  0
ARC
  5
75B
330
2
100
AcDbEntity
  8
0
100
AcDbCircle
 10
187.4578960060189
 20
105.0187884609047
 30
0.0
 40
3.0
100
AcDbArc
 50
197.0751950000009
 51
269.0006099999996
  0
ARC
  5
75C
330
2
100
AcDbEntity
  8
0
100
AcDbCircle
 10
189.2606910060189
 20
157.5183054609046
 30
0.0
 40
2.5
100
AcDbArc
 50
280.9344790000002
 51
0.0
  0
LINE
  5
75D
330
2
100
AcDbEntity
  8
CENTER
100
AcDbLine
 10
363.9374644432871
 20
87.51830746090467
 30
0.0
 11
363.9374644432873
 21
104.5183074609046
 31
0.0
  0
LINE
  5
75E
330
2
100
AcDbEntity
  8
0
100
AcDbLine
 10
356.1506604432872
 20
102.0183074609046
 30
0.0
 11
375.436457443287
 21
102.0183074609046
 31
0.0
  0
LINE
  5
75F
330
2
100
AcDbEntity
  8
HIDS
  6
SEKKEI_H
100
AcDbLine
 10
358.4374644432871
 20
102.0183074609046
 30
0.0
 11
358.4374644432871
 21
90.01830746090467
 31
0.0
  0
ARC
  5
760
330
2
100
AcDbEntity
  8
0
100
AcDbCircle
 10
356.1506604432872
 20
99.01842546090472
 30
0.0
 40
3.0
100
AcDbArc
 50
90.0
 51
172.0691070000002
  0
LINE
  5
761
330
2
100
AcDbEntity
  8
HIDS
  6
SEKKEI_H
100
AcDbLine
 10
369.4374644432871
 20
102.0183074609046
 30
0.0
 11
369.4374644432871
 21
90.01830746090467
 31
0.0
  0
ARC
  5
762
330
2
100
AcDbEntity
  8
0
100
AcDbCircle
 10
375.436457443287
 20
107.0183074609046
 30
0.0
 40
5.0
100
AcDbArc
 50
270.0
 51
339.9986879999987
  0
ARC
  5
766
330
2
100
AcDbEntity
  8
0
100
AcDbCircle
 10
171.2104900060189
 20
207.0039074609046
 30
0.0
 40
17.0
100
AcDbArc
 50
5.316978000000066
 51
66.96292900000024
  0
LINE
  5
767
330
2
100
AcDbEntity
  8
CENTER
100
AcDbLine
 10
238.7606910060189
 20
180.0183074609046
 30
0.0
 11
146.7606990060189
 21
180.0183074609046
 31
0.0
  0
ARC
  5
768
330
2
100
AcDbEntity
  8
0
100
AcDbCircle
 10
116.7606990060189
 20
-301.0625035390953
 30
0.0
 40
530.0
100
AcDbArc
 50
83.71740700000026
 51
89.00066399999984
  0
ARC
  5
777
330
2
100
AcDbEntity
  8
0
100
AcDbCircle
 10
176.523692006019
 20
223.7350474609046
 30
0.0
 40
0.5
100
AcDbArc
 50
164.6766050000007
 51
248.6154020000008
  0
ARC
  5
778
330
2
100
AcDbEntity
  8
0
100
AcDbCircle
 10
174.594889006019
 20
224.2635884609046
 30
0.0
 40
1.5
100
AcDbArc
 50
327.7117880000017
 51
83.71753699999969
  0
ARC
  5
779
330
2
100
AcDbEntity
  8
0
100
AcDbCircle
 10
155.5574980060189
 20
170.1937874609046
 30
0.0
 40
57.0
100
AcDbArc
 50
66.96292099999936
 51
68.61509699999951
  0
ARC
  5
77A
330
2
100
AcDbEntity
  8
0
100
AcDbCircle
 10
189.2606910060189
 20
202.5183074609046
 30
0.0
 40
2.5
100
AcDbArc
 50
0.0
 51
90.0
  0
LINE
  5
77B
330
2
100
AcDbEntity
  8
0
100
AcDbLine
 10
193.7606910060189
 20
169.0183074609046
 30
0.0
 11
233.7606910060189
 21
169.0183074609046
 31
0.0
  0
LINE
  5
77C
330
2
100
AcDbEntity
  8
0
100
AcDbLine
 10
201.760691006019
 20
177.0183074609046
 30
0.0
 11
233.7606910060189
 21
177.0183074609046
 31
0.0
  0
LINE
  5
77D
330
2
100
AcDbEntity
  8
0
100
AcDbLine
 10
201.760691006019
 20
183.0183074609046
 30
0.0
 11
233.7606910060189
 21
183.0183074609046
 31
0.0
  0
LINE
  5
77E
330
2
100
AcDbEntity
  8
0
100
AcDbLine
 10
193.7606910060189
 20
191.0183074609046
 30
0.0
 11
233.7606910060189
 21
191.0183074609046
 31
0.0
  0
ARC
  5
77F
330
2
100
AcDbEntity
  8
0
100
AcDbCircle
 10
201.760691006019
 20
180.0183074609046
 30
0.0
 40
3.0
100
AcDbArc
 50
90.0
 51
270.0
  0
LINE
  5
780
330
2
100
AcDbEntity
  8
0
100
AcDbLine
 10
193.7606910060189
 20
192.0183074609046
 30
0.0
 11
193.7606910060189
 21
168.0183074609046
 31
0.0
  0
LINE
  5
781
330
2
100
AcDbEntity
  8
0
100
AcDbLine
 10
191.760691006019
 20
168.0183074609046
 30
0.0
 11
193.7606910060189
 21
168.0183074609046
 31
0.0
  0
LINE
  5
782
330
2
100
AcDbEntity
  8
0
100
AcDbLine
 10
191.760691006019
 20
192.0183074609046
 30
0.0
 11
193.7606910060189
 21
192.0183074609046
 31
0.0
  0
LINE
  5
783
330
2
100
AcDbEntity
  8
0
100
AcDbLine
 10
233.7606910060189
 20
191.0183074609046
 30
0.0
 11
233.7606910060189
 21
169.0183074609046
 31
0.0
  0
ARC
  5
784
330
2
100
AcDbEntity
  8
0
100
AcDbCircle
 10
-510.239750993981
 20
161.0183074609046
 30
0.0
 40
700.0
100
AcDbArc
 50
3.603821000000682
 51
3.895952000000533
  0
LINE
  5
785
330
2
100
AcDbEntity
  8
0
100
AcDbLine
 10
188.3758950060189
 20
205.0183074609047
 30
0.0
 11
189.2606910060189
 21
205.0183074609047
 31
0.0
  0
ARC
  5
7E3
330
2
100
AcDbEntity
  8
0
100
AcDbCircle
 10
484.9374644432873
 20
161.0183074609046
 30
0.0
 40
122.0
100
AcDbArc
 50
159.6002959999994
 51
172.1208949999985
  0
ARC
  5
7E4
330
2
100
AcDbEntity
  8
0
100
AcDbCircle
 10
404.437464443287
 20
166.5183074609046
 30
0.0
 40
84.0
100
AcDbArc
 50
354.3693079999997
 51
27.31318099999862
  0
CIRCLE
  5
7E5
330
2
100
AcDbEntity
  8
0
100
AcDbCircle
 10
428.9374644432871
 20
180.0183074609046
 30
0.0
 40
25.0
  0
LINE
  5
7E6
330
2
100
AcDbEntity
  8
0
100
AcDbLine
 10
493.7856704432872
 20
177.7424894609046
 30
0.0
 11
506.0070754432872
 21
90.01824646090467
 31
0.0
  0
LINE
  5
7E7
330
2
100
AcDbEntity
  8
CENTER
100
AcDbLine
 10
428.9374644432871
 20
248.3232440800243
 30
0.0
 11
428.9374644432871
 21
84.85200601285226
 31
0.0
  0
ARC
  5
7E8
330
2
100
AcDbEntity
  8
0
100
AcDbCircle
 10
428.9374644432871
 20
227.0183074609046
 30
0.0
 40
123.0
100
AcDbArc
 50
270.0
 51
284.2320860000003
  0
ARC
  5
7E9
330
2
100
AcDbEntity
  8
0
100
AcDbCircle
 10
428.9374644432871
 20
-105.9816925390953
 30
0.0
 40
200.0
100
AcDbArc
 50
80.18475300000012
 51
99.81522400000001
  0
LINE
  5
7EA
330
2
100
AcDbEntity
  8
0
100
AcDbLine
 10
387.851466443287
 20
106.0443654609047
 30
0.0
 11
390.3614754432871
 21
112.9386484609046
 31
0.0
  0
ARC
  5
7EB
330
2
100
AcDbEntity
  8
0
100
AcDbCircle
 10
428.9374644432871
 20
227.0183074609046
 30
0.0
 40
123.0
100
AcDbArc
 50
255.7680050000006
 51
270.0
  0
ARC
  5
7EC
330
2
100
AcDbEntity
  8
0
100
AcDbCircle
 10
404.5986584432871
 20
131.0567084609047
 30
0.0
 40
24.0
100
AcDbArc
 50
241.0894010000004
 51
255.7678990000001
  0
ARC
  5
7ED
330
2
100
AcDbEntity
  8
0
100
AcDbCircle
 10
391.1384534432873
 20
99.01830746090467
 30
0.0
 40
3.0
100
AcDbArc
 50
5.000447999999098
 51
90.0
  0
LINE
  5
7EE
330
2
100
AcDbEntity
  8
0
100
AcDbLine
 10
394.1274674432873
 20
99.27984646090465
 30
0.0
 11
394.937251443287
 21
90.01830746090467
 31
0.0
  0
ARC
  5
7EF
330
2
100
AcDbEntity
  8
0
100
AcDbCircle
 10
391.5456494432871
 20
107.4215664609046
 30
0.0
 40
3.0
100
AcDbArc
 50
61.08962999999956
 51
159.9962009999998
  0
ARC
  5
7F0
330
2
100
AcDbEntity
  8
0
100
AcDbCircle
 10
390.6716564432872
 20
105.0183074609046
 30
0.0
 40
3.0
100
AcDbArc
 50
159.998993000001
 51
270.0
  0
LINE
  5
7F1
330
2
100
AcDbEntity
  8
0
100
AcDbLine
 10
391.1384534432873
 20
102.0183074609046
 30
0.0
 11
390.6716564432872
 21
102.0183074609046
 31
0.0
  0
ARC
  5
7F2
330
2
100
AcDbEntity
  8
0
100
AcDbCircle
 10
419.5376534432871
 20
123.7813074609047
 30
0.0
 40
6.5
100
AcDbArc
 50
112.352501
 51
215.3744959999995
  0
ARC
  5
7F3
330
2
100
AcDbEntity
  8
0
100
AcDbCircle
 10
379.1344554432871
 20
117.1780284609046
 30
0.0
 40
5.0
100
AcDbArc
 50
339.998469999999
 51
28.90654900000041
  0
ARC
  5
7F4
330
2
100
AcDbEntity
  8
0
100
AcDbCircle
 10
380.8264724432872
 20
121.8287854609046
 30
0.0
 40
5.0
100
AcDbArc
 50
339.9976500000007
 51
21.21484900000214
  0
ARC
  5
7F5
330
2
100
AcDbEntity
  8
0
100
AcDbCircle
 10
392.2404734432871
 20
112.2544484609046
 30
0.0
 40
2.0
100
AcDbArc
 50
56.68413900000126
 51
159.9963069999997
  0
LINE
  5
7F6
330
2
100
AcDbEntity
  8
0
100
AcDbLine
 10
425.287653443287
 20
130.0183074609046
 30
0.0
 11
432.2876534432871
 21
130.0183074609046
 31
0.0
  0
LINE
  5
7F7
330
2
100
AcDbEntity
  8
0
100
AcDbLine
 10
427.0376534432871
 20
120.0183074609046
 30
0.0
 11
430.5376534432871
 21
120.0183074609046
 31
0.0
  0
LINE
  5
7F8
330
2
100
AcDbEntity
  8
0
100
AcDbLine
 10
427.0376534432871
 20
126.5183074609046
 30
0.0
 11
427.0376534432871
 21
120.0183074609046
 31
0.0
  0
LINE
  5
7F9
330
2
100
AcDbEntity
  8
0
100
AcDbLine
 10
424.0376534432871
 20
125.0183074609046
 30
0.0
 11
424.0376534432871
 21
120.0183074609046
 31
0.0
  0
ARC
  5
7FA
330
2
100
AcDbEntity
  8
0
100
AcDbCircle
 10
420.0376534432871
 20
123.4678274609046
 30
0.0
 40
3.5
100
AcDbArc
 50
135.5460969999996
 51
220.5290069999982
  0
LINE
  5
7FB
330
2
100
AcDbEntity
  8
0
100
AcDbLine
 10
420.7876534432871
 20
125.0183074609046
 30
0.0
 11
420.7876534432871
 21
121.0183074609046
 31
0.0
  0
LINE
  5
7FC
330
2
100
AcDbEntity
  8
0
100
AcDbLine
 10
414.2374524432871
 20
120.0183074609046
 30
0.0
 11
424.0376534432871
 21
120.0183074609046
 31
0.0
  0
LINE
  5
7FD
330
2
100
AcDbEntity
  8
0
100
AcDbLine
 10
417.7572584432873
 20
121.0183074609046
 30
0.0
 11
420.7876534432871
 21
121.0183074609046
 31
0.0
  0
ARC
  5
7FE
330
2
100
AcDbEntity
  8
0
100
AcDbCircle
 10
417.7572584432873
 20
121.5183074609046
 30
0.0
 40
0.5
100
AcDbArc
 50
220.5301969999998
 51
270.0
  0
LINE
  5
7FF
330
2
100
AcDbEntity
  8
0
100
AcDbLine
 10
418.9668534432871
 20
126.5183074609046
 30
0.0
 11
424.0376534432871
 21
126.5183074609046
 31
0.0
  0
LINE
  5
800
330
2
100
AcDbEntity
  8
0
100
AcDbLine
 10
420.7876534432871
 20
125.0183074609046
 30
0.0
 11
424.0376534432871
 21
125.0183074609046
 31
0.0
  0
LINE
  5
801
330
2
100
AcDbEntity
  8
0
100
AcDbLine
 10
418.2064464432872
 20
130.0183074609046
 30
0.0
 11
424.0376534432871
 21
130.0183074609046
 31
0.0
  0
ARC
  5
802
330
2
100
AcDbEntity
  8
0
100
AcDbCircle
 10
418.9668534432871
 20
124.5183074609046
 30
0.0
 40
2.0
100
AcDbArc
 50
90.0
 51
135.5462040000001
  0
ARC
  5
803
330
2
100
AcDbEntity
  8
0
100
AcDbCircle
 10
418.2064464432872
 20
127.0183074609046
 30
0.0
 40
3.0
100
AcDbArc
 50
90.0
 51
112.352699
  0
LINE
  5
804
330
2
100
AcDbEntity
  8
0
100
AcDbLine
 10
425.287653443287
 20
130.0183074609046
 30
0.0
 11
425.287653443287
 21
126.5183074609046
 31
0.0
  0
LINE
  5
805
330
2
100
AcDbEntity
  8
0
100
AcDbLine
 10
424.0376534432871
 20
126.5183074609046
 30
0.0
 11
424.0376534432871
 21
130.0183074609046
 31
0.0
  0
LINE
  5
806
330
2
100
AcDbEntity
  8
0
100
AcDbLine
 10
425.287653443287
 20
126.5183074609046
 30
0.0
 11
427.0376534432871
 21
126.5183074609046
 31
0.0
  0
ARC
  5
807
330
2
100
AcDbEntity
  8
0
100
AcDbCircle
 10
440.3376724432871
 20
125.8723684609046
 30
0.0
 40
4.5
100
AcDbArc
 50
311.8104209999998
 51
59.13299199999959
  0
LINE
  5
808
330
2
100
AcDbEntity
  8
0
100
AcDbLine
 10
433.5376534432871
 20
130.0183074609046
 30
0.0
 11
433.5376534432871
 21
120.0183074609046
 31
0.0
  0
LINE
  5
809
330
2
100
AcDbEntity
  8
0
100
AcDbLine
 10
438.0376534432871
 20
125.0183074609046
 30
0.0
 11
441.0376534432871
 21
120.0183074609046
 31
0.0
  0
LINE
  5
80A
330
2
100
AcDbEntity
  8
0
100
AcDbLine
 10
436.7876534432871
 20
126.5183074609046
 30
0.0
 11
436.7876534432871
 21
120.0183074609046
 31
0.0
  0
LINE
  5
80B
330
2
100
AcDbEntity
  8
0
100
AcDbLine
 10
430.5376534432871
 20
126.5183074609046
 30
0.0
 11
430.5376534432871
 21
120.0183074609046
 31
0.0
  0
LINE
  5
80C
330
2
100
AcDbEntity
  8
0
100
AcDbLine
 10
433.5376534432871
 20
120.0183074609046
 30
0.0
 11
436.7876534432871
 21
120.0183074609046
 31
0.0
  0
LINE
  5
80D
330
2
100
AcDbEntity
  8
0
100
AcDbLine
 10
441.0376534432871
 20
120.0183074609046
 30
0.0
 11
444.8376724432871
 21
120.0183074609046
 31
0.0
  0
LINE
  5
80E
330
2
100
AcDbEntity
  8
0
100
AcDbLine
 10
444.8376724432871
 20
120.0183074609046
 30
0.0
 11
443.3376724432871
 21
122.5183074609046
 31
0.0
  0
LINE
  5
80F
330
2
100
AcDbEntity
  8
0
100
AcDbLine
 10
438.0376534432871
 20
125.0183074609046
 30
0.0
 11
440.2876534432871
 21
125.0183074609046
 31
0.0
  0
LINE
  5
810
330
2
100
AcDbEntity
  8
0
100
AcDbLine
 10
436.7876534432871
 20
126.5183074609046
 30
0.0
 11
440.2876534432871
 21
126.5183074609046
 31
0.0
  0
LINE
  5
811
330
2
100
AcDbEntity
  8
0
100
AcDbLine
 10
441.6200514432871
 20
130.0183074609046
 30
0.0
 11
433.5376534432871
 21
130.0183074609046
 31
0.0
  0
LINE
  5
812
330
2
100
AcDbEntity
  8
0
100
AcDbLine
 10
432.2876534432871
 20
130.0183074609046
 30
0.0
 11
432.2876534432871
 21
126.5183074609046
 31
0.0
  0
LINE
  5
813
330
2
100
AcDbEntity
  8
0
100
AcDbLine
 10
430.5376534432871
 20
126.5183074609046
 30
0.0
 11
432.2876534432871
 21
126.5183074609046
 31
0.0
  0
ARC
  5
814
330
2
100
AcDbEntity
  8
0
100
AcDbCircle
 10
440.2876534432871
 20
125.7683074609046
 30
0.0
 40
0.75
100
AcDbArc
 50
270.0
 51
90.0
  0
ARC
  5
815
330
2
100
AcDbEntity
  8
0
100
AcDbCircle
 10
441.6200514432871
 20
128.0183074609046
 30
0.0
 40
2.0
100
AcDbArc
 50
59.13309899999954
 51
90.0
  0
LINE
  5
816
330
2
100
AcDbEntity
  8
0
100
AcDbLine
 10
478.2744704432871
 20
103.8384294609046
 30
0.0
 11
472.3494514432872
 21
120.1177264609046
 31
0.0
  0
LINE
  5
817
330
2
100
AcDbEntity
  8
0
100
AcDbLine
 10
470.0224564432871
 20
106.0443654609047
 30
0.0
 11
467.5134534432872
 21
112.9380464609046
 31
0.0
  0
ARC
  5
818
330
2
100
AcDbEntity
  8
0
100
AcDbCircle
 10
481.0382644432873
 20
105.0184864609046
 30
0.0
 40
3.0
100
AcDbArc
 50
199.9996949999992
 51
270.0
  0
LINE
  5
819
330
2
100
AcDbEntity
  8
0
100
AcDbLine
 10
467.2036694432872
 20
102.0183074609046
 30
0.0
 11
482.4384714432872
 21
102.0183074609046
 31
0.0
  0
LINE
  5
81A
330
2
100
AcDbEntity
  8
0
100
AcDbLine
 10
506.0070754432872
 20
90.01824646090467
 30
0.0
 11
462.9376474432872
 21
90.01824646090467
 31
0.0
  0
ARC
  5
81B
330
2
100
AcDbEntity
  8
0
100
AcDbCircle
 10
453.276667443287
 20
131.0568284609046
 30
0.0
 40
24.0
100
AcDbArc
 50
284.2320860000003
 51
298.9096979999993
  0
LINE
  5
81C
330
2
100
AcDbEntity
  8
0
100
AcDbLine
 10
463.747462443287
 20
99.27984646090465
 30
0.0
 11
462.9376474432872
 21
90.01824646090467
 31
0.0
  0
ARC
  5
81D
330
2
100
AcDbEntity
  8
0
100
AcDbCircle
 10
466.7364754432871
 20
99.01830746090467
 30
0.0
 40
3.0
100
AcDbArc
 50
90.0
 51
175.0000000000001
  0
ARC
  5
81E
330
2
100
AcDbEntity
  8
0
100
AcDbCircle
 10
467.2036694432872
 20
105.0183074609046
 30
0.0
 40
3.0
100
AcDbArc
 50
270.0
 51
20.00140999999853
  0
LINE
  5
81F
330
2
100
AcDbEntity
  8
0
100
AcDbLine
 10
466.7364754432871
 20
102.0183074609046
 30
0.0
 11
467.2036694432872
 21
102.0183074609046
 31
0.0
  0
ARC
  5
820
330
2
100
AcDbEntity
  8
0
100
AcDbCircle
 10
466.3294624432872
 20
107.4214484609046
 30
0.0
 40
3.0
100
AcDbArc
 50
20.00012000000209
 51
118.9102020000003
  0
LINE
  5
821
330
2
100
AcDbEntity
  8
CENTER
100
AcDbLine
 10
493.9374644432873
 20
104.5183074609046
 30
0.0
 11
493.9374644432873
 21
87.51824646090467
 31
0.0
  0
LINE
  5
822
330
2
100
AcDbEntity
  8
0
100
AcDbLine
 10
501.7242684432871
 20
102.0183074609046
 30
0.0
 11
482.4384714432872
 21
102.0183074609046
 31
0.0
  0
LINE
  5
823
330
2
100
AcDbEntity
  8
HIDS
  6
SEKKEI_H
100
AcDbLine
 10
488.4374644432873
 20
102.0183074609046
 30
0.0
 11
488.4374644432873
 21
90.01830746090467
 31
0.0
  0
ARC
  5
824
330
2
100
AcDbEntity
  8
0
100
AcDbCircle
 10
501.7242684432871
 20
99.01848646090469
 30
0.0
 40
3.0
100
AcDbArc
 50
7.931651999999493
 51
90.0
  0
LINE
  5
825
330
2
100
AcDbEntity
  8
HIDS
  6
SEKKEI_H
100
AcDbLine
 10
499.4374644432873
 20
102.0183074609046
 30
0.0
 11
499.4374644432873
 21
90.01830746090467
 31
0.0
  0
ARC
  5
826
330
2
100
AcDbEntity
  8
0
100
AcDbCircle
 10
364.9374644432871
 20
180.0183074609046
 30
0.0
 40
125.0
100
AcDbArc
 50
331.0027600000005
 51
349.9835799999987
  0
ARC
  5
827
330
2
100
AcDbEntity
  8
0
100
AcDbCircle
 10
465.6344554432871
 20
112.2544484609046
 30
0.0
 40
2.0
100
AcDbArc
 50
20.00369099999963
 51
123.3159030000006
  0
ARC
  5
828
330
2
100
AcDbEntity
  8
0
100
AcDbCircle
 10
478.7404734432871
 20
117.1777884609047
 30
0.0
 40
5.0
100
AcDbArc
 50
151.0935059999987
 51
199.9996030000001
  0
ARC
  5
829
330
2
100
AcDbEntity
  8
0
100
AcDbCircle
 10
477.0484574432871
 20
121.8287854609046
 30
0.0
 40
5.0
100
AcDbArc
 50
158.7852019999987
 51
200.0023040000021
  0
ARC
  5
82A
330
2
100
AcDbEntity
  8
0
100
AcDbCircle
 10
428.9374644432871
 20
119.0181284609046
 30
0.0
 40
104.4999999999999
100
AcDbArc
 50
69.23223100000003
 51
90.0
  0
ARC
  5
82B
330
2
100
AcDbEntity
  8
0
100
AcDbCircle
 10
428.9374644432871
 20
119.0180064609046
 30
0.0
 40
110.0
100
AcDbArc
 50
67.79785899999963
 51
90.0
  0
LINE
  5
82C
330
2
100
AcDbEntity
  8
CENTER
100
AcDbLine
 10
394.4620403766876
 20
180.0183074609046
 30
0.0
 11
463.4128885098866
 21
180.0183074609046
 31
0.0
  0
LINE
  5
82D
330
2
100
AcDbEntity
  8
0
100
AcDbLine
 10
415.4374644432871
 20
183.0183074609046
 30
0.0
 11
415.4374644432871
 21
177.0183074609046
 31
0.0
  0
LINE
  5
82E
330
2
100
AcDbEntity
  8
0
100
AcDbLine
 10
421.437464443287
 20
183.0183074609046
 30
0.0
 11
421.437464443287
 21
177.0183074609046
 31
0.0
  0
ARC
  5
82F
330
2
100
AcDbEntity
  8
0
100
AcDbCircle
 10
428.9374644432871
 20
180.0183074609046
 30
0.0
 40
11.0
100
AcDbArc
 50
195.8265990000011
 51
164.1734009999988
  0
LINE
  5
830
330
2
100
AcDbEntity
  8
0
100
AcDbLine
 10
415.4374644432871
 20
177.0183074609046
 30
0.0
 11
421.437464443287
 21
177.0183074609046
 31
0.0
  0
LINE
  5
831
330
2
100
AcDbEntity
  8
0
100
AcDbLine
 10
415.4374644432871
 20
183.0183074609046
 30
0.0
 11
421.437464443287
 21
183.0183074609046
 31
0.0
  0
ARC
  5
832
330
2
100
AcDbEntity
  8
0
100
AcDbCircle
 10
428.9374644432871
 20
119.0181284609046
 30
0.0
 40
104.4999999999999
100
AcDbArc
 50
90.0
 51
110.767799
  0
ARC
  5
833
330
2
100
AcDbEntity
  8
0
100
AcDbCircle
 10
428.9374644432871
 20
119.0180064609046
 30
0.0
 40
110.0
100
AcDbArc
 50
90.0
 51
112.2024
  0
LINE
  5
834
330
2
100
AcDbEntity
  8
0
100
AcDbLine
 10
427.4372514432873
 20
245.2224621750438
 30
0.0
 11
427.4372514432871
 21
229.0077758076699
 31
0.0
  0
LINE
  5
835
330
2
100
AcDbEntity
  8
0
100
AcDbLine
 10
421.4372514432871
 20
245.2224635857851
 30
0.0
 11
421.4372514432871
 21
228.762012242335
 31
0.0
  0
ARC
  5
836
330
2
100
AcDbEntity
  8
HOJO
100
AcDbCircle
 10
422.687251443287
 20
244.2224620800242
 30
0.0
 40
1.600781999999999
100
AcDbArc
 50
67.16467299999876
 51
141.3401949999987
  0
LINE
  5
837
330
2
100
AcDbEntity
  8
HOJO
100
AcDbLine
 10
423.3085434432873
 20
245.6977740800243
 30
0.0
 11
425.5661424432871
 21
244.7471660800242
 31
0.0
  0
ARC
  5
838
330
2
100
AcDbEntity
  8
HOJO
100
AcDbCircle
 10
426.187251443287
 20
246.2224620800242
 30
0.0
 40
1.600781
100
AcDbArc
 50
247.1647030000001
 51
321.3401944016234
  0
LINE
  5
839
330
2
100
AcDbEntity
  8
0
100
AcDbLine
 10
430.4372514432871
 20
245.2225085195581
 30
0.0
 11
430.4372514432871
 21
229.007781617301
 31
0.0
  0
LINE
  5
83A
330
2
100
AcDbEntity
  8
0
100
AcDbLine
 10
425.4376774432872
 20
244.801258882475
 30
0.0
 11
425.4376774432871
 21
228.9623173230617
 31
0.0
  0
LINE
  5
83B
330
2
100
AcDbEntity
  8
0
100
AcDbLine
 10
423.4376774432872
 20
245.6433995815098
 30
0.0
 11
423.4376774432871
 21
228.8804310789452
 31
0.0
  0
LINE
  5
83C
330
2
100
AcDbEntity
  8
0
100
AcDbLine
 10
436.437251443287
 20
245.222508519558
 30
0.0
 11
436.437251443287
 21
228.7620413555385
 31
0.0
  0
LINE
  5
83D
330
2
100
AcDbEntity
  8
HOJO
100
AcDbLine
 10
435.3085442345996
 20
245.6977736584228
 30
0.0
 11
436.437251443287
 21
245.222508519558
 31
0.0
  0
ARC
  5
83E
330
2
100
AcDbEntity
  8
HOJO
100
AcDbCircle
 10
434.6872522345997
 20
244.2224616584228
 30
0.0
 40
1.600781999999999
100
AcDbArc
 50
67.16467299999876
 51
141.3401949999987
  0
ARC
  5
83F
330
2
100
AcDbEntity
  8
HOJO
100
AcDbCircle
 10
432.1872522345997
 20
246.2224616584228
 30
0.0
 40
1.600781
100
AcDbArc
 50
247.1647030000001
 51
321.3401944016234
  0
LINE
  5
840
330
2
100
AcDbEntity
  8
HOJO
100
AcDbLine
 10
430.4372514432871
 20
245.2225085195581
 30
0.0
 11
431.5661432345996
 21
244.7471656584228
 31
0.0
  0
ARC
  5
841
330
2
100
AcDbEntity
  8
0
100
AcDbCircle
 10
459.1674754432871
 20
193.0866054609047
 30
0.0
 40
30.0
100
AcDbArc
 50
20.39996900000022
 51
67.79795100000055
  0
ARC
  5
842
330
2
100
AcDbEntity
  8
0
100
AcDbCircle
 10
372.9374644432871
 20
161.0183074609046
 30
0.0
 40
122.0
100
AcDbArc
 50
7.879120000000896
 51
20.39979900000159
  0
ARC
  5
843
330
2
100
AcDbEntity
  8
0
100
AcDbCircle
 10
457.3044694432872
 20
193.8201264609047
 30
0.0
 40
24.5
100
AcDbArc
 50
27.31327100000074
 51
69.23240699999952
  0
TEXT
  5
844
330
2
100
AcDbEntity
  8
TITLE
100
AcDbText
 10
40.20505654861688
 20
21.17251624187804
 30
0.0
 40
9.0
  1
VGLC22-80～200N100
100
AcDbText
  0
MTEXT
  5
855
330
2
100
AcDbEntity
  8
TITLE
100
AcDbMText
 10
190.5868317277752
 20
34.1863365375909
 30
0.0
 40
3.771707116879754
 41
15.57243575881728
 71
     1
 72
     5
  1
L1\PL2\PL4
1001
ACAD
1000
MTEXTBEGIN
1070
    73
1070
     1
1070
    44
1040
1.0
1070
    74
1070
     0
1000
MTEXTEND
1000
MTEXTBEGIN
1070
    73
1070
     1
1070
    44
1040
1.0
1070
    74
1070
     0
1000
MTEXTEND
  0
ARC
  5
A40
330
2
100
AcDbEntity
  8
0
100
AcDbCircle
 10
72.71058100601897
 20
415.3417241335269
 30
0.0
 40
103.7254029999999
100
AcDbArc
 50
357.8143649999983
 51
36.74352999999896
  0
LINE
  5
A41
330
2
100
AcDbEntity
  8
0
100
AcDbLine
 10
128.7667180060189
 20
488.4156681335269
 30
0.0
 11
179.469981006019
 21
487.5304751335269
 31
0.0
  0
ARC
  5
A42
330
2
100
AcDbEntity
  8
0
100
AcDbCircle
 10
155.7606150060189
 20
414.8859131335269
 30
0.0
 40
57.0
100
AcDbArc
 50
66.71258500000006
 51
82.4689029999992
  0
CIRCLE
  5
A43
330
2
100
AcDbEntity
  8
0
100
AcDbCircle
 10
178.7606300060189
 20
476.3859131335269
 30
0.0
 40
5.5
  0
LINE
  5
A44
330
2
100
AcDbEntity
  8
CENTER
100
AcDbLine
 10
31.47065597189271
 20
411.3859131335269
 30
0.0
 11
238.7606910060189
 21
411.3859131335269
 31
0.0
  0
LINE
  5
A45
330
2
100
AcDbEntity
  8
0
100
AcDbLine
 10
128.7667180060189
 20
334.3561281335269
 30
0.0
 11
179.469981006019
 21
335.2413821335269
 31
0.0
  0
ARC
  5
A46
330
2
100
AcDbEntity
  8
0
100
AcDbCircle
 10
72.71058100601897
 20
407.4301031335269
 30
0.0
 40
103.7254029999999
100
AcDbArc
 50
323.256470000001
 51
2.18563499999837
  0
ARC
  5
A47
330
2
100
AcDbEntity
  8
0
100
AcDbCircle
 10
155.7606150060189
 20
407.8859131335269
 30
0.0
 40
57.0
100
AcDbArc
 50
277.5310970000008
 51
293.2874149999999
  0
CIRCLE
  5
A48
330
2
100
AcDbEntity
  8
0
100
AcDbCircle
 10
178.7606300060189
 20
346.3859131335269
 30
0.0
 40
5.5
  0
LINE
  5
A60
330
2
100
AcDbEntity
  8
0
100
AcDbLine
 10
116.7606150060189
 20
345.3859131335269
 30
0.0
 11
116.7606150060189
 21
477.3859131335269
 31
0.0
  0
ARC
  5
A61
330
2
100
AcDbEntity
  8
0
100
AcDbCircle
 10
113.7606150060189
 20
346.3859131335269
 30
0.0
 40
5.5
100
AcDbArc
 50
123.1975860000005
 51
349.5242919999993
  0
ARC
  5
A62
330
2
100
AcDbEntity
  8
HIDS
  6
SEKKEI_H
100
AcDbCircle
 10
113.7606150060189
 20
346.3859131335269
 30
0.0
 40
5.5
100
AcDbArc
 50
349.5243000000006
 51
123.1975860000005
  0
ARC
  5
A63
330
2
100
AcDbEntity
  8
0
100
AcDbCircle
 10
113.7606150060189
 20
332.7045171335269
 30
0.0
 40
15.0
100
AcDbArc
 50
6.430361000000786
 51
78.46295900000057
  0
ARC
  5
A64
330
2
100
AcDbEntity
  8
0
100
AcDbCircle
 10
113.2606150060189
 20
346.7961921335269
 30
0.0
 40
12.0
100
AcDbArc
 50
180.0
 51
268.4996949999983
  0
LINE
  5
A65
330
2
100
AcDbEntity
  8
0
100
AcDbLine
 10
128.7662300060189
 20
334.3861271335268
 30
0.0
 11
112.9465280060189
 21
334.8005561335268
 31
0.0
  0
LINE
  5
A66
330
2
100
AcDbEntity
  8
0
100
AcDbLine
 10
116.7606150060189
 20
345.3859131335269
 30
0.0
 11
121.772028006019
 21
345.3859131335269
 31
0.0
  0
ARC
  5
A67
330
2
100
AcDbEntity
  8
0
100
AcDbCircle
 10
167.701304006019
 20
347.0286141335269
 30
0.0
 40
12.0
100
AcDbArc
 50
219.1566010000002
 51
273.238892
  0
ARC
  5
A68
330
2
100
AcDbEntity
  8
0
100
AcDbCircle
 10
166.759806006019
 20
346.5962411335268
 30
0.0
 40
11.0
100
AcDbArc
 50
186.3612979999983
 51
220.5068049999992
  0
ARC
  5
A69
330
2
100
AcDbEntity
  8
0
100
AcDbCircle
 10
155.7606150060189
 20
407.8860361335269
 30
0.0
 40
57.0
100
AcDbArc
 50
274.0237119999987
 51
277.5307010000005
  0
ARC
  5
A6A
330
2
100
AcDbEntity
  8
HIDS
  6
SEKKEI_H
100
AcDbCircle
 10
113.7606150060189
 20
476.3859131335269
 30
0.0
 40
5.5
100
AcDbArc
 50
236.8025129999998
 51
10.47567000000058
  0
ARC
  5
A6B
330
2
100
AcDbEntity
  8
0
100
AcDbCircle
 10
113.7606150060189
 20
476.3859131335269
 30
0.0
 40
5.5
100
AcDbArc
 50
10.47567000000058
 51
236.8025209999983
  0
LINE
  5
A6C
330
2
100
AcDbEntity
  8
CENTER
100
AcDbLine
 10
113.7606150060189
 20
467.6844211335268
 30
0.0
 11
113.7606150060189
 21
485.0874051335268
 31
0.0
  0
ARC
  5
A6D
330
2
100
AcDbEntity
  8
0
100
AcDbCircle
 10
113.2606150060189
 20
475.9756351335268
 30
0.0
 40
12.0
100
AcDbArc
 50
91.50030499999834
 51
180.0
  0
ARC
  5
A6E
330
2
100
AcDbEntity
  8
0
100
AcDbCircle
 10
113.8707220060189
 20
490.0984071335268
 30
0.0
 40
15.0
100
AcDbArc
 50
281.1073000000007
 51
353.4448849999999
  0
LINE
  5
A6F
330
2
100
AcDbEntity
  8
CENTER
100
AcDbLine
 10
105.0591230060189
 20
476.3859131335269
 30
0.0
 11
122.4621070060189
 21
476.3859131335269
 31
0.0
  0
ARC
  5
A70
330
2
100
AcDbEntity
  8
0
100
AcDbCircle
 10
155.7606150060189
 20
414.8857911335268
 30
0.0
 40
57.0
100
AcDbArc
 50
82.46929899999951
 51
85.97628799999798
  0
LINE
  5
A71
330
2
100
AcDbEntity
  8
0
100
AcDbLine
 10
128.7662300060189
 20
488.3856691335268
 30
0.0
 11
112.9465280060189
 21
487.971363133527
 31
0.0
  0
LINE
  5
A72
330
2
100
AcDbEntity
  8
0
100
AcDbLine
 10
116.7603710060189
 20
477.3859131335269
 30
0.0
 11
121.832636006019
 21
477.3859131335269
 31
0.0
  0
ARC
  5
A73
330
2
100
AcDbEntity
  8
0
100
AcDbCircle
 10
167.701304006019
 20
475.7432131335268
 30
0.0
 40
12.0
100
AcDbArc
 50
86.76110800000001
 51
140.8433989999998
  0
ARC
  5
A74
330
2
100
AcDbEntity
  8
0
100
AcDbCircle
 10
166.759806006019
 20
476.175617133527
 30
0.0
 40
11.0
100
AcDbArc
 50
139.4931950000007
 51
173.6387020000016
  0
ARC
  5
AF0
330
2
100
AcDbEntity
  8
0
100
AcDbCircle
 10
588.504832006019
 20
410.9629401335268
 30
0.0
 40
400.0
100
AcDbArc
 50
176.3560029999988
 51
179.9394069999982
  0
LINE
  5
AF1
330
2
100
AcDbEntity
  8
0
100
AcDbLine
 10
233.7606910060189
 20
422.3859131335269
 30
0.0
 11
233.7606910060189
 21
400.385913133527
 31
0.0
  0
LINE
  5
AF2
330
2
100
AcDbEntity
  8
0
100
AcDbLine
 10
193.7606910060189
 20
423.3859131335269
 30
0.0
 11
193.7606910060189
 21
399.3859131335269
 31
0.0
  0
LINE
  5
AF3
330
2
100
AcDbEntity
  8
0
100
AcDbLine
 10
191.760691006019
 20
433.885913133527
 30
0.0
 11
191.760691006019
 21
388.8859131335269
 31
0.0
  0
LINE
  5
AF4
330
2
100
AcDbEntity
  8
0
100
AcDbLine
 10
191.2606910060189
 20
365.3859131335269
 30
0.0
 11
191.2606910060189
 21
347.2395511335268
 31
0.0
  0
ARC
  5
AF5
330
2
100
AcDbEntity
  8
0
100
AcDbCircle
 10
179.2606300060189
 20
347.2395511335268
 30
0.0
 40
12.0
100
AcDbArc
 50
271.0003130000003
 51
0.0
  0
LINE
  5
AF6
330
2
100
AcDbEntity
  8
0
100
AcDbLine
 10
198.7606910060189
 20
400.8029361335269
 30
0.0
 11
233.7606910060189
 21
400.8029361335269
 31
0.0
  0
LINE
  5
AF7
330
2
100
AcDbEntity
  8
0
100
AcDbLine
 10
198.7606910060189
 20
397.8859131335269
 30
0.0
 11
233.7606910060189
 21
397.8859131335269
 31
0.0
  0
ARC
  5
AF8
330
2
100
AcDbEntity
  8
0
100
AcDbCircle
 10
-510.2397669939811
 20
411.3859131335269
 30
0.0
 40
700.0
100
AcDbArc
 50
356.6170959999985
 51
357.9533080000006
  0
ARC
  5
AF9
330
2
100
AcDbEntity
  8
0
100
AcDbCircle
 10
171.5742290060189
 20
371.1445191335269
 30
0.0
 40
17.0
100
AcDbArc
 50
293.2874149999999
 51
356.6224979999989
  0
ARC
  5
AFA
330
2
100
AcDbEntity
  8
0
100
AcDbCircle
 10
179.260752006019
 20
365.3859131335269
 30
0.0
 40
12.0
100
AcDbArc
 50
0.0
 51
38.15891999999913
  0
LINE
  5
AFB
330
2
100
AcDbEntity
  8
0
100
AcDbLine
 10
193.7606910060189
 20
400.385913133527
 30
0.0
 11
198.7606910060189
 21
400.385913133527
 31
0.0
  0
ARC
  5
AFC
330
2
100
AcDbEntity
  8
0
100
AcDbCircle
 10
588.504832006019
 20
411.8088871335269
 30
0.0
 40
400.0
100
AcDbArc
 50
180.0605930000017
 51
183.6439970000011
  0
ARC
  5
AFD
330
2
100
AcDbEntity
  8
0
100
AcDbCircle
 10
189.2606910060189
 20
388.8859131335269
 30
0.0
 40
2.5
100
AcDbArc
 50
271.2145080000007
 51
0.0
  0
LINE
  5
AFE
330
2
100
AcDbEntity
  8
0
100
AcDbLine
 10
193.7606910060189
 20
399.3859131335269
 30
0.0
 11
191.760691006019
 21
399.3859131335269
 31
0.0
  0
LINE
  5
AFF
330
2
100
AcDbEntity
  8
0
100
AcDbLine
 10
198.7606910060189
 20
400.8029361335269
 30
0.0
 11
198.7606910060189
 21
397.8859131335269
 31
0.0
  0
LINE
  5
B00
330
2
100
AcDbEntity
  8
0
100
AcDbLine
 10
233.7606910060189
 20
400.385913133527
 30
0.0
 11
233.7606910060189
 21
397.8859131335269
 31
0.0
  0
ARC
  5
B01
330
2
100
AcDbEntity
  8
0
100
AcDbCircle
 10
179.2606300060189
 20
475.5322761335269
 30
0.0
 40
12.0
100
AcDbArc
 50
0.0
 51
88.99968699999964
  0
LINE
  5
B02
330
2
100
AcDbEntity
  8
0
100
AcDbLine
 10
193.7606910060189
 20
422.3859131335269
 30
0.0
 11
233.7606910060189
 21
422.3859131335269
 31
0.0
  0
ARC
  5
B03
330
2
100
AcDbEntity
  8
0
100
AcDbCircle
 10
-510.2397669939811
 20
411.3859131335269
 30
0.0
 40
700.0
100
AcDbArc
 50
2.046958000000382
 51
3.377728999999253
  0
LINE
  5
B04
330
2
100
AcDbEntity
  8
0
100
AcDbLine
 10
193.7606910060189
 20
423.3859131335269
 30
0.0
 11
191.760691006019
 21
423.3859131335269
 31
0.0
  0
ARC
  5
B05
330
2
100
AcDbEntity
  8
0
100
AcDbCircle
 10
189.2606910060189
 20
433.885913133527
 30
0.0
 40
2.5
100
AcDbArc
 50
0.0
 51
88.78549199999923
  0
ARC
  5
B06
330
2
100
AcDbEntity
  8
0
100
AcDbCircle
 10
171.5742290060189
 20
451.6273691335269
 30
0.0
 40
17.0
100
AcDbArc
 50
3.377502000001053
 51
66.71258500000006
  0
LINE
  5
B07
330
2
100
AcDbEntity
  8
0
100
AcDbLine
 10
191.2606910060189
 20
457.3859131335269
 30
0.0
 11
191.2606910060189
 21
475.5322761335269
 31
0.0
  0
ARC
  5
B08
330
2
100
AcDbEntity
  8
0
100
AcDbCircle
 10
179.260752006019
 20
457.3859131335269
 30
0.0
 40
12.0
100
AcDbArc
 50
321.8410800000008
 51
0.0
  0
ARC
  5
B0A
330
2
100
AcDbEntity
  8
0
100
AcDbCircle
 10
112.7605540060186
 20
347.491351133527
 30
0.0
 40
2.0
100
AcDbArc
 50
180.0
 51
268.5000000000037
  0
LINE
  5
B13
330
2
100
AcDbEntity
  8
0
100
AcDbLine
 10
112.7082010060188
 20
345.492038133527
 30
0.0
 11
116.7606150060188
 21
345.385928133527
 31
0.0
  0
LINE
  5
B14
330
2
100
AcDbEntity
  8
0
100
AcDbLine
 10
103.2605540060186
 20
353.885944133527
 30
0.0
 11
103.2605540060186
 21
468.8858521335268
 31
0.0
  0
LINE
  5
B15
330
2
100
AcDbEntity
  8
0
100
AcDbLine
 10
110.7605540060186
 20
475.2805051335268
 30
0.0
 11
110.7603400060187
 21
347.5268891335268
 31
0.0
  0
ARC
  5
B16
330
2
100
AcDbEntity
  8
0
100
AcDbCircle
 10
107.7606150060188
 20
350.7269321335269
 30
0.0
 40
3.0
100
AcDbArc
 50
0.0
 51
88.00054900000329
  0
LINE
  5
B17
330
2
100
AcDbEntity
  8
0
100
AcDbLine
 10
107.8653210060186
 20
353.725131133527
 30
0.0
 11
103.2605540060186
 21
353.885944133527
 31
0.0
  0
ARC
  5
B18
330
2
100
AcDbEntity
  8
0
100
AcDbCircle
 10
107.7606150060188
 20
472.0448181335269
 30
0.0
 40
3.0
100
AcDbArc
 50
272.0003659999951
 51
0.0
  0
LINE
  5
B19
330
2
100
AcDbEntity
  8
0
100
AcDbLine
 10
107.8653210060186
 20
469.0467101335269
 30
0.0
 11
103.2605540060186
 21
468.8858521335268
 31
0.0
  0
LINE
  5
B1A
330
2
100
AcDbEntity
  8
0
100
AcDbLine
 10
112.7082010060188
 20
477.279803133527
 30
0.0
 11
116.7606150060188
 21
477.3859131335269
 31
0.0
  0
ARC
  5
B1B
330
2
100
AcDbEntity
  8
0
100
AcDbCircle
 10
112.7605540060186
 20
475.2805051335268
 30
0.0
 40
2.0
100
AcDbArc
 50
91.49999999999621
 51
180.0
  0
LINE
  5
BFD
330
2
100
AcDbEntity
  8
0
100
AcDbLine
 10
101.2605540060186
 20
468.635913133527
 30
0.0
 11
101.2605540060186
 21
475.9756351335271
 31
0.0
  0
LINE
  5
BFE
330
2
100
AcDbEntity
  8
0
100
AcDbLine
 10
101.2605540060186
 20
354.1359131335269
 30
0.0
 11
101.2605540060186
 21
346.7961921335271
 31
0.0
  0
LINE
  5
BFF
330
2
100
AcDbEntity
  8
CENTER
100
AcDbLine
 10
178.7606300060189
 20
467.6844211335268
 30
0.0
 11
178.7606300060189
 21
485.0874051335268
 31
0.0
  0
LINE
  5
C00
330
2
100
AcDbEntity
  8
CENTER
100
AcDbLine
 10
170.0591380060189
 20
476.3859131335269
 30
0.0
 11
187.4621220060189
 21
476.3859131335269
 31
0.0
  0
LINE
  5
C01
330
2
100
AcDbEntity
  8
CENTER
100
AcDbLine
 10
178.7606300060189
 20
337.6844211335268
 30
0.0
 11
178.7606300060189
 21
355.0874051335268
 31
0.0
  0
LINE
  5
C02
330
2
100
AcDbEntity
  8
CENTER
100
AcDbLine
 10
170.0591380060189
 20
346.3859131335269
 30
0.0
 11
187.4621220060189
 21
346.3859131335269
 31
0.0
  0
LINE
  5
C03
330
2
100
AcDbEntity
  8
CENTER
100
AcDbLine
 10
113.7606150060189
 20
337.6844211335268
 30
0.0
 11
113.7606150060189
 21
355.0874051335268
 31
0.0
  0
LINE
  5
C04
330
2
100
AcDbEntity
  8
CENTER
100
AcDbLine
 10
105.0591230060189
 20
346.3859131335269
 30
0.0
 11
122.4621070060189
 21
346.3859131335269
 31
0.0
  0
LINE
  5
20C1
330
2
100
AcDbEntity
  8
0
100
AcDbLine
 10
39.26055400601871
 20
371.2192148001934
 30
0.0
 11
39.26055400601871
 21
392.5198657915436
 31
0.0
  0
LINE
  5
20C2
330
2
100
AcDbEntity
  8
0
100
AcDbLine
 10
39.26055400601865
 20
430.2519604755101
 30
0.0
 11
39.26055400601865
 21
451.5526291335267
 31
0.0
  0
LINE
  5
20C3
330
2
100
AcDbEntity
  8
0
100
AcDbLine
 10
94.26055400601866
 20
355.6359131335269
 30
0.0
 11
94.26055400601866
 21
467.1359131335269
 31
0.0
  0
LINE
  5
20C4
330
2
100
AcDbEntity
  8
0
100
AcDbLine
 10
41.26055400601859
 20
368.7849890918051
 30
0.0
 11
41.26055400601859
 21
392.385913133527
 31
0.0
  0
LINE
  5
20C5
330
2
100
AcDbEntity
  8
0
100
AcDbLine
 10
94.26055400601866
 20
382.385905133527
 30
0.0
 11
41.26055400601859
 21
383.311003133527
 31
0.0
  0
LINE
  5
20C6
330
2
100
AcDbEntity
  8
0
100
AcDbLine
 10
92.78673004405266
 20
366.4116362985761
 30
0.0
 11
42.73437796798458
 21
367.2852175041849
 31
0.0
  0
ARC
  5
20C7
330
2
100
AcDbEntity
  8
0
100
AcDbCircle
 10
42.76055400601859
 20
368.7849890918051
 30
0.0
 40
1.5
100
AcDbArc
 50
180.0
 51
269.0000982436657
  0
LINE
  5
20C8
330
2
100
AcDbEntity
  8
0
100
AcDbLine
 10
41.26053500601853
 20
369.8858941335269
 30
0.0
 11
39.26055400601871
 21
371.2192148001934
 31
0.0
  0
LINE
  5
20C9
330
2
100
AcDbEntity
  8
0
100
AcDbLine
 10
94.26055400601866
 20
371.818708133527
 30
0.0
 11
94.26055400601866
 21
367.218608133527
 31
0.0
  0
LINE
  5
20CA
330
2
100
AcDbEntity
  8
0
100
AcDbLine
 10
95.76055400601864
 20
354.1359131335269
 30
0.0
 11
103.2605540060186
 21
354.1359131335269
 31
0.0
  0
ARC
  5
20CB
330
2
100
AcDbEntity
  8
0
100
AcDbCircle
 10
95.76055400601864
 20
355.6359131335269
 30
0.0
 40
1.5
100
AcDbArc
 50
180.0
 51
270.0
  0
LINE
  5
20CC
330
2
100
AcDbEntity
  8
0
100
AcDbLine
 10
92.96055100601837
 20
362.618608133527
 30
0.0
 11
94.26055400601866
 21
362.618608133527
 31
0.0
  0
LINE
  5
20CD
330
2
100
AcDbEntity
  8
0
100
AcDbLine
 10
92.96055100601837
 20
366.4086025405365
 30
0.0
 11
92.96055100601837
 21
362.468608133527
 31
0.0
  0
LINE
  5
20CE
330
2
100
AcDbEntity
  8
0
100
AcDbLine
 10
94.26055400601866
 20
362.618608133527
 30
0.0
 11
94.26055400601866
 21
367.218608133527
 31
0.0
  0
ARC
  5
20CF
330
2
100
AcDbEntity
  8
0
100
AcDbCircle
 10
97.26055400601865
 20
367.218608133527
 30
0.0
 40
8.0
100
AcDbArc
 50
185.3508690710003
 51
212.3923949999993
  0
ARC
  5
20D0
330
2
100
AcDbEntity
  8
0
100
AcDbCircle
 10
91.34975700601865
 20
363.468608133527
 30
0.0
 40
1.0
100
AcDbArc
 50
212.3923949999993
 51
270.0
  0
LINE
  5
20D1
330
2
100
AcDbEntity
  8
CENTER
100
AcDbLine
 10
87.42955300601863
 20
367.218608133527
 30
0.0
 11
99.26055400601866
 21
367.218608133527
 31
0.0
  0
ARC
  5
20D2
330
2
100
AcDbEntity
  8
0
100
AcDbCircle
 10
92.76055400601865
 20
364.911864710956
 30
0.0
 40
1.5
100
AcDbArc
 50
0.0
 51
89.00009824366568
  0
LINE
  5
20D3
330
2
100
AcDbEntity
  8
0
100
AcDbLine
 10
92.96055100601837
 20
362.468608133527
 30
0.0
 11
91.34975700601865
 21
362.468608133527
 31
0.0
  0
LINE
  5
20D4
330
2
100
AcDbEntity
  8
0
100
AcDbLine
 10
41.26055400601859
 20
430.3859131335269
 30
0.0
 11
41.26055400601859
 21
453.9868371752488
 31
0.0
  0
LINE
  5
20D5
330
2
100
AcDbEntity
  8
0
100
AcDbLine
 10
38.76051600601846
 20
429.385913133527
 30
0.0
 11
38.76051600601846
 21
393.3859131335269
 31
0.0
  0
ARC
  5
20D6
330
2
100
AcDbEntity
  8
0
100
AcDbCircle
 10
42.46051600602373
 20
408.5859131335269
 30
0.0
 40
2.0
100
AcDbArc
 50
89.99999999997395
 51
204.6092450239484
  0
LINE
  5
20D7
330
2
100
AcDbEntity
  8
0
100
AcDbLine
 10
49.76051600602279
 20
412.8359131335271
 30
0.0
 11
49.76051600602392
 21
409.585913133527
 31
0.0
  0
ARC
  5
20D8
330
2
100
AcDbEntity
  8
0
100
AcDbCircle
 10
46.06051600602365
 20
408.5859131335269
 30
0.0
 40
2.0
100
AcDbArc
 50
30.00000000000377
 51
90.00000000002605
  0
LINE
  5
20D9
330
2
100
AcDbEntity
  8
0
100
AcDbLine
 10
44.26051600602346
 20
412.8359131335271
 30
0.0
 11
44.26051600602369
 21
410.5859131335271
 31
0.0
  0
LINE
  5
20DA
330
2
100
AcDbEntity
  8
0
100
AcDbLine
 10
44.26051600602369
 20
406.4859131335269
 30
0.0
 11
54.98921242375701
 21
406.4859131335269
 31
0.0
  0
LINE
  5
20DB
330
2
100
AcDbEntity
  8
0
100
AcDbLine
 10
44.26051600602369
 20
404.485913133527
 30
0.0
 11
55.08347201721682
 21
404.485913133527
 31
0.0
  0
LINE
  5
20DC
330
2
100
AcDbEntity
  8
0
100
AcDbLine
 10
42.76051600601846
 20
400.3597305361346
 30
0.0
 11
42.76051600601846
 21
392.3859131335269
 31
0.0
  0
LINE
  5
20DD
330
2
100
AcDbEntity
  8
0
100
AcDbLine
 10
42.76051600601846
 20
392.3859131335269
 30
0.0
 11
39.76051600601891
 21
392.3859131335269
 31
0.0
  0
ARC
  5
20DE
330
2
100
AcDbEntity
  8
0
100
AcDbCircle
 10
39.76051600601846
 20
393.3859131335269
 30
0.0
 40
1.0
100
AcDbArc
 50
180.0
 51
270.0
  0
ARC
  5
20DF
330
2
100
AcDbEntity
  8
0
100
AcDbCircle
 10
44.26051600602369
 20
406.8859131335269
 30
0.0
 40
3.25
100
AcDbArc
 50
352.9302859576917
 51
3.822162131326958
  0
LINE
  5
20E0
330
2
100
AcDbEntity
  8
0
100
AcDbLine
 10
47.78235264808023
 20
407.585913133527
 30
0.0
 11
47.50328722199793
 21
407.1025576369163
 31
0.0
  0
LINE
  5
20E1
330
2
100
AcDbEntity
  8
0
100
AcDbLine
 10
47.78235264808023
 20
407.585913133527
 30
0.0
 11
47.50328722199793
 21
407.1025576369163
 31
0.0
  0
LINE
  5
20E2
330
2
100
AcDbEntity
  8
0
100
AcDbLine
 10
49.76051600602369
 20
407.5859131335269
 30
0.0
 11
49.76051600602392
 21
406.4859131335269
 31
0.0
  0
ARC
  5
20E3
330
2
100
AcDbEntity
  8
0
100
AcDbCircle
 10
48.76051600602369
 20
401.5436661405386
 30
0.0
 40
1.0
100
AcDbArc
 50
272.0000000000035
 51
0.0
  0
LINE
  5
20E4
330
2
100
AcDbEntity
  8
0
100
AcDbLine
 10
49.76051600602392
 20
404.4859131335268
 30
0.0
 11
49.76051600602369
 21
401.5436661405387
 31
0.0
  0
SPLINE
  5
20E5
330
2
100
AcDbEntity
  8
HOJO
100
AcDbSpline
210
0.0
220
0.0
230
1.0
 70
     8
 71
     3
 72
    10
 73
     6
 74
     4
 42
0.0000000001
 43
0.0000000001
 44
0.0000000001
 40
0.0
 40
0.0
 40
0.0
 40
0.0
 40
0.697190763405494
 40
1.694952319108353
 40
2.335350738679082
 40
2.335350738679082
 40
2.335350738679082
 40
2.335350738679082
 10
53.28347201721687
 20
407.585913133527
 30
0.0
 10
53.45068615932505
 20
407.8068981456506
 30
0.0
 10
53.85720330331245
 20
408.3441385659879
 30
0.0
 10
52.68089419252923
 20
408.8545856116609
 30
0.0
 10
53.04634744708853
 20
409.3803704578372
 30
0.0
 10
53.18921242375705
 20
409.585913133527
 30
0.0
 11
53.28347201721687
 21
407.585913133527
 31
0.0
 11
53.57188446634615
 21
408.2206518354865
 31
0.0
 11
52.94256659885338
 21
408.9949173866334
 31
0.0
 11
53.18921242375705
 21
409.585913133527
 31
0.0
  0
ARC
  5
20E6
330
2
100
AcDbEntity
  8
0
100
AcDbCircle
 10
44.26051600602369
 20
405.485913133527
 30
0.0
 40
2.0
100
AcDbArc
 50
235.2729312954206
 51
304.7270687045793
  0
ARC
  5
20E7
330
2
100
AcDbEntity
  8
0
100
AcDbCircle
 10
44.26051600602369
 20
405.485913133527
 30
0.0
 40
1.0
100
AcDbArc
 50
90.0
 51
270.0
  0
LINE
  5
20E8
330
2
100
AcDbEntity
  8
0
100
AcDbLine
 10
40.64217815049784
 20
407.7530581382474
 30
0.0
 11
41.01774479004944
 21
407.1025576369163
 31
0.0
  0
ARC
  5
20E9
330
2
100
AcDbEntity
  8
0
100
AcDbCircle
 10
44.26051600602369
 20
406.8859131335269
 30
0.0
 40
3.25
100
AcDbArc
 50
176.177837868673
 51
249.4781325999777
  0
ARC
  5
20EA
330
2
100
AcDbEntity
  8
0
100
AcDbCircle
 10
42.46051600602373
 20
408.5859131335269
 30
0.0
 40
1.0
100
AcDbArc
 50
90.0
 51
270.0
  0
LINE
  5
20EB
330
2
100
AcDbEntity
  8
0
100
AcDbLine
 10
44.26051600602369
 20
403.4859131335269
 30
0.0
 11
44.26051600602369
 21
400.385913133527
 31
0.0
  0
LINE
  5
20EC
330
2
100
AcDbEntity
  8
0
100
AcDbLine
 10
44.26051600602369
 20
400.385913133527
 30
0.0
 11
39.76051600602369
 21
400.30736534135
 31
0.0
  0
ARC
  5
20ED
330
2
100
AcDbEntity
  8
0
100
AcDbCircle
 10
44.26051600602369
 20
406.8859131335269
 30
0.0
 40
3.25
100
AcDbArc
 50
290.5218674000222
 51
312.3994733644442
  0
LINE
  5
20EE
330
2
100
AcDbEntity
  8
0
100
AcDbLine
 10
42.46051600602465
 20
410.585913133527
 30
0.0
 11
46.06051600602273
 21
410.585913133527
 31
0.0
  0
LINE
  5
20EF
330
2
100
AcDbEntity
  8
0
100
AcDbLine
 10
42.46051600602373
 20
407.585913133527
 30
0.0
 11
53.28347201721687
 21
407.585913133527
 31
0.0
  0
LINE
  5
20F0
330
2
100
AcDbEntity
  8
0
100
AcDbLine
 10
42.46051600602373
 20
409.585913133527
 30
0.0
 11
53.18921242375705
 21
409.585913133527
 31
0.0
  0
LINE
  5
20F1
330
2
100
AcDbEntity
  8
0
100
AcDbLine
 10
44.26051600602369
 20
400.385913133527
 30
0.0
 11
48.79541550272648
 21
400.5442753135196
 31
0.0
  0
SPLINE
  5
20F2
330
2
100
AcDbEntity
  8
HOJO
100
AcDbSpline
210
0.0
220
0.0
230
1.0
 70
     8
 71
     3
 72
    10
 73
     6
 74
     4
 42
0.0000000001
 43
0.0000000001
 44
0.0000000001
 40
0.0
 40
0.0
 40
0.0
 40
0.0
 40
0.697190763405494
 40
1.694952319108353
 40
2.335350738679082
 40
2.335350738679082
 40
2.335350738679082
 40
2.335350738679082
 10
55.08347201721682
 20
404.485913133527
 30
0.0
 10
55.250686159325
 20
404.7068981456506
 30
0.0
 10
55.65720330331239
 20
405.2441385659879
 30
0.0
 10
54.48089419252919
 20
405.7545856116608
 30
0.0
 10
54.84634744708849
 20
406.2803704578373
 30
0.0
 10
54.98921242375701
 20
406.4859131335269
 30
0.0
 11
55.08347201721682
 21
404.485913133527
 31
0.0
 11
55.3718844663461
 21
405.1206518354864
 31
0.0
 11
54.74256659885333
 21
405.8949173866334
 31
0.0
 11
54.98921242375701
 21
406.4859131335269
 31
0.0
  0
LINE
  5
20F3
330
2
100
AcDbEntity
  8
0
100
AcDbLine
 10
44.26051600602346
 20
418.8359131335271
 30
0.0
 11
55.30810510140014
 21
418.8359131335271
 31
0.0
  0
LINE
  5
20F4
330
2
100
AcDbEntity
  8
0
100
AcDbLine
 10
44.26051600602346
 20
412.8359131335271
 30
0.0
 11
55.38589544526081
 21
412.8359131335269
 31
0.0
  0
ARC
  5
20F5
330
2
100
AcDbEntity
  8
0
100
AcDbCircle
 10
48.76051600602346
 20
421.228169012104
 30
0.0
 40
1.0
100
AcDbArc
 50
0.0
 51
87.9999999999964
  0
LINE
  5
20F6
330
2
100
AcDbEntity
  8
0
100
AcDbLine
 10
44.26051600602346
 20
422.385913133527
 30
0.0
 11
44.26051600602346
 21
418.8359131335271
 31
0.0
  0
LINE
  5
20F7
330
2
100
AcDbEntity
  8
0
100
AcDbLine
 10
49.76051600602346
 20
421.228169012104
 30
0.0
 11
49.76051600602392
 21
418.8359131335271
 31
0.0
  0
ARC
  5
20F8
330
2
100
AcDbEntity
  8
0
100
AcDbCircle
 10
44.26051600602346
 20
415.8359131335271
 30
0.0
 40
3.0
100
AcDbArc
 50
90.0
 51
270.0
  0
LINE
  5
20F9
330
2
100
AcDbEntity
  8
0
100
AcDbLine
 10
42.76051600601846
 20
430.3859131335269
 30
0.0
 11
39.76051600601846
 21
430.3859131335269
 31
0.0
  0
LINE
  5
20FA
330
2
100
AcDbEntity
  8
0
100
AcDbLine
 10
42.76051600601846
 20
422.4120957309192
 30
0.0
 11
42.76051600601846
 21
430.3859131335269
 31
0.0
  0
ARC
  5
20FB
330
2
100
AcDbEntity
  8
0
100
AcDbCircle
 10
39.76051600601846
 20
429.385913133527
 30
0.0
 40
1.0
100
AcDbArc
 50
90.0
 51
180.0
  0
LINE
  5
20FC
330
2
100
AcDbEntity
  8
0
100
AcDbLine
 10
44.26051600602346
 20
422.385913133527
 30
0.0
 11
39.76051600602346
 21
422.4644609257039
 31
0.0
  0
LINE
  5
20FD
330
2
100
AcDbEntity
  8
0
100
AcDbLine
 10
44.26102475095655
 20
422.3859042533511
 30
0.0
 11
48.79541550272603
 21
422.2275598391231
 31
0.0
  0
SPLINE
  5
20FE
330
2
100
AcDbEntity
  8
HOJO
100
AcDbSpline
210
0.0
220
0.0
230
1.0
 70
     8
 71
     3
 72
    12
 73
     8
 74
     6
 42
0.0000000001
 43
0.0000000001
 44
0.0000000001
 40
0.0
 40
0.0
 40
0.0
 40
0.0
 40
1.684659730310286
 40
2.786160565551512
 40
4.550934817628611
 40
5.718899366607141
 40
6.335570522767194
 40
6.335570522767194
 40
6.335570522767194
 40
6.335570522767194
 10
55.38589544526081
 20
412.8359131335269
 30
0.0
 10
55.1089838369872
 20
413.3868729472104
 30
0.0
 10
54.65101586325682
 20
414.2980732795208
 30
0.0
 10
55.53364048119438
 20
415.6350745115433
 30
0.0
 10
56.09571831904172
 20
416.9608939780129
 30
0.0
 10
55.59830882756344
 20
418.0950871866224
 30
0.0
 10
55.38263129803888
 20
418.6456642317502
 30
0.0
 10
55.30810510140014
 20
418.8359131335271
 30
0.0
 11
55.38589544526081
 21
412.8359131335269
 31
0.0
 11
54.92015356137932
 21
414.454913721707
 31
0.0
 11
55.38188339774575
 21
415.4549685443273
 31
0.0
 11
55.88209097303439
 21
417.1473693663604
 31
0.0
 11
55.53579334320153
 21
418.2628150796261
 31
0.0
 11
55.30810510140014
 21
418.8359131335271
 31
0.0
  0
LINE
  5
20FF
330
2
100
AcDbEntity
  8
0
100
AcDbLine
 10
92.96055100601837
 20
416.1359131335269
 30
0.0
 11
92.96055100601837
 21
406.635913133527
 31
0.0
  0
ARC
  5
2100
330
2
100
AcDbEntity
  8
0
100
AcDbCircle
 10
97.26055400601865
 20
411.3859131335269
 30
0.0
 40
8.0
100
AcDbArc
 50
147.6076050000006
 51
212.3923949999993
  0
LINE
  5
2101
330
2
100
AcDbEntity
  8
0
100
AcDbLine
 10
92.96055100601837
 20
406.7859131335269
 30
0.0
 11
94.26055400601866
 21
406.7859131335269
 31
0.0
  0
ARC
  5
2102
330
2
100
AcDbEntity
  8
0
100
AcDbCircle
 10
91.34975700601865
 20
407.6359131335269
 30
0.0
 40
1.0
100
AcDbArc
 50
212.3923949999993
 51
270.0
  0
LINE
  5
2103
330
2
100
AcDbEntity
  8
0
100
AcDbLine
 10
92.96055100601837
 20
406.635913133527
 30
0.0
 11
91.34975700601865
 21
406.635913133527
 31
0.0
  0
LINE
  5
2104
330
2
100
AcDbEntity
  8
0
100
AcDbLine
 10
92.96055100601837
 20
415.9860131335269
 30
0.0
 11
94.26055400601866
 21
415.9860131335269
 31
0.0
  0
ARC
  5
2105
330
2
100
AcDbEntity
  8
0
100
AcDbCircle
 10
91.34975700601865
 20
415.135913133527
 30
0.0
 40
1.0
100
AcDbArc
 50
90.0
 51
147.6076050000006
  0
LINE
  5
2106
330
2
100
AcDbEntity
  8
0
100
AcDbLine
 10
92.96055100601837
 20
416.1359131335269
 30
0.0
 11
91.34975700601865
 21
416.1359131335269
 31
0.0
  0
LINE
  5
2107
330
2
100
AcDbEntity
  8
0
100
AcDbLine
 10
92.78673004405266
 20
456.3601899684778
 30
0.0
 11
42.73437796798413
 21
455.486608762869
 31
0.0
  0
LINE
  5
2108
330
2
100
AcDbEntity
  8
0
100
AcDbLine
 10
94.26055400601866
 20
440.3859211335269
 30
0.0
 11
41.26055400601859
 21
439.4608231335269
 31
0.0
  0
LINE
  5
2109
330
2
100
AcDbEntity
  8
0
100
AcDbLine
 10
41.26055400601859
 20
452.8859131335269
 30
0.0
 11
39.26055400601865
 21
451.5526291335267
 31
0.0
  0
ARC
  5
210A
330
2
100
AcDbEntity
  8
0
100
AcDbCircle
 10
42.76055400601859
 20
453.9868371752488
 30
0.0
 40
1.5
100
AcDbArc
 50
90.99990175633431
 51
180.0
  0
LINE
  5
210B
330
2
100
AcDbEntity
  8
0
100
AcDbLine
 10
92.96055100601837
 20
460.1532181335269
 30
0.0
 11
94.26055400601866
 21
460.1532181335269
 31
0.0
  0
LINE
  5
210C
330
2
100
AcDbEntity
  8
0
100
AcDbLine
 10
92.96055100601837
 20
456.3632237265174
 30
0.0
 11
92.96055100601837
 21
460.303218133527
 31
0.0
  0
ARC
  5
210D
330
2
100
AcDbEntity
  8
0
100
AcDbCircle
 10
97.26055400601865
 20
455.5532181335268
 30
0.0
 40
8.0
100
AcDbArc
 50
147.6076050000006
 51
174.6491309289996
  0
ARC
  5
210E
330
2
100
AcDbEntity
  8
0
100
AcDbCircle
 10
91.34975700601865
 20
459.3032181335269
 30
0.0
 40
1.0
100
AcDbArc
 50
90.0
 51
147.6076050000006
  0
ARC
  5
210F
330
2
100
AcDbEntity
  8
0
100
AcDbCircle
 10
92.76055400601865
 20
457.859961556098
 30
0.0
 40
1.5
100
AcDbArc
 50
270.9999017563343
 51
0.0
  0
LINE
  5
2110
330
2
100
AcDbEntity
  8
0
100
AcDbLine
 10
92.96055100601837
 20
460.303218133527
 30
0.0
 11
91.34975700601865
 21
460.303218133527
 31
0.0
  0
LINE
  5
2111
330
2
100
AcDbEntity
  8
CENTER
100
AcDbLine
 10
87.42955300601863
 20
455.5532181335268
 30
0.0
 11
99.26055400601866
 21
455.5532181335268
 31
0.0
  0
LINE
  5
2112
330
2
100
AcDbEntity
  8
0
100
AcDbLine
 10
95.76055400601864
 20
468.6359131335269
 30
0.0
 11
103.2605540060186
 21
468.6359131335269
 31
0.0
  0
ARC
  5
2113
330
2
100
AcDbEntity
  8
0
100
AcDbCircle
 10
95.76055400601864
 20
467.1359131335269
 30
0.0
 40
1.5
100
AcDbArc
 50
90.0
 51
180.0
  0
LINE
  5
2212
330
2
100
AcDbEntity
  8
0
100
AcDbLine
 10
39.26069500601897
 20
201.1850057942382
 30
0.0
 11
39.26069500601903
 21
120.851628127571
 31
0.0
  0
LINE
  5
2213
330
2
100
AcDbEntity
  8
0
100
AcDbLine
 10
94.26069500601874
 20
115.0356074609046
 30
0.0
 11
94.26069500601874
 21
207.0008854609047
 31
0.0
  0
LINE
  5
2214
330
2
100
AcDbEntity
  8
0
100
AcDbLine
 10
41.26067600601863
 20
203.1277094609047
 30
0.0
 11
41.26067600601863
 21
118.9088064609047
 31
0.0
  0
LINE
  5
2215
330
2
100
AcDbEntity
  8
0
100
AcDbLine
 10
38.76065700601856
 20
208.5183074609047
 30
0.0
 11
38.7606340060185
 21
177.0183074609046
 31
0.0
  0
LINE
  5
2216
330
2
100
AcDbEntity
  8
0
100
AcDbLine
 10
94.26069500601874
 20
126.3138094609047
 30
0.0
 11
41.26067600601863
 21
127.2388884609047
 31
0.0
  0
LINE
  5
2217
330
2
100
AcDbEntity
  8
0
100
AcDbLine
 10
93.27809800601858
 20
116.0354084609048
 30
0.0
 11
43.22577600601852
 21
116.9091074609048
 31
0.0
  0
ARC
  5
2218
330
2
100
AcDbEntity
  8
0
100
AcDbCircle
 10
43.26067600601862
 20
118.9088064609047
 30
0.0
 40
2.0
100
AcDbArc
 50
180.0
 51
268.9999999999982
  0
LINE
  5
2219
330
2
100
AcDbEntity
  8
0
100
AcDbLine
 10
41.26067600601863
 20
119.5183074609046
 30
0.0
 11
39.26069500601903
 21
120.851628127571
 31
0.0
  0
LINE
  5
221A
330
2
100
AcDbEntity
  8
0
100
AcDbLine
 10
94.26069500601874
 20
104.9080094609047
 30
0.0
 11
94.26069500601874
 21
115.0356074609046
 31
0.0
  0
LINE
  5
221B
330
2
100
AcDbEntity
  8
0
100
AcDbLine
 10
103.2606950060187
 20
103.7683074609046
 30
0.0
 11
95.24319700601859
 21
103.9082074609048
 31
0.0
  0
ARC
  5
221C
330
2
100
AcDbEntity
  8
0
100
AcDbCircle
 10
95.26069500601876
 20
104.9080094609047
 30
0.0
 40
1.0
100
AcDbArc
 50
180.0
 51
268.9999999999982
  0
ARC
  5
221D
330
2
100
AcDbEntity
  8
0
100
AcDbCircle
 10
93.26069500601875
 20
115.0356074609046
 30
0.0
 40
1.0
100
AcDbArc
 50
0.0
 51
88.99999999999824
  0
LINE
  5
221E
330
2
100
AcDbEntity
  8
0
100
AcDbLine
 10
92.96069600601844
 20
140.3121074609048
 30
0.0
 11
92.96069600601844
 21
130.8121074609048
 31
0.0
  0
ARC
  5
221F
330
2
100
AcDbEntity
  8
0
100
AcDbCircle
 10
97.26069500601875
 20
135.5621074609048
 30
0.0
 40
8.0
100
AcDbArc
 50
147.6076049999988
 51
212.3923950000011
  0
LINE
  5
2220
330
2
100
AcDbEntity
  8
0
100
AcDbLine
 10
92.96069600601844
 20
130.9621074609046
 30
0.0
 11
94.26069500601874
 21
130.9621074609046
 31
0.0
  0
ARC
  5
2221
330
2
100
AcDbEntity
  8
0
100
AcDbCircle
 10
91.34989400601876
 20
131.8121074609048
 30
0.0
 40
1.0
100
AcDbArc
 50
212.3923950000011
 51
270.0
  0
LINE
  5
2222
330
2
100
AcDbEntity
  8
CENTER
100
AcDbLine
 10
86.76069500601874
 20
135.5621074609048
 30
0.0
 11
96.76069500601876
 21
135.5621074609048
 31
0.0
  0
LINE
  5
2223
330
2
100
AcDbEntity
  8
0
100
AcDbLine
 10
92.96069600601844
 20
130.8121074609048
 30
0.0
 11
91.34989400601876
 21
130.8121074609048
 31
0.0
  0
LINE
  5
2224
330
2
100
AcDbEntity
  8
0
100
AcDbLine
 10
92.96069600601844
 20
140.1622074609047
 30
0.0
 11
94.26069500601874
 21
140.1622074609047
 31
0.0
  0
ARC
  5
2225
330
2
100
AcDbEntity
  8
0
100
AcDbCircle
 10
91.34989400601876
 20
139.3121074609048
 30
0.0
 40
1.0
100
AcDbArc
 50
90.0
 51
147.6076049999988
  0
LINE
  5
2226
330
2
100
AcDbEntity
  8
0
100
AcDbLine
 10
92.96069600601844
 20
140.3121074609048
 30
0.0
 11
91.34989400601876
 21
140.3121074609048
 31
0.0
  0
ARC
  5
2227
330
2
100
AcDbEntity
  8
0
100
AcDbCircle
 10
39.76067600601862
 20
177.0183074609046
 30
0.0
 40
1.0
100
AcDbArc
 50
180.0
 51
240.0012570219463
  0
LINE
  5
2228
330
2
100
AcDbEntity
  8
0
100
AcDbLine
 10
41.2606760060184
 20
241.1873642246248
 30
0.0
 11
41.26067600601863
 21
209.5183074609047
 31
0.0
  0
LINE
  5
2229
330
2
100
AcDbEntity
  8
0
100
AcDbLine
 10
43.26067600601817
 20
241.6085297295257
 30
0.0
 11
43.26067600601862
 21
209.5183074609047
 31
0.0
  0
LINE
  5
222A
330
2
100
AcDbEntity
  8
0
100
AcDbLine
 10
45.26067600601817
 20
240.7732026350876
 30
0.0
 11
45.26067600601862
 21
209.5183074609047
 31
0.0
  0
LINE
  5
222B
330
2
100
AcDbEntity
  8
0
100
AcDbLine
 10
47.26067600601862
 20
241.1873628161294
 30
0.0
 11
47.26067600601817
 21
209.5183074609046
 31
0.0
  0
LINE
  5
222C
330
2
100
AcDbEntity
  8
0
100
AcDbLine
 10
94.26069500601874
 20
195.7227064609046
 30
0.0
 11
41.26067600601863
 21
194.7976274609047
 31
0.0
  0
LINE
  5
222D
330
2
100
AcDbEntity
  8
0
100
AcDbLine
 10
93.27809800601858
 20
206.0011074609047
 30
0.0
 11
43.22577600601852
 21
205.1274264609046
 31
0.0
  0
ARC
  5
222E
330
2
100
AcDbEntity
  8
0
100
AcDbCircle
 10
48.76067600601863
 20
208.5182884609047
 30
0.0
 40
1.0
100
AcDbArc
 50
0.0
 51
90.0
  0
LINE
  5
222F
330
2
100
AcDbEntity
  8
0
100
AcDbLine
 10
49.76067600601862
 20
208.5183074609047
 30
0.0
 11
49.76067600601862
 21
205.2414864609047
 31
0.0
  0
ARC
  5
2230
330
2
100
AcDbEntity
  8
0
100
AcDbCircle
 10
43.26067600601862
 20
203.1277094609047
 30
0.0
 40
2.0
100
AcDbArc
 50
91.00000000000177
 51
180.0
  0
LINE
  5
2231
330
2
100
AcDbEntity
  8
0
100
AcDbLine
 10
41.26067600601863
 20
202.5183264609047
 30
0.0
 11
39.26069500601897
 21
201.1850057942382
 31
0.0
  0
ARC
  5
2232
330
2
100
AcDbEntity
  8
0
100
AcDbCircle
 10
39.76067600601862
 20
208.5183074609047
 30
0.0
 40
1.0
100
AcDbArc
 50
90.0
 51
180.0
  0
LINE
  5
2233
330
2
100
AcDbEntity
  8
0
100
AcDbLine
 10
39.76067600601862
 20
209.5183074609047
 30
0.0
 11
48.76067600601863
 21
209.5183074609047
 31
0.0
  0
ARC
  5
2234
330
2
100
AcDbEntity
  8
0
100
AcDbCircle
 10
97.26069500601875
 20
212.0621074609047
 30
0.0
 40
8.0
100
AcDbArc
 50
147.6076049999988
 51
212.3923950000011
  0
LINE
  5
2235
330
2
100
AcDbEntity
  8
0
100
AcDbLine
 10
92.96069600601844
 20
216.8121074609047
 30
0.0
 11
92.96069600601844
 21
207.3121074609047
 31
0.0
  0
LINE
  5
2236
330
2
100
AcDbEntity
  8
0
100
AcDbLine
 10
94.26069500601874
 20
216.6370854609047
 30
0.0
 11
94.26069500601874
 21
207.0008854609047
 31
0.0
  0
ARC
  5
2237
330
2
100
AcDbEntity
  8
0
100
AcDbCircle
 10
93.26069500601875
 20
207.0008854609047
 30
0.0
 40
1.0
100
AcDbArc
 50
271.0000000000017
 51
0.0
  0
LINE
  5
2238
330
2
100
AcDbEntity
  8
0
100
AcDbLine
 10
92.96069600601844
 20
207.4621094609047
 30
0.0
 11
94.26069500601874
 21
207.4621094609047
 31
0.0
  0
ARC
  5
2239
330
2
100
AcDbEntity
  8
0
100
AcDbCircle
 10
91.34989400601876
 20
208.3121074609047
 30
0.0
 40
1.0
100
AcDbArc
 50
212.3923950000011
 51
270.0
  0
LINE
  5
223A
330
2
100
AcDbEntity
  8
0
100
AcDbLine
 10
92.96069600601844
 20
207.3121074609047
 30
0.0
 11
91.34989400601876
 21
207.3121074609047
 31
0.0
  0
LINE
  5
223B
330
2
100
AcDbEntity
  8
0
100
AcDbLine
 10
103.2606950060187
 20
218.2683264609047
 30
0.0
 11
95.73449600601884
 21
218.1369064609047
 31
0.0
  0
LINE
  5
223C
330
2
100
AcDbEntity
  8
0
100
AcDbLine
 10
92.96069600601844
 20
216.6621294609047
 30
0.0
 11
94.26069500601874
 21
216.6621294609047
 31
0.0
  0
ARC
  5
223D
330
2
100
AcDbEntity
  8
0
100
AcDbCircle
 10
95.76069500601875
 20
216.6370854609047
 30
0.0
 40
1.5
100
AcDbArc
 50
91.00000000000177
 51
180.0
  0
ARC
  5
223E
330
2
100
AcDbEntity
  8
0
100
AcDbCircle
 10
91.34989400601876
 20
215.8121074609047
 30
0.0
 40
1.0
100
AcDbArc
 50
90.0
 51
147.6076049999988
  0
LINE
  5
223F
330
2
100
AcDbEntity
  8
CENTER
100
AcDbLine
 10
86.76069500601874
 20
212.0621074609047
 30
0.0
 11
96.76069500601876
 21
212.0621074609047
 31
0.0
  0
LINE
  5
2240
330
2
100
AcDbEntity
  8
0
100
AcDbLine
 10
92.96069600601844
 20
216.8121074609047
 30
0.0
 11
91.34989400601876
 21
216.8121074609047
 31
0.0
  0
ARC
  5
2241
330
2
100
AcDbEntity
  8
0
100
AcDbCircle
 10
92.56639078522153
 20
285.3137912276381
 30
0.0
 40
40.0
100
AcDbArc
 50
250.5608481874074
 51
270.0
  0
ARC
  5
2242
330
2
100
AcDbEntity
  8
0
100
AcDbCircle
 10
92.56639078522153
 20
285.3137912276381
 30
0.0
 40
46.0
100
AcDbArc
 50
250.5608481874074
 51
270.0
  0
ARC
  5
2243
330
2
100
AcDbEntity
  8
0
100
AcDbCircle
 10
92.56639078522153
 20
285.3137912276381
 30
0.0
 40
44.0
100
AcDbArc
 50
250.5608481874074
 51
270.0
  0
ARC
  5
2244
330
2
100
AcDbEntity
  8
0
100
AcDbCircle
 10
92.56639078522153
 20
285.3137912276381
 30
0.0
 40
42.0
100
AcDbArc
 50
250.5608481874074
 51
270.0
  0
LINE
  5
2245
330
2
100
AcDbEntity
  8
0
100
AcDbLine
 10
52.26070600601855
 20
254.949578379339
 30
0.0
 11
90.68082833315861
 21
254.949578379339
 31
0.0
  0
LINE
  5
2246
330
2
100
AcDbEntity
  8
0
100
AcDbLine
 10
52.2607260060185
 20
260.949578379339
 30
0.0
 11
90.68135173655651
 21
260.949578379339
 31
0.0
  0
ARC
  5
2247
330
2
100
AcDbEntity
  8
0
100
AcDbCircle
 10
52.2607260060185
 20
249.949578379339
 30
0.0
 40
11.0
100
AcDbArc
 50
90.0
 51
180.0
  0
ARC
  5
2248
330
2
100
AcDbEntity
  8
0
100
AcDbCircle
 10
52.26072721920349
 20
243.1873491018212
 30
0.0
 40
11.00005121320385
100
AcDbArc
 50
90.0002430827012
 51
179.999842847214
  0
ARC
  5
2249
330
2
100
AcDbEntity
  8
0
100
AcDbCircle
 10
52.69308279941236
 20
208.1872903134069
 30
0.0
 40
46.0
100
AcDbArc
 50
70.56084818740743
 51
90.0
  0
ARC
  5
224A
330
2
100
AcDbEntity
  8
0
100
AcDbCircle
 10
52.26070600601855
 20
249.949578379339
 30
0.0
 40
5.0
100
AcDbArc
 50
90.0
 51
131.9745634210934
  0
ARC
  5
224B
330
2
100
AcDbEntity
  8
0
100
AcDbCircle
 10
52.69308279941236
 20
208.1872903134069
 30
0.0
 40
40.0
100
AcDbArc
 50
70.56084818740743
 51
90.0
  0
ARC
  5
224C
330
2
100
AcDbEntity
  8
0
100
AcDbCircle
 10
52.69308279941236
 20
208.1872903134069
 30
0.0
 40
42.0
100
AcDbArc
 50
70.56084818740743
 51
90.0
  0
ARC
  5
224D
330
2
100
AcDbEntity
  8
0
100
AcDbCircle
 10
52.69308279941236
 20
208.1872903134069
 30
0.0
 40
44.0
100
AcDbArc
 50
70.56084818740743
 51
90.0
  0
ARC
  5
224E
330
2
100
AcDbEntity
  8
0
100
AcDbCircle
 10
52.26072721920349
 20
243.1873491018212
 30
0.0
 40
5.000051213203854
100
AcDbArc
 50
90.0002430827012
 51
179.999842847214
  0
LINE
  5
224F
330
2
100
AcDbEntity
  8
0
100
AcDbLine
 10
41.2607260060185
 20
249.949578379339
 30
0.0
 11
41.26067600601863
 21
243.1873642246247
 31
0.0
  0
ARC
  5
2250
330
2
100
AcDbEntity
  8
HOJO
100
AcDbCircle
 10
42.51070600601855
 20
242.1874002199606
 30
0.0
 40
1.600781999999999
100
AcDbArc
 50
67.16467299999876
 51
141.3418685642152
  0
ARC
  5
2251
330
2
100
AcDbEntity
  8
0
100
AcDbCircle
 10
52.26072721920349
 20
243.1873491018212
 30
0.0
 40
7.000051213203854
100
AcDbArc
 50
90.0002430827012
 51
179.999842847214
  0
ARC
  5
2252
330
2
100
AcDbEntity
  8
0
100
AcDbCircle
 10
52.26072721920349
 20
243.1873491018212
 30
0.0
 40
9.000051213203853
100
AcDbArc
 50
90.0002430827012
 51
177.3436678381892
  0
ARC
  5
2253
330
2
100
AcDbEntity
  8
HOJO
100
AcDbCircle
 10
42.51070600601855
 20
240.1874002199606
 30
0.0
 40
1.600781999999999
100
AcDbArc
 50
67.16467299999876
 51
141.3418685641838
  0
LINE
  5
2254
330
2
100
AcDbEntity
  8
HOJO
100
AcDbLine
 10
41.2606760060184
 20
241.1874362152965
 30
0.0
 11
41.2606760060184
 21
240.9486038959601
 31
0.0
  0
LINE
  5
2255
330
2
100
AcDbEntity
  8
HOJO
100
AcDbLine
 10
43.13199800601859
 20
241.6627122199606
 30
0.0
 11
45.38959700601862
 21
240.7121042199606
 31
0.0
  0
LINE
  5
2256
330
2
100
AcDbEntity
  8
HOJO
100
AcDbLine
 10
43.13199800601859
 20
243.6627122199606
 30
0.0
 11
45.38959700601862
 21
242.7121042199607
 31
0.0
  0
LINE
  5
2257
330
2
100
AcDbEntity
  8
0
100
AcDbLine
 10
45.2606760060184
 20
243.1873491018212
 30
0.0
 11
45.26067600601817
 21
242.7663890304909
 31
0.0
  0
ARC
  5
2258
330
2
100
AcDbEntity
  8
HOJO
100
AcDbCircle
 10
46.01070600601855
 20
242.1874002199606
 30
0.0
 40
1.600781
100
AcDbArc
 50
247.1647029999995
 51
321.3401944016193
  0
ARC
  5
2259
330
2
100
AcDbEntity
  8
HOJO
100
AcDbCircle
 10
46.01070600601855
 20
244.1874002199606
 30
0.0
 40
1.600781
100
AcDbArc
 50
247.1647029999995
 51
321.3401944016193
  0
ARC
  5
225A
330
2
100
AcDbEntity
  8
0
100
AcDbCircle
 10
52.26070600601855
 20
243.18740031498
 30
0.0
 40
9.0
100
AcDbArc
 50
90.0
 51
123.3057915968514
  0
LINE
  5
225B
330
2
100
AcDbEntity
  8
0
100
AcDbLine
 10
52.26053997137359
 20
254.1872903134069
 30
0.0
 11
52.69308279941236
 21
254.1872903134069
 31
0.0
  0
LINE
  5
225C
330
2
100
AcDbEntity
  8
0
100
AcDbLine
 10
52.26053997137359
 20
248.1872903134069
 30
0.0
 11
52.69308279941236
 21
248.1872903134069
 31
0.0
  0
LINE
  5
225D
330
2
100
AcDbEntity
  8
0
100
AcDbLine
 10
52.26053997137359
 20
252.1872903134069
 30
0.0
 11
52.69308279941236
 21
252.1872903134069
 31
0.0
  0
LINE
  5
225E
330
2
100
AcDbEntity
  8
0
100
AcDbLine
 10
52.26053997137359
 20
250.1872903134069
 30
0.0
 11
52.69308279941236
 21
250.1872903134069
 31
0.0
  0
LINE
  5
225F
330
2
100
AcDbEntity
  8
0
100
AcDbLine
 10
66.00530619031042
 20
245.9071088229229
 30
0.0
 11
77.25733388568869
 21
241.9359999416949
 31
0.0
  0
LINE
  5
2260
330
2
100
AcDbEntity
  8
0
100
AcDbLine
 10
67.33652852940008
 20
249.6790906738744
 30
0.0
 11
78.58855622477836
 21
245.7079817926465
 31
0.0
  0
LINE
  5
2261
330
2
100
AcDbEntity
  8
0
100
AcDbLine
 10
66.67091735985491
 20
247.7930997483987
 30
0.0
 11
77.92294505523364
 21
243.8219908671707
 31
0.0
  0
LINE
  5
2262
330
2
100
AcDbEntity
  8
0
100
AcDbLine
 10
68.0021396989448
 20
251.5650815993503
 30
0.0
 11
79.25416739432353
 21
247.5939727181223
 31
0.0
  0
LINE
  5
2263
330
2
100
AcDbEntity
  8
0
100
AcDbLine
 10
124.3198885480262
 20
254.5489179426064
 30
0.0
 11
124.3198885480262
 21
256.3489179426063
 31
0.0
  0
LINE
  5
2264
330
2
100
AcDbEntity
  8
0
100
AcDbLine
 10
118.3198885480262
 20
264.1989179426063
 30
0.0
 11
118.3198885480262
 21
251.6989179426063
 31
0.0
  0
LINE
  5
2265
330
2
100
AcDbEntity
  8
0
100
AcDbLine
 10
116.3198885480262
 20
264.1989179426063
 30
0.0
 11
116.3198885480262
 21
251.6989179426063
 31
0.0
  0
LINE
  5
2266
330
2
100
AcDbEntity
  8
0
100
AcDbLine
 10
127.8198885480262
 20
264.1989179426063
 30
0.0
 11
127.8198885480262
 21
251.6989179426063
 31
0.0
  0
LINE
  5
2267
330
2
100
AcDbEntity
  8
0
100
AcDbLine
 10
127.8198885480262
 20
264.1989179426063
 30
0.0
 11
127.8198885480262
 21
251.6989179426063
 31
0.0
  0
ARC
  5
2268
330
2
100
AcDbEntity
  8
0
100
AcDbCircle
 10
125.9198885480261
 20
254.5489179426064
 30
0.0
 40
0.1
100
AcDbArc
 50
90.0
 51
180.0
  0
LINE
  5
2269
330
2
100
AcDbEntity
  8
0
100
AcDbLine
 10
100.4416215596747
 20
254.9361285966769
 30
0.0
 11
106.5856938392651
 21
253.8527628823621
 31
0.0
  0
LINE
  5
226A
330
2
100
AcDbEntity
  8
0
100
AcDbLine
 10
100.4416215596747
 20
253.7528820585557
 30
0.0
 11
100.4416215596747
 21
262.1449538266573
 31
0.0
  0
LINE
  5
226B
330
2
100
AcDbEntity
  8
0
100
AcDbLine
 10
97.65211647180695
 20
253.7658400322842
 30
0.0
 11
93.58503079978005
 21
254.699578379339
 31
0.0
  0
LINE
  5
226C
330
2
100
AcDbEntity
  8
0
100
AcDbLine
 10
127.8198885480262
 20
251.6989179426063
 30
0.0
 11
116.3198885480262
 21
251.6989179426063
 31
0.0
  0
LINE
  5
226D
330
2
100
AcDbEntity
  8
0
100
AcDbLine
 10
93.04435710828807
 20
241.3137912276381
 30
0.0
 11
122.5123617164113
 21
238.7356748876976
 31
0.0
  0
LINE
  5
226E
330
2
100
AcDbEntity
  8
0
100
AcDbLine
 10
92.95703522247094
 20
239.3137912276381
 30
0.0
 11
122.3380502309159
 21
236.7432854915141
 31
0.0
  0
LINE
  5
226F
330
2
100
AcDbEntity
  8
0
100
AcDbLine
 10
93.04435710828807
 20
243.3137912276381
 30
0.0
 11
122.5190903016728
 21
245.8924962425105
 31
0.0
  0
LINE
  5
2270
330
2
100
AcDbEntity
  8
0
100
AcDbLine
 10
92.95703522247094
 20
245.3137912276381
 30
0.0
 11
122.3447788161774
 21
247.884885638694
 31
0.0
  0
LINE
  5
2271
330
2
100
AcDbEntity
  8
0
100
AcDbLine
 10
122.4570352224709
 20
243.3137912276381
 30
0.0
 11
92.56639078521288
 21
243.3137912276381
 31
0.0
  0
LINE
  5
2272
330
2
100
AcDbEntity
  8
0
100
AcDbLine
 10
122.4570352224709
 20
241.3137912276381
 30
0.0
 11
92.56639078521244
 21
241.3137912276381
 31
0.0
  0
LINE
  5
2273
330
2
100
AcDbEntity
  8
0
100
AcDbLine
 10
92.95703522247094
 20
239.3137912276381
 30
0.0
 11
92.56639078521198
 21
239.3137912276381
 31
0.0
  0
LINE
  5
2274
330
2
100
AcDbEntity
  8
0
100
AcDbLine
 10
100.4385831102772
 20
253.7181524230224
 30
0.0
 11
106.4807074430334
 21
252.6527628823622
 31
0.0
  0
ARC
  5
2275
330
2
100
AcDbEntity
  8
0
100
AcDbCircle
 10
97.74162155967497
 20
254.1556974924485
 30
0.0
 40
0.4
100
AcDbArc
 50
257.0698677002805
 51
326.0187104207581
  0
LINE
  5
2276
330
2
100
AcDbEntity
  8
0
100
AcDbLine
 10
98.07330961468029
 20
253.9321286346736
 30
0.0
 11
100.2068919241414
 21
253.5559205079532
 31
0.0
  0
ARC
  5
2277
330
2
100
AcDbEntity
  8
0
100
AcDbCircle
 10
100.2416215596747
 20
253.7528820585557
 30
0.0
 40
0.2
100
AcDbArc
 50
260.0000000000013
 51
0.0
  0
LINE
  5
2278
330
2
100
AcDbEntity
  8
0
100
AcDbLine
 10
92.95703522247094
 20
245.3137912276381
 30
0.0
 11
92.56639078522153
 21
245.3137912276381
 31
0.0
  0
LINE
  5
2279
330
2
100
AcDbEntity
  8
0
100
AcDbLine
 10
116.3198885480262
 20
253.5489179426064
 30
0.0
 11
110.0586573926041
 21
253.5489179426063
 31
0.0
  0
LINE
  5
227A
330
2
100
AcDbEntity
  8
0
100
AcDbLine
 10
116.3198885480262
 20
252.3489179426064
 30
0.0
 11
109.9536709963722
 21
252.3489179426063
 31
0.0
  0
ARC
  5
227B
330
2
100
AcDbEntity
  8
0
100
AcDbCircle
 10
110.0586573926038
 20
273.5489179426064
 30
0.0
 40
20.0
100
AcDbArc
 50
260.0000000000013
 51
270.0
  0
ARC
  5
227C
330
2
100
AcDbEntity
  8
0
100
AcDbCircle
 10
109.9536709963722
 20
272.3489179426064
 30
0.0
 40
20.0
100
AcDbArc
 50
260.0000000000013
 51
270.0
  0
LINE
  5
227D
330
2
100
AcDbEntity
  8
0
100
AcDbLine
 10
122.3380502309159
 20
236.7432854915141
 30
0.0
 11
122.5123617164113
 21
238.7356748876975
 31
0.0
  0
LINE
  5
227E
330
2
100
AcDbEntity
  8
0
100
AcDbLine
 10
122.4570352224709
 20
241.3137912276381
 30
0.0
 11
122.4570352224709
 21
243.3137912276381
 31
0.0
  0
LINE
  5
227F
330
2
100
AcDbEntity
  8
0
100
AcDbLine
 10
127.4129080493837
 20
237.3031128009356
 30
0.0
 11
122.4319345589251
 21
237.7388915146739
 31
0.0
  0
LINE
  5
2280
330
2
100
AcDbEntity
  8
0
100
AcDbLine
 10
127.3824035394222
 20
236.9544446566035
 30
0.0
 11
122.4014300489634
 21
237.3902233703418
 31
0.0
  0
LINE
  5
2281
330
2
100
AcDbEntity
  8
0
100
AcDbLine
 10
127.3518990294605
 20
236.6057765122714
 30
0.0
 11
122.3709255390017
 21
237.0415552260096
 31
0.0
  0
LINE
  5
2282
330
2
100
AcDbEntity
  8
0
100
AcDbLine
 10
127.4907989161433
 20
237.9989721193823
 30
0.0
 11
122.4929435788485
 21
238.436227803338
 31
0.0
  0
LINE
  5
2283
330
2
100
AcDbEntity
  8
0
100
AcDbLine
 10
127.4434125593454
 20
237.6517809452677
 30
0.0
 11
122.4624390688868
 21
238.0875596590059
 31
0.0
  0
LINE
  5
2284
330
2
100
AcDbEntity
  8
0
100
AcDbLine
 10
127.4570352224709
 20
243.013791227638
 30
0.0
 11
122.4570352224709
 21
243.013791227638
 31
0.0
  0
LINE
  5
2285
330
2
100
AcDbEntity
  8
0
100
AcDbLine
 10
127.4570352224709
 20
242.663791227638
 30
0.0
 11
122.4570352224709
 21
242.663791227638
 31
0.0
  0
LINE
  5
2286
330
2
100
AcDbEntity
  8
0
100
AcDbLine
 10
127.4570352224709
 20
242.3137912276381
 30
0.0
 11
122.4570352224709
 21
242.3137912276381
 31
0.0
  0
LINE
  5
2287
330
2
100
AcDbEntity
  8
0
100
AcDbLine
 10
127.4570352224709
 20
241.6137912276381
 30
0.0
 11
122.4570352224709
 21
241.6137912276381
 31
0.0
  0
LINE
  5
2288
330
2
100
AcDbEntity
  8
0
100
AcDbLine
 10
127.4570352224709
 20
241.9637912276381
 30
0.0
 11
122.4570352224709
 21
241.9637912276381
 31
0.0
  0
LINE
  5
2289
330
2
100
AcDbEntity
  8
0
100
AcDbLine
 10
126.7198885480261
 20
253.7489179426064
 30
0.0
 11
125.9198885480261
 21
253.7489179426064
 31
0.0
  0
LINE
  5
228A
330
2
100
AcDbEntity
  8
0
100
AcDbLine
 10
126.7198885480261
 20
252.1489179426064
 30
0.0
 11
125.9198885480261
 21
252.1489179426064
 31
0.0
  0
LINE
  5
228B
330
2
100
AcDbEntity
  8
0
100
AcDbLine
 10
125.8198885480262
 20
254.1989179426063
 30
0.0
 11
125.8198885480262
 21
254.5489179426064
 31
0.0
  0
ARC
  5
228C
330
2
100
AcDbEntity
  8
0
100
AcDbCircle
 10
125.9198885480261
 20
253.8489179426063
 30
0.0
 40
0.1
100
AcDbArc
 50
180.0
 51
270.0
  0
LINE
  5
228D
330
2
100
AcDbEntity
  8
0
100
AcDbLine
 10
125.8198885480262
 20
254.1989179426063
 30
0.0
 11
125.8198885480262
 21
253.8489179426063
 31
0.0
  0
LINE
  5
228E
330
2
100
AcDbEntity
  8
0
100
AcDbLine
 10
125.8198885480262
 20
251.6989179426063
 30
0.0
 11
125.8198885480262
 21
252.0489179426064
 31
0.0
  0
ARC
  5
228F
330
2
100
AcDbEntity
  8
0
100
AcDbCircle
 10
125.9198885480261
 20
252.0489179426064
 30
0.0
 40
0.1
100
AcDbArc
 50
90.0
 51
180.0
  0
ARC
  5
2290
330
2
100
AcDbEntity
  8
0
100
AcDbCircle
 10
126.7198885480261
 20
253.6489179426064
 30
0.0
 40
0.1
100
AcDbArc
 50
0.0
 51
90.0
  0
ARC
  5
2291
330
2
100
AcDbEntity
  8
0
100
AcDbCircle
 10
126.7198885480261
 20
252.2489179426064
 30
0.0
 40
0.1
100
AcDbArc
 50
270.0
 51
0.0
  0
LINE
  5
2292
330
2
100
AcDbEntity
  8
0
100
AcDbLine
 10
126.8198885480262
 20
253.6489179426064
 30
0.0
 11
126.8198885480262
 21
252.2489179426064
 31
0.0
  0
LINE
  5
2293
330
2
100
AcDbEntity
  8
0
100
AcDbLine
 10
122.3447788161774
 20
247.884885638694
 30
0.0
 11
122.5190903016728
 21
245.8924962425105
 31
0.0
  0
LINE
  5
2294
330
2
100
AcDbEntity
  8
0
100
AcDbLine
 10
124.2198885480263
 20
254.4489179426063
 30
0.0
 11
120.9198885480261
 21
254.4489179426063
 31
0.0
  0
LINE
  5
2295
330
2
100
AcDbEntity
  8
0
100
AcDbLine
 10
124.2198885480263
 20
253.9489179426063
 30
0.0
 11
120.9198885480261
 21
253.9489179426063
 31
0.0
  0
ARC
  5
2296
330
2
100
AcDbEntity
  8
0
100
AcDbCircle
 10
120.9198885480261
 20
254.3489179426063
 30
0.0
 40
0.1
100
AcDbArc
 50
90.0
 51
180.0
  0
LINE
  5
2297
330
2
100
AcDbEntity
  8
0
100
AcDbLine
 10
120.8198885480262
 20
254.1989179426063
 30
0.0
 11
120.8198885480262
 21
254.3489179426063
 31
0.0
  0
ARC
  5
2298
330
2
100
AcDbEntity
  8
0
100
AcDbCircle
 10
120.9198885480261
 20
254.0489179426064
 30
0.0
 40
0.1
100
AcDbArc
 50
180.0
 51
270.0
  0
LINE
  5
2299
330
2
100
AcDbEntity
  8
0
100
AcDbLine
 10
120.8198885480262
 20
254.1989179426063
 30
0.0
 11
120.8198885480262
 21
254.0489179426064
 31
0.0
  0
ARC
  5
229A
330
2
100
AcDbEntity
  8
0
100
AcDbCircle
 10
124.2198885480263
 20
254.5489179426064
 30
0.0
 40
0.1
100
AcDbArc
 50
270.0
 51
0.0
  0
ARC
  5
229B
330
2
100
AcDbEntity
  8
0
100
AcDbCircle
 10
124.2198885480263
 20
253.8489179426063
 30
0.0
 40
0.1
100
AcDbArc
 50
0.0
 51
90.0
  0
LINE
  5
229C
330
2
100
AcDbEntity
  8
0
100
AcDbLine
 10
124.2198885480263
 20
251.9489179426063
 30
0.0
 11
120.9198885480261
 21
251.9489179426063
 31
0.0
  0
ARC
  5
229D
330
2
100
AcDbEntity
  8
0
100
AcDbCircle
 10
120.9198885480261
 20
251.8489179426063
 30
0.0
 40
0.1
100
AcDbArc
 50
90.0
 51
180.0
  0
LINE
  5
229E
330
2
100
AcDbEntity
  8
0
100
AcDbLine
 10
120.8198885480262
 20
251.8489179426063
 30
0.0
 11
120.8198885480262
 21
251.6989179426063
 31
0.0
  0
ARC
  5
229F
330
2
100
AcDbEntity
  8
0
100
AcDbCircle
 10
124.2198885480263
 20
252.0489179426064
 30
0.0
 40
0.1
100
AcDbArc
 50
270.0
 51
0.0
  0
LINE
  5
22A0
330
2
100
AcDbEntity
  8
0
100
AcDbLine
 10
124.3198885480262
 20
253.8489179426063
 30
0.0
 11
124.3198885480262
 21
252.0489179426064
 31
0.0
  0
LINE
  5
22A1
330
2
100
AcDbEntity
  8
0
100
AcDbLine
 10
127.3518990294605
 20
248.0218059430047
 30
0.0
 11
122.3709255390017
 21
247.5860272292665
 31
0.0
  0
LINE
  5
22A2
330
2
100
AcDbEntity
  8
0
100
AcDbLine
 10
127.3824035394222
 20
247.6731377986726
 30
0.0
 11
122.4014300489634
 21
247.2373590849343
 31
0.0
  0
LINE
  5
22A3
330
2
100
AcDbEntity
  8
0
100
AcDbLine
 10
127.4129080493837
 20
247.3244696543405
 30
0.0
 11
122.4319345589251
 21
246.8886909406022
 31
0.0
  0
LINE
  5
22A4
330
2
100
AcDbEntity
  8
0
100
AcDbLine
 10
127.4907989161436
 20
246.6286103358938
 30
0.0
 11
122.4929435788485
 21
246.1913546519379
 31
0.0
  0
LINE
  5
22A5
330
2
100
AcDbEntity
  8
0
100
AcDbLine
 10
127.4434125593454
 20
246.9758015100083
 30
0.0
 11
122.4624390688868
 21
246.5400227962701
 31
0.0
  0
LINE
  5
22A6
330
2
100
AcDbEntity
  8
0
100
AcDbLine
 10
127.8198885480262
 20
264.1989179426063
 30
0.0
 11
116.3198885480262
 21
264.1989179426063
 31
0.0
  0
LINE
  5
22A7
330
2
100
AcDbEntity
  8
0
100
AcDbLine
 10
100.4416215596747
 20
260.9617072885358
 30
0.0
 11
106.5856938392644
 21
262.0450730028504
 31
0.0
  0
LINE
  5
22A8
330
2
100
AcDbEntity
  8
0
100
AcDbLine
 10
106.7217786058759
 20
260.9728119044413
 30
0.0
 11
100.4416215596747
 21
260.4233693577362
 31
0.0
  0
LINE
  5
22A9
330
2
100
AcDbEntity
  8
0
100
AcDbLine
 10
106.7741717373658
 20
259.7728119044412
 30
0.0
 11
100.4416215596747
 21
259.2187855526842
 31
0.0
  0
LINE
  5
22AA
330
2
100
AcDbEntity
  8
0
100
AcDbLine
 10
106.7217786058786
 20
254.9250239807714
 30
0.0
 11
100.4416215596747
 21
255.4744665274767
 31
0.0
  0
LINE
  5
22AB
330
2
100
AcDbEntity
  8
0
100
AcDbLine
 10
106.7741717373696
 20
256.1250239807713
 30
0.0
 11
100.4416215596747
 21
256.6790503325287
 31
0.0
  0
LINE
  5
22AC
330
2
100
AcDbEntity
  8
0
100
AcDbLine
 10
100.4385831102772
 20
262.1796834621906
 30
0.0
 11
106.4807074430332
 21
263.2450730028506
 31
0.0
  0
LINE
  5
22AD
330
2
100
AcDbEntity
  8
0
100
AcDbLine
 10
116.3198885480262
 20
258.5489179426064
 30
0.0
 11
100.4416215596747
 21
258.5489179426064
 31
0.0
  0
LINE
  5
22AE
330
2
100
AcDbEntity
  8
0
100
AcDbLine
 10
116.3198885480262
 20
257.3489179426065
 30
0.0
 11
100.4416215596747
 21
257.3489179426062
 31
0.0
  0
LINE
  5
22AF
330
2
100
AcDbEntity
  8
0
100
AcDbLine
 10
99.07465866475968
 20
262.1422721051751
 30
0.0
 11
100.2068919241414
 21
262.3419153772597
 31
0.0
  0
ARC
  5
22B0
330
2
100
AcDbEntity
  8
0
100
AcDbCircle
 10
98.74162155967496
 20
261.9207178530454
 30
0.0
 40
0.4
100
AcDbArc
 50
33.63399402201179
 51
102.4264747477324
  0
ARC
  5
22B1
330
2
100
AcDbEntity
  8
0
100
AcDbCircle
 10
100.2416215596747
 20
262.1449538266573
 30
0.0
 40
0.2
100
AcDbArc
 50
0.0
 51
99.99999999999861
  0
LINE
  5
22B2
330
2
100
AcDbEntity
  8
0
100
AcDbLine
 10
98.65554692100772
 20
262.3113470334433
 30
0.0
 11
93.61005053705525
 21
261.199578379339
 31
0.0
  0
LINE
  5
22B3
330
2
100
AcDbEntity
  8
0
100
AcDbLine
 10
90.67500090386671
 20
254.8995783793391
 30
0.0
 11
90.67500090386671
 21
260.9995783793391
 31
0.0
  0
ARC
  5
22B4
330
2
100
AcDbEntity
  8
0
100
AcDbCircle
 10
90.87500090386674
 20
254.8995783793391
 30
0.0
 40
0.2
100
AcDbArc
 50
180.0
 51
270.0
  0
ARC
  5
22B5
330
2
100
AcDbEntity
  8
0
100
AcDbCircle
 10
90.87500090386674
 20
260.9995783793391
 30
0.0
 40
0.2
100
AcDbArc
 50
90.0
 51
180.0
  0
LINE
  5
22B6
330
2
100
AcDbEntity
  8
0
100
AcDbLine
 10
90.87500090386674
 20
254.699578379339
 30
0.0
 11
93.58503079977982
 21
254.699578379339
 31
0.0
  0
LINE
  5
22B7
330
2
100
AcDbEntity
  8
0
100
AcDbLine
 10
90.87500090386674
 20
261.1995783793391
 30
0.0
 11
93.61005053705525
 21
261.1995783793391
 31
0.0
  0
LINE
  5
22B8
330
2
100
AcDbEntity
  8
0
100
AcDbLine
 10
116.3198885480262
 20
263.5489179426063
 30
0.0
 11
109.9536709963717
 21
263.5489179426063
 31
0.0
  0
LINE
  5
22B9
330
2
100
AcDbEntity
  8
0
100
AcDbLine
 10
116.3198885480262
 20
262.3489179426063
 30
0.0
 11
110.0586573926027
 21
262.3489179426063
 31
0.0
  0
ARC
  5
22BA
330
2
100
AcDbEntity
  8
0
100
AcDbCircle
 10
108.4648934608319
 20
274.8489179426063
 30
0.0
 40
20.0
100
AcDbArc
 50
265.0000000000003
 51
270.0
  0
ARC
  5
22BB
330
2
100
AcDbEntity
  8
0
100
AcDbCircle
 10
108.5172865923191
 20
239.8489179426063
 30
0.0
 40
20.0
100
AcDbArc
 50
90.0
 51
94.99999999999975
  0
ARC
  5
22BC
330
2
100
AcDbEntity
  8
0
100
AcDbCircle
 10
108.4648934608289
 20
241.0489179426063
 30
0.0
 40
20.0
100
AcDbArc
 50
90.0
 51
94.99999999999975
  0
ARC
  5
22BD
330
2
100
AcDbEntity
  8
0
100
AcDbCircle
 10
108.5172865923229
 20
276.0489179426063
 30
0.0
 40
20.0
100
AcDbArc
 50
265.0000000000003
 51
270.0
  0
LINE
  5
22BE
330
2
100
AcDbEntity
  8
0
100
AcDbLine
 10
116.3198885480262
 20
254.8489179426063
 30
0.0
 11
108.4648934608319
 21
254.8489179426063
 31
0.0
  0
ARC
  5
22BF
330
2
100
AcDbEntity
  8
0
100
AcDbCircle
 10
109.9536709963717
 20
243.5489179426064
 30
0.0
 40
20.0
100
AcDbArc
 50
90.0
 51
99.99999999999861
  0
ARC
  5
22C0
330
2
100
AcDbEntity
  8
0
100
AcDbCircle
 10
110.0586573926029
 20
242.3489179426062
 30
0.0
 40
20.0
100
AcDbArc
 50
90.0
 51
99.99999999999861
  0
LINE
  5
22C1
330
2
100
AcDbEntity
  8
0
100
AcDbLine
 10
116.3198885480262
 20
261.0489179426064
 30
0.0
 11
108.4648934608287
 21
261.0489179426063
 31
0.0
  0
LINE
  5
22C2
330
2
100
AcDbEntity
  8
0
100
AcDbLine
 10
116.3198885480262
 20
259.8489179426064
 30
0.0
 11
108.5172865923188
 21
259.8489179426063
 31
0.0
  0
LINE
  5
22C3
330
2
100
AcDbEntity
  8
0
100
AcDbLine
 10
116.3198885480262
 20
256.0489179426064
 30
0.0
 11
108.5172865923229
 21
256.0489179426062
 31
0.0
  0
LINE
  5
22C4
330
2
100
AcDbEntity
  8
0
100
AcDbLine
 10
126.8198885480262
 20
254.7489179426063
 30
0.0
 11
126.8198885480262
 21
256.1489179426064
 31
0.0
  0
LINE
  5
22C5
330
2
100
AcDbEntity
  8
0
100
AcDbLine
 10
126.7198885480261
 20
254.6489179426064
 30
0.0
 11
125.9198885480261
 21
254.6489179426064
 31
0.0
  0
ARC
  5
22C6
330
2
100
AcDbEntity
  8
0
100
AcDbCircle
 10
126.7198885480261
 20
254.7489179426063
 30
0.0
 40
0.1
100
AcDbArc
 50
270.0
 51
0.0
  0
LINE
  5
22C7
330
2
100
AcDbEntity
  8
0
100
AcDbLine
 10
125.8198885480262
 20
264.1989179426063
 30
0.0
 11
125.8198885480262
 21
263.8489179426063
 31
0.0
  0
LINE
  5
22C8
330
2
100
AcDbEntity
  8
0
100
AcDbLine
 10
126.7198885480261
 20
263.7489179426064
 30
0.0
 11
125.9198885480261
 21
263.7489179426064
 31
0.0
  0
LINE
  5
22C9
330
2
100
AcDbEntity
  8
0
100
AcDbLine
 10
126.7198885480261
 20
257.1489179426064
 30
0.0
 11
125.9198885480261
 21
257.1489179426064
 31
0.0
  0
LINE
  5
22CA
330
2
100
AcDbEntity
  8
0
100
AcDbLine
 10
126.7198885480261
 20
258.7489179426064
 30
0.0
 11
125.9198885480261
 21
258.7489179426064
 31
0.0
  0
LINE
  5
22CB
330
2
100
AcDbEntity
  8
0
100
AcDbLine
 10
126.7198885480261
 20
259.6489179426064
 30
0.0
 11
125.9198885480261
 21
259.6489179426064
 31
0.0
  0
LINE
  5
22CC
330
2
100
AcDbEntity
  8
0
100
AcDbLine
 10
126.7198885480261
 20
261.2489179426064
 30
0.0
 11
125.9198885480261
 21
261.2489179426064
 31
0.0
  0
LINE
  5
22CD
330
2
100
AcDbEntity
  8
0
100
AcDbLine
 10
126.7198885480261
 20
262.1489179426064
 30
0.0
 11
125.9198885480261
 21
262.1489179426064
 31
0.0
  0
LINE
  5
22CE
330
2
100
AcDbEntity
  8
0
100
AcDbLine
 10
126.7198885480261
 20
256.2489179426064
 30
0.0
 11
125.9198885480261
 21
256.2489179426064
 31
0.0
  0
ARC
  5
22CF
330
2
100
AcDbEntity
  8
0
100
AcDbCircle
 10
125.9198885480261
 20
263.8489179426063
 30
0.0
 40
0.1
100
AcDbArc
 50
180.0
 51
270.0
  0
ARC
  5
22D0
330
2
100
AcDbEntity
  8
0
100
AcDbCircle
 10
125.9198885480261
 20
257.0489179426064
 30
0.0
 40
0.1
100
AcDbArc
 50
90.0
 51
180.0
  0
LINE
  5
22D1
330
2
100
AcDbEntity
  8
0
100
AcDbLine
 10
125.8198885480262
 20
256.6989179426063
 30
0.0
 11
125.8198885480262
 21
257.0489179426064
 31
0.0
  0
ARC
  5
22D2
330
2
100
AcDbEntity
  8
0
100
AcDbCircle
 10
125.9198885480261
 20
261.3489179426063
 30
0.0
 40
0.1
100
AcDbArc
 50
180.0
 51
270.0
  0
LINE
  5
22D3
330
2
100
AcDbEntity
  8
0
100
AcDbLine
 10
125.8198885480262
 20
259.1989179426064
 30
0.0
 11
125.8198885480262
 21
258.8489179426063
 31
0.0
  0
LINE
  5
22D4
330
2
100
AcDbEntity
  8
0
100
AcDbLine
 10
125.8198885480262
 20
259.1989179426064
 30
0.0
 11
125.8198885480262
 21
259.5489179426063
 31
0.0
  0
ARC
  5
22D5
330
2
100
AcDbEntity
  8
0
100
AcDbCircle
 10
125.9198885480261
 20
259.5489179426063
 30
0.0
 40
0.1
100
AcDbArc
 50
90.0
 51
180.0
  0
ARC
  5
22D6
330
2
100
AcDbEntity
  8
0
100
AcDbCircle
 10
125.9198885480261
 20
258.8489179426063
 30
0.0
 40
0.1
100
AcDbArc
 50
180.0
 51
270.0
  0
LINE
  5
22D7
330
2
100
AcDbEntity
  8
0
100
AcDbLine
 10
125.8198885480262
 20
261.6989179426064
 30
0.0
 11
125.8198885480262
 21
262.0489179426064
 31
0.0
  0
ARC
  5
22D8
330
2
100
AcDbEntity
  8
0
100
AcDbCircle
 10
125.9198885480261
 20
262.0489179426064
 30
0.0
 40
0.1
100
AcDbArc
 50
90.0
 51
180.0
  0
LINE
  5
22D9
330
2
100
AcDbEntity
  8
0
100
AcDbLine
 10
125.8198885480262
 20
261.6989179426064
 30
0.0
 11
125.8198885480262
 21
261.3489179426063
 31
0.0
  0
LINE
  5
22DA
330
2
100
AcDbEntity
  8
0
100
AcDbLine
 10
125.8198885480262
 20
256.6989179426063
 30
0.0
 11
125.8198885480262
 21
256.3489179426063
 31
0.0
  0
ARC
  5
22DB
330
2
100
AcDbEntity
  8
0
100
AcDbCircle
 10
125.9198885480261
 20
256.3489179426063
 30
0.0
 40
0.1
100
AcDbArc
 50
180.0
 51
270.0
  0
ARC
  5
22DC
330
2
100
AcDbEntity
  8
0
100
AcDbCircle
 10
126.7198885480261
 20
263.6489179426064
 30
0.0
 40
0.1
100
AcDbArc
 50
0.0
 51
90.0
  0
ARC
  5
22DD
330
2
100
AcDbEntity
  8
0
100
AcDbCircle
 10
126.7198885480261
 20
257.2489179426063
 30
0.0
 40
0.1
100
AcDbArc
 50
270.0
 51
0.0
  0
LINE
  5
22DE
330
2
100
AcDbEntity
  8
0
100
AcDbLine
 10
126.8198885480262
 20
257.9489179426063
 30
0.0
 11
126.8198885480262
 21
257.2489179426063
 31
0.0
  0
ARC
  5
22DF
330
2
100
AcDbEntity
  8
0
100
AcDbCircle
 10
126.7198885480261
 20
259.7489179426064
 30
0.0
 40
0.1
100
AcDbArc
 50
270.0
 51
0.0
  0
LINE
  5
22E0
330
2
100
AcDbEntity
  8
0
100
AcDbLine
 10
126.8198885480262
 20
261.1489179426064
 30
0.0
 11
126.8198885480262
 21
259.7489179426064
 31
0.0
  0
ARC
  5
22E1
330
2
100
AcDbEntity
  8
0
100
AcDbCircle
 10
126.7198885480261
 20
261.1489179426064
 30
0.0
 40
0.1
100
AcDbArc
 50
0.0
 51
90.0
  0
ARC
  5
22E2
330
2
100
AcDbEntity
  8
0
100
AcDbCircle
 10
126.7198885480261
 20
258.6489179426064
 30
0.0
 40
0.1
100
AcDbArc
 50
0.0
 51
90.0
  0
ARC
  5
22E3
330
2
100
AcDbEntity
  8
0
100
AcDbCircle
 10
126.7198885480261
 20
262.2489179426063
 30
0.0
 40
0.1
100
AcDbArc
 50
270.0
 51
0.0
  0
LINE
  5
22E4
330
2
100
AcDbEntity
  8
0
100
AcDbLine
 10
126.8198885480262
 20
257.9489179426063
 30
0.0
 11
126.8198885480262
 21
258.6489179426064
 31
0.0
  0
ARC
  5
22E5
330
2
100
AcDbEntity
  8
0
100
AcDbCircle
 10
126.7198885480261
 20
256.1489179426064
 30
0.0
 40
0.1
100
AcDbArc
 50
0.0
 51
90.0
  0
LINE
  5
22E6
330
2
100
AcDbEntity
  8
0
100
AcDbLine
 10
126.8198885480262
 20
262.2489179426063
 30
0.0
 11
126.8198885480262
 21
263.6489179426064
 31
0.0
  0
ARC
  5
22E7
330
2
100
AcDbEntity
  8
0
100
AcDbCircle
 10
120.9198885480261
 20
264.0489179426064
 30
0.0
 40
0.1
100
AcDbArc
 50
180.0
 51
270.0
  0
ARC
  5
22E8
330
2
100
AcDbEntity
  8
0
100
AcDbCircle
 10
124.2198885480263
 20
263.8489179426063
 30
0.0
 40
0.1
100
AcDbArc
 50
0.0
 51
90.0
  0
LINE
  5
22E9
330
2
100
AcDbEntity
  8
0
100
AcDbLine
 10
124.2198885480263
 20
263.9489179426063
 30
0.0
 11
120.9198885480261
 21
263.9489179426063
 31
0.0
  0
ARC
  5
22EA
330
2
100
AcDbEntity
  8
0
100
AcDbCircle
 10
124.2198885480263
 20
257.0489179426064
 30
0.0
 40
0.1
100
AcDbArc
 50
270.0
 51
0.0
  0
LINE
  5
22EB
330
2
100
AcDbEntity
  8
0
100
AcDbLine
 10
124.3198885480262
 20
257.0489179426064
 30
0.0
 11
124.3198885480262
 21
257.9489179426063
 31
0.0
  0
LINE
  5
22EC
330
2
100
AcDbEntity
  8
0
100
AcDbLine
 10
124.2198885480263
 20
261.9489179426063
 30
0.0
 11
120.9198885480261
 21
261.9489179426063
 31
0.0
  0
LINE
  5
22ED
330
2
100
AcDbEntity
  8
0
100
AcDbLine
 10
124.2198885480263
 20
261.4489179426064
 30
0.0
 11
120.9198885480261
 21
261.4489179426064
 31
0.0
  0
LINE
  5
22EE
330
2
100
AcDbEntity
  8
0
100
AcDbLine
 10
124.2198885480263
 20
259.4489179426064
 30
0.0
 11
120.9198885480261
 21
259.4489179426064
 31
0.0
  0
LINE
  5
22EF
330
2
100
AcDbEntity
  8
0
100
AcDbLine
 10
124.2198885480263
 20
258.9489179426063
 30
0.0
 11
120.9198885480261
 21
258.9489179426063
 31
0.0
  0
ARC
  5
22F0
330
2
100
AcDbEntity
  8
0
100
AcDbCircle
 10
120.9198885480261
 20
261.5489179426063
 30
0.0
 40
0.1
100
AcDbArc
 50
180.0
 51
270.0
  0
LINE
  5
22F1
330
2
100
AcDbEntity
  8
0
100
AcDbLine
 10
120.8198885480262
 20
259.3489179426063
 30
0.0
 11
120.8198885480262
 21
259.0489179426064
 31
0.0
  0
ARC
  5
22F2
330
2
100
AcDbEntity
  8
0
100
AcDbCircle
 10
120.9198885480261
 20
259.3489179426063
 30
0.0
 40
0.1
100
AcDbArc
 50
90.0
 51
180.0
  0
ARC
  5
22F3
330
2
100
AcDbEntity
  8
0
100
AcDbCircle
 10
120.9198885480261
 20
259.0489179426064
 30
0.0
 40
0.1
100
AcDbArc
 50
180.0
 51
270.0
  0
LINE
  5
22F4
330
2
100
AcDbEntity
  8
0
100
AcDbLine
 10
120.8198885480262
 20
261.6989179426064
 30
0.0
 11
120.8198885480262
 21
261.8489179426063
 31
0.0
  0
ARC
  5
22F5
330
2
100
AcDbEntity
  8
0
100
AcDbCircle
 10
120.9198885480261
 20
261.8489179426063
 30
0.0
 40
0.1
100
AcDbArc
 50
90.0
 51
180.0
  0
LINE
  5
22F6
330
2
100
AcDbEntity
  8
0
100
AcDbLine
 10
120.8198885480262
 20
261.6989179426064
 30
0.0
 11
120.8198885480262
 21
261.5489179426063
 31
0.0
  0
LINE
  5
22F7
330
2
100
AcDbEntity
  8
0
100
AcDbLine
 10
124.3198885480262
 20
261.3489179426063
 30
0.0
 11
124.3198885480262
 21
259.5489179426063
 31
0.0
  0
ARC
  5
22F8
330
2
100
AcDbEntity
  8
0
100
AcDbCircle
 10
124.2198885480263
 20
261.3489179426063
 30
0.0
 40
0.1
100
AcDbArc
 50
0.0
 51
90.0
  0
ARC
  5
22F9
330
2
100
AcDbEntity
  8
0
100
AcDbCircle
 10
124.2198885480263
 20
259.5489179426063
 30
0.0
 40
0.1
100
AcDbArc
 50
270.0
 51
0.0
  0
ARC
  5
22FA
330
2
100
AcDbEntity
  8
0
100
AcDbCircle
 10
124.2198885480263
 20
258.8489179426063
 30
0.0
 40
0.1
100
AcDbArc
 50
0.0
 51
90.0
  0
ARC
  5
22FB
330
2
100
AcDbEntity
  8
0
100
AcDbCircle
 10
124.2198885480263
 20
262.0489179426064
 30
0.0
 40
0.1
100
AcDbArc
 50
270.0
 51
0.0
  0
LINE
  5
22FC
330
2
100
AcDbEntity
  8
0
100
AcDbLine
 10
124.3198885480262
 20
258.8489179426063
 30
0.0
 11
124.3198885480262
 21
257.9489179426063
 31
0.0
  0
LINE
  5
22FD
330
2
100
AcDbEntity
  8
0
100
AcDbLine
 10
124.2198885480263
 20
256.9489179426063
 30
0.0
 11
120.9198885480261
 21
256.9489179426063
 31
0.0
  0
LINE
  5
22FE
330
2
100
AcDbEntity
  8
0
100
AcDbLine
 10
124.2198885480263
 20
256.4489179426063
 30
0.0
 11
120.9198885480261
 21
256.4489179426063
 31
0.0
  0
ARC
  5
22FF
330
2
100
AcDbEntity
  8
0
100
AcDbCircle
 10
120.9198885480261
 20
256.8489179426063
 30
0.0
 40
0.1
100
AcDbArc
 50
90.0
 51
180.0
  0
LINE
  5
2300
330
2
100
AcDbEntity
  8
0
100
AcDbLine
 10
120.8198885480262
 20
256.5489179426064
 30
0.0
 11
120.8198885480262
 21
256.8489179426063
 31
0.0
  0
ARC
  5
2301
330
2
100
AcDbEntity
  8
0
100
AcDbCircle
 10
120.9198885480261
 20
256.5489179426064
 30
0.0
 40
0.1
100
AcDbArc
 50
180.0
 51
270.0
  0
ARC
  5
2302
330
2
100
AcDbEntity
  8
0
100
AcDbCircle
 10
124.2198885480263
 20
256.3489179426063
 30
0.0
 40
0.1
100
AcDbArc
 50
0.0
 51
90.0
  0
LINE
  5
2303
330
2
100
AcDbEntity
  8
0
100
AcDbLine
 10
124.3198885480262
 20
262.0489179426064
 30
0.0
 11
124.3198885480262
 21
263.8489179426063
 31
0.0
  0
LINE
  5
2304
330
2
100
AcDbEntity
  8
0
100
AcDbLine
 10
120.8198885480262
 20
264.0489179426064
 30
0.0
 11
120.8198885480262
 21
264.1989179426063
 31
0.0
  0
ENDSEC
  0
SECTION
  2
OBJECTS
  0
DICTIONARY
  5
7
330
0
100
AcDbDictionary
  3
ACAD_COLOR
350
203C
  3
ACAD_GROUP
350
75
  3
ACAD_LAYOUT
350
61
  3
ACAD_MATERIAL
350
2012
  3
ACAD_MLEADERSTYLE
350
2061
  3
ACAD_MLINESTYLE
350
76
  3
ACAD_PLOTSETTINGS
350
77
  3
ACAD_PLOTSTYLENAME
350
6
  3
ACAD_SCALELIST
350
203F
  3
ACAD_TABLESTYLE
350
203D
  3
ACAD_VISUALSTYLE
350
202B
  3
ACADDIM
350
1F93
  3
ACDB_RECOMPOSE_DATA
350
231A
  3
ACDBHEADERROUNDTRIPXREC
350
239C
  3
ACDBVARIABLEDICTIONARY
350
102
  3
DWGPROPS
350
231B
  0
DICTIONARY
  5
2323
330
6E
100
AcDbDictionary
280
     1
  3
ACAD_XREC_ROUNDTRIP
360
2324
  0
DICTIONARY
  5
2066
330
66
100
AcDbDictionary
280
     1
  3
ACAD_LAYERSTATES
360
2067
  0
DICTIONARY
  5
2308
330
5E
100
AcDbDictionary
280
     1
  3
ACAD_XREC_ROUNDTRIP
360
231E
  3
ADSK_XREC_LAYER_RECONCILED
360
2309
  0
DICTIONARY
  5
230A
330
3E
100
AcDbDictionary
280
     1
  3
ACAD_XREC_ROUNDTRIP
360
231D
  3
ADSK_XREC_LAYER_RECONCILED
360
230B
  0
DICTIONARY
  5
2310
330
2B5
100
AcDbDictionary
280
     1
  3
ACAD_XREC_ROUNDTRIP
360
232A
  3
ADSK_XREC_LAYER_RECONCILED
360
2311
  0
DICTIONARY
  5
2312
330
2BA
100
AcDbDictionary
280
     1
  3
ACAD_XREC_ROUNDTRIP
360
232B
  3
ADSK_XREC_LAYER_RECONCILED
360
2313
  0
DICTIONARY
  5
2316
330
3FA
100
AcDbDictionary
280
     1
  3
ACAD_XREC_ROUNDTRIP
360
232D
  3
ADSK_XREC_LAYER_RECONCILED
360
2317
  0
DICTIONARY
  5
23BD
330
2
100
AcDbDictionary
280
     1
  3
ACAD_LAYOUTSELFREF
360
23BE
  0
DICTIONARY
  5
23BF
330
2396
100
AcDbDictionary
280
     1
  3
ACAD_LAYOUTSELFREF
360
23C0
  0
DICTIONARY
  5
203C
102
{ACAD_REACTORS
330
7
102
}
330
7
100
AcDbDictionary
  0
DICTIONARY
  5
75
102
{ACAD_REACTORS
330
7
102
}
330
7
100
AcDbDictionary
  0
DICTIONARY
  5
61
102
{ACAD_REACTORS
330
7
102
}
330
7
100
AcDbDictionary
  0
DICTIONARY
  5
2012
102
{ACAD_REACTORS
330
7
102
}
330
7
100
AcDbDictionary
  3
BYBLOCK
350
201B
  3
BYLAYER
350
2013
  3
GLOBAL
350
2023
  0
DICTIONARY
  5
2061
102
{ACAD_REACTORS
330
7
102
}
330
7
100
AcDbDictionary
  3
STANDARD
350
2062
  0
DICTIONARY
  5
76
102
{ACAD_REACTORS
330
7
102
}
330
7
100
AcDbDictionary
  3
STANDARD
350
78
  0
DICTIONARY
  5
77
102
{ACAD_REACTORS
330
7
102
}
330
7
100
AcDbDictionary
  0
ACDBDICTIONARYWDFLT
  5
6
102
{ACAD_REACTORS
330
7
102
}
330
7
100
AcDbDictionary
281
     1
  3
Normal
350
5
100
AcDbDictionaryWithDefault
340
5
  0
DICTIONARY
  5
203F
102
{ACAD_REACTORS
330
7
102
}
330
7
100
AcDbDictionary
  3
A0
350
2040
  3
A1
350
2041
  3
A2
350
2042
  3
A3
350
2043
  3
A4
350
2044
  3
A5
350
2045
  3
A6
350
2046
  3
A7
350
2047
  3
A8
350
2048
  3
A9
350
2049
  3
B0
350
204A
  3
B1
350
204B
  3
B2
350
204C
  3
B3
350
204D
  3
B4
350
204E
  3
B5
350
204F
  3
B6
350
2050
  3
B7
350
2051
  3
B8
350
2052
  3
B9
350
2053
  3
C0
350
2054
  3
C1
350
2055
  3
C2
350
2056
  3
C3
350
2057
  3
C4
350
2058
  3
C5
350
2059
  3
C6
350
205A
  3
C7
350
205B
  3
C8
350
205C
  3
C9
350
205D
  3
D0
350
205E
  3
D1
350
205F
  3
D2
350
2060
  0
DICTIONARY
  5
203D
102
{ACAD_REACTORS
330
7
102
}
330
7
100
AcDbDictionary
  3
STANDARD
350
203E
  0
DICTIONARY
  5
202B
102
{ACAD_REACTORS
330
7
102
}
330
7
100
AcDbDictionary
  3
2DWIREFRAME
350
2031
  3
3D_HIDDEN
350
2033
  3
3DWIREFRAME
350
2032
  3
BASIC
350
2030
  3
BRIGHTEN
350
2037
  3
COLORCHANGE
350
203B
  3
CONCEPTUAL
350
2034
  3
DIM
350
2036
  3
FACEPATTERN
350
203A
  3
FLAT
350
202C
  3
FLATWITHEDGES
350
202D
  3
GOURAUD
350
202E
  3
GOURAUDWITHEDGES
350
202F
  3
LINEPATTERN
350
2039
  3
REALISTIC
350
2035
  3
THICKEN
350
2038
  0
XRECORD
  5
1F93
102
{ACAD_REACTORS
330
7
102
}
330
7
100
AcDbXrecord
 90
   990106
  3

 60
     0
 61
     0
 62
     1
 63
     3
 64
     1
 65
     0
 66
     0
 67
     3
 68
     1
 69
     0
 70
     0
 71
     0
 72
     0
 40
0.0
170
     2
340
0
  0
XRECORD
  5
231A
102
{ACAD_REACTORS
330
7
102
}
330
7
100
AcDbXrecord
 90
        1
330
203E
  0
DICTIONARY
  5
239C
102
{ACAD_REACTORS
330
7
102
}
330
7
100
AcDbDictionary
  3
CEPSNTYPE
350
23A6
  3
DIMSTYLEDATA
350
23AA
  3
FINGERPRINTGUID
350
23A7
  3
HYPERLINKBASE
350
239F
  3
INSUNITS
350
23A5
  3
LAYOUTDICT
350
23A1
  3
LWETCUNION
350
23A4
  3
PLOTSETDICT
350
23A2
  3
PLOTSTYLNAMDICT
350
23A3
  3
PSVPSCALE
350
23A9
  3
PUCSBASE
350
23AD
  3
PUCSORGBACK
350
23B3
  3
PUCSORGBOTTOM
350
23AF
  3
PUCSORGFRONT
350
23B2
  3
PUCSORGLEFT
350
23B0
  3
PUCSORGRIGHT
350
23B1
  3
PUCSORGTOP
350
23AE
  3
PUCSORTHOREF
350
23AB
  3
PUCSORTHOVIEW
350
23AC
  3
STYLESHEET
350
23A0
  3
TSTACKALIGN
350
239D
  3
TSTACKSIZE
350
239E
  3
UCSBASE
350
23B6
  3
UCSORGBACK
350
23BC
  3
UCSORGBOTTOM
350
23B8
  3
UCSORGFRONT
350
23BB
  3
UCSORGLEFT
350
23B9
  3
UCSORGRIGHT
350
23BA
  3
UCSORGTOP
350
23B7
  3
UCSORTHOREF
350
23B4
  3
UCSORTHOVIEW
350
23B5
  3
VERSIONGUID
350
23A8
  0
DICTIONARY
  5
102
102
{ACAD_REACTORS
330
7
102
}
330
7
100
AcDbDictionary
  3
CANNOSCALE
350
2336
  3
CMLEADERSTYLE
350
2335
  3
CTABLESTYLE
350
2334
  3
DIMASSOC
350
103
  3
INDEXCTL
350
2338
  3
SORTENTS
350
2337
  0
XRECORD
  5
231B
102
{ACAD_REACTORS
330
7
102
}
330
7
100
AcDbXrecord
  1
DWGPROPS COOKIE
  2

  3

  4

  6

  7

  8
ymorima
  9

300
=
301
=
302
=
303
=
304
=
305
=
306
=
307
=
308
=
309
=
 40
0.0778439467592593
 41
2453692.585557361
 42
2454498.647256944
  1

 90
        0
  0
XRECORD
  5
2324
102
{ACAD_REACTORS
330
2323
102
}
330
2323
100
AcDbXrecord
102
VTR_0.000_0.000_1.000_1.000_VISUALSTYLE
340
2031
102
VTR_0.000_0.000_1.000_1.000_GRIDDISPLAY
 70
     3
102
VTR_0.000_0.000_1.000_1.000_GRIDMAJOR
 70
     5
102
VTR_0.000_0.000_1.000_1.000_DEFAULTLIGHTING
280
     1
102
VTR_0.000_0.000_1.000_1.000_DEFAULTLIGHTINGTYPE
 70
     1
102
VTR_0.000_0.000_1.000_1.000_BRIGHTNESS
141
0.0
102
VTR_0.000_0.000_1.000_1.000_CONTRAST
142
0.0
  0
DICTIONARY
  5
2067
102
{ACAD_REACTORS
330
2066
102
}
330
2066
100
AcDbDictionary
  0
XRECORD
  5
231E
102
{ACAD_REACTORS
330
2308
102
}
330
2308
100
AcDbXrecord
102
MATERIAL
340
2023
  0
XRECORD
  5
2309
102
{ACAD_REACTORS
330
2308
102
}
330
2308
100
AcDbXrecord
290
     1
  0
XRECORD
  5
231D
102
{ACAD_REACTORS
330
230A
102
}
330
230A
100
AcDbXrecord
102
MATERIAL
340
2023
  0
XRECORD
  5
230B
102
{ACAD_REACTORS
330
230A
102
}
330
230A
100
AcDbXrecord
290
     1
  0
XRECORD
  5
232A
102
{ACAD_REACTORS
330
2310
102
}
330
2310
100
AcDbXrecord
102
MATERIAL
340
2023
  0
XRECORD
  5
2311
102
{ACAD_REACTORS
330
2310
102
}
330
2310
100
AcDbXrecord
290
     1
  0
XRECORD
  5
232B
102
{ACAD_REACTORS
330
2312
102
}
330
2312
100
AcDbXrecord
102
MATERIAL
340
2023
  0
XRECORD
  5
2313
102
{ACAD_REACTORS
330
2312
102
}
330
2312
100
AcDbXrecord
290
     1
  0
XRECORD
  5
232D
102
{ACAD_REACTORS
330
2316
102
}
330
2316
100
AcDbXrecord
102
MATERIAL
340
2023
  0
XRECORD
  5
2317
102
{ACAD_REACTORS
330
2316
102
}
330
2316
100
AcDbXrecord
290
     1
  0
XRECORD
  5
23BE
102
{ACAD_REACTORS
330
23BD
102
}
330
23BD
100
AcDbXrecord
340
2
  0
XRECORD
  5
23C0
102
{ACAD_REACTORS
330
23BF
102
}
330
23BF
100
AcDbXrecord
340
2396
  0
ACAD_PROXY_OBJECT
  5
201B
102
{ACAD_XDICTIONARY
360
201C
102
}
102
{ACAD_REACTORS
330
2012
102
}
330
2012
100
AcDbProxyObject
 90
      499
 91
      511
 93
     1340
310
42109E509B1BD8DAC02004014080404555555555555953FAA155555555555654FEA9AA400014080404555555555555953FAA155555555555654FEA9AA400000000000000E03F4080404555555555555953FAA155555555555654FEA9AA4014080404555555555555953FAA155555555555654FEA9AA4010201011555555555
310
55654FEA8555555555555953FAA6A9005020101155555555555654FEA8555555555555953FAA6A9000
 94
        0
1001
ACAD
1000
AcadProxyRoundTripData
1071
      504
1071
   655383
1070
     0
  0
ACAD_PROXY_OBJECT
  5
2013
102
{ACAD_XDICTIONARY
360
2014
102
}
102
{ACAD_REACTORS
330
2012
102
}
330
2012
100
AcDbProxyObject
 90
      499
 91
      511
 93
     1340
310
42109E53185E595C802004014080404555555555555953FAA155555555555654FEA9AA400014080404555555555555953FAA155555555555654FEA9AA400000000000000E03F4080404555555555555953FAA155555555555654FEA9AA4014080404555555555555953FAA155555555555654FEA9AA4010201011555555555
310
55654FEA8555555555555953FAA6A9005020101155555555555654FEA8555555555555953FAA6A9000
 94
        0
1001
ACAD
1000
AcadProxyRoundTripData
1071
      504
1071
   655383
1070
     0
  0
ACAD_PROXY_OBJECT
  5
2023
102
{ACAD_XDICTIONARY
360
2024
102
}
102
{ACAD_REACTORS
330
2012
102
}
330
2012
100
AcDbProxyObject
 90
      499
 91
      511
 93
     1332
310
41D1DB1BD8985B002004014080404555555555555953FAA155555555555654FEA9AA400014080404555555555555953FAA155555555555654FEA9AA400000000000000E03F4080404555555555555953FAA155555555555654FEA9AA4014080404555555555555953FAA155555555555654FEA9AA401020101155555555555
310
654FEA8555555555555953FAA6A9005020101155555555555654FEA8555555555555953FAA6A9000
 94
        0
1001
ACAD
1000
AcadProxyRoundTripData
1071
      504
1071
   655383
1070
     0
  0
ACAD_PROXY_OBJECT
  5
2062
102
{ACAD_REACTORS
330
2061
102
}
330
2061
100
AcDbProxyObject
 90
      499
 91
      511
 93
      618
310
40901902A4063FBFFFFFE056BD1B81E855B9FC0AD7A3703D0AD73F4254DD185B99185C990000AD7A3703D0AC73F90141901A02B5E8DC0F42B1CFC02B5E8DC0F42B1CFE5764000000000000300FC6
340
6A
340
0
340
16
340
0
 94
        0
1001
ACAD_MLEADERVER
1070
     2
1001
ACAD
1000
AcadProxyRoundTripData
1071
      508
1071
   655383
1070
     0
  0
MLINESTYLE
  5
78
102
{ACAD_REACTORS
330
76
102
}
330
76
100
AcDbMlineStyle
  2
STANDARD
 70
     0
  3

 62
     0
 51
90.0
 52
90.0
 71
     2
 49
0.5
 62
   256
  6
BYLAYER
 49
-0.5
 62
   256
  6
BYLAYER
  0
ACDBPLACEHOLDER
  5
5
102
{ACAD_REACTORS
330
6
102
}
330
6
100
AcDbPlaceHolder
280
     0
  0
ACAD_PROXY_OBJECT
  5
2040
102
{ACAD_REACTORS
330
203F
102
}
330
203F
100
AcDbProxyObject
 90
      499
 91
      511
 93
       49
310
904313A3100598
 94
        0
1001
ACAD
1000
AcadProxyRoundTripData
1071
      507
1071
   655383
1070
     0
  0
ACAD_PROXY_OBJECT
  5
2041
102
{ACAD_REACTORS
330
203F
102
}
330
203F
100
AcDbProxyObject
 90
      499
 91
      511
 93
      113
310
904313A3200400000000000000406B
 94
        0
1001
ACAD
1000
AcadProxyRoundTripData
1071
      507
1071
   655383
1070
     0
  0
ACAD_PROXY_OBJECT
  5
2042
102
{ACAD_REACTORS
330
203F
102
}
330
203F
100
AcDbProxyObject
 90
      499
 91
      511
 93
      113
310
904313A3400400000000000010406B
 94
        0
1001
ACAD
1000
AcadProxyRoundTripData
1071
      507
1071
   655383
1070
     0
  0
ACAD_PROXY_OBJECT
  5
2043
102
{ACAD_REACTORS
330
203F
102
}
330
203F
100
AcDbProxyObject
 90
      499
 91
      511
 93
      113
310
904313A3500400000000000014406B
 94
        0
1001
ACAD
1000
AcadProxyRoundTripData
1071
      507
1071
   655383
1070
     0
  0
ACAD_PROXY_OBJECT
  5
2044
102
{ACAD_REACTORS
330
203F
102
}
330
203F
100
AcDbProxyObject
 90
      499
 91
      511
 93
      113
310
904313A3800400000000000020406B
 94
        0
1001
ACAD
1000
AcadProxyRoundTripData
1071
      507
1071
   655383
1070
     0
  0
ACAD_PROXY_OBJECT
  5
2045
102
{ACAD_REACTORS
330
203F
102
}
330
203F
100
AcDbProxyObject
 90
      499
 91
      511
 93
      121
310
905313A3130004000000000000244051
 94
        0
1001
ACAD
1000
AcadProxyRoundTripData
1071
      507
1071
   655383
1070
     0
  0
ACAD_PROXY_OBJECT
  5
2046
102
{ACAD_REACTORS
330
203F
102
}
330
203F
100
AcDbProxyObject
 90
      499
 91
      511
 93
      121
310
905313A3136004000000000000304051
 94
        0
1001
ACAD
1000
AcadProxyRoundTripData
1071
      507
1071
   655383
1070
     0
  0
ACAD_PROXY_OBJECT
  5
2047
102
{ACAD_REACTORS
330
203F
102
}
330
203F
100
AcDbProxyObject
 90
      499
 91
      511
 93
      121
310
905313A3230004000000000000344051
 94
        0
1001
ACAD
1000
AcadProxyRoundTripData
1071
      507
1071
   655383
1070
     0
  0
ACAD_PROXY_OBJECT
  5
2048
102
{ACAD_REACTORS
330
203F
102
}
330
203F
100
AcDbProxyObject
 90
      499
 91
      511
 93
      121
310
905313A33300040000000000003E4051
 94
        0
1001
ACAD
1000
AcadProxyRoundTripData
1071
      507
1071
   655383
1070
     0
  0
ACAD_PROXY_OBJECT
  5
2049
102
{ACAD_REACTORS
330
203F
102
}
330
203F
100
AcDbProxyObject
 90
      499
 91
      511
 93
      121
310
905313A3430004000000000000444051
 94
        0
1001
ACAD
1000
AcadProxyRoundTripData
1071
      507
1071
   655383
1070
     0
  0
ACAD_PROXY_OBJECT
  5
204A
102
{ACAD_REACTORS
330
203F
102
}
330
203F
100
AcDbProxyObject
 90
      499
 91
      511
 93
      121
310
905313A3530004000000000000494051
 94
        0
1001
ACAD
1000
AcadProxyRoundTripData
1071
      507
1071
   655383
1070
     0
  0
ACAD_PROXY_OBJECT
  5
204B
102
{ACAD_REACTORS
330
203F
102
}
330
203F
100
AcDbProxyObject
 90
      499
 91
      511
 93
      129
310
906313A313030004000000000000594038
 94
        0
1001
ACAD
1000
AcadProxyRoundTripData
1071
      507
1071
   655383
1070
     0
  0
ACAD_PROXY_OBJECT
  5
204C
102
{ACAD_REACTORS
330
203F
102
}
330
203F
100
AcDbProxyObject
 90
      499
 91
      511
 93
      113
310
904323A31000000000000000010159
 94
        0
1001
ACAD
1000
AcadProxyRoundTripData
1071
      507
1071
   655383
1070
     0
  0
ACAD_PROXY_OBJECT
  5
204D
102
{ACAD_REACTORS
330
203F
102
}
330
203F
100
AcDbProxyObject
 90
      499
 91
      511
 93
      113
310
904343A31000000000000000410159
 94
        0
1001
ACAD
1000
AcadProxyRoundTripData
1071
      507
1071
   655383
1070
     0
  0
ACAD_PROXY_OBJECT
  5
204E
102
{ACAD_REACTORS
330
203F
102
}
330
203F
100
AcDbProxyObject
 90
      499
 91
      511
 93
      113
310
904383A31000000000000000810159
 94
        0
1001
ACAD
1000
AcadProxyRoundTripData
1071
      507
1071
   655383
1070
     0
  0
ACAD_PROXY_OBJECT
  5
204F
102
{ACAD_REACTORS
330
203F
102
}
330
203F
100
AcDbProxyObject
 90
      499
 91
      511
 93
      121
310
90531303A31000000000000000910140
 94
        0
1001
ACAD
1000
AcadProxyRoundTripData
1071
      507
1071
   655383
1070
     0
  0
ACAD_PROXY_OBJECT
  5
2050
102
{ACAD_REACTORS
330
203F
102
}
330
203F
100
AcDbProxyObject
 90
      499
 91
      511
 93
      129
310
9063130303A31000000000000001650138
 94
        0
1001
ACAD
1000
AcadProxyRoundTripData
1071
      507
1071
   655383
1070
     0
  0
ACAD_PROXY_OBJECT
  5
2051
102
{ACAD_REACTORS
330
203F
102
}
330
203F
100
AcDbProxyObject
 90
      499
 91
      511
 93
      265
310
90F312F31323822203D2031272D302200000000000000200FC00000000000028402B
 94
        0
1001
ACAD
1000
AcadProxyRoundTripData
1071
      507
1071
   655383
1070
     0
  0
ACAD_PROXY_OBJECT
  5
2052
102
{ACAD_REACTORS
330
203F
102
}
330
203F
100
AcDbProxyObject
 90
      499
 91
      511
 93
      257
310
90E312F363422203D2031272D302200000000000000240FC000000000000284040
 94
        0
1001
ACAD
1000
AcadProxyRoundTripData
1071
      507
1071
   655383
1070
     0
  0
ACAD_PROXY_OBJECT
  5
2053
102
{ACAD_REACTORS
330
203F
102
}
330
203F
100
AcDbProxyObject
 90
      499
 91
      511
 93
      257
310
90E312F333222203D2031272D302200000000000000280FC000000000000284040
 94
        0
1001
ACAD
1000
AcadProxyRoundTripData
1071
      507
1071
   655383
1070
     0
  0
ACAD_PROXY_OBJECT
  5
2054
102
{ACAD_REACTORS
330
203F
102
}
330
203F
100
AcDbProxyObject
 90
      499
 91
      511
 93
      257
310
90E312F313622203D2031272D3022000000000000002C0FC000000000000284040
 94
        0
1001
ACAD
1000
AcadProxyRoundTripData
1071
      507
1071
   655383
1070
     0
  0
ACAD_PROXY_OBJECT
  5
2055
102
{ACAD_REACTORS
330
203F
102
}
330
203F
100
AcDbProxyObject
 90
      499
 91
      511
 93
      257
310
90E332F333222203D2031272D3022000000000000002E0FC000000000000284040
 94
        0
1001
ACAD
1000
AcadProxyRoundTripData
1071
      507
1071
   655383
1070
     0
  0
ACAD_PROXY_OBJECT
  5
2056
102
{ACAD_REACTORS
330
203F
102
}
330
203F
100
AcDbProxyObject
 90
      499
 91
      511
 93
      249
310
90D312F3822203D2031272D302200000000000000300FC000000000000284040
 94
        0
1001
ACAD
1000
AcadProxyRoundTripData
1071
      507
1071
   655383
1070
     0
  0
ACAD_PROXY_OBJECT
  5
2057
102
{ACAD_REACTORS
330
203F
102
}
330
203F
100
AcDbProxyObject
 90
      499
 91
      511
 93
      257
310
90E332F313622203D2031272D302200000000000000320FC000000000000284040
 94
        0
1001
ACAD
1000
AcadProxyRoundTripData
1071
      507
1071
   655383
1070
     0
  0
ACAD_PROXY_OBJECT
  5
2058
102
{ACAD_REACTORS
330
203F
102
}
330
203F
100
AcDbProxyObject
 90
      499
 91
      511
 93
      249
310
90D312F3422203D2031272D302200000000000000340FC000000000000284040
 94
        0
1001
ACAD
1000
AcadProxyRoundTripData
1071
      507
1071
   655383
1070
     0
  0
ACAD_PROXY_OBJECT
  5
2059
102
{ACAD_REACTORS
330
203F
102
}
330
203F
100
AcDbProxyObject
 90
      499
 91
      511
 93
      249
310
90D332F3822203D2031272D302200000000000000360FC000000000000284040
 94
        0
1001
ACAD
1000
AcadProxyRoundTripData
1071
      507
1071
   655383
1070
     0
  0
ACAD_PROXY_OBJECT
  5
205A
102
{ACAD_REACTORS
330
203F
102
}
330
203F
100
AcDbProxyObject
 90
      499
 91
      511
 93
      249
310
90D312F3222203D2031272D302200000000000000380FC000000000000284040
 94
        0
1001
ACAD
1000
AcadProxyRoundTripData
1071
      507
1071
   655383
1070
     0
  0
ACAD_PROXY_OBJECT
  5
205B
102
{ACAD_REACTORS
330
203F
102
}
330
203F
100
AcDbProxyObject
 90
      499
 91
      511
 93
      249
310
90D332F3422203D2031272D3022000000000000003A0FC000000000000284040
 94
        0
1001
ACAD
1000
AcadProxyRoundTripData
1071
      507
1071
   655383
1070
     0
  0
ACAD_PROXY_OBJECT
  5
205C
102
{ACAD_REACTORS
330
203F
102
}
330
203F
100
AcDbProxyObject
 90
      499
 91
      511
 93
      169
310
90B3122203D2031272D3022004000000000000284020
 94
        0
1001
ACAD
1000
AcadProxyRoundTripData
1071
      507
1071
   655383
1070
     0
  0
ACAD_PROXY_OBJECT
  5
205D
102
{ACAD_REACTORS
330
203F
102
}
330
203F
100
AcDbProxyObject
 90
      499
 91
      511
 93
      265
310
90F312D312F3222203D2031272D3022000000000000003E0FC00000000000028402B
 94
        0
1001
ACAD
1000
AcadProxyRoundTripData
1071
      507
1071
   655383
1070
     0
  0
ACAD_PROXY_OBJECT
  5
205E
102
{ACAD_REACTORS
330
203F
102
}
330
203F
100
AcDbProxyObject
 90
      499
 91
      511
 93
      233
310
90B3322203D2031272D30220000000000000002100000000000000284000
 94
        0
1001
ACAD
1000
AcadProxyRoundTripData
1071
      507
1071
   655383
1070
     0
  0
ACAD_PROXY_OBJECT
  5
205F
102
{ACAD_REACTORS
330
203F
102
}
330
203F
100
AcDbProxyObject
 90
      499
 91
      511
 93
      233
310
90B3622203D2031272D30220000000000000006100000000000000284000
 94
        0
1001
ACAD
1000
AcadProxyRoundTripData
1071
      507
1071
   655383
1070
     0
  0
ACAD_PROXY_OBJECT
  5
2060
102
{ACAD_REACTORS
330
203F
102
}
330
203F
100
AcDbProxyObject
 90
      499
 91
      511
 93
      257
310
90E31272D3022203D2031272D3022000000000000000A100000000000000284040
 94
        0
1001
ACAD
1000
AcadProxyRoundTripData
1071
      507
1071
   655383
1070
     0
  0
ACAD_PROXY_OBJECT
  5
203E
102
{ACAD_XDICTIONARY
360
2318
102
}
102
{ACAD_REACTORS
330
203D
102
}
330
203D
100
AcDbProxyObject
 90
      499
 91
      511
 93
     1849
310
4254DD185B99185C990028B81E85EB51B8AE3F2E07A17AD46E2B8FC02B5E8DC0F42B1CFD028000000C1008070000C3001FDFF8000000C1003FBFF000000182007F7FE00000030400FEFFC00000060801FDFF8000000C1003FBFF00000018200000000000000681FA0B0000001820100E000186003FBFF000000182007F7FE0
310
0000030400FEFFC00000060801FDFF8000000C1003FBFF000000182007F7FE000000304000AD7A3703D0AC73F4160000003040201C00030C007F7FE00000030400FEFFC00000060801FDFF8000000C1003FBFF000000182007F7FE00000030400FEFFC000000608000
340
16
340
16
340
16
 94
        0
1001
ACAD
1000
AcadProxyRoundTripData
1071
      506
1071
   655383
1070
     0
  0
ACAD_PROXY_OBJECT
  5
2031
102
{ACAD_REACTORS
330
202B
102
}
330
202B
100
AcDbProxyObject
 90
      499
 91
      511
 93
      444
310
430C9915DA5C99599C985B59401049028333333333333E3BF0000000000000FB0107901411070040501600405405064090741402480A0340
 94
        0
1001
ACAD
1000
AcDbSavedByObjectVersion
1070
     0
1000
AcadProxyRoundTripData
1071
      505
1071
   655383
1070
     0
  0
ACAD_PROXY_OBJECT
  5
2033
102
{ACAD_REACTORS
330
202B
102
}
330
202B
100
AcDbProxyObject
 90
      499
 91
      511
 93
      508
310
428CD108121A5919195B8010640502408333333333333E3BF0000000000000FB01079024090700405020000000000001110200405405064090740C02480A0340
 94
        0
1001
ACAD
1000
AcDbSavedByObjectVersion
1070
     0
1000
AcadProxyRoundTripData
1071
      505
1071
   655383
1070
     0
  0
ACAD_PROXY_OBJECT
  5
2032
102
{ACAD_REACTORS
330
202B
102
}
330
202B
100
AcDbProxyObject
 90
      499
 91
      511
 93
      444
310
430CD915DA5C99599C985B59401059028333333333333E3BF0000000000000FB0107901411070040501600405405064090741402480A0340
 94
        0
1001
ACAD
1000
AcDbSavedByObjectVersion
1070
     0
1000
AcadProxyRoundTripData
1071
      505
1071
   655383
1070
     0
  0
ACAD_PROXY_OBJECT
  5
2030
102
{ACAD_REACTORS
330
202B
102
}
330
202B
100
AcDbProxyObject
 90
      499
 91
      511
 93
      396
310
4190985CDA58C0107406404333333333333E3BF0000000000000FB0107A41107004050150841D405064090741402480A0356
 94
        0
1001
ACAD
1000
AcDbSavedByObjectVersion
1070
     0
1000
AcadProxyRoundTripData
1071
      505
1071
   655383
1070
     0
  0
ACAD_PROXY_OBJECT
  5
2037
102
{ACAD_REACTORS
330
202B
102
}
330
202B
100
AcDbProxyObject
 90
      499
 91
      511
 93
      436
310
42509C9A59DA1D195B8010C409028333333333333E3BF0000000000000FB010790141107004050150841D405064090741402480A029956
 94
        0
1001
ACAD
1000
AcDbSavedByObjectVersion
1070
     0
1000
AcadProxyRoundTripData
1071
      505
1071
   655383
1070
     0
  0
ACAD_PROXY_OBJECT
  5
203B
102
{ACAD_REACTORS
330
202B
102
}
330
202B
100
AcDbProxyObject
 90
      499
 91
      511
 93
      460
310
4310DBDB1BDC90DA185B99D9401104090240C333333333333E3BF0000000000000FB0108901411070040501508421405064090741402480A0354
 94
        0
1001
ACAD
1000
AcDbSavedByObjectVersion
1070
     0
1000
AcadProxyRoundTripData
1071
      505
1071
   655383
1070
     0
  0
ACAD_PROXY_OBJECT
  5
2034
102
{ACAD_REACTORS
330
202B
102
}
330
202B
100
AcDbProxyObject
 90
      499
 91
      511
 93
      508
310
42D0DBDB98D95C1D1D585B0010940D028333333333333E3BF0000000000000FB0107902409070040501000000000000111010841D405064090740C02480A0340
 94
        0
1001
ACAD
1000
AcDbSavedByObjectVersion
1070
     0
1000
AcadProxyRoundTripData
1071
      505
1071
   655383
1070
     0
  0
ACAD_PROXY_OBJECT
  5
2036
102
{ACAD_REACTORS
330
202B
102
}
330
202B
100
AcDbProxyObject
 90
      499
 91
      511
 93
      420
310
41111A5B4010B409028333333333333E3BF0000000000000FB010790141107004050150841D405064090741402480A02677FFFFFDB
 94
        0
1001
ACAD
1000
AcDbSavedByObjectVersion
1070
     0
1000
AcadProxyRoundTripData
1071
      505
1071
   655383
1070
     0
  0
ACAD_PROXY_OBJECT
  5
203A
102
{ACAD_REACTORS
330
202B
102
}
330
202B
100
AcDbProxyObject
 90
      499
 91
      511
 93
      452
310
43119858D95C185D1D195C9B8010F409028333333333333E3BF0000000000000FB010790141107004050150841D405064090741402480A0350
 94
        0
1001
ACAD
1000
AcDbSavedByObjectVersion
1070
     0
1000
AcadProxyRoundTripData
1071
      505
1071
   655383
1070
     0
  0
ACAD_PROXY_OBJECT
  5
202C
102
{ACAD_REACTORS
330
202B
102
}
330
202B
100
AcDbProxyObject
 90
      499
 91
      511
 93
      396
310
41519B185D00240901404333333333333E3BF0000000000000F9010740A41107004050150841D405064090741402480A1B55
 94
        0
1001
ACAD
1000
AcDbSavedByObjectVersion
1070
     0
1000
AcadProxyRoundTripData
1071
      505
1071
   655383
1070
     0
  0
ACAD_PROXY_OBJECT
  5
202D
102
{ACAD_REACTORS
330
202B
102
}
330
202B
100
AcDbProxyObject
 90
      499
 91
      511
 93
      484
310
43919B185D15DA5D1A115919D95CC010140901404333333333333E3BF0000000000000F9010740901411070040501600405405064090741402480A1B50
 94
        0
1001
ACAD
1000
AcDbSavedByObjectVersion
1070
     0
1000
AcadProxyRoundTripData
1071
      505
1071
   655383
1070
     0
  0
ACAD_PROXY_OBJECT
  5
202E
102
{ACAD_REACTORS
330
202B
102
}
330
202B
100
AcDbProxyObject
 90
      499
 91
      511
 93
      420
310
4211DBDD5C985D590010240902404333333333333E3BF0000000000000F9010740A411070040501641D405064090741402480A1B50
 94
        0
1001
ACAD
1000
AcDbSavedByObjectVersion
1070
     0
1000
AcadProxyRoundTripData
1071
      505
1071
   655383
1070
     0
  0
ACAD_PROXY_OBJECT
  5
202F
102
{ACAD_REACTORS
330
202B
102
}
330
202B
100
AcDbProxyObject
 90
      499
 91
      511
 93
      508
310
4451DBDD5C985D5915DA5D1A115919D95CC010340902404333333333333E3BF0000000000000F9010740901411070040501600405405064090741402480A1B50
 94
        0
1001
ACAD
1000
AcDbSavedByObjectVersion
1070
     0
1000
AcadProxyRoundTripData
1071
      505
1071
   655383
1070
     0
  0
ACAD_PROXY_OBJECT
  5
2039
102
{ACAD_REACTORS
330
202B
102
}
330
202B
100
AcDbProxyObject
 90
      499
 91
      511
 93
      452
310
43131A5B995C185D1D195C9B8010E409028333333333333E3BF0000000000000FB010790141107004050750841D405064090741402483A0350
 94
        0
1001
ACAD
1000
AcDbSavedByObjectVersion
1070
     0
1000
AcadProxyRoundTripData
1071
      505
1071
   655383
1070
     0
  0
ACAD_PROXY_OBJECT
  5
2035
102
{ACAD_REACTORS
330
202B
102
}
330
202B
100
AcDbProxyObject
 90
      499
 91
      511
 93
      428
310
429499585B1A5CDD1A58C0108409028333333333333E3BF0000000000000FB01079019070040501508421405064090741402480A1B45
 94
        0
1001
ACAD
1000
AcDbSavedByObjectVersion
1070
     0
1000
AcadProxyRoundTripData
1071
      505
1071
   655383
1070
     0
  0
ACAD_PROXY_OBJECT
  5
2038
102
{ACAD_REACTORS
330
202B
102
}
330
202B
100
AcDbProxyObject
 90
      499
 91
      511
 93
      420
310
42151A1A58DAD95B8010D409028333333333333E3BF0000000000000FB010790141107004050150C41D405064090741402480A0352
 94
        0
1001
ACAD
1000
AcDbSavedByObjectVersion
1070
     0
1000
AcadProxyRoundTripData
1071
      505
1071
   655383
1070
     0
  0
XRECORD
  5
23A6
102
{ACAD_REACTORS
330
239C
102
}
330
239C
100
AcDbXrecord
 90
        0
  0
XRECORD
  5
23AA
102
{ACAD_REACTORS
330
239C
102
}
330
239C
100
AcDbXrecord
1000
DSTYLE
1002
{
1070
   179
 70
     2
1070
   277
 70
     6
1002
}
  0
XRECORD
  5
23A7
102
{ACAD_REACTORS
330
239C
102
}
330
239C
100
AcDbXrecord
  1
{6385560B-F4B1-4644-A7C2-A3E32AC3D232}
  0
XRECORD
  5
239F
102
{ACAD_REACTORS
330
239C
102
}
330
239C
100
AcDbXrecord
  1

  0
XRECORD
  5
23A5
102
{ACAD_REACTORS
330
239C
102
}
330
239C
100
AcDbXrecord
 90
        0
  0
XRECORD
  5
23A1
102
{ACAD_REACTORS
330
239C
102
}
330
239C
100
AcDbXrecord
340
61
  0
XRECORD
  5
23A4
102
{ACAD_REACTORS
330
239C
102
}
330
239C
100
AcDbXrecord
 90
    10781
  0
XRECORD
  5
23A2
102
{ACAD_REACTORS
330
239C
102
}
330
239C
100
AcDbXrecord
340
77
  0
XRECORD
  5
23A3
102
{ACAD_REACTORS
330
239C
102
}
330
239C
100
AcDbXrecord
340
6
  0
XRECORD
  5
23A9
102
{ACAD_REACTORS
330
239C
102
}
330
239C
100
AcDbXrecord
 40
0.0
  0
XRECORD
  5
23AD
102
{ACAD_REACTORS
330
239C
102
}
330
239C
100
AcDbXrecord
340
0
  0
XRECORD
  5
23B3
102
{ACAD_REACTORS
330
239C
102
}
330
239C
100
AcDbXrecord
 10
0.0
 20
0.0
 30
0.0
  0
XRECORD
  5
23AF
102
{ACAD_REACTORS
330
239C
102
}
330
239C
100
AcDbXrecord
 10
0.0
 20
0.0
 30
0.0
  0
XRECORD
  5
23B2
102
{ACAD_REACTORS
330
239C
102
}
330
239C
100
AcDbXrecord
 10
0.0
 20
0.0
 30
0.0
  0
XRECORD
  5
23B0
102
{ACAD_REACTORS
330
239C
102
}
330
239C
100
AcDbXrecord
 10
0.0
 20
0.0
 30
0.0
  0
XRECORD
  5
23B1
102
{ACAD_REACTORS
330
239C
102
}
330
239C
100
AcDbXrecord
 10
0.0
 20
0.0
 30
0.0
  0
XRECORD
  5
23AE
102
{ACAD_REACTORS
330
239C
102
}
330
239C
100
AcDbXrecord
 10
0.0
 20
0.0
 30
0.0
  0
XRECORD
  5
23AB
102
{ACAD_REACTORS
330
239C
102
}
330
239C
100
AcDbXrecord
340
0
  0
XRECORD
  5
23AC
102
{ACAD_REACTORS
330
239C
102
}
330
239C
100
AcDbXrecord
 70
     0
  0
XRECORD
  5
23A0
102
{ACAD_REACTORS
330
239C
102
}
330
239C
100
AcDbXrecord
  1
Sekkei.ctb
  0
XRECORD
  5
239D
102
{ACAD_REACTORS
330
239C
102
}
330
239C
100
AcDbXrecord
 90
        1
  0
XRECORD
  5
239E
102
{ACAD_REACTORS
330
239C
102
}
330
239C
100
AcDbXrecord
 90
       70
  0
XRECORD
  5
23B6
102
{ACAD_REACTORS
330
239C
102
}
330
239C
100
AcDbXrecord
340
0
  0
XRECORD
  5
23BC
102
{ACAD_REACTORS
330
239C
102
}
330
239C
100
AcDbXrecord
 10
0.0
 20
0.0
 30
0.0
  0
XRECORD
  5
23B8
102
{ACAD_REACTORS
330
239C
102
}
330
239C
100
AcDbXrecord
 10
0.0
 20
0.0
 30
0.0
  0
XRECORD
  5
23BB
102
{ACAD_REACTORS
330
239C
102
}
330
239C
100
AcDbXrecord
 10
0.0
 20
0.0
 30
0.0
  0
XRECORD
  5
23B9
102
{ACAD_REACTORS
330
239C
102
}
330
239C
100
AcDbXrecord
 10
0.0
 20
0.0
 30
0.0
  0
XRECORD
  5
23BA
102
{ACAD_REACTORS
330
239C
102
}
330
239C
100
AcDbXrecord
 10
0.0
 20
0.0
 30
0.0
  0
XRECORD
  5
23B7
102
{ACAD_REACTORS
330
239C
102
}
330
239C
100
AcDbXrecord
 10
0.0
 20
0.0
 30
0.0
  0
XRECORD
  5
23B4
102
{ACAD_REACTORS
330
239C
102
}
330
239C
100
AcDbXrecord
340
0
  0
XRECORD
  5
23B5
102
{ACAD_REACTORS
330
239C
102
}
330
239C
100
AcDbXrecord
 70
     0
  0
XRECORD
  5
23A8
102
{ACAD_REACTORS
330
239C
102
}
330
239C
100
AcDbXrecord
  1
{ED7DFC22-B3FD-4C9B-BD53-C45F591A6AFA}
  0
DICTIONARYVAR
  5
2336
102
{ACAD_REACTORS
330
102
102
}
330
102
100
DictionaryVariables
280
     0
  1
1:1
  0
DICTIONARYVAR
  5
2335
102
{ACAD_REACTORS
330
102
102
}
330
102
100
DictionaryVariables
280
     0
  1
STANDARD
  0
DICTIONARYVAR
  5
2334
102
{ACAD_REACTORS
330
102
102
}
330
102
100
DictionaryVariables
280
     0
  1
STANDARD
  0
DICTIONARYVAR
  5
103
102
{ACAD_REACTORS
330
102
102
}
330
102
100
DictionaryVariables
280
     0
  1
1
  0
DICTIONARYVAR
  5
2338
102
{ACAD_REACTORS
330
102
102
}
330
102
100
DictionaryVariables
280
     0
  1
0
  0
DICTIONARYVAR
  5
2337
102
{ACAD_REACTORS
330
102
102
}
330
102
100
DictionaryVariables
280
     0
  1
127
  0
DICTIONARY
  5
201C
330
201B
100
AcDbDictionary
280
     1
  3
ACAD_XREC_ROUNDTRIP
360
2331
  3
BUMPTILE
360
201E
  3
DIFFUSETILE
360
201D
  3
OPACITYTILE
360
2021
  3
REFLECTIONTILE
360
2020
  3
REFRACTIONTILE
360
2022
  3
SPECULARTILE
360
201F
  0
DICTIONARY
  5
2014
330
2013
100
AcDbDictionary
280
     1
  3
ACAD_XREC_ROUNDTRIP
360
2330
  3
BUMPTILE
360
2016
  3
DIFFUSETILE
360
2015
  3
OPACITYTILE
360
2019
  3
REFLECTIONTILE
360
2018
  3
REFRACTIONTILE
360
201A
  3
SPECULARTILE
360
2017
  0
DICTIONARY
  5
2024
330
2023
100
AcDbDictionary
280
     1
  3
ACAD_XREC_ROUNDTRIP
360
2332
  3
BUMPTILE
360
2026
  3
DIFFUSETILE
360
2025
  3
OPACITYTILE
360
2029
  3
REFLECTIONTILE
360
2028
  3
REFRACTIONTILE
360
202A
  3
SPECULARTILE
360
2027
  0
DICTIONARY
  5
2318
330
203E
100
AcDbDictionary
280
     1
  3
ACAD_ROUNDTRIP_2008_TABLES
360
2319
  3
ACAD_XREC_ROUNDTRIP
360
2333
  0
XRECORD
  5
2331
102
{ACAD_REACTORS
330
201C
102
}
330
201C
100
AcDbXrecord
102
MATERIAL
148
0.0
149
0.0
149
0.0
 93
        0
 94
      127
282
     0
 72
     0
 77
     0
171
     0
175
     0
179
     0
273
     0
  0
XRECORD
  5
201E
102
{ACAD_REACTORS
330
201C
102
}
330
201C
100
AcDbXrecord
270
     1
271
     1
  0
XRECORD
  5
201D
102
{ACAD_REACTORS
330
201C
102
}
330
201C
100
AcDbXrecord
270
     1
271
     1
  0
XRECORD
  5
2021
102
{ACAD_REACTORS
330
201C
102
}
330
201C
100
AcDbXrecord
270
     1
271
     1
  0
XRECORD
  5
2020
102
{ACAD_REACTORS
330
201C
102
}
330
201C
100
AcDbXrecord
270
     1
271
     1
  0
XRECORD
  5
2022
102
{ACAD_REACTORS
330
201C
102
}
330
201C
100
AcDbXrecord
270
     1
271
     1
  0
XRECORD
  5
201F
102
{ACAD_REACTORS
330
201C
102
}
330
201C
100
AcDbXrecord
270
     1
271
     1
  0
XRECORD
  5
2330
102
{ACAD_REACTORS
330
2014
102
}
330
2014
100
AcDbXrecord
102
MATERIAL
148
0.0
149
0.0
149
0.0
 93
        0
 94
      127
282
     0
 72
     0
 77
     0
171
     0
175
     0
179
     0
273
     0
  0
XRECORD
  5
2016
102
{ACAD_REACTORS
330
2014
102
}
330
2014
100
AcDbXrecord
270
     1
271
     1
  0
XRECORD
  5
2015
102
{ACAD_REACTORS
330
2014
102
}
330
2014
100
AcDbXrecord
270
     1
271
     1
  0
XRECORD
  5
2019
102
{ACAD_REACTORS
330
2014
102
}
330
2014
100
AcDbXrecord
270
     1
271
     1
  0
XRECORD
  5
2018
102
{ACAD_REACTORS
330
2014
102
}
330
2014
100
AcDbXrecord
270
     1
271
     1
  0
XRECORD
  5
201A
102
{ACAD_REACTORS
330
2014
102
}
330
2014
100
AcDbXrecord
270
     1
271
     1
  0
XRECORD
  5
2017
102
{ACAD_REACTORS
330
2014
102
}
330
2014
100
AcDbXrecord
270
     1
271
     1
  0
XRECORD
  5
2332
102
{ACAD_REACTORS
330
2024
102
}
330
2024
100
AcDbXrecord
102
MATERIAL
148
0.0
149
0.0
149
0.0
 93
        0
 94
      127
282
     0
 72
     0
 77
     0
171
     0
175
     0
179
     0
273
     0
  0
XRECORD
  5
2026
102
{ACAD_REACTORS
330
2024
102
}
330
2024
100
AcDbXrecord
270
     1
271
     1
  0
XRECORD
  5
2025
102
{ACAD_REACTORS
330
2024
102
}
330
2024
100
AcDbXrecord
270
     1
271
     1
  0
XRECORD
  5
2029
102
{ACAD_REACTORS
330
2024
102
}
330
2024
100
AcDbXrecord
270
     1
271
     1
  0
XRECORD
  5
2028
102
{ACAD_REACTORS
330
2024
102
}
330
2024
100
AcDbXrecord
270
     1
271
     1
  0
XRECORD
  5
202A
102
{ACAD_REACTORS
330
2024
102
}
330
2024
100
AcDbXrecord
270
     1
271
     1
  0
XRECORD
  5
2027
102
{ACAD_REACTORS
330
2024
102
}
330
2024
100
AcDbXrecord
270
     1
271
     1
  0
ACAD_PROXY_OBJECT
  5
2319
102
{ACAD_REACTORS
330
2318
102
}
330
2318
100
AcDbProxyObject
 90
      499
 91
      511
 93
     1044
310
40D054060020000020000003200101A000080002A5058000000C100000000000000340FE901405075F5449544C450041501A8000000C800406800020000A9416000000304000AD7A3703D0AC73FA409014217D2115051115480105406A0000003200101A000080002A5028000000C10002B5E8DC0F42B1CFE903409065F444
310
15441004
340
16
340
16
340
16
 94
        0
1001
ACAD
1000
AcadProxyRoundTripData
1071
      510
1071
   655383
1070
     0
  0
XRECORD
  5
2333
102
{ACAD_REACTORS
330
2318
102
}
330
2318
100
AcDbXrecord
102
ACAD_ROUNDTRIP_PRE2007_TABLESTYLE
 90
      512
 91
        0
  1

 92
      512
 93
        0
  2

 94
      512
 95
        0
  3

  0
ENDSEC
  0
EOF
