  0
SECTION
  2
HEADER
  9
$ACADVER
  1
AC1014
  9
$ACADMAINTVER
 70
     9
  9
$DWGCODEPAGE
  3
ANSI_932
  9
$INSBASE
 10
0.0
 20
0.0
 30
0.0
  9
$EXTMIN
 10
28.05727829132797
 20
24.24710420248208
 30
0.0
  9
$EXTMAX
 10
497.8602339172531
 20
508.2043112536048
 30
0.0
  9
$LIMMIN
 10
0.0
 20
0.0
  9
$LIMMAX
 10
297.0
 20
210.0
  9
$ORTHOMODE
 70
     1
  9
$REGENMODE
 70
     1
  9
$FILLMODE
 70
     1
  9
$QTEXTMODE
 70
     0
  9
$MIRRTEXT
 70
     0
  9
$DRAGMODE
 70
     2
  9
$LTSCALE
 40
3.0
  9
$OSMODE
 70
    37
  9
$ATTMODE
 70
     1
  9
$TEXTSIZE
 40
9.0
  9
$TRACEWID
 40
1.0
  9
$TEXTSTYLE
  7
STANDARD
  9
$CLAYER
  8
0
  9
$CELTYPE
  6
BYLAYER
  9
$CECOLOR
 62
   256
  9
$CELTSCALE
 40
1.0
  9
$DELOBJ
 70
     1
  9
$DISPSILH
 70
     0
  9
$DIMSCALE
 40
3.0
  9
$DIMASZ
 40
1.8
  9
$DIMEXO
 40
0.625
  9
$DIMDLI
 40
3.75
  9
$DIMRND
 40
0.0
  9
$DIMDLE
 40
0.0
  9
$DIMEXE
 40
0.8
  9
$DIMTP
 40
0.0
  9
$DIMTM
 40
0.0
  9
$DIMTXT
 40
1.8
  9
$DIMCEN
 40
2.5
  9
$DIMTSZ
 40
0.0
  9
$DIMTOL
 70
     0
  9
$DIMLIM
 70
     0
  9
$DIMTIH
 70
     0
  9
$DIMTOH
 70
     0
  9
$DIMSE1
 70
     0
  9
$DIMSE2
 70
     0
  9
$DIMTAD
 70
     1
  9
$DIMZIN
 70
     8
  9
$DIMBLK
  1

  9
$DIMASO
 70
     1
  9
$DIMSHO
 70
     1
  9
$DIMPOST
  1

  9
$DIMAPOST
  1

  9
$DIMALT
 70
     0
  9
$DIMALTD
 70
     4
  9
$DIMALTF
 40
0.0394
  9
$DIMLFAC
 40
1.0
  9
$DIMTOFL
 70
     1
  9
$DIMTVP
 40
0.0
  9
$DIMTIX
 70
     0
  9
$DIMSOXD
 70
     0
  9
$DIMSAH
 70
     0
  9
$DIMBLK1
  1

  9
$DIMBLK2
  1

  9
$DIMSTYLE
  2
STANDARD
  9
$DIMCLRD
 70
     0
  9
$DIMCLRE
 70
     0
  9
$DIMCLRT
 70
     0
  9
$DIMTFAC
 40
1.0
  9
$DIMGAP
 40
0.75
  9
$DIMJUST
 70
     0
  9
$DIMSD1
 70
     0
  9
$DIMSD2
 70
     0
  9
$DIMTOLJ
 70
     1
  9
$DIMTZIN
 70
     0
  9
$DIMALTZ
 70
     0
  9
$DIMALTTZ
 70
     0
  9
$DIMFIT
 70
     3
  9
$DIMUPT
 70
     0
  9
$DIMUNIT
 70
     8
  9
$DIMDEC
 70
     2
  9
$DIMTDEC
 70
     2
  9
$DIMALTU
 70
     8
  9
$DIMALTTD
 70
     4
  9
$DIMTXSTY
  7
STANDARD
  9
$DIMAUNIT
 70
     0
  9
$LUNITS
 70
     2
  9
$LUPREC
 70
     3
  9
$SKETCHINC
 40
1.0
  9
$FILLETRAD
 40
10.0
  9
$AUNITS
 70
     0
  9
$AUPREC
 70
     2
  9
$MENU
  1
.
  9
$ELEVATION
 40
0.0
  9
$PELEVATION
 40
0.0
  9
$THICKNESS
 40
0.0
  9
$LIMCHECK
 70
     0
  9
$BLIPMODE
 70
     0
  9
$CHAMFERA
 40
0.0
  9
$CHAMFERB
 40
0.0
  9
$CHAMFERC
 40
20.0
  9
$CHAMFERD
 40
0.0
  9
$SKPOLY
 70
     0
  9
$TDCREATE
 40
2453692.591353078
  9
$TDUPDATE
 40
2453928.617889178
  9
$TDINDWG
 40
0.0717693750
  9
$TDUSRTIMER
 40
0.0717693750
  9
$USRTIMER
 70
     1
  9
$ANGBASE
 50
0.0
  9
$ANGDIR
 70
     0
  9
$PDMODE
 70
     0
  9
$PDSIZE
 40
-10.0
  9
$PLINEWID
 40
0.0
  9
$COORDS
 70
     0
  9
$SPLFRAME
 70
     0
  9
$SPLINETYPE
 70
     6
  9
$SPLINESEGS
 70
     8
  9
$ATTDIA
 70
     0
  9
$ATTREQ
 70
     1
  9
$HANDLING
 70
-16383
  9
$HANDSEED
  5
1CE9
  9
$SURFTAB1
 70
     6
  9
$SURFTAB2
 70
     6
  9
$SURFTYPE
 70
     6
  9
$SURFU
 70
     6
  9
$SURFV
 70
     6
  9
$UCSNAME
  2

  9
$UCSORG
 10
0.0
 20
0.0
 30
0.0
  9
$UCSXDIR
 10
1.0
 20
0.0
 30
0.0
  9
$UCSYDIR
 10
0.0
 20
1.0
 30
0.0
  9
$PUCSNAME
  2

  9
$PUCSORG
 10
0.0
 20
0.0
 30
0.0
  9
$PUCSXDIR
 10
1.0
 20
0.0
 30
0.0
  9
$PUCSYDIR
 10
0.0
 20
1.0
 30
0.0
  9
$USERI1
 70
     0
  9
$USERI2
 70
     0
  9
$USERI3
 70
     0
  9
$USERI4
 70
     0
  9
$USERI5
 70
     0
  9
$USERR1
 40
0.0
  9
$USERR2
 40
0.0
  9
$USERR3
 40
0.0
  9
$USERR4
 40
0.0
  9
$USERR5
 40
0.0
  9
$WORLDVIEW
 70
     1
  9
$SHADEDGE
 70
     3
  9
$SHADEDIF
 70
    70
  9
$TILEMODE
 70
     1
  9
$MAXACTVP
 70
    48
  9
$PINSBASE
 10
0.0
 20
0.0
 30
0.0
  9
$PLIMCHECK
 70
     0
  9
$PEXTMIN
 10
0.0
 20
0.0
 30
0.0
  9
$PEXTMAX
 10
0.0
 20
0.0
 30
0.0
  9
$PLIMMIN
 10
0.0
 20
0.0
  9
$PLIMMAX
 10
12.0
 20
9.0
  9
$UNITMODE
 70
     0
  9
$VISRETAIN
 70
     1
  9
$PLINEGEN
 70
     0
  9
$PSLTSCALE
 70
     1
  9
$TREEDEPTH
 70
  3020
  9
$PICKSTYLE
 70
     1
  9
$CMLSTYLE
  2
STANDARD
  9
$CMLJUST
 70
     0
  9
$CMLSCALE
 40
1.0
  9
$PROXYGRAPHICS
 70
     1
  9
$MEASUREMENT
 70
     0
  0
ENDSEC
  0
SECTION
  2
CLASSES
  0
CLASS
  1
DICTIONARYVAR
  2
AcDbDictionaryVar
  3
AutoCAD 2000
 90
        0
280
     0
281
     0
  0
CLASS
  1
ACDBDICTIONARYWDFLT
  2
AcDbDictionaryWithDefault
  3
AutoCAD 2000
 90
        0
280
     0
281
     0
  0
CLASS
  1
ACDBPLACEHOLDER
  2
AcDbPlaceHolder
  3
AutoCAD 2000
 90
        0
280
     0
281
     0
  0
CLASS
  1
LAYOUT
  2
AcDbLayout
  3
AutoCAD 2000
 90
        0
280
     0
281
     0
  0
CLASS
  1
LONG_TRANSACTION
  2
AcDbLongTransaction
  3
AutoCAD 2000
 90
        0
280
     0
281
     0
  0
CLASS
  1
LWPOLYLINE
  2
AcDbPolyline
  3
AutoCAD 2000
 90
        0
280
     0
281
     1
  0
CLASS
  1
HATCH
  2
AcDbHatch
  3
AutoCAD 2000
 90
        0
280
     0
281
     1
  0
CLASS
  1
XRECORD
  2
AcDbXrecord
  3
AutoCAD 2000
 90
        0
280
     0
281
     0
  0
ENDSEC
  0
SECTION
  2
TABLES
  0
TABLE
  2
VPORT
  5
6E
330
0
100
AcDbSymbolTable
 70
     2
  0
VPORT
  5
1CC3
330
6E
100
AcDbSymbolTableRecord
100
AcDbViewportTableRecord
  2
*ACTIVE
 70
     0
 10
0.0
 20
0.0
 11
1.0
 21
1.0
 12
295.4590145435827
 22
266.2186918024005
 13
0.0
 23
0.0
 14
10.0
 24
10.0
 15
10.0
 25
10.0
 16
0.0
 26
0.0
 36
1.0
 17
0.0
 27
0.0
 37
0.0
 40
488.062734340164
 41
1.566970091027308
 42
50.0
 43
0.0
 44
0.0
 50
0.0
 51
0.0
 71
     0
 72
   100
 73
     1
 74
     3
 75
     0
 76
     0
 77
     0
 78
     0
  0
ENDTAB
  0
TABLE
  2
LTYPE
  5
69
330
0
100
AcDbSymbolTable
 70
     4
  0
LTYPE
  5
6A
330
69
100
AcDbSymbolTableRecord
100
AcDbLinetypeTableRecord
  2
BYBLOCK
 70
     0
  3

 72
    65
 73
     0
 40
0.0
  0
LTYPE
  5
6B
330
69
100
AcDbSymbolTableRecord
100
AcDbLinetypeTableRecord
  2
BYLAYER
 70
     0
  3

 72
    65
 73
     0
 40
0.0
  0
LTYPE
  5
8
330
69
100
AcDbSymbolTableRecord
100
AcDbLinetypeTableRecord
  2
CONTINUOUS
 70
     0
  3
Solid line
 72
    65
 73
     0
 40
0.0
  0
LTYPE
  5
27C
330
69
100
AcDbSymbolTableRecord
100
AcDbLinetypeTableRecord
  2
SEKKEI_A2_
 70
     0
  3
center(A2)  ____ _ ____ _ ____ _ ____ _ ____ _ 
 72
    65
 73
     4
 40
14.28749999999999
 49
9.525
 74
     0
 49
-1.587499999999999
 74
     0
 49
1.587499999999999
 74
     0
 49
-1.587499999999999
 74
     0
  0
LTYPE
  5
2B4
330
69
100
AcDbSymbolTableRecord
100
AcDbLinetypeTableRecord
  2
HIDDEN2
 70
     0
  3
Hidden (.5x) _ _ _ _ _ _ _ _ _ _ _ _ _ _ _ _ _
 72
    65
 73
     2
 40
4.762499999999999
 49
3.174999999999999
 74
     0
 49
-1.587499999999999
 74
     0
  0
LTYPE
  5
48F
330
69
100
AcDbSymbolTableRecord
100
AcDbLinetypeTableRecord
  2
SEKKEI_H
 70
     0
  3
Hidden-S _ _ _ _ _ _ _ _ _ _ _ _ _ _ _ _ _
 72
    65
 73
     2
 40
2.381249999999999
 49
1.587499999999999
 74
     0
 49
-0.79375
 74
     0
  0
ENDTAB
  0
TABLE
  2
LAYER
  5
66
330
0
100
AcDbSymbolTable
 70
     9
  0
LAYER
  5
5E
330
66
100
AcDbSymbolTableRecord
100
AcDbLayerTableRecord
  2
0
 70
     0
 62
     7
  6
CONTINUOUS
  0
LAYER
  5
3E
330
66
100
AcDbSymbolTableRecord
100
AcDbLayerTableRecord
  2
CENTER
 70
     0
 62
     3
  6
SEKKEI_A2_
  0
LAYER
  5
2B5
330
66
100
AcDbSymbolTableRecord
100
AcDbLayerTableRecord
  2
HIDS
 70
     0
 62
     1
  6
HIDDEN2
  0
LAYER
  5
99A
330
66
100
AcDbSymbolTableRecord
100
AcDbLayerTableRecord
  2
HOJO
 70
     0
 62
     4
  6
CONTINUOUS
  0
LAYER
  5
99B
330
66
100
AcDbSymbolTableRecord
100
AcDbLayerTableRecord
  2
TITLE
 70
     0
 62
     4
  6
CONTINUOUS
  0
ENDTAB
  0
TABLE
  2
STYLE
  5
67
330
0
100
AcDbSymbolTable
 70
     1
  0
STYLE
  5
16
330
67
100
AcDbSymbolTableRecord
100
AcDbTextStyleTableRecord
  2
STANDARD
 70
     0
 40
0.0
 41
1.0
 50
0.0
 71
     0
 42
9.0
  3
simplex.shx
  4
extfont.shx
  0
ENDTAB
  0
TABLE
  2
VIEW
  5
6C
330
0
100
AcDbSymbolTable
 70
     0
  0
ENDTAB
  0
TABLE
  2
UCS
  5
6D
330
0
100
AcDbSymbolTable
 70
     0
  0
ENDTAB
  0
TABLE
  2
APPID
  5
70
330
0
100
AcDbSymbolTable
 70
     1
  0
APPID
  5
71
330
70
100
AcDbSymbolTableRecord
100
AcDbRegAppTableRecord
  2
ACAD
 70
     0
  0
ENDTAB
  0
TABLE
  2
DIMSTYLE
  5
72
330
0
100
AcDbSymbolTable
 70
     1
  0
DIMSTYLE
105
73
330
72
100
AcDbSymbolTableRecord
100
AcDbDimStyleTableRecord
  2
STANDARD
 70
     0
  3

  4

  5

  6

  7

 40
3.0
 41
1.8
 42
0.625
 43
3.75
 44
0.8
 45
0.0
 46
0.0
 47
0.0
 48
0.0
140
1.8
141
2.5
142
0.0
143
0.0394
144
1.0
145
0.0
146
1.0
147
0.75
 71
     0
 72
     0
 73
     0
 74
     0
 75
     0
 76
     0
 77
     1
 78
     8
170
     0
171
     4
172
     1
173
     0
174
     0
175
     0
176
     0
177
     0
178
     0
270
     8
271
     2
272
     2
273
     8
274
     4
340
16
275
     0
280
     0
281
     0
282
     0
283
     1
284
     0
285
     0
286
     0
287
     3
288
     0
  0
ENDTAB
  0
TABLE
  2
BLOCK_RECORD
  5
1
330
0
100
AcDbSymbolTable
 70
    33
  0
BLOCK_RECORD
  5
2
102
{ACAD_XDICTIONARY
360
1CE5
102
}
330
1
100
AcDbSymbolTableRecord
100
AcDbBlockTableRecord
  2
*MODEL_SPACE
  0
BLOCK_RECORD
  5
1CBE
102
{ACAD_XDICTIONARY
360
1CE7
102
}
330
1
100
AcDbSymbolTableRecord
100
AcDbBlockTableRecord
  2
*PAPER_SPACE
  0
ENDTAB
  0
ENDSEC
  0
SECTION
  2
BLOCKS
  0
BLOCK
  5
5D
330
2
100
AcDbEntity
  8
0
100
AcDbBlockBegin
  2
*MODEL_SPACE
 70
     0
 10
0.0
 20
0.0
 30
0.0
  3
*MODEL_SPACE
  1

  0
ENDBLK
  5
5F
330
2
100
AcDbEntity
  8
0
100
AcDbBlockEnd
  0
BLOCK
  5
1CC0
330
1CBE
100
AcDbEntity
 67
     1
  8
0
100
AcDbBlockBegin
  2
*PAPER_SPACE
 70
     0
 10
0.0
 20
0.0
 30
0.0
  3
*PAPER_SPACE
  1

  0
ENDBLK
  5
1CC1
330
1CBE
100
AcDbEntity
 67
     1
  8
0
100
AcDbBlockEnd
  0
ENDSEC
  0
SECTION
  2
ENTITIES
  0
LINE
  5
757
330
2
100
AcDbEntity
  8
CENTER
100
AcDbLine
 10
28.05727829132797
 20
162.5919556187309
 30
0.0
 11
150.4339297529874
 21
162.5919556187309
 31
0.0
  0
LINE
  5
823
330
2
100
AcDbEntity
  8
HOJO
100
AcDbLine
 10
335.8948099172531
 20
215.4987166187309
 30
0.0
 11
337.8468059172531
 21
216.9785146187309
 31
0.0
  0
LINE
  5
824
330
2
100
AcDbEntity
  8
0
100
AcDbLine
 10
330.8710059172532
 20
205.8462736187309
 30
0.0
 11
357.9574319172532
 21
190.2083556187309
 31
0.0
  0
LINE
  5
825
330
2
100
AcDbEntity
  8
0
100
AcDbLine
 10
333.8708229172531
 20
211.0424366187308
 30
0.0
 11
359.5208169172532
 21
196.2339766187309
 31
0.0
  0
LINE
  5
826
330
2
100
AcDbEntity
  8
0
100
AcDbLine
 10
335.3708229172531
 20
213.6405166187309
 30
0.0
 11
360.4080239172532
 21
199.1857976187309
 31
0.0
  0
LINE
  5
827
330
2
100
AcDbEntity
  8
0
100
AcDbLine
 10
333.235565663381
 20
209.0998064241659
 30
0.0
 11
358.9680343348343
 21
194.2437742037358
 31
0.0
  0
LINE
  5
828
330
2
100
AcDbEntity
  8
0
100
AcDbLine
 10
195.4339067529875
 20
204.0919556187309
 30
0.0
 11
195.4339067529875
 21
159.0919536187309
 31
0.0
  0
LINE
  5
82A
330
2
100
AcDbEntity
  8
0
100
AcDbLine
 10
114.4339297529874
 20
103.6914166187309
 30
0.0
 11
114.4339297529874
 21
228.5919936187309
 31
0.0
  0
LINE
  5
82B
330
2
100
AcDbEntity
  8
0
100
AcDbLine
 10
106.9339297529874
 20
220.0919556187309
 30
0.0
 11
106.9339297529874
 21
105.0919556187309
 31
0.0
  0
ARC
  5
82C
330
2
100
AcDbEntity
  8
0
100
AcDbCircle
 10
289.4339527529874
 20
155.5919556187309
 30
0.0
 40
130.0
100
AcDbArc
 50
147.7115939999997
 51
180.0
  0
ARC
  5
82D
330
2
100
AcDbEntity
  8
0
100
AcDbCircle
 10
-506.5664742470126
 20
162.5919556187309
 30
0.0
 40
700.0
100
AcDbArc
 50
356.6426089999987
 51
3.603821000000682
  0
LINE
  5
82E
330
2
100
AcDbEntity
  8
0
100
AcDbLine
 10
120.4339297529874
 20
230.5917956187309
 30
0.0
 11
120.4339297529874
 21
103.7961376187309
 31
0.0
  0
LINE
  5
82F
330
2
100
AcDbEntity
  8
0
100
AcDbLine
 10
205.4339067529876
 20
178.5919556187309
 30
0.0
 11
237.4339527529874
 21
178.5919556187309
 31
0.0
  0
LINE
  5
830
330
2
100
AcDbEntity
  8
0
100
AcDbLine
 10
205.4339067529876
 20
184.5919556187309
 30
0.0
 11
237.4339527529874
 21
184.5919556187309
 31
0.0
  0
LINE
  5
831
330
2
100
AcDbEntity
  8
0
100
AcDbLine
 10
197.4339067529875
 20
170.5919556187309
 30
0.0
 11
237.4339527529874
 21
170.5919556187309
 31
0.0
  0
LINE
  5
832
330
2
100
AcDbEntity
  8
0
100
AcDbLine
 10
197.4339067529875
 20
192.5919556187309
 30
0.0
 11
237.4339527529874
 21
192.5919556187309
 31
0.0
  0
LINE
  5
833
330
2
100
AcDbEntity
  8
CENTER
100
AcDbLine
 10
245.4339527529874
 20
181.5919556187309
 30
0.0
 11
150.4339297529874
 21
181.5919556187309
 31
0.0
  0
ARC
  5
834
330
2
100
AcDbEntity
  8
0
100
AcDbCircle
 10
191.1351397529873
 20
100.5918756187309
 30
0.0
 40
3.0
100
AcDbArc
 50
5.000380000000087
 51
90.0
  0
LINE
  5
835
330
2
100
AcDbEntity
  8
HIDS
  6
SEKKEI_H
100
AcDbLine
 10
187.9339067529875
 20
103.6477566187309
 30
0.0
 11
187.9339067529875
 21
91.59189461873092
 31
0.0
  0
LINE
  5
836
330
2
100
AcDbEntity
  8
HIDS
  6
SEKKEI_H
100
AcDbLine
 10
176.9339067529875
 20
103.8397356187309
 30
0.0
 11
176.9339067529875
 21
91.59189461873092
 31
0.0
  0
LINE
  5
837
330
2
100
AcDbEntity
  8
CENTER
100
AcDbLine
 10
182.4339067529875
 20
106.2441292106776
 30
0.0
 11
182.4339067529875
 21
89.09189461873092
 31
0.0
  0
LINE
  5
838
330
2
100
AcDbEntity
  8
HIDS
  6
SEKKEI_H
100
AcDbLine
 10
122.9339297529874
 20
103.8397776187309
 30
0.0
 11
122.9339297529874
 21
91.59189461873092
 31
0.0
  0
ARC
  5
839
330
2
100
AcDbEntity
  8
0
100
AcDbCircle
 10
108.7327347529875
 20
100.5918946187309
 30
0.0
 40
3.0
100
AcDbArc
 50
90.0
 51
175.000503999998
  0
LINE
  5
83A
330
2
100
AcDbEntity
  8
CENTER
100
AcDbLine
 10
117.4339297529874
 20
106.2441532494796
 30
0.0
 11
117.4339297529874
 21
89.09189461873092
 31
0.0
  0
LINE
  5
83B
330
2
100
AcDbEntity
  8
HIDS
  6
SEKKEI_H
100
AcDbLine
 10
111.9339297529874
 20
103.6477756187309
 30
0.0
 11
111.9339297529874
 21
91.59189461873092
 31
0.0
  0
LINE
  5
83C
330
2
100
AcDbEntity
  8
0
100
AcDbLine
 10
104.9339297529874
 20
91.59189461873092
 30
0.0
 11
194.9339067529875
 21
91.59189461873092
 31
0.0
  0
LINE
  5
83D
330
2
100
AcDbEntity
  8
0
100
AcDbLine
 10
105.7441567529875
 20
100.8533346187309
 30
0.0
 11
104.9339297529874
 21
91.59189461873092
 31
0.0
  0
LINE
  5
83E
330
2
100
AcDbEntity
  8
0
100
AcDbLine
 10
194.1237267529874
 20
100.8533766187309
 30
0.0
 11
194.9339067529875
 21
91.59189461873092
 31
0.0
  0
ARC
  5
83F
330
2
100
AcDbEntity
  8
0
100
AcDbCircle
 10
329.4339527529874
 20
155.5919556187309
 30
0.0
 40
170.0
100
AcDbArc
 50
180.0
 51
196.4234920000008
  0
ARC
  5
840
330
2
100
AcDbEntity
  8
0
100
AcDbCircle
 10
-107.5660932470124
 20
104.3763146187309
 30
0.0
 40
240.0
100
AcDbArc
 50
1.10746399999805
 51
18.19492899999975
  0
LINE
  5
842
330
2
100
AcDbEntity
  8
0
100
AcDbLine
 10
121.5138937529874
 20
126.0950756187309
 30
0.0
 11
129.7638937529874
 21
126.0950756187309
 31
0.0
  0
LINE
  5
843
330
2
100
AcDbEntity
  8
0
100
AcDbLine
 10
121.5138937529874
 20
109.2750576187309
 30
0.0
 11
129.7638937529874
 21
109.2750576187309
 31
0.0
  0
ARC
  5
844
330
2
100
AcDbEntity
  8
0
100
AcDbCircle
 10
127.3900307529874
 20
108.9183376187309
 30
0.0
 40
5.0
100
AcDbArc
 50
271.0000919999995
 51
1.107672999999401
  0
ARC
  5
847
330
2
100
AcDbEntity
  8
0
100
AcDbCircle
 10
111.4339527529874
 20
102.0919366187309
 30
0.0
 40
3.0
100
AcDbArc
 50
32.03855900000005
 51
90.0
  0
LINE
  5
848
330
2
100
AcDbEntity
  8
0
100
AcDbLine
 10
108.7327347529875
 20
103.5918946187309
 30
0.0
 11
127.4772957529875
 21
103.9190776187309
 31
0.0
  0
LINE
  5
84C
330
2
100
AcDbEntity
  8
0
100
AcDbLine
 10
106.9339297529874
 20
105.0919556187309
 30
0.0
 11
111.4339527529874
 21
105.0919556187309
 31
0.0
  0
LINE
  5
851
330
2
100
AcDbEntity
  8
0
100
AcDbLine
 10
119.8089297529874
 20
109.2750576187309
 30
0.0
 11
115.3089297529874
 21
109.2750576187309
 31
0.0
  0
LINE
  5
852
330
2
100
AcDbEntity
  8
0
100
AcDbLine
 10
122.4339297529874
 20
103.8797366187309
 30
0.0
 11
122.4339297529874
 21
109.2750576187309
 31
0.0
  0
LINE
  5
854
330
2
100
AcDbEntity
  8
0
100
AcDbLine
 10
119.8089297529874
 20
126.0950756187309
 30
0.0
 11
115.3089297529874
 21
126.0950756187309
 31
0.0
  0
ARC
  5
85F
330
2
100
AcDbEntity
  8
0
100
AcDbCircle
 10
187.9337387529875
 20
123.5941756187309
 30
0.0
 40
3.0
100
AcDbArc
 50
129.0888059999994
 51
180.0
  0
LINE
  5
860
330
2
100
AcDbEntity
  8
0
100
AcDbLine
 10
171.0789267529875
 20
103.9419156187309
 30
0.0
 11
191.1351397529873
 21
103.5918946187309
 31
0.0
  0
ARC
  5
861
330
2
100
AcDbEntity
  8
0
100
AcDbCircle
 10
158.2091297529874
 20
263.453596618731
 30
0.0
 40
142.392197
100
AcDbArc
 50
273.5635989999988
 51
280.3001100000004
  0
ARC
  5
862
330
2
100
AcDbEntity
  8
0
100
AcDbCircle
 10
171.1661307529874
 20
108.9410956187309
 30
0.0
 40
5.0
100
AcDbArc
 50
196.4232940000012
 51
269.0006099999996
  0
ARC
  5
863
330
2
100
AcDbEntity
  8
0
100
AcDbCircle
 10
264.7371597529874
 20
129.2016546187309
 30
0.0
 40
80.0
100
AcDbArc
 50
184.0191040000008
 51
197.075302
  0
ARC
  5
864
330
2
100
AcDbEntity
  8
0
100
AcDbCircle
 10
175.2611317529875
 20
122.5920166187309
 30
0.0
 40
17.0
100
AcDbArc
 50
313.6499940000001
 51
356.6427920000005
  0
ARC
  5
865
330
2
100
AcDbEntity
  8
0
100
AcDbCircle
 10
191.1311267529873
 20
106.5924366187309
 30
0.0
 40
3.0
100
AcDbArc
 50
197.0751950000009
 51
269.0006099999996
  0
ARC
  5
866
330
2
100
AcDbEntity
  8
0
100
AcDbCircle
 10
192.9339067529875
 20
159.0919536187309
 30
0.0
 40
2.5
100
AcDbArc
 50
280.9344790000009
 51
0.0
  0
LINE
  5
867
330
2
100
AcDbEntity
  8
0
100
AcDbLine
 10
197.4339067529875
 20
193.5919556187309
 30
0.0
 11
197.4339067529875
 21
169.5919556187309
 31
0.0
  0
LINE
  5
868
330
2
100
AcDbEntity
  8
0
100
AcDbLine
 10
195.4339067529875
 20
169.5919556187309
 30
0.0
 11
197.4339067529875
 21
169.5919556187309
 31
0.0
  0
ARC
  5
869
330
2
100
AcDbEntity
  8
0
100
AcDbCircle
 10
205.4339067529876
 20
181.5919556187309
 30
0.0
 40
3.0
100
AcDbArc
 50
90.0
 51
270.0
  0
LINE
  5
86A
330
2
100
AcDbEntity
  8
0
100
AcDbLine
 10
195.4339067529875
 20
193.5919556187309
 30
0.0
 11
197.4339067529875
 21
193.5919556187309
 31
0.0
  0
LINE
  5
86B
330
2
100
AcDbEntity
  8
0
100
AcDbLine
 10
237.4339527529874
 20
192.5919556187309
 30
0.0
 11
237.4339527529874
 21
170.5919556187309
 31
0.0
  0
ARC
  5
86C
330
2
100
AcDbEntity
  8
0
100
AcDbCircle
 10
120.4339297529874
 20
-299.4888553812691
 30
0.0
 40
530.0
100
AcDbArc
 50
83.71740700000026
 51
89.00066399999904
  0
LINE
  5
86D
330
2
100
AcDbEntity
  8
0
100
AcDbLine
 10
120.4339297529874
 20
230.5917956187309
 30
0.0
 11
129.6767507529874
 21
230.4305176187309
 31
0.0
  0
ARC
  5
875
330
2
100
AcDbEntity
  8
0
100
AcDbCircle
 10
111.4339297529874
 20
223.0919556187309
 30
0.0
 40
3.0
100
AcDbArc
 50
270.0
 51
0.0
  0
LINE
  5
876
330
2
100
AcDbEntity
  8
0
100
AcDbLine
 10
106.9339297529874
 20
220.0919556187309
 30
0.0
 11
111.4339147529875
 21
220.0919556187309
 31
0.0
  0
ARC
  5
877
330
2
100
AcDbEntity
  8
0
100
AcDbCircle
 10
116.4339297529874
 20
228.5919936187309
 30
0.0
 40
2.0
100
AcDbArc
 50
90.0
 51
180.0
  0
LINE
  5
878
330
2
100
AcDbEntity
  8
0
100
AcDbLine
 10
116.4339297529874
 20
230.5919556187309
 30
0.0
 11
120.4339297529874
 21
230.5917956187309
 31
0.0
  0
ARC
  5
90E
330
2
100
AcDbEntity
  8
0
100
AcDbCircle
 10
192.9339067529875
 20
204.0919556187309
 30
0.0
 40
2.5
100
AcDbArc
 50
0.0
 51
90.0
  0
ARC
  5
90F
330
2
100
AcDbEntity
  8
0
100
AcDbCircle
 10
174.8837057529875
 20
208.5775556187309
 30
0.0
 40
17.0
100
AcDbArc
 50
5.316978000000066
 51
66.96292900000063
  0
ARC
  5
910
330
2
100
AcDbEntity
  8
0
100
AcDbCircle
 10
-506.5664742470126
 20
162.5919556187309
 30
0.0
 40
700.0
100
AcDbArc
 50
3.603821000000682
 51
3.895952000000533
  0
LINE
  5
911
330
2
100
AcDbEntity
  8
0
100
AcDbLine
 10
192.0491257529873
 20
206.5919556187309
 30
0.0
 11
192.9339067529875
 21
206.5919556187309
 31
0.0
  0
ARC
  5
912
330
2
100
AcDbEntity
  8
0
100
AcDbCircle
 10
180.1969077529873
 20
225.3086956187309
 30
0.0
 40
0.5
100
AcDbArc
 50
164.6766050000007
 51
248.6154019999998
  0
ARC
  5
913
330
2
100
AcDbEntity
  8
0
100
AcDbCircle
 10
159.2307357529874
 20
171.7674356187309
 30
0.0
 40
57.0
100
AcDbArc
 50
66.96292099999936
 51
68.61509699999951
  0
ARC
  5
914
330
2
100
AcDbEntity
  8
0
100
AcDbCircle
 10
178.2681197529874
 20
225.8372366187308
 30
0.0
 40
1.5
100
AcDbArc
 50
327.7117879999983
 51
83.7175370000005
  0
ARC
  5
915
330
2
100
AcDbEntity
  8
HOJO
100
AcDbCircle
 10
332.3620339172531
 20
206.4287976187309
 30
0.0
 40
1.600781999999999
100
AcDbArc
 50
127.1647029999997
 51
201.3401949999996
  0
LINE
  5
916
330
2
100
AcDbEntity
  8
HOJO
100
AcDbLine
 10
331.3948099172531
 20
207.7044166187309
 30
0.0
 11
333.3470199172533
 21
209.1842946187309
 31
0.0
  0
ARC
  5
917
330
2
100
AcDbEntity
  8
HOJO
100
AcDbCircle
 10
332.3798259172532
 20
210.4599176187309
 30
0.0
 40
1.600781
100
AcDbArc
 50
307.1646999999983
 51
21.34008999999932
  0
ARC
  5
918
330
2
100
AcDbEntity
  8
HOJO
100
AcDbCircle
 10
336.8618209172531
 20
214.2230746187309
 30
0.0
 40
1.600781999999999
100
AcDbArc
 50
127.1647029999997
 51
201.3401949999996
  0
ARC
  5
919
330
2
100
AcDbEntity
  8
0
100
AcDbCircle
 10
364.7906229172532
 20
162.5919556187309
 30
0.0
 40
122.0
100
AcDbArc
 50
7.879120000000896
 51
20.39979900000159
  0
ARC
  5
91A
330
2
100
AcDbEntity
  8
0
100
AcDbCircle
 10
396.2906229172532
 20
168.0919556187309
 30
0.0
 40
84.0
100
AcDbArc
 50
354.3693079999997
 51
27.31318099999862
  0
ARC
  5
91B
330
2
100
AcDbEntity
  8
0
100
AcDbCircle
 10
445.2906229172532
 20
168.0919556187309
 30
0.0
 40
84.0
100
AcDbArc
 50
152.6869049999999
 51
185.6307069999993
  0
ARC
  5
91C
330
2
100
AcDbEntity
  8
0
100
AcDbCircle
 10
476.7906229172532
 20
162.5919556187309
 30
0.0
 40
122.0
100
AcDbArc
 50
159.6002959999989
 51
172.1208949999985
  0
CIRCLE
  5
91D
330
2
100
AcDbEntity
  8
0
100
AcDbCircle
 10
420.7906229172532
 20
181.5919556187309
 30
0.0
 40
25.0
  0
LINE
  5
91E
330
2
100
AcDbEntity
  8
CENTER
100
AcDbLine
 10
420.7906229172532
 20
238.8650125362238
 30
0.0
 11
420.7906229172532
 21
81.87481012680427
 31
0.0
  0
LINE
  5
91F
330
2
100
AcDbEntity
  8
0
100
AcDbLine
 10
459.0568279172531
 20
103.5919556187309
 30
0.0
 11
474.2916299172531
 21
103.5919556187309
 31
0.0
  0
LINE
  5
920
330
2
100
AcDbEntity
  8
0
100
AcDbLine
 10
470.1276289172532
 20
105.4120776187309
 30
0.0
 11
464.2026099172531
 21
121.6913746187309
 31
0.0
  0
LINE
  5
921
330
2
100
AcDbEntity
  8
0
100
AcDbLine
 10
497.8602339172531
 20
91.59189461873092
 30
0.0
 11
454.7908059172531
 21
91.59189461873092
 31
0.0
  0
ARC
  5
922
330
2
100
AcDbEntity
  8
0
100
AcDbCircle
 10
356.7906229172532
 20
181.5919556187309
 30
0.0
 40
125.0
100
AcDbArc
 50
331.0027600000005
 51
349.9835799999987
  0
ARC
  5
923
330
2
100
AcDbEntity
  8
0
100
AcDbCircle
 10
458.589633917253
 20
100.5919556187309
 30
0.0
 40
3.0
100
AcDbArc
 50
90.0
 51
175.0000000000001
  0
ARC
  5
924
330
2
100
AcDbEntity
  8
0
100
AcDbCircle
 10
382.9916119172531
 20
100.5919556187309
 30
0.0
 40
3.0
100
AcDbArc
 50
5.000447999999098
 51
90.0
  0
LINE
  5
925
330
2
100
AcDbEntity
  8
CENTER
100
AcDbLine
 10
355.790622917253
 20
89.09195561873094
 30
0.0
 11
355.7906229172532
 21
106.0919556187309
 31
0.0
  0
LINE
  5
926
330
2
100
AcDbEntity
  8
HIDS
  6
SEKKEI_H
100
AcDbLine
 10
361.2906229172532
 20
103.5919556187309
 30
0.0
 11
361.2906229172532
 21
91.59195561873094
 31
0.0
  0
LINE
  5
927
330
2
100
AcDbEntity
  8
HIDS
  6
SEKKEI_H
100
AcDbLine
 10
350.2906229172532
 20
103.5919556187309
 30
0.0
 11
350.2906229172532
 21
91.59195561873094
 31
0.0
  0
ARC
  5
928
330
2
100
AcDbEntity
  8
0
100
AcDbCircle
 10
348.0038189172531
 20
100.5920736187309
 30
0.0
 40
3.0
100
AcDbArc
 50
90.0
 51
172.0691070000002
  0
LINE
  5
929
330
2
100
AcDbEntity
  8
0
100
AcDbLine
 10
355.9424179172532
 20
179.3157106187309
 30
0.0
 11
343.7210129172532
 21
91.59195561873094
 31
0.0
  0
ARC
  5
92A
330
2
100
AcDbEntity
  8
0
100
AcDbCircle
 10
420.7906229172532
 20
-104.408044381269
 30
0.0
 40
200.0
100
AcDbArc
 50
80.18475300000012
 51
99.81522399999963
  0
LINE
  5
92B
330
2
100
AcDbEntity
  8
0
100
AcDbLine
 10
343.7210129172532
 20
91.59195561873094
 30
0.0
 11
386.7904099172532
 21
91.59195561873094
 31
0.0
  0
LINE
  5
92C
330
2
100
AcDbEntity
  8
0
100
AcDbLine
 10
385.9806259172531
 20
100.8534946187308
 30
0.0
 11
386.7904099172532
 21
91.59195561873094
 31
0.0
  0
LINE
  5
92D
330
2
100
AcDbEntity
  8
0
100
AcDbLine
 10
455.6006209172531
 20
100.8534946187308
 30
0.0
 11
454.7908059172531
 21
91.59189461873092
 31
0.0
  0
LINE
  5
92E
330
2
100
AcDbEntity
  8
CENTER
100
AcDbLine
 10
386.1609416690117
 20
181.5919556187309
 30
0.0
 11
455.4203041654948
 21
181.5919556187309
 31
0.0
  0
ARC
  5
92F
330
2
100
AcDbEntity
  8
0
100
AcDbCircle
 10
420.7906229172532
 20
228.5919556187309
 30
0.0
 40
123.0
100
AcDbArc
 50
255.768005000001
 51
270.0
  0
ARC
  5
930
330
2
100
AcDbEntity
  8
0
100
AcDbCircle
 10
484.7906229172532
 20
181.5919556187309
 30
0.0
 40
125.0
100
AcDbArc
 50
190.0164030000004
 51
208.906906000001
  0
ARC
  5
931
330
2
100
AcDbEntity
  8
0
100
AcDbCircle
 10
367.2896159172531
 20
108.5919556187309
 30
0.0
 40
5.0
100
AcDbArc
 50
270.0
 51
339.9986879999987
  0
LINE
  5
932
330
2
100
AcDbEntity
  8
0
100
AcDbLine
 10
382.5248149172531
 20
103.5919556187309
 30
0.0
 11
367.2896159172531
 21
103.5919556187309
 31
0.0
  0
LINE
  5
933
330
2
100
AcDbEntity
  8
0
100
AcDbLine
 10
348.0038189172531
 20
103.5919556187309
 30
0.0
 11
367.2896159172531
 21
103.5919556187309
 31
0.0
  0
ARC
  5
934
330
2
100
AcDbEntity
  8
0
100
AcDbCircle
 10
372.6796309172531
 20
123.4024336187309
 30
0.0
 40
5.0
100
AcDbArc
 50
339.9976500000007
 51
21.21484899999814
  0
ARC
  5
935
330
2
100
AcDbEntity
  8
0
100
AcDbCircle
 10
396.4518169172532
 20
132.6303566187309
 30
0.0
 40
24.0
100
AcDbArc
 50
241.0894010000004
 51
255.7678989999997
  0
LINE
  5
936
330
2
100
AcDbEntity
  8
0
100
AcDbLine
 10
379.7046249172532
 20
107.6180136187309
 30
0.0
 11
382.214633917253
 21
114.5122966187309
 31
0.0
  0
LINE
  5
937
330
2
100
AcDbEntity
  8
0
100
AcDbLine
 10
371.9876139172532
 20
106.8817546187309
 30
0.0
 11
377.3784219172531
 21
121.6920566187309
 31
0.0
  0
ARC
  5
938
330
2
100
AcDbEntity
  8
0
100
AcDbCircle
 10
382.5248149172531
 20
106.5919556187309
 30
0.0
 40
3.0
100
AcDbArc
 50
159.998993000001
 51
270.0
  0
LINE
  5
939
330
2
100
AcDbEntity
  8
0
100
AcDbLine
 10
382.9916119172531
 20
103.5919556187309
 30
0.0
 11
382.5248149172531
 21
103.5919556187309
 31
0.0
  0
ARC
  5
93A
330
2
100
AcDbEntity
  8
0
100
AcDbCircle
 10
383.3988079172531
 20
108.9952146187309
 30
0.0
 40
3.0
100
AcDbArc
 50
61.08962999999956
 51
159.9962009999998
  0
ARC
  5
93B
330
2
100
AcDbEntity
  8
0
100
AcDbCircle
 10
370.9876139172532
 20
118.7516766187309
 30
0.0
 40
5.0
100
AcDbArc
 50
339.9984699999985
 51
28.90654900000041
  0
ARC
  5
93C
330
2
100
AcDbEntity
  8
0
100
AcDbCircle
 10
384.0936319172532
 20
113.8280966187309
 30
0.0
 40
2.0
100
AcDbArc
 50
56.68413900000014
 51
159.9963069999997
  0
ARC
  5
93D
330
2
100
AcDbEntity
  8
0
100
AcDbCircle
 10
432.1908309172532
 20
127.4460166187309
 30
0.0
 40
4.5
100
AcDbArc
 50
311.8104209999992
 51
59.13299199999959
  0
LINE
  5
93E
330
2
100
AcDbEntity
  8
0
100
AcDbLine
 10
432.8908119172532
 20
121.5919556187309
 30
0.0
 11
436.6908309172532
 21
121.5919556187309
 31
0.0
  0
ARC
  5
93F
330
2
100
AcDbEntity
  8
0
100
AcDbCircle
 10
420.7906229172532
 20
228.5919556187309
 30
0.0
 40
123.0
100
AcDbArc
 50
270.0
 51
284.2320859999995
  0
LINE
  5
940
330
2
100
AcDbEntity
  8
0
100
AcDbLine
 10
429.8908119172532
 20
126.5919556187309
 30
0.0
 11
432.8908119172532
 21
121.5919556187309
 31
0.0
  0
LINE
  5
941
330
2
100
AcDbEntity
  8
0
100
AcDbLine
 10
428.6408119172532
 20
128.0919556187309
 30
0.0
 11
428.6408119172532
 21
121.5919556187309
 31
0.0
  0
LINE
  5
942
330
2
100
AcDbEntity
  8
0
100
AcDbLine
 10
418.8908119172532
 20
128.0919556187309
 30
0.0
 11
418.8908119172532
 21
121.5919556187309
 31
0.0
  0
LINE
  5
943
330
2
100
AcDbEntity
  8
0
100
AcDbLine
 10
415.8908119172532
 20
126.5919556187309
 30
0.0
 11
415.8908119172532
 21
121.5919556187309
 31
0.0
  0
LINE
  5
944
330
2
100
AcDbEntity
  8
0
100
AcDbLine
 10
412.6408119172532
 20
126.5919556187309
 30
0.0
 11
412.6408119172532
 21
122.5919556187309
 31
0.0
  0
LINE
  5
945
330
2
100
AcDbEntity
  8
0
100
AcDbLine
 10
425.3908119172532
 20
131.5919556187309
 30
0.0
 11
425.3908119172532
 21
121.5919556187309
 31
0.0
  0
LINE
  5
946
330
2
100
AcDbEntity
  8
0
100
AcDbLine
 10
422.3908119172532
 20
128.0919556187309
 30
0.0
 11
422.3908119172532
 21
121.5919556187309
 31
0.0
  0
ARC
  5
947
330
2
100
AcDbEntity
  8
0
100
AcDbCircle
 10
411.8908119172532
 20
125.0414756187309
 30
0.0
 40
3.5
100
AcDbArc
 50
135.5460970000002
 51
220.5290070000021
  0
ARC
  5
948
330
2
100
AcDbEntity
  8
0
100
AcDbCircle
 10
411.3908119172532
 20
125.3549556187309
 30
0.0
 40
6.5
100
AcDbArc
 50
112.3525010000009
 51
215.3744959999992
  0
LINE
  5
949
330
2
100
AcDbEntity
  8
0
100
AcDbLine
 10
406.0906109172532
 20
121.5919556187309
 30
0.0
 11
415.8908119172532
 21
121.5919556187309
 31
0.0
  0
LINE
  5
94A
330
2
100
AcDbEntity
  8
0
100
AcDbLine
 10
409.6104169172532
 20
122.5919556187309
 30
0.0
 11
412.6408119172532
 21
122.5919556187309
 31
0.0
  0
ARC
  5
94B
330
2
100
AcDbEntity
  8
0
100
AcDbCircle
 10
409.6104169172532
 20
123.0919556187309
 30
0.0
 40
0.5
100
AcDbArc
 50
220.5301970000004
 51
270.0
  0
LINE
  5
94C
330
2
100
AcDbEntity
  8
0
100
AcDbLine
 10
425.3908119172532
 20
121.5919556187309
 30
0.0
 11
428.6408119172532
 21
121.5919556187309
 31
0.0
  0
LINE
  5
94D
330
2
100
AcDbEntity
  8
0
100
AcDbLine
 10
418.8908119172532
 20
121.5919556187309
 30
0.0
 11
422.3908119172532
 21
121.5919556187309
 31
0.0
  0
LINE
  5
94E
330
2
100
AcDbEntity
  8
0
100
AcDbLine
 10
417.1408119172532
 20
128.0919556187309
 30
0.0
 11
418.8908119172532
 21
128.0919556187309
 31
0.0
  0
LINE
  5
94F
330
2
100
AcDbEntity
  8
0
100
AcDbLine
 10
417.1408119172532
 20
131.5919556187309
 30
0.0
 11
424.1408119172532
 21
131.5919556187309
 31
0.0
  0
ARC
  5
950
330
2
100
AcDbEntity
  8
0
100
AcDbCircle
 10
410.8200119172533
 20
126.0919556187309
 30
0.0
 40
2.0
100
AcDbArc
 50
90.0
 51
135.5462040000007
  0
LINE
  5
951
330
2
100
AcDbEntity
  8
0
100
AcDbLine
 10
410.0596049172533
 20
131.5919556187309
 30
0.0
 11
415.8908119172532
 21
131.5919556187309
 31
0.0
  0
ARC
  5
952
330
2
100
AcDbEntity
  8
0
100
AcDbCircle
 10
410.0596049172533
 20
128.5919556187309
 30
0.0
 40
3.0
100
AcDbArc
 50
90.0
 51
112.352699
  0
LINE
  5
953
330
2
100
AcDbEntity
  8
0
100
AcDbLine
 10
417.1408119172532
 20
131.5919556187309
 30
0.0
 11
417.1408119172532
 21
128.0919556187309
 31
0.0
  0
LINE
  5
954
330
2
100
AcDbEntity
  8
0
100
AcDbLine
 10
415.8908119172532
 20
128.0919556187309
 30
0.0
 11
415.8908119172532
 21
131.5919556187309
 31
0.0
  0
LINE
  5
955
330
2
100
AcDbEntity
  8
0
100
AcDbLine
 10
412.6408119172532
 20
126.5919556187309
 30
0.0
 11
415.8908119172532
 21
126.5919556187309
 31
0.0
  0
LINE
  5
956
330
2
100
AcDbEntity
  8
0
100
AcDbLine
 10
410.8200119172533
 20
128.0919556187309
 30
0.0
 11
415.8908119172532
 21
128.0919556187309
 31
0.0
  0
LINE
  5
957
330
2
100
AcDbEntity
  8
0
100
AcDbLine
 10
433.4732099172533
 20
131.5919556187309
 30
0.0
 11
425.3908119172532
 21
131.5919556187309
 31
0.0
  0
LINE
  5
958
330
2
100
AcDbEntity
  8
0
100
AcDbLine
 10
424.1408119172532
 20
131.5919556187309
 30
0.0
 11
424.1408119172532
 21
128.0919556187309
 31
0.0
  0
LINE
  5
959
330
2
100
AcDbEntity
  8
0
100
AcDbLine
 10
422.3908119172532
 20
128.0919556187309
 30
0.0
 11
424.1408119172532
 21
128.0919556187309
 31
0.0
  0
LINE
  5
95A
330
2
100
AcDbEntity
  8
0
100
AcDbLine
 10
429.8908119172532
 20
126.5919556187309
 30
0.0
 11
432.1408119172532
 21
126.5919556187309
 31
0.0
  0
LINE
  5
95B
330
2
100
AcDbEntity
  8
0
100
AcDbLine
 10
428.6408119172532
 20
128.0919556187309
 30
0.0
 11
432.1408119172532
 21
128.0919556187309
 31
0.0
  0
ARC
  5
95C
330
2
100
AcDbEntity
  8
0
100
AcDbCircle
 10
432.1408119172532
 20
127.3419556187309
 30
0.0
 40
0.75
100
AcDbArc
 50
270.0
 51
90.0
  0
ARC
  5
95D
330
2
100
AcDbEntity
  8
0
100
AcDbCircle
 10
433.4732099172533
 20
129.5919556187309
 30
0.0
 40
2.0
100
AcDbArc
 50
59.13309899999863
 51
90.0
  0
ARC
  5
95E
330
2
100
AcDbEntity
  8
0
100
AcDbCircle
 10
468.9016159172532
 20
123.4024336187309
 30
0.0
 40
5.0
100
AcDbArc
 50
158.7852019999987
 51
200.0023039999986
  0
ARC
  5
95F
330
2
100
AcDbEntity
  8
0
100
AcDbCircle
 10
445.1298259172532
 20
132.6304766187309
 30
0.0
 40
24.0
100
AcDbArc
 50
284.2320859999995
 51
298.9096979999989
  0
LINE
  5
960
330
2
100
AcDbEntity
  8
0
100
AcDbLine
 10
436.6908309172532
 20
121.5919556187309
 30
0.0
 11
435.1908309172532
 21
124.0919556187309
 31
0.0
  0
LINE
  5
961
330
2
100
AcDbEntity
  8
0
100
AcDbLine
 10
461.8756149172533
 20
107.6180136187309
 30
0.0
 11
459.3666119172532
 21
114.5116946187309
 31
0.0
  0
ARC
  5
962
330
2
100
AcDbEntity
  8
0
100
AcDbCircle
 10
459.0568279172531
 20
106.5919556187309
 30
0.0
 40
3.0
100
AcDbArc
 50
270.0
 51
20.00140999999853
  0
ARC
  5
963
330
2
100
AcDbEntity
  8
0
100
AcDbCircle
 10
458.1826209172531
 20
108.9950966187309
 30
0.0
 40
3.0
100
AcDbArc
 50
20.00011999999899
 51
118.9102020000011
  0
LINE
  5
964
330
2
100
AcDbEntity
  8
0
100
AcDbLine
 10
458.589633917253
 20
103.5919556187309
 30
0.0
 11
459.0568279172531
 21
103.5919556187309
 31
0.0
  0
ARC
  5
965
330
2
100
AcDbEntity
  8
0
100
AcDbCircle
 10
457.4876139172532
 20
113.8280966187309
 30
0.0
 40
2.0
100
AcDbArc
 50
20.00369099999963
 51
123.3159030000006
  0
ARC
  5
966
330
2
100
AcDbEntity
  8
0
100
AcDbCircle
 10
470.5936319172532
 20
118.7514366187309
 30
0.0
 40
5.0
100
AcDbArc
 50
151.0935059999987
 51
199.9996030000001
  0
ARC
  5
967
330
2
100
AcDbEntity
  8
0
100
AcDbCircle
 10
420.7906229172532
 20
181.5919556187309
 30
0.0
 40
11.0
100
AcDbArc
 50
195.8265990000011
 51
164.1734009999988
  0
LINE
  5
968
330
2
100
AcDbEntity
  8
0
100
AcDbLine
 10
413.2906229172532
 20
184.5919556187309
 30
0.0
 11
413.2906229172532
 21
178.5919556187309
 31
0.0
  0
LINE
  5
969
330
2
100
AcDbEntity
  8
0
100
AcDbLine
 10
407.2906229172532
 20
184.5919556187309
 30
0.0
 11
407.2906229172532
 21
178.5919556187309
 31
0.0
  0
LINE
  5
96A
330
2
100
AcDbEntity
  8
0
100
AcDbLine
 10
407.2906229172532
 20
178.5919556187309
 30
0.0
 11
413.2906229172532
 21
178.5919556187309
 31
0.0
  0
LINE
  5
96B
330
2
100
AcDbEntity
  8
0
100
AcDbLine
 10
407.2906229172532
 20
184.5919556187309
 30
0.0
 11
413.2906229172532
 21
184.5919556187309
 31
0.0
  0
ARC
  5
96C
330
2
100
AcDbEntity
  8
0
100
AcDbCircle
 10
493.5774269172533
 20
100.5921346187309
 30
0.0
 40
3.0
100
AcDbArc
 50
7.931651999999493
 51
90.0
  0
LINE
  5
96D
330
2
100
AcDbEntity
  8
HIDS
  6
SEKKEI_H
100
AcDbLine
 10
480.2906229172532
 20
103.5919556187309
 30
0.0
 11
480.2906229172532
 21
91.59195561873094
 31
0.0
  0
LINE
  5
96E
330
2
100
AcDbEntity
  8
HIDS
  6
SEKKEI_H
100
AcDbLine
 10
491.2906229172532
 20
103.5919556187309
 30
0.0
 11
491.2906229172532
 21
91.59195561873094
 31
0.0
  0
LINE
  5
96F
330
2
100
AcDbEntity
  8
CENTER
100
AcDbLine
 10
485.7906229172532
 20
106.0919556187309
 30
0.0
 11
485.7906229172532
 21
89.09189461873092
 31
0.0
  0
LINE
  5
970
330
2
100
AcDbEntity
  8
0
100
AcDbLine
 10
485.6388289172531
 20
179.3161376187309
 30
0.0
 11
497.8602339172531
 21
91.59189461873092
 31
0.0
  0
LINE
  5
971
330
2
100
AcDbEntity
  8
0
100
AcDbLine
 10
493.5774269172533
 20
103.5919556187309
 30
0.0
 11
474.2916299172531
 21
103.5919556187309
 31
0.0
  0
ARC
  5
972
330
2
100
AcDbEntity
  8
0
100
AcDbCircle
 10
472.8914229172532
 20
106.5921346187309
 30
0.0
 40
3.0
100
AcDbArc
 50
199.9996949999992
 51
270.0
  0
ARC
  5
973
330
2
100
AcDbEntity
  8
0
100
AcDbCircle
 10
449.157627917253
 20
195.3937746187309
 30
0.0
 40
24.5
100
AcDbArc
 50
27.31327100000129
 51
69.23240699999952
  0
ARC
  5
974
330
2
100
AcDbEntity
  8
0
100
AcDbCircle
 10
451.0206339172531
 20
194.6602536187309
 30
0.0
 40
30.0
100
AcDbArc
 50
20.39996900000022
 51
67.79795100000055
  0
ARC
  5
975
330
2
100
AcDbEntity
  8
0
100
AcDbCircle
 10
420.7906229172532
 20
120.5917766187309
 30
0.0
 40
104.4999999999999
100
AcDbArc
 50
90.0
 51
110.7677989999995
  0
ARC
  5
976
330
2
100
AcDbEntity
  8
0
100
AcDbCircle
 10
420.7906229172532
 20
120.5916546187309
 30
0.0
 40
110.0
100
AcDbArc
 50
90.0
 51
112.2024
  0
ARC
  5
977
330
2
100
AcDbEntity
  8
0
100
AcDbCircle
 10
390.5606119172531
 20
194.6602536187309
 30
0.0
 40
30.0
100
AcDbArc
 50
112.202003000001
 51
159.6000060000005
  0
ARC
  5
978
330
2
100
AcDbEntity
  8
HOJO
100
AcDbCircle
 10
336.8798259172532
 20
218.2541566187309
 30
0.0
 40
1.600781
100
AcDbArc
 50
307.1646999999983
 51
21.34008999999932
  0
LINE
  5
979
330
2
100
AcDbEntity
  8
0
100
AcDbLine
 10
338.3708229172531
 20
218.8367146187309
 30
0.0
 11
362.3878219172532
 21
204.9710376187309
 31
0.0
  0
LINE
  5
97A
330
2
100
AcDbEntity
  8
0
100
AcDbLine
 10
331.5061861196285
 20
207.7888456461506
 30
0.0
 11
358.4467610087585
 21
192.235341872382
 31
0.0
  0
ARC
  5
97B
330
2
100
AcDbEntity
  8
0
100
AcDbCircle
 10
392.4246259172531
 20
195.3937746187309
 30
0.0
 40
24.5
100
AcDbArc
 50
110.7676009999999
 51
152.6867069999987
  0
ARC
  5
97C
330
2
100
AcDbEntity
  8
0
100
AcDbCircle
 10
420.7906229172532
 20
120.5917766187309
 30
0.0
 40
104.4999999999999
100
AcDbArc
 50
69.23223100000003
 51
90.0
  0
ARC
  5
97D
330
2
100
AcDbEntity
  8
0
100
AcDbCircle
 10
420.7906229172532
 20
120.5916546187309
 30
0.0
 40
110.0
100
AcDbArc
 50
67.79785899999888
 51
90.0
  0
TEXT
  5
97E
330
2
100
AcDbEntity
  8
TITLE
100
AcDbText
 10
40.21510059740978
 20
26.9101253362237
 30
0.0
 40
9.0
  1
VGLC22-40～100N200
100
AcDbText
  0
MTEXT
  5
990
330
2
100
AcDbEntity
  8
TITLE
100
AcDbMText
 10
191.4581641865506
 20
39.33190420248209
 30
0.0
 40
5.656800000000001
 41
23.355513
 71
     1
 72
     5
  1
L2\PL4
1001
ACAD
1000
MTEXTBEGIN
1070
    73
1070
     1
1070
    44
1040
1.0
1070
    74
1070
     0
1000
MTEXTEND
  0
ARC
  5
B94
330
2
100
AcDbEntity
  8
0
100
AcDbCircle
 10
76.38384275298744
 20
433.1989945001891
 30
0.0
 40
103.7254029999999
100
AcDbArc
 50
357.8143649999983
 51
36.74352999999896
  0
LINE
  5
B95
330
2
100
AcDbEntity
  8
0
100
AcDbLine
 10
132.4399797529874
 20
506.2729385001891
 30
0.0
 11
183.1432427529874
 21
505.3877455001892
 31
0.0
  0
ARC
  5
B96
330
2
100
AcDbEntity
  8
0
100
AcDbCircle
 10
159.4338767529874
 20
432.7431835001893
 30
0.0
 40
57.0
100
AcDbArc
 50
66.71258500000006
 51
82.4689029999992
  0
CIRCLE
  5
B97
330
2
100
AcDbEntity
  8
0
100
AcDbCircle
 10
182.4338917529873
 20
494.2431835001892
 30
0.0
 40
5.5
  0
LINE
  5
B98
330
2
100
AcDbEntity
  8
CENTER
100
AcDbLine
 10
28.05727829132797
 20
429.2431835001893
 30
0.0
 11
245.4339527529874
 21
429.2431835001892
 31
0.0
  0
LINE
  5
B99
330
2
100
AcDbEntity
  8
0
100
AcDbLine
 10
132.4399797529874
 20
352.2133985001892
 30
0.0
 11
183.1432427529874
 21
353.0986525001892
 31
0.0
  0
ARC
  5
B9A
330
2
100
AcDbEntity
  8
0
100
AcDbCircle
 10
76.38384275298744
 20
425.2873735001892
 30
0.0
 40
103.7254029999999
100
AcDbArc
 50
323.256470000001
 51
2.18563499999837
  0
ARC
  5
B9B
330
2
100
AcDbEntity
  8
0
100
AcDbCircle
 10
159.4338767529874
 20
425.7431835001892
 30
0.0
 40
57.0
100
AcDbArc
 50
277.5310970000008
 51
293.2874149999999
  0
CIRCLE
  5
B9C
330
2
100
AcDbEntity
  8
0
100
AcDbCircle
 10
182.4338917529873
 20
364.2431835001892
 30
0.0
 40
5.5
  0
LINE
  5
BB4
330
2
100
AcDbEntity
  8
0
100
AcDbLine
 10
120.4338767529873
 20
363.2431835001892
 30
0.0
 11
120.4338767529873
 21
495.2431835001893
 31
0.0
  0
ARC
  5
BB5
330
2
100
AcDbEntity
  8
0
100
AcDbCircle
 10
117.4338767529873
 20
364.2431835001892
 30
0.0
 40
5.5
100
AcDbArc
 50
123.1975860000005
 51
349.5242919999993
  0
ARC
  5
BB6
330
2
100
AcDbEntity
  8
HIDS
  6
SEKKEI_H
100
AcDbCircle
 10
117.4338767529873
 20
364.2431835001892
 30
0.0
 40
5.5
100
AcDbArc
 50
349.5243000000006
 51
123.1975860000005
  0
ARC
  5
BB7
330
2
100
AcDbEntity
  8
0
100
AcDbCircle
 10
117.4338767529873
 20
350.5617875001892
 30
0.0
 40
15.0
100
AcDbArc
 50
6.430361000000786
 51
78.46295900000057
  0
ARC
  5
BB8
330
2
100
AcDbEntity
  8
0
100
AcDbCircle
 10
116.9338767529873
 20
364.6534625001892
 30
0.0
 40
12.0
100
AcDbArc
 50
180.0
 51
268.4996949999983
  0
LINE
  5
BB9
330
2
100
AcDbEntity
  8
0
100
AcDbLine
 10
132.4394917529873
 20
352.2433975001892
 30
0.0
 11
116.6197897529875
 21
352.6578265001891
 31
0.0
  0
LINE
  5
BBA
330
2
100
AcDbEntity
  8
0
100
AcDbLine
 10
120.4338767529873
 20
363.2431835001892
 30
0.0
 11
125.4452897529874
 21
363.2431835001892
 31
0.0
  0
ARC
  5
BBB
330
2
100
AcDbEntity
  8
0
100
AcDbCircle
 10
171.3745657529875
 20
364.8858845001892
 30
0.0
 40
12.0
100
AcDbArc
 50
219.1566010000002
 51
273.238892
  0
ARC
  5
BBC
330
2
100
AcDbEntity
  8
0
100
AcDbCircle
 10
170.4330677529874
 20
364.4535115001891
 30
0.0
 40
11.0
100
AcDbArc
 50
186.3612979999983
 51
220.5068049999992
  0
ARC
  5
BBD
330
2
100
AcDbEntity
  8
0
100
AcDbCircle
 10
159.4338767529874
 20
425.7433065001893
 30
0.0
 40
57.0
100
AcDbArc
 50
274.0237119999987
 51
277.5307010000005
  0
ARC
  5
BBE
330
2
100
AcDbEntity
  8
HIDS
  6
SEKKEI_H
100
AcDbCircle
 10
117.4338767529873
 20
494.2431835001892
 30
0.0
 40
5.5
100
AcDbArc
 50
236.8025129999998
 51
10.47567000000058
  0
ARC
  5
BBF
330
2
100
AcDbEntity
  8
0
100
AcDbCircle
 10
117.4338767529873
 20
494.2431835001892
 30
0.0
 40
5.5
100
AcDbArc
 50
10.47567000000058
 51
236.8025209999983
  0
LINE
  5
BC0
330
2
100
AcDbEntity
  8
CENTER
100
AcDbLine
 10
117.4338767529873
 20
485.5416915001891
 30
0.0
 11
117.4338767529873
 21
502.9446755001892
 31
0.0
  0
ARC
  5
BC1
330
2
100
AcDbEntity
  8
0
100
AcDbCircle
 10
116.9338767529873
 20
493.8329055001892
 30
0.0
 40
12.0
100
AcDbArc
 50
91.50030499999834
 51
180.0
  0
ARC
  5
BC2
330
2
100
AcDbEntity
  8
0
100
AcDbCircle
 10
117.5439837529875
 20
507.9556775001891
 30
0.0
 40
15.0
100
AcDbArc
 50
281.1073000000007
 51
353.4448849999999
  0
LINE
  5
BC3
330
2
100
AcDbEntity
  8
CENTER
100
AcDbLine
 10
108.7323847529874
 20
494.2431835001892
 30
0.0
 11
126.1353687529874
 21
494.2431835001892
 31
0.0
  0
ARC
  5
BC4
330
2
100
AcDbEntity
  8
0
100
AcDbCircle
 10
159.4338767529874
 20
432.7430615001891
 30
0.0
 40
57.0
100
AcDbArc
 50
82.46929899999951
 51
85.97628799999798
  0
LINE
  5
BC5
330
2
100
AcDbEntity
  8
0
100
AcDbLine
 10
132.4394917529873
 20
506.2429395001892
 30
0.0
 11
116.6197897529875
 21
505.8286335001893
 31
0.0
  0
LINE
  5
BC6
330
2
100
AcDbEntity
  8
0
100
AcDbLine
 10
120.4336327529874
 20
495.2431835001893
 30
0.0
 11
125.5058977529875
 21
495.2431835001893
 31
0.0
  0
ARC
  5
BC7
330
2
100
AcDbEntity
  8
0
100
AcDbCircle
 10
171.3745657529875
 20
493.6004835001892
 30
0.0
 40
12.0
100
AcDbArc
 50
86.76110800000001
 51
140.8433989999998
  0
ARC
  5
BC8
330
2
100
AcDbEntity
  8
0
100
AcDbCircle
 10
170.4330677529874
 20
494.0328875001893
 30
0.0
 40
11.0
100
AcDbArc
 50
139.4931950000007
 51
173.6387020000016
  0
ARC
  5
C44
330
2
100
AcDbEntity
  8
0
100
AcDbCircle
 10
592.1780937529875
 20
428.8202105001892
 30
0.0
 40
400.0
100
AcDbArc
 50
176.3560029999988
 51
179.9394069999982
  0
LINE
  5
C45
330
2
100
AcDbEntity
  8
0
100
AcDbLine
 10
237.4339527529874
 20
440.2431835001892
 30
0.0
 11
237.4339527529874
 21
418.2431835001892
 31
0.0
  0
LINE
  5
C46
330
2
100
AcDbEntity
  8
0
100
AcDbLine
 10
197.4339527529874
 20
441.2431835001893
 30
0.0
 11
197.4339527529874
 21
417.2431835001892
 31
0.0
  0
LINE
  5
C47
330
2
100
AcDbEntity
  8
0
100
AcDbLine
 10
195.4339527529874
 20
451.7431835001892
 30
0.0
 11
195.4339527529874
 21
406.7431835001892
 31
0.0
  0
LINE
  5
C48
330
2
100
AcDbEntity
  8
0
100
AcDbLine
 10
194.9339527529874
 20
383.2431835001892
 30
0.0
 11
194.9339527529874
 21
365.0968215001892
 31
0.0
  0
ARC
  5
C49
330
2
100
AcDbEntity
  8
0
100
AcDbCircle
 10
182.9338917529874
 20
365.0968215001892
 30
0.0
 40
12.0
100
AcDbArc
 50
271.0003130000003
 51
0.0
  0
LINE
  5
C4A
330
2
100
AcDbEntity
  8
0
100
AcDbLine
 10
202.4339527529874
 20
418.6602065001892
 30
0.0
 11
237.4339527529874
 21
418.6602065001892
 31
0.0
  0
LINE
  5
C4B
330
2
100
AcDbEntity
  8
0
100
AcDbLine
 10
202.4339527529874
 20
415.7431835001892
 30
0.0
 11
237.4339527529874
 21
415.7431835001892
 31
0.0
  0
ARC
  5
C4C
330
2
100
AcDbEntity
  8
0
100
AcDbCircle
 10
-506.5665052470126
 20
429.2431835001893
 30
0.0
 40
700.0
100
AcDbArc
 50
356.6170959999985
 51
357.9533080000006
  0
ARC
  5
C4D
330
2
100
AcDbEntity
  8
0
100
AcDbCircle
 10
175.2474907529874
 20
389.0017895001892
 30
0.0
 40
17.0
100
AcDbArc
 50
293.2874149999999
 51
356.6224979999989
  0
ARC
  5
C4E
330
2
100
AcDbEntity
  8
0
100
AcDbCircle
 10
182.9340137529875
 20
383.2431835001892
 30
0.0
 40
12.0
100
AcDbArc
 50
0.0
 51
38.15891999999913
  0
LINE
  5
C4F
330
2
100
AcDbEntity
  8
0
100
AcDbLine
 10
197.4339527529874
 20
418.2431835001892
 30
0.0
 11
202.4339527529874
 21
418.2431835001892
 31
0.0
  0
ARC
  5
C50
330
2
100
AcDbEntity
  8
0
100
AcDbCircle
 10
592.1780937529875
 20
429.6661575001892
 30
0.0
 40
400.0
100
AcDbArc
 50
180.0605930000017
 51
183.6439970000011
  0
ARC
  5
C51
330
2
100
AcDbEntity
  8
0
100
AcDbCircle
 10
192.9339527529874
 20
406.7431835001892
 30
0.0
 40
2.5
100
AcDbArc
 50
271.2145080000007
 51
0.0
  0
LINE
  5
C52
330
2
100
AcDbEntity
  8
0
100
AcDbLine
 10
197.4339527529874
 20
417.2431835001892
 30
0.0
 11
195.4339527529874
 21
417.2431835001892
 31
0.0
  0
LINE
  5
C53
330
2
100
AcDbEntity
  8
0
100
AcDbLine
 10
202.4339527529874
 20
418.6602065001892
 30
0.0
 11
202.4339527529874
 21
415.7431835001892
 31
0.0
  0
LINE
  5
C54
330
2
100
AcDbEntity
  8
0
100
AcDbLine
 10
237.4339527529874
 20
418.2431835001892
 30
0.0
 11
237.4339527529874
 21
415.7431835001892
 31
0.0
  0
ARC
  5
C55
330
2
100
AcDbEntity
  8
0
100
AcDbCircle
 10
182.9338917529874
 20
493.3895465001892
 30
0.0
 40
12.0
100
AcDbArc
 50
0.0
 51
88.99968699999964
  0
LINE
  5
C56
330
2
100
AcDbEntity
  8
0
100
AcDbLine
 10
197.4339527529874
 20
440.2431835001892
 30
0.0
 11
237.4339527529874
 21
440.2431835001892
 31
0.0
  0
ARC
  5
C57
330
2
100
AcDbEntity
  8
0
100
AcDbCircle
 10
-506.5665052470126
 20
429.2431835001893
 30
0.0
 40
700.0
100
AcDbArc
 50
2.046958000000382
 51
3.377728999999253
  0
LINE
  5
C58
330
2
100
AcDbEntity
  8
0
100
AcDbLine
 10
197.4339527529874
 20
441.2431835001893
 30
0.0
 11
195.4339527529874
 21
441.2431835001893
 31
0.0
  0
ARC
  5
C59
330
2
100
AcDbEntity
  8
0
100
AcDbCircle
 10
192.9339527529874
 20
451.7431835001892
 30
0.0
 40
2.5
100
AcDbArc
 50
0.0
 51
88.78549199999923
  0
ARC
  5
C5A
330
2
100
AcDbEntity
  8
0
100
AcDbCircle
 10
175.2474907529874
 20
469.4846395001892
 30
0.0
 40
17.0
100
AcDbArc
 50
3.377502000001053
 51
66.71258500000006
  0
LINE
  5
C5B
330
2
100
AcDbEntity
  8
0
100
AcDbLine
 10
194.9339527529874
 20
475.2431835001893
 30
0.0
 11
194.9339527529874
 21
493.3895465001892
 31
0.0
  0
ARC
  5
C5C
330
2
100
AcDbEntity
  8
0
100
AcDbCircle
 10
182.9340137529875
 20
475.2431835001893
 30
0.0
 40
12.0
100
AcDbArc
 50
321.8410800000008
 51
0.0
  0
ARC
  5
C5E
330
2
100
AcDbEntity
  8
0
100
AcDbCircle
 10
116.4338157529871
 20
365.3486215001893
 30
0.0
 40
2.0
100
AcDbArc
 50
180.0
 51
268.5000000000037
  0
LINE
  5
C67
330
2
100
AcDbEntity
  8
0
100
AcDbLine
 10
116.3814627529873
 20
363.3493085001893
 30
0.0
 11
120.4338767529873
 21
363.2431985001893
 31
0.0
  0
LINE
  5
C68
330
2
100
AcDbEntity
  8
0
100
AcDbLine
 10
106.9338157529871
 20
371.7432145001893
 30
0.0
 11
106.9338157529871
 21
486.7431225001892
 31
0.0
  0
LINE
  5
C69
330
2
100
AcDbEntity
  8
0
100
AcDbLine
 10
114.4338157529871
 20
493.1377755001891
 30
0.0
 11
114.4336017529872
 21
365.3841595001892
 31
0.0
  0
ARC
  5
C6A
330
2
100
AcDbEntity
  8
0
100
AcDbCircle
 10
111.4338767529873
 20
368.5842025001892
 30
0.0
 40
3.0
100
AcDbArc
 50
0.0
 51
88.00054900000329
  0
LINE
  5
C6B
330
2
100
AcDbEntity
  8
0
100
AcDbLine
 10
111.5385827529871
 20
371.5824015001893
 30
0.0
 11
106.9338157529871
 21
371.7432145001893
 31
0.0
  0
ARC
  5
C6C
330
2
100
AcDbEntity
  8
0
100
AcDbCircle
 10
111.4338767529873
 20
489.9020885001893
 30
0.0
 40
3.0
100
AcDbArc
 50
272.0003659999951
 51
0.0
  0
LINE
  5
C6D
330
2
100
AcDbEntity
  8
0
100
AcDbLine
 10
111.5385827529871
 20
486.9039805001892
 30
0.0
 11
106.9338157529871
 21
486.7431225001892
 31
0.0
  0
LINE
  5
C6E
330
2
100
AcDbEntity
  8
0
100
AcDbLine
 10
116.3814627529873
 20
495.1370735001893
 30
0.0
 11
120.4338767529873
 21
495.2431835001893
 31
0.0
  0
ARC
  5
C6F
330
2
100
AcDbEntity
  8
0
100
AcDbCircle
 10
116.4338157529871
 20
493.1377755001891
 30
0.0
 40
2.0
100
AcDbArc
 50
91.49999999999621
 51
180.0
  0
LINE
  5
D51
330
2
100
AcDbEntity
  8
0
100
AcDbLine
 10
104.9338157529871
 20
486.4931835001892
 30
0.0
 11
104.9338157529871
 21
493.8329055001894
 31
0.0
  0
LINE
  5
D52
330
2
100
AcDbEntity
  8
0
100
AcDbLine
 10
104.9338157529871
 20
371.9931835001892
 30
0.0
 11
104.9338157529871
 21
364.6534625001894
 31
0.0
  0
LINE
  5
D53
330
2
100
AcDbEntity
  8
CENTER
100
AcDbLine
 10
182.4338917529873
 20
485.5416915001891
 30
0.0
 11
182.4338917529873
 21
502.9446755001892
 31
0.0
  0
LINE
  5
D54
330
2
100
AcDbEntity
  8
CENTER
100
AcDbLine
 10
173.7323997529874
 20
494.2431835001892
 30
0.0
 11
191.1353837529875
 21
494.2431835001892
 31
0.0
  0
LINE
  5
D55
330
2
100
AcDbEntity
  8
CENTER
100
AcDbLine
 10
182.4338917529873
 20
355.5416915001891
 30
0.0
 11
182.4338917529873
 21
372.9446755001891
 31
0.0
  0
LINE
  5
D56
330
2
100
AcDbEntity
  8
CENTER
100
AcDbLine
 10
173.7323997529874
 20
364.2431835001892
 30
0.0
 11
191.1353837529875
 21
364.2431835001892
 31
0.0
  0
LINE
  5
D57
330
2
100
AcDbEntity
  8
CENTER
100
AcDbLine
 10
117.4338767529873
 20
355.5416915001891
 30
0.0
 11
117.4338767529873
 21
372.9446755001891
 31
0.0
  0
LINE
  5
D58
330
2
100
AcDbEntity
  8
CENTER
100
AcDbLine
 10
108.7323847529874
 20
364.2431835001892
 30
0.0
 11
126.1353687529874
 21
364.2431835001892
 31
0.0
  0
LINE
  5
FEE
330
2
100
AcDbEntity
  8
0
100
AcDbLine
 10
37.93402875298705
 20
469.7433625001893
 30
0.0
 11
37.93367387424439
 21
406.3583805582096
 31
0.0
  0
LINE
  5
FEF
330
2
100
AcDbEntity
  8
0
100
AcDbLine
 10
39.43385475298703
 20
480.1354344352818
 30
0.0
 11
39.43385475298725
 21
396.2424357616756
 31
0.0
  0
LINE
  5
FF0
330
2
100
AcDbEntity
  8
0
100
AcDbLine
 10
96.93381975298677
 20
485.4165845001893
 30
0.0
 11
96.93381975298724
 21
373.0697825001892
 31
0.0
  0
LINE
  5
FF2
330
2
100
AcDbEntity
  8
0
100
AcDbLine
 10
40.43381575298702
 20
434.7431835001892
 30
0.0
 11
44.43381575298701
 21
434.7431835001892
 31
0.0
  0
ARC
  5
FF3
330
2
100
AcDbEntity
  8
0
100
AcDbCircle
 10
41.52301475298702
 20
432.9931835001892
 30
0.0
 40
1.0
100
AcDbArc
 50
90.0
 51
147.6076050000002
  0
ARC
  5
FF4
330
2
100
AcDbEntity
  8
0
100
AcDbCircle
 10
41.52301475298702
 20
425.4931835001892
 30
0.0
 40
1.0
100
AcDbArc
 50
212.3923949999997
 51
270.0
  0
LINE
  5
FF5
330
2
100
AcDbEntity
  8
0
100
AcDbLine
 10
40.43381575298702
 20
423.7482791728321
 30
0.0
 11
44.43381575298701
 21
423.7482791728321
 31
0.0
  0
LINE
  5
FF6
330
2
100
AcDbEntity
  8
0
100
AcDbLine
 10
39.43381575298701
 20
396.2424357616755
 30
0.0
 11
40.93385475298703
 21
396.2424357616754
 31
0.0
  0
LINE
  5
FF7
330
2
100
AcDbEntity
  8
0
100
AcDbLine
 10
36.93384295560997
 20
387.5984021732782
 30
0.0
 11
47.93385475298703
 21
387.5984021732782
 31
0.0
  0
LINE
  5
FF8
330
2
100
AcDbEntity
  8
0
100
AcDbLine
 10
36.9338429556102
 20
395.2424357616756
 30
0.0
 11
40.93385475298703
 21
395.2424357616754
 31
0.0
  0
SPLINE
  5
FFA
330
2
100
AcDbEntity
  8
HOJO
100
AcDbSpline
210
0.0
220
0.0
230
1.0
 70
     8
 71
     3
 72
    10
 73
     6
 74
     4
 42
0.0000000001
 43
0.0000000001
 44
0.0000000001
 40
0.0
 40
0.0
 40
0.0
 40
0.0
 40
2.063057496465506
 40
5.25746680811681
 40
6.97640530992899
 40
6.97640530992899
 40
6.97640530992899
 40
6.97640530992899
 10
39.43385475298703
 20
368.5264555832369
 30
0.0
 10
40.01651120609333
 20
369.100895803577
 30
0.0
 10
41.5013447446591
 20
370.5647912097203
 30
0.0
 10
43.4247528526236
 20
367.1741154153991
 30
0.0
 10
44.91314101319499
 20
368.3003286836619
 30
0.0
 10
45.43385475298703
 20
368.6943352595375
 30
0.0
 11
39.43385475298703
 21
368.5264555832369
 31
0.0
 11
41.17638239014752
 21
369.6309028058123
 31
0.0
 11
43.88808625260174
 21
367.9424381148236
 31
0.0
 11
45.43385475298703
 21
368.6943352595375
 31
0.0
  0
ELLIPSE
  5
FFB
330
2
100
AcDbEntity
  8
0
100
AcDbEllipse
 10
42.43385475298703
 20
384.2197989939374
 30
0.0
 11
-3.0
 21
0.0
 31
0.0
210
0.0
220
0.0
230
1.0
 40
0.5083333333333448
 41
3.141592653589793
 42
6.283185307179586
  0
ELLIPSE
  5
FFC
330
2
100
AcDbEntity
  8
0
100
AcDbEllipse
 10
42.43395695561036
 20
185.1217504075092
 30
0.0
 11
-3.799999999999954
 21
0.0
 31
0.0
210
0.0
220
0.0
230
1.0
 40
0.4671183654701858
 41
6.43876547018897
 42
10.03879389346605
  0
ARC
  5
FFD
330
2
100
AcDbEntity
  8
0
100
AcDbCircle
 10
50.4339583339189
 20
249.0923981362037
 30
0.0
 40
9.000047806854716
100
AcDbArc
 50
90.00012915873288
 51
179.999688182736
  0
ARC
  5
FFE
330
2
100
AcDbEntity
  8
0
100
AcDbCircle
 10
50.4339583339189
 20
249.0923981362037
 30
0.0
 40
11.00004780685471
100
AcDbArc
 50
90.00012915873288
 51
179.999688182736
  0
ARC
  5
FFF
330
2
100
AcDbEntity
  8
HOJO
100
AcDbCircle
 10
40.6839644462101
 20
235.0182908798457
 30
0.0
 40
1.600781999999999
100
AcDbArc
 50
67.16467300000603
 51
141.3436203206141
  0
ARC
  5
1000
330
2
100
AcDbEntity
  8
HOJO
100
AcDbCircle
 10
40.6839644462101
 20
237.0182908798457
 30
0.0
 40
1.600781999999999
100
AcDbArc
 50
67.16467300000603
 51
141.3435584038756
  0
ARC
  5
1001
330
2
100
AcDbEntity
  8
0
100
AcDbCircle
 10
50.43392290424447
 20
255.8546240074035
 30
0.0
 40
11.0
100
AcDbArc
 50
90.0
 51
179.9999690439245
  0
LINE
  5
1002
330
2
100
AcDbEntity
  8
0
100
AcDbLine
 10
36.93396775298731
 20
180.315615618731
 30
0.0
 11
47.93396875298742
 21
180.315615618731
 31
0.0
  0
LINE
  5
1003
330
2
100
AcDbEntity
  8
0
100
AcDbLine
 10
39.43396875298742
 20
170.811651618731
 30
0.0
 11
40.93396875298743
 21
170.811651618731
 31
0.0
  0
LINE
  5
1004
330
2
100
AcDbEntity
  8
0
100
AcDbLine
 10
36.93396775298731
 20
171.887411618731
 30
0.0
 11
40.93396875298743
 21
171.887411618731
 31
0.0
  0
ARC
  5
1006
330
2
100
AcDbEntity
  8
0
100
AcDbCircle
 10
41.52317075298731
 20
140.889854618731
 30
0.0
 40
1.0
100
AcDbArc
 50
90.0
 51
147.6076050000002
  0
LINE
  5
1007
330
2
100
AcDbEntity
  8
0
100
AcDbLine
 10
44.43396875298742
 20
141.830755618731
 30
0.0
 11
40.43396875298742
 21
141.830755618731
 31
0.0
  0
ARC
  5
1008
330
2
100
AcDbEntity
  8
0
100
AcDbCircle
 10
41.52317075298731
 20
133.389854618731
 30
0.0
 40
1.0
100
AcDbArc
 50
212.3923949999997
 51
270.0
  0
LINE
  5
1009
330
2
100
AcDbEntity
  8
0
100
AcDbLine
 10
44.43396875298742
 20
132.3177556187308
 30
0.0
 11
40.43396875298742
 21
132.3177556187308
 31
0.0
  0
LINE
  5
100A
330
2
100
AcDbEntity
  8
CENTER
100
AcDbLine
 10
36.93396875298742
 20
137.139854618731
 30
0.0
 11
46.93396875298742
 21
137.139854618731
 31
0.0
  0
ARC
  5
100B
330
2
100
AcDbEntity
  8
0
100
AcDbCircle
 10
41.43396875298742
 20
111.7121566187308
 30
0.0
 40
2.0
100
AcDbArc
 50
180.0
 51
270.0
  0
LINE
  5
100C
330
2
100
AcDbEntity
  8
0
100
AcDbLine
 10
39.43396875298742
 20
170.811651618731
 30
0.0
 11
39.43396875298742
 21
111.7121566187308
 31
0.0
  0
LINE
  5
100D
330
2
100
AcDbEntity
  8
0
100
AcDbLine
 10
37.93396775298731
 20
122.0919556187309
 30
0.0
 11
37.93396775298731
 21
162.5919556187309
 31
0.0
  0
LINE
  5
100E
330
2
100
AcDbEntity
  8
0
100
AcDbLine
 10
39.43396875298742
 20
121.0919556187309
 30
0.0
 11
37.93396775298731
 21
122.0919556187309
 31
0.0
  0
ARC
  5
100F
330
2
100
AcDbEntity
  8
0
100
AcDbCircle
 10
47.43396875298742
 20
137.139854618731
 30
0.0
 40
8.0
100
AcDbArc
 50
147.6076050000002
 51
212.3923949999997
  0
ARC
  5
1010
330
2
100
AcDbEntity
  8
0
100
AcDbCircle
 10
40.43396875298742
 20
133.3177556187308
 30
0.0
 40
1.0
100
AcDbArc
 50
180.0
 51
270.0
  0
ARC
  5
1011
330
2
100
AcDbEntity
  8
0
100
AcDbCircle
 10
40.43396875298742
 20
142.830755618731
 30
0.0
 40
1.0
100
AcDbArc
 50
180.0
 51
270.0
  0
LINE
  5
1012
330
2
100
AcDbEntity
  8
0
100
AcDbLine
 10
39.43391584112077
 20
236.0182316263093
 30
0.0
 11
39.43389133478797
 21
184.0322919480505
 31
0.0
  0
LINE
  5
1013
330
2
100
AcDbEntity
  8
0
100
AcDbLine
 10
36.93396775298731
 20
203.7964346187309
 30
0.0
 11
36.93395275298746
 21
159.4675816187309
 31
0.0
  0
LINE
  5
1014
330
2
100
AcDbEntity
  8
0
100
AcDbLine
 10
37.93396775298731
 20
164.020681618731
 30
0.0
 11
37.93396775298731
 21
162.5919556187309
 31
0.0
  0
ARC
  5
1015
330
2
100
AcDbEntity
  8
0
100
AcDbCircle
 10
37.93396775298731
 20
159.4675816187309
 30
0.0
 40
1.0
100
AcDbArc
 50
180.0
 51
270.0
  0
LINE
  5
1016
330
2
100
AcDbEntity
  8
0
100
AcDbLine
 10
37.93396775298731
 20
164.020681618731
 30
0.0
 11
39.43396875298742
 21
164.5849366187308
 31
0.0
  0
ELLIPSE
  5
1017
330
2
100
AcDbEntity
  8
0
100
AcDbEllipse
 10
42.43395695561036
 20
185.6217504075092
 30
0.0
 11
-3.25
 21
0.0
 31
0.0
210
0.0
220
0.0
230
1.0
 40
0.5461691657962994
 41
5.888445830483655
 42
5.984282078621657
  0
ELLIPSE
  5
1018
330
2
100
AcDbEntity
  8
0
100
AcDbEllipse
 10
42.43395695561036
 20
185.1217504075092
 30
0.0
 11
-3.799999999999954
 21
0.0
 31
0.0
210
0.0
220
0.0
230
1.0
 40
0.4671183654701858
 41
5.669169374492924
 42
6.43876547018897
  0
LINE
  5
1019
330
2
100
AcDbEntity
  8
0
100
AcDbLine
 10
36.93396775298731
 20
199.3681966187309
 30
0.0
 11
39.43393075298729
 21
199.3681966187309
 31
0.0
  0
ARC
  5
101A
330
2
100
AcDbEntity
  8
0
100
AcDbCircle
 10
37.93396775298731
 20
203.7963966187307
 30
0.0
 40
1.0
100
AcDbArc
 50
90.0
 51
180.0
  0
LINE
  5
101B
330
2
100
AcDbEntity
  8
0
100
AcDbLine
 10
37.93396775298731
 20
204.7963966187308
 30
0.0
 11
39.43393075298729
 21
204.7963966187308
 31
0.0
  0
LINE
  5
101C
330
2
100
AcDbEntity
  8
0
100
AcDbLine
 10
39.43392290424583
 20
255.8546299505433
 30
0.0
 11
39.43391326749804
 21
238.0182284089566
 31
0.0
  0
LINE
  5
101D
330
2
100
AcDbEntity
  8
0
100
AcDbLine
 10
36.93384295560997
 20
394.2424357616756
 30
0.0
 11
36.93384295560997
 21
417.7265230017939
 31
0.0
  0
LINE
  5
101E
330
2
100
AcDbEntity
  8
0
100
AcDbLine
 10
36.93384295560997
 20
394.2424357616756
 30
0.0
 11
36.93384295560997
 21
376.7959665101419
 31
0.0
  0
LINE
  5
101F
330
2
100
AcDbEntity
  8
0
100
AcDbLine
 10
39.43385475298703
 20
368.5264555832369
 30
0.0
 11
39.43385475298703
 21
384.2197989939374
 31
0.0
  0
LINE
  5
1020
330
2
100
AcDbEntity
  8
0
100
AcDbLine
 10
37.43384295560997
 20
376.2959665101419
 30
0.0
 11
39.43385475298703
 21
376.2959665101419
 31
0.0
  0
ARC
  5
1021
330
2
100
AcDbEntity
  8
0
100
AcDbCircle
 10
37.43384295560997
 20
376.7959665101419
 30
0.0
 40
0.5
100
AcDbArc
 50
180.0
 51
270.0
  0
ARC
  5
1022
330
2
100
AcDbEntity
  8
0
100
AcDbCircle
 10
47.43381575298701
 20
429.2431835001893
 30
0.0
 40
8.0
100
AcDbArc
 50
147.6076050000002
 51
212.3923949999997
  0
LINE
  5
1023
330
2
100
AcDbEntity
  8
0
100
AcDbLine
 10
37.93385375298692
 20
406.3583805582096
 30
0.0
 11
37.93385375298692
 21
429.2431835001893
 31
0.0
  0
LINE
  5
1024
330
2
100
AcDbEntity
  8
0
100
AcDbLine
 10
39.43385475298703
 20
405.3583805582096
 30
0.0
 11
37.93385375298692
 21
406.3583805582096
 31
0.0
  0
ARC
  5
1025
330
2
100
AcDbEntity
  8
0
100
AcDbCircle
 10
40.43381575298702
 20
422.7482791728322
 30
0.0
 40
1.0
100
AcDbArc
 50
90.0
 51
180.0
  0
ARC
  5
1026
330
2
100
AcDbEntity
  8
0
100
AcDbCircle
 10
37.93384295560997
 20
417.7265230017939
 30
0.0
 40
1.0
100
AcDbArc
 50
90.00572011404214
 51
180.0
  0
LINE
  5
1027
330
2
100
AcDbEntity
  8
0
100
AcDbLine
 10
37.93385375298692
 20
430.6719095001892
 30
0.0
 11
37.93385375298692
 21
429.2431835001893
 31
0.0
  0
ARC
  5
1028
330
2
100
AcDbEntity
  8
0
100
AcDbCircle
 10
40.43381575298702
 20
435.7431835001892
 30
0.0
 40
1.0
100
AcDbArc
 50
180.0
 51
270.0
  0
LINE
  5
102A
330
2
100
AcDbEntity
  8
0
100
AcDbLine
 10
96.9339337529874
 20
219.754637618731
 30
0.0
 11
96.9339337529874
 21
137.5980556187309
 31
0.0
  0
ARC
  5
102B
330
2
100
AcDbEntity
  8
0
100
AcDbCircle
 10
95.9339337529874
 20
155.4123596187309
 30
0.0
 40
1.0
100
AcDbArc
 50
0.0
 51
89.49999999999542
  0
LINE
  5
102C
330
2
100
AcDbEntity
  8
0
100
AcDbLine
 10
45.56584875298733
 20
111.7270566187307
 30
0.0
 11
95.25773275298741
 21
111.2933566187309
 31
0.0
  0
LINE
  5
102D
330
2
100
AcDbEntity
  8
0
100
AcDbLine
 10
46.43396875298742
 20
124.5219746187308
 30
0.0
 11
95.94271175298729
 21
124.9540776187309
 31
0.0
  0
LINE
  5
102E
330
2
100
AcDbEntity
  8
0
100
AcDbLine
 10
95.94271175298729
 20
122.9232546187308
 30
0.0
 11
46.43396875298742
 21
123.355257618731
 31
0.0
  0
LINE
  5
102F
330
2
100
AcDbEntity
  8
0
100
AcDbLine
 10
46.43396875298742
 20
118.2079566187308
 30
0.0
 11
95.94271175298729
 21
118.6400746187309
 31
0.0
  0
LINE
  5
1030
330
2
100
AcDbEntity
  8
0
100
AcDbLine
 10
95.94271175298729
 20
116.6684746187309
 30
0.0
 11
46.43396875298742
 21
117.1004546187309
 31
0.0
  0
LINE
  5
1031
330
2
100
AcDbEntity
  8
0
100
AcDbLine
 10
45.56584875298733
 20
114.952253618731
 30
0.0
 11
95.25773275298741
 21
114.518556618731
 31
0.0
  0
LINE
  5
1032
330
2
100
AcDbEntity
  8
0
100
AcDbLine
 10
45.56584875298733
 20
119.881956618731
 30
0.0
 11
95.25773275298741
 21
119.4482746187309
 31
0.0
  0
LINE
  5
1033
330
2
100
AcDbEntity
  8
0
100
AcDbLine
 10
45.56584875298733
 20
126.1090566187308
 30
0.0
 11
95.25773275298741
 21
125.6754746187309
 31
0.0
  0
LINE
  5
1034
330
2
100
AcDbEntity
  8
0
100
AcDbLine
 10
46.43396875298742
 20
149.3898556187309
 30
0.0
 11
95.94271175298729
 21
149.8218556187309
 31
0.0
  0
LINE
  5
1035
330
2
100
AcDbEntity
  8
0
100
AcDbLine
 10
95.94271175298729
 20
147.0747556187309
 30
0.0
 11
46.43396875298742
 21
147.5067656187309
 31
0.0
  0
LINE
  5
1036
330
2
100
AcDbEntity
  8
0
100
AcDbLine
 10
46.21808675298746
 20
141.7641756187308
 30
0.0
 11
94.81183275298747
 21
142.1882556187308
 31
0.0
  0
LINE
  5
1037
330
2
100
AcDbEntity
  8
0
100
AcDbLine
 10
45.56584875298733
 20
150.5213556187309
 30
0.0
 11
95.25773275298741
 21
150.087755618731
 31
0.0
  0
LINE
  5
1038
330
2
100
AcDbEntity
  8
0
100
AcDbLine
 10
96.43833175298745
 20
111.8048536187309
 30
0.0
 11
46.43396875298742
 21
112.241274618731
 31
0.0
  0
LINE
  5
1039
330
2
100
AcDbEntity
  8
0
100
AcDbLine
 10
46.45140875298728
 20
109.7369556187309
 30
0.0
 11
96.9339337529874
 21
110.177557618731
 31
0.0
  0
LINE
  5
103A
330
2
100
AcDbEntity
  8
0
100
AcDbLine
 10
96.9339337529874
 20
108.4846556187308
 30
0.0
 11
46.41651275298738
 21
108.9254746187309
 31
0.0
  0
LINE
  5
103B
330
2
100
AcDbEntity
  8
0
100
AcDbLine
 10
96.9339337529874
 20
106.8126546187309
 30
0.0
 11
46.41651275298738
 21
107.253553618731
 31
0.0
  0
LINE
  5
103C
330
2
100
AcDbEntity
  8
0
100
AcDbLine
 10
46.43396875298742
 20
113.2291736187307
 30
0.0
 11
96.43833175298745
 21
113.6655566187309
 31
0.0
  0
LINE
  5
103D
330
2
100
AcDbEntity
  8
0
100
AcDbLine
 10
96.9339337529874
 20
130.0256566187308
 30
0.0
 11
45.42523275298743
 21
130.4751576187309
 31
0.0
  0
LINE
  5
103E
330
2
100
AcDbEntity
  8
0
100
AcDbLine
 10
96.9339337529874
 20
137.5980556187309
 30
0.0
 11
45.44268875298723
 21
137.148655618731
 31
0.0
  0
ARC
  5
103F
330
2
100
AcDbEntity
  8
0
100
AcDbCircle
 10
46.06417075298725
 20
125.131056618731
 30
0.0
 40
1.673817999999999
100
AcDbArc
 50
207.4174039999999
 51
231.392395000001
  0
ARC
  5
1040
330
2
100
AcDbEntity
  8
0
100
AcDbCircle
 10
46.43396875298742
 20
109.2534546187309
 30
0.0
 40
2.0
100
AcDbArc
 50
180.0
 51
269.5000000000084
  0
ARC
  5
1041
330
2
100
AcDbEntity
  8
0
100
AcDbCircle
 10
46.33396875298728
 20
114.2655546187309
 30
0.0
 40
2.006931999999999
100
AcDbArc
 50
229.0921019999952
 51
250.2568050000026
  0
ARC
  5
1042
330
2
100
AcDbEntity
  8
0
100
AcDbCircle
 10
46.33396875298728
 20
115.253553618731
 30
0.0
 40
2.006931999999999
100
AcDbArc
 50
229.0921019999952
 51
250.2568050000026
  0
ARC
  5
1043
330
2
100
AcDbEntity
  8
0
100
AcDbCircle
 10
46.43396875298742
 20
111.7369556187309
 30
0.0
 40
2.0
100
AcDbArc
 50
180.0
 51
270.4999999999915
  0
ARC
  5
1044
330
2
100
AcDbEntity
  8
0
100
AcDbCircle
 10
46.43396875298742
 20
110.9253566187307
 30
0.0
 40
2.0
100
AcDbArc
 50
180.0
 51
269.5000000000084
  0
LINE
  5
1045
330
2
100
AcDbEntity
  8
0
100
AcDbLine
 10
41.43396875298742
 20
109.7121566187308
 30
0.0
 11
44.43396875298742
 21
109.7121566187308
 31
0.0
  0
LINE
  5
1046
330
2
100
AcDbEntity
  8
0
100
AcDbLine
 10
41.43396875298742
 20
109.7121566187308
 30
0.0
 11
42.57443275298749
 21
109.7121566187308
 31
0.0
  0
LINE
  5
1047
330
2
100
AcDbEntity
  8
0
100
AcDbLine
 10
44.43396875298742
 20
109.7121566187308
 30
0.0
 11
44.43396875298742
 21
109.2534546187309
 31
0.0
  0
LINE
  5
1048
330
2
100
AcDbEntity
  8
0
100
AcDbLine
 10
44.43396875298742
 20
110.9253566187307
 30
0.0
 11
44.43396875298742
 21
111.7369556187309
 31
0.0
  0
ARC
  5
1049
330
2
100
AcDbEntity
  8
0
100
AcDbCircle
 10
45.94209275298737
 20
113.9741536187309
 30
0.0
 40
1.508124
100
AcDbArc
 50
180.0
 51
205.5500029999982
  0
ARC
  5
104A
330
2
100
AcDbEntity
  8
0
100
AcDbCircle
 10
46.18006875298727
 20
114.0879536187308
 30
0.0
 40
1.771906
100
AcDbArc
 50
205.5500029999982
 51
229.0921019999952
  0
ARC
  5
104B
330
2
100
AcDbEntity
  8
0
100
AcDbCircle
 10
45.94209275298737
 20
114.9621566187308
 30
0.0
 40
1.508124
100
AcDbArc
 50
180.0
 51
205.5500029999982
  0
ARC
  5
104C
330
2
100
AcDbEntity
  8
0
100
AcDbCircle
 10
46.18006875298727
 20
115.0758536187308
 30
0.0
 40
1.771906
100
AcDbArc
 50
205.5500029999982
 51
229.0921019999952
  0
LINE
  5
104D
330
2
100
AcDbEntity
  8
0
100
AcDbLine
 10
44.43396875298742
 20
113.9741536187309
 30
0.0
 11
44.43396875298742
 21
114.9621566187308
 31
0.0
  0
ARC
  5
104E
330
2
100
AcDbEntity
  8
0
100
AcDbCircle
 10
44.61965275298746
 20
109.3193576187309
 30
0.0
 40
0.185701
100
AcDbArc
 50
180.0
 51
225.3820040000035
  0
ARC
  5
104F
330
2
100
AcDbEntity
  8
0
100
AcDbCircle
 10
44.61965275298746
 20
109.3193576187309
 30
0.0
 40
0.185701
100
AcDbArc
 50
134.6179959999964
 51
180.0
  0
ARC
  5
1050
330
2
100
AcDbEntity
  8
0
100
AcDbCircle
 10
46.43396875298742
 20
114.5441576187308
 30
0.0
 40
2.302912
100
AcDbArc
 50
250.2568050000026
 51
270.0
  0
ARC
  5
1051
330
2
100
AcDbEntity
  8
0
100
AcDbCircle
 10
46.43396875298742
 20
115.5320576187309
 30
0.0
 40
2.302912
100
AcDbArc
 50
250.2568050000026
 51
270.0
  0
ARC
  5
1052
330
2
100
AcDbEntity
  8
0
100
AcDbCircle
 10
46.31700875298736
 20
119.134474618731
 30
0.0
 40
2.014202
100
AcDbArc
 50
229.9049069999972
 51
250.7743069999972
  0
ARC
  5
1053
330
2
100
AcDbEntity
  8
0
100
AcDbCircle
 10
46.31700875298736
 20
120.2419576187307
 30
0.0
 40
2.014202
100
AcDbArc
 50
229.9049069999972
 51
250.7743069999972
  0
ARC
  5
1054
330
2
100
AcDbEntity
  8
0
100
AcDbCircle
 10
46.28804875298749
 20
125.4114556187309
 30
0.0
 40
2.032614
100
AcDbArc
 50
231.392395000001
 51
251.6983030000062
  0
ARC
  5
1055
330
2
100
AcDbEntity
  8
0
100
AcDbCircle
 10
46.13719275298729
 20
118.920854618731
 30
0.0
 40
1.735008
100
AcDbArc
 50
206.1963039999984
 51
229.9049069999972
  0
ARC
  5
1056
330
2
100
AcDbEntity
  8
0
100
AcDbCircle
 10
45.8595887529874
 20
118.784357618731
 30
0.0
 40
1.425637
100
AcDbArc
 50
180.0
 51
206.1963039999984
  0
ARC
  5
1057
330
2
100
AcDbEntity
  8
0
100
AcDbCircle
 10
46.13719275298729
 20
120.028456618731
 30
0.0
 40
1.735008
100
AcDbArc
 50
206.1963039999984
 51
229.9049069999972
  0
LINE
  5
1058
330
2
100
AcDbEntity
  8
0
100
AcDbLine
 10
44.43396875298742
 20
118.784357618731
 30
0.0
 11
44.43396875298742
 21
119.8918746187309
 31
0.0
  0
ARC
  5
1059
330
2
100
AcDbEntity
  8
0
100
AcDbCircle
 10
45.8595887529874
 20
119.8918746187309
 30
0.0
 40
1.425637
100
AcDbArc
 50
180.0
 51
206.1963039999984
  0
ARC
  5
105A
330
2
100
AcDbEntity
  8
0
100
AcDbCircle
 10
46.43396875298742
 20
119.469854618731
 30
0.0
 40
2.369364
100
AcDbArc
 50
250.7743069999972
 51
270.0
  0
ARC
  5
105B
330
2
100
AcDbEntity
  8
0
100
AcDbCircle
 10
46.43396875298742
 20
120.5773566187308
 30
0.0
 40
2.369364
100
AcDbArc
 50
250.7743069999972
 51
270.0
  0
ARC
  5
105C
330
2
100
AcDbEntity
  8
0
100
AcDbCircle
 10
46.43396875298742
 20
125.8525566187308
 30
0.0
 40
2.497222
100
AcDbArc
 50
251.6983030000062
 51
270.0
  0
LINE
  5
105D
330
2
100
AcDbEntity
  8
0
100
AcDbLine
 10
44.43396875298742
 20
137.139854618731
 30
0.0
 11
44.43396875298742
 21
141.748556618731
 31
0.0
  0
LINE
  5
105E
330
2
100
AcDbEntity
  8
0
100
AcDbLine
 10
43.13394875298729
 20
141.889854618731
 30
0.0
 11
43.13394875298729
 21
132.389854618731
 31
0.0
  0
LINE
  5
105F
330
2
100
AcDbEntity
  8
0
100
AcDbLine
 10
44.43396875298742
 20
141.7398556187308
 30
0.0
 11
44.43396875298742
 21
137.139854618731
 31
0.0
  0
LINE
  5
1060
330
2
100
AcDbEntity
  8
0
100
AcDbLine
 10
44.43396875298742
 20
137.139854618731
 30
0.0
 11
44.43396875298742
 21
131.4750566187308
 31
0.0
  0
ARC
  5
1061
330
2
100
AcDbEntity
  8
0
100
AcDbCircle
 10
46.28804875298749
 20
126.5780546187309
 30
0.0
 40
2.032614
100
AcDbArc
 50
231.392395000001
 51
251.6983030000062
  0
ARC
  5
1062
330
2
100
AcDbEntity
  8
0
100
AcDbCircle
 10
45.43396875298742
 20
131.4750566187308
 30
0.0
 40
1.0
100
AcDbArc
 50
180.0
 51
269.5000000000084
  0
ARC
  5
1063
330
2
100
AcDbEntity
  8
0
100
AcDbCircle
 10
45.71962875298743
 20
126.1189756187309
 30
0.0
 40
1.285679
100
AcDbArc
 50
180.0
 51
207.4174039999999
  0
LINE
  5
1064
330
2
100
AcDbEntity
  8
0
100
AcDbLine
 10
44.43396875298742
 20
124.9523566187308
 30
0.0
 11
44.43396875298742
 21
126.1189756187309
 31
0.0
  0
ARC
  5
1065
330
2
100
AcDbEntity
  8
0
100
AcDbCircle
 10
45.71962875298743
 20
124.9523566187308
 30
0.0
 40
1.285679
100
AcDbArc
 50
180.0
 51
207.4174039999999
  0
ARC
  5
1066
330
2
100
AcDbEntity
  8
0
100
AcDbCircle
 10
46.06417075298725
 20
126.2977736187308
 30
0.0
 40
1.673817999999999
100
AcDbArc
 50
207.4174039999999
 51
231.392395000001
  0
ARC
  5
1067
330
2
100
AcDbEntity
  8
0
100
AcDbCircle
 10
46.43396875298742
 20
127.019155618731
 30
0.0
 40
2.497222
100
AcDbArc
 50
251.6983030000062
 51
270.0
  0
LINE
  5
1068
330
2
100
AcDbEntity
  8
0
100
AcDbLine
 10
44.43396875298742
 20
132.5398756187309
 30
0.0
 11
44.43396875298742
 21
137.139854618731
 31
0.0
  0
LINE
  5
1069
330
2
100
AcDbEntity
  8
0
100
AcDbLine
 10
43.13394875298729
 20
132.389854618731
 30
0.0
 11
41.52317075298731
 21
132.389854618731
 31
0.0
  0
LINE
  5
106A
330
2
100
AcDbEntity
  8
0
100
AcDbLine
 10
43.13394875298729
 20
132.5398756187309
 30
0.0
 11
44.43396875298742
 21
132.5398756187309
 31
0.0
  0
ARC
  5
106B
330
2
100
AcDbEntity
  8
0
100
AcDbCircle
 10
45.43396875298742
 20
138.148655618731
 30
0.0
 40
1.0
100
AcDbArc
 50
180.0
 51
270.4999999999915
  0
ARC
  5
106C
330
2
100
AcDbEntity
  8
0
100
AcDbCircle
 10
46.15927075298725
 20
149.837755618731
 30
0.0
 40
2.298955999999999
100
AcDbArc
 50
240.2855990000028
 51
256.6994020000062
  0
ARC
  5
106D
330
2
100
AcDbEntity
  8
0
100
AcDbCircle
 10
45.7414327529874
 20
149.1056556187309
 30
0.0
 40
1.455952
100
AcDbArc
 50
215.9711000000041
 51
240.2855990000028
  0
LINE
  5
106E
330
2
100
AcDbEntity
  8
0
100
AcDbLine
 10
43.13394875298729
 20
141.889854618731
 30
0.0
 11
41.52317075298731
 21
141.889854618731
 31
0.0
  0
LINE
  5
106F
330
2
100
AcDbEntity
  8
0
100
AcDbLine
 10
43.13394875298729
 20
141.7398556187308
 30
0.0
 11
44.43396875298742
 21
141.7398556187308
 31
0.0
  0
ARC
  5
1070
330
2
100
AcDbEntity
  8
0
100
AcDbCircle
 10
46.43396875298742
 20
150.9996556187309
 30
0.0
 40
3.492887999999999
100
AcDbArc
 50
256.6994020000062
 51
270.0
  0
ARC
  5
1071
330
2
100
AcDbEntity
  8
0
100
AcDbCircle
 10
46.15927075298725
 20
151.7207556187308
 30
0.0
 40
2.298955999999999
100
AcDbArc
 50
240.2855990000028
 51
256.6994020000062
  0
ARC
  5
1072
330
2
100
AcDbEntity
  8
0
100
AcDbCircle
 10
45.11122875298736
 20
148.6482556187309
 30
0.0
 40
0.6772650000000001
100
AcDbArc
 50
180.0
 51
215.9711000000041
  0
ARC
  5
1073
330
2
100
AcDbEntity
  8
0
100
AcDbCircle
 10
45.7414327529874
 20
150.9886556187309
 30
0.0
 40
1.455952
100
AcDbArc
 50
215.9711000000041
 51
240.2855990000028
  0
ARC
  5
1074
330
2
100
AcDbEntity
  8
0
100
AcDbCircle
 10
45.11122875298736
 20
150.5312556187309
 30
0.0
 40
0.6772650000000001
100
AcDbArc
 50
180.0
 51
215.9711000000041
  0
LINE
  5
1075
330
2
100
AcDbEntity
  8
0
100
AcDbLine
 10
44.43396875298742
 20
148.6482556187309
 30
0.0
 11
44.43396875298742
 21
150.5312556187309
 31
0.0
  0
ARC
  5
1076
330
2
100
AcDbEntity
  8
0
100
AcDbCircle
 10
46.43396875298742
 20
152.8827576187309
 30
0.0
 40
3.492887999999999
100
AcDbArc
 50
256.6994020000062
 51
270.0
  0
LINE
  5
1077
330
2
100
AcDbEntity
  8
0
100
AcDbLine
 10
96.9339337529874
 20
130.0256566187308
 30
0.0
 11
96.9339337529874
 21
106.4185546187309
 31
0.0
  0
LINE
  5
1078
330
2
100
AcDbEntity
  8
0
100
AcDbLine
 10
106.9339297529874
 20
105.3419556187309
 30
0.0
 11
97.92541175298731
 21
105.4186536187307
 31
0.0
  0
ARC
  5
1079
330
2
100
AcDbEntity
  8
0
100
AcDbCircle
 10
97.93393375298741
 20
106.4185546187309
 30
0.0
 40
1.0
100
AcDbArc
 50
180.0
 51
269.5122069999976
  0
ARC
  5
107A
330
2
100
AcDbEntity
  8
0
100
AcDbCircle
 10
95.9339337529874
 20
115.6684746187309
 30
0.0
 40
1.0
100
AcDbArc
 50
0.0
 51
89.49999999999542
  0
ARC
  5
107B
330
2
100
AcDbEntity
  8
0
100
AcDbCircle
 10
96.43393375298741
 20
111.3048536187309
 30
0.0
 40
0.5
100
AcDbArc
 50
0.0
 51
89.49999999999542
  0
ARC
  5
107C
330
2
100
AcDbEntity
  8
0
100
AcDbCircle
 10
96.43393375298741
 20
114.165556618731
 30
0.0
 40
0.5
100
AcDbArc
 50
270.4999999999915
 51
0.0
  0
ARC
  5
107D
330
2
100
AcDbEntity
  8
0
100
AcDbCircle
 10
95.9339337529874
 20
119.6399556187309
 30
0.0
 40
1.0
100
AcDbArc
 50
270.4999999999915
 51
0.0
  0
ARC
  5
107E
330
2
100
AcDbEntity
  8
0
100
AcDbCircle
 10
95.9339337529874
 20
121.9232546187308
 30
0.0
 40
1.0
100
AcDbArc
 50
0.0
 51
89.49999999999542
  0
ARC
  5
107F
330
2
100
AcDbEntity
  8
0
100
AcDbCircle
 10
95.9339337529874
 20
125.953955618731
 30
0.0
 40
1.0
100
AcDbArc
 50
270.4999999999915
 51
0.0
  0
ARC
  5
1080
330
2
100
AcDbEntity
  8
0
100
AcDbCircle
 10
95.9339337529874
 20
146.0747556187309
 30
0.0
 40
1.0
100
AcDbArc
 50
0.0
 51
89.49999999999542
  0
ARC
  5
1081
330
2
100
AcDbEntity
  8
0
100
AcDbCircle
 10
95.9339337529874
 20
150.8218556187309
 30
0.0
 40
1.0
100
AcDbArc
 50
270.4999999999915
 51
0.0
  0
LINE
  5
1082
330
2
100
AcDbEntity
  8
0
100
AcDbLine
 10
125.9931210737091
 20
270.103963570671
 30
0.0
 11
114.4931210737091
 21
270.103963570671
 31
0.0
  0
LINE
  5
1083
330
2
100
AcDbEntity
  8
0
100
AcDbLine
 10
125.9931210737091
 20
257.603963570671
 30
0.0
 11
114.4931210737091
 21
257.603963570671
 31
0.0
  0
LINE
  5
1084
330
2
100
AcDbEntity
  8
0
100
AcDbLine
 10
120.6302677481541
 20
247.2188368557027
 30
0.0
 11
90.73962331089536
 21
247.2188368557027
 31
0.0
  0
LINE
  5
1085
330
2
100
AcDbEntity
  8
0
100
AcDbLine
 10
120.6302677481541
 20
249.2188368557027
 30
0.0
 11
90.7396233108958
 21
249.2188368557027
 31
0.0
  0
LINE
  5
1086
330
2
100
AcDbEntity
  8
0
100
AcDbLine
 10
91.13026774815386
 20
245.2188368557027
 30
0.0
 11
120.5112827565989
 21
242.6483311195787
 31
0.0
  0
LINE
  5
1087
330
2
100
AcDbEntity
  8
0
100
AcDbLine
 10
91.21758963397121
 20
247.2188368557027
 30
0.0
 11
120.6855942420942
 21
244.6407205157622
 31
0.0
  0
LINE
  5
1088
330
2
100
AcDbEntity
  8
0
100
AcDbLine
 10
91.21758963397121
 20
249.2188368557027
 30
0.0
 11
120.6923228273559
 21
251.7975418705751
 31
0.0
  0
LINE
  5
1089
330
2
100
AcDbEntity
  8
0
100
AcDbLine
 10
91.13026774815409
 20
251.2188368557027
 30
0.0
 11
120.5180113418606
 21
253.7899312667586
 31
0.0
  0
LINE
  5
108A
330
2
100
AcDbEntity
  8
0
100
AcDbLine
 10
45.43395275298746
 20
184.0322499951664
 30
0.0
 11
45.43395275298746
 21
236.0182763585107
 31
0.0
  0
LINE
  5
108B
330
2
100
AcDbEntity
  8
0
100
AcDbLine
 10
41.43391790382429
 20
236.4394273549188
 30
0.0
 11
41.43389098915884
 21
183.4092745984362
 31
0.0
  0
LINE
  5
108C
330
2
100
AcDbEntity
  8
0
100
AcDbLine
 10
43.43391324781634
 20
235.5972886163909
 30
0.0
 11
43.43395387191264
 21
183.4092657999774
 31
0.0
  0
LINE
  5
108D
330
2
100
AcDbEntity
  8
0
100
AcDbLine
 10
106.9339297529874
 20
219.8419556187309
 30
0.0
 11
45.43395275298746
 21
219.305231720099
 31
0.0
  0
LINE
  5
108E
330
2
100
AcDbEntity
  8
0
100
AcDbLine
 10
95.94271175298729
 20
208.5154366187309
 30
0.0
 11
46.43396875298742
 21
208.0834756187309
 31
0.0
  0
LINE
  5
108F
330
2
100
AcDbEntity
  8
0
100
AcDbLine
 10
46.43396875298742
 20
206.9758746187308
 30
0.0
 11
95.94271175298729
 21
206.5438556187309
 31
0.0
  0
LINE
  5
1090
330
2
100
AcDbEntity
  8
0
100
AcDbLine
 10
95.94271175298729
 20
202.260656618731
 30
0.0
 11
46.43396875298742
 21
201.828554618731
 31
0.0
  0
LINE
  5
1091
330
2
100
AcDbEntity
  8
0
100
AcDbLine
 10
46.43396875298742
 20
200.6618756187308
 30
0.0
 11
95.94271175298729
 21
200.229856618731
 31
0.0
  0
LINE
  5
1092
330
2
100
AcDbEntity
  8
0
100
AcDbLine
 10
45.56584875298733
 20
213.456854618731
 30
0.0
 11
95.25773275298741
 21
213.8904366187309
 31
0.0
  0
LINE
  5
1093
330
2
100
AcDbEntity
  8
0
100
AcDbLine
 10
45.56584875298733
 20
210.2316576187308
 30
0.0
 11
95.25773275298741
 21
210.665254618731
 31
0.0
  0
LINE
  5
1094
330
2
100
AcDbEntity
  8
0
100
AcDbLine
 10
45.56584875298733
 20
205.3019546187308
 30
0.0
 11
95.25773275298741
 21
205.7355756187309
 31
0.0
  0
LINE
  5
1095
330
2
100
AcDbEntity
  8
0
100
AcDbLine
 10
95.94271175298729
 20
168.7715676187308
 30
0.0
 11
46.43396875298742
 21
168.339559618731
 31
0.0
  0
LINE
  5
1096
330
2
100
AcDbEntity
  8
0
100
AcDbLine
 10
46.43396875298742
 20
166.3698636187309
 30
0.0
 11
95.94271175298729
 21
165.9378576187309
 31
0.0
  0
LINE
  5
1097
330
2
100
AcDbEntity
  8
0
100
AcDbLine
 10
46.43396875298742
 20
158.8139556187309
 30
0.0
 11
95.94271175298729
 21
159.2460536187309
 31
0.0
  0
LINE
  5
1098
330
2
100
AcDbEntity
  8
0
100
AcDbLine
 10
95.94271175298729
 20
156.4122516187308
 30
0.0
 11
46.43396875298742
 21
156.8443656187309
 31
0.0
  0
LINE
  5
1099
330
2
100
AcDbEntity
  8
0
100
AcDbLine
 10
45.56584875298733
 20
165.4397656187309
 30
0.0
 11
95.25773275298741
 21
165.8734636187309
 31
0.0
  0
LINE
  5
109A
330
2
100
AcDbEntity
  8
0
100
AcDbLine
 10
45.56584875298733
 20
159.7440556187309
 30
0.0
 11
95.25773275298741
 21
159.3104616187308
 31
0.0
  0
LINE
  5
109B
330
2
100
AcDbEntity
  8
0
100
AcDbLine
 10
95.94271175298729
 20
195.0995546187309
 30
0.0
 11
53.91642775298726
 21
194.7328556187308
 31
0.0
  0
LINE
  5
109C
330
2
100
AcDbEntity
  8
0
100
AcDbLine
 10
53.95143175298733
 20
193.1389566187308
 30
0.0
 11
95.94271175298729
 21
192.7724556187308
 31
0.0
  0
LINE
  5
109D
330
2
100
AcDbEntity
  8
0
100
AcDbLine
 10
95.94271175298729
 20
186.9749756187309
 30
0.0
 11
53.91642775298726
 21
186.608154618731
 31
0.0
  0
LINE
  5
109E
330
2
100
AcDbEntity
  8
0
100
AcDbLine
 10
53.95143175298733
 20
184.764854618731
 30
0.0
 11
95.94271175298729
 21
184.3984546187309
 31
0.0
  0
LINE
  5
109F
330
2
100
AcDbEntity
  8
0
100
AcDbLine
 10
95.94271175298729
 20
178.1091656187309
 30
0.0
 11
46.43396875298742
 21
177.6770556187309
 31
0.0
  0
LINE
  5
10A0
330
2
100
AcDbEntity
  8
0
100
AcDbLine
 10
46.43396875298742
 20
175.7940556187309
 30
0.0
 11
95.94271175298729
 21
175.3619556187309
 31
0.0
  0
LINE
  5
10A1
330
2
100
AcDbEntity
  8
0
100
AcDbLine
 10
53.1339117529875
 20
191.8054546187308
 30
0.0
 11
95.25773275298741
 21
192.173075618731
 31
0.0
  0
LINE
  5
10A2
330
2
100
AcDbEntity
  8
0
100
AcDbLine
 10
53.1339117529875
 20
183.5847556187309
 30
0.0
 11
95.25773275298741
 21
183.952354618731
 31
0.0
  0
LINE
  5
10A3
330
2
100
AcDbEntity
  8
0
100
AcDbLine
 10
45.56584875298733
 20
174.6624656187309
 30
0.0
 11
95.25773275298741
 21
175.096165618731
 31
0.0
  0
LINE
  5
10A4
330
2
100
AcDbEntity
  8
0
100
AcDbLine
 10
47.93395275298746
 20
199.0954346187309
 30
0.0
 11
95.25773275298741
 21
199.5084556187309
 31
0.0
  0
LINE
  5
10A5
330
2
100
AcDbEntity
  8
0
100
AcDbLine
 10
96.43833175298745
 20
213.3789776187309
 30
0.0
 11
46.43396875298742
 21
212.9425756187308
 31
0.0
  0
LINE
  5
10A6
330
2
100
AcDbEntity
  8
0
100
AcDbLine
 10
46.43396875298742
 20
211.9546566187309
 30
0.0
 11
96.43833175298745
 21
211.5183546187308
 31
0.0
  0
LINE
  5
10A7
330
2
100
AcDbEntity
  8
0
100
AcDbLine
 10
96.9339337529874
 20
216.699255618731
 30
0.0
 11
46.41651275298738
 21
216.2583566187308
 31
0.0
  0
LINE
  5
10A8
330
2
100
AcDbEntity
  8
0
100
AcDbLine
 10
46.45140875298728
 20
215.4468746187308
 30
0.0
 11
96.9339337529874
 21
215.0063536187308
 31
0.0
  0
LINE
  5
10A9
330
2
100
AcDbEntity
  8
0
100
AcDbLine
 10
47.93395275298746
 20
199.3681966187309
 30
0.0
 11
47.93396875298742
 21
178.9271266187308
 31
0.0
  0
LINE
  5
10AA
330
2
100
AcDbEntity
  8
0
100
AcDbLine
 10
40.93396875298743
 20
170.811651618731
 30
0.0
 11
40.93396875298743
 21
180.315615618731
 31
0.0
  0
ARC
  5
10AB
330
2
100
AcDbEntity
  8
0
100
AcDbCircle
 10
46.11505075298748
 20
159.450155618731
 30
0.0
 40
2.575074
100
AcDbArc
 50
244.8269959999891
 51
258.9837040000073
  0
ARC
  5
10AC
330
2
100
AcDbEntity
  8
0
100
AcDbCircle
 10
46.11505075298748
 20
161.4197606187308
 30
0.0
 40
2.575074
100
AcDbArc
 50
244.8269959999891
 51
258.9837040000073
  0
LINE
  5
10AD
330
2
100
AcDbEntity
  8
0
100
AcDbLine
 10
44.43396875298742
 20
157.7842616187308
 30
0.0
 11
44.43396875298742
 21
159.7539596187309
 31
0.0
  0
ARC
  5
10AE
330
2
100
AcDbEntity
  8
0
100
AcDbCircle
 10
44.90891275298747
 20
157.7842616187308
 30
0.0
 40
0.4749410000000001
100
AcDbArc
 50
180.0
 51
221.3905940000004
  0
ARC
  5
10AF
330
2
100
AcDbEntity
  8
0
100
AcDbCircle
 10
45.63140875298734
 20
158.421057618731
 30
0.0
 40
1.437988999999999
100
AcDbArc
 50
221.3905940000004
 51
244.8269959999891
  0
ARC
  5
10B0
330
2
100
AcDbEntity
  8
0
100
AcDbCircle
 10
44.90891275298747
 20
159.7539596187309
 30
0.0
 40
0.4749410000000001
100
AcDbArc
 50
180.0
 51
221.3905940000004
  0
ARC
  5
10B1
330
2
100
AcDbEntity
  8
0
100
AcDbCircle
 10
45.63140875298734
 20
160.3906616187309
 30
0.0
 40
1.437988999999999
100
AcDbArc
 50
221.3905940000004
 51
244.8269959999891
  0
ARC
  5
10B2
330
2
100
AcDbEntity
  8
0
100
AcDbCircle
 10
46.43396875298742
 20
161.0882626187308
 30
0.0
 40
4.243937999999999
100
AcDbArc
 50
258.9837040000073
 51
270.0
  0
ARC
  5
10B3
330
2
100
AcDbEntity
  8
0
100
AcDbCircle
 10
46.43396875298742
 20
163.0579586187309
 30
0.0
 40
4.243937999999999
100
AcDbArc
 50
258.9837040000073
 51
270.0
  0
ARC
  5
10B4
330
2
100
AcDbEntity
  8
0
100
AcDbCircle
 10
46.11505075298748
 20
165.733663618731
 30
0.0
 40
2.575074
100
AcDbArc
 50
101.0162959999926
 51
115.1729969999954
  0
ARC
  5
10B5
330
2
100
AcDbEntity
  8
0
100
AcDbCircle
 10
46.11505075298748
 20
163.7640596187309
 30
0.0
 40
2.575074
100
AcDbArc
 50
101.0162959999926
 51
115.1729969999954
  0
ARC
  5
10B6
330
2
100
AcDbEntity
  8
0
100
AcDbCircle
 10
44.90891275298747
 20
167.3995576187308
 30
0.0
 40
0.4749410000000001
100
AcDbArc
 50
138.6094059999995
 51
180.0
  0
ARC
  5
10B7
330
2
100
AcDbEntity
  8
0
100
AcDbCircle
 10
45.63140875298734
 20
166.762761618731
 30
0.0
 40
1.437988999999999
100
AcDbArc
 50
115.1729969999954
 51
138.6094059999995
  0
ARC
  5
10B8
330
2
100
AcDbEntity
  8
0
100
AcDbCircle
 10
44.90891275298747
 20
165.4299516187309
 30
0.0
 40
0.4749410000000001
100
AcDbArc
 50
138.6094059999995
 51
180.0
  0
ARC
  5
10B9
330
2
100
AcDbEntity
  8
0
100
AcDbCircle
 10
45.63140875298734
 20
164.7931576187309
 30
0.0
 40
1.437988999999999
100
AcDbArc
 50
115.1729969999954
 51
138.6094059999995
  0
LINE
  5
10BA
330
2
100
AcDbEntity
  8
0
100
AcDbLine
 10
44.43396875298742
 20
167.3995576187308
 30
0.0
 11
44.43396875298742
 21
165.4299516187309
 31
0.0
  0
ARC
  5
10BB
330
2
100
AcDbEntity
  8
0
100
AcDbCircle
 10
46.43396875298742
 20
164.0955566187308
 30
0.0
 40
4.243937999999999
100
AcDbArc
 50
90.0
 51
101.0162959999926
  0
ARC
  5
10BC
330
2
100
AcDbEntity
  8
0
100
AcDbCircle
 10
46.43396875298742
 20
162.125967618731
 30
0.0
 40
4.243937999999999
100
AcDbArc
 50
90.0
 51
101.0162959999926
  0
ARC
  5
10BD
330
2
100
AcDbEntity
  8
0
100
AcDbCircle
 10
46.15927075298725
 20
175.346055618731
 30
0.0
 40
2.298955999999999
100
AcDbArc
 50
103.3005979999937
 51
119.7144009999971
  0
LINE
  5
10BE
330
2
100
AcDbEntity
  8
0
100
AcDbLine
 10
40.93396875298743
 20
178.9271266187308
 30
0.0
 11
47.93396875298742
 21
178.9271266187308
 31
0.0
  0
ARC
  5
10BF
330
2
100
AcDbEntity
  8
0
100
AcDbCircle
 10
46.15927075298725
 20
173.4630656187309
 30
0.0
 40
2.298955999999999
100
AcDbArc
 50
103.3005979999937
 51
119.7144009999971
  0
ARC
  5
10C0
330
2
100
AcDbEntity
  8
0
100
AcDbCircle
 10
45.11122875298736
 20
176.5356656187309
 30
0.0
 40
0.6772650000000001
100
AcDbArc
 50
144.0288999999958
 51
180.0
  0
ARC
  5
10C1
330
2
100
AcDbEntity
  8
0
100
AcDbCircle
 10
45.7414327529874
 20
176.0782556187309
 30
0.0
 40
1.455952
100
AcDbArc
 50
119.7144009999971
 51
144.0288999999958
  0
ARC
  5
10C2
330
2
100
AcDbEntity
  8
0
100
AcDbCircle
 10
45.11122875298736
 20
174.6525656187309
 30
0.0
 40
0.6772650000000001
100
AcDbArc
 50
144.0288999999958
 51
180.0
  0
ARC
  5
10C3
330
2
100
AcDbEntity
  8
0
100
AcDbCircle
 10
45.7414327529874
 20
174.1952556187309
 30
0.0
 40
1.455952
100
AcDbArc
 50
119.7144009999971
 51
144.0288999999958
  0
LINE
  5
10C4
330
2
100
AcDbEntity
  8
0
100
AcDbLine
 10
44.43396875298742
 20
176.5356656187309
 30
0.0
 11
44.43396875298742
 21
174.6525656187309
 31
0.0
  0
ARC
  5
10C5
330
2
100
AcDbEntity
  8
0
100
AcDbCircle
 10
46.43396875298742
 20
174.1841656187309
 30
0.0
 40
3.492887999999999
100
AcDbArc
 50
90.0
 51
103.3005979999937
  0
ARC
  5
10C6
330
2
100
AcDbEntity
  8
0
100
AcDbCircle
 10
46.43396875298742
 20
172.3011536187309
 30
0.0
 40
3.492887999999999
100
AcDbArc
 50
90.0
 51
103.3005979999937
  0
ELLIPSE
  5
10C7
330
2
100
AcDbEntity
  8
0
100
AcDbEllipse
 10
42.43395695561036
 20
185.6217504075092
 30
0.0
 11
-3.25
 21
0.0
 31
0.0
210
0.0
220
0.0
230
1.0
 40
0.5461691657962994
 41
3.440495882147722
 42
3.536387135374309
  0
LINE
  5
10C8
330
2
100
AcDbEntity
  8
0
100
AcDbLine
 10
51.93390675298735
 20
184.6082556187309
 30
0.0
 11
51.93390675298735
 21
182.7649556187309
 31
0.0
  0
ARC
  5
10C9
330
2
100
AcDbEntity
  8
0
100
AcDbCircle
 10
53.93390675298736
 20
182.7649556187309
 30
0.0
 40
2.0
100
AcDbArc
 50
89.50031300000167
 51
180.0
  0
ARC
  5
10CA
330
2
100
AcDbEntity
  8
0
100
AcDbCircle
 10
53.93390675298736
 20
184.6082556187309
 30
0.0
 40
2.0
100
AcDbArc
 50
90.50050399998985
 51
180.0
  0
ARC
  5
10CB
330
2
100
AcDbEntity
  8
0
100
AcDbCircle
 10
46.28804875298749
 20
198.6057576187308
 30
0.0
 40
2.032614
100
AcDbArc
 50
108.3016969999937
 51
114.8480990000047
  0
ARC
  5
10CC
330
2
100
AcDbEntity
  8
0
100
AcDbCircle
 10
46.28804875298749
 20
199.7724746187309
 30
0.0
 40
2.032614
100
AcDbArc
 50
108.3016969999937
 51
114.8480990000047
  0
LINE
  5
10CD
330
2
100
AcDbEntity
  8
0
100
AcDbLine
 10
45.43395275298746
 20
199.3681966187309
 30
0.0
 11
47.93395275298746
 21
199.3681966187309
 31
0.0
  0
ARC
  5
10CE
330
2
100
AcDbEntity
  8
0
100
AcDbCircle
 10
46.43396875298742
 20
198.164636618731
 30
0.0
 40
2.497222
100
AcDbArc
 50
90.0
 51
108.3016969999937
  0
ARC
  5
10CF
330
2
100
AcDbEntity
  8
0
100
AcDbCircle
 10
46.43396875298742
 20
199.331377618731
 30
0.0
 40
2.497222
100
AcDbArc
 50
90.0
 51
108.3016969999937
  0
ARC
  5
10D0
330
2
100
AcDbEntity
  8
0
100
AcDbCircle
 10
53.93390675298736
 20
191.139074618731
 30
0.0
 40
2.0
100
AcDbArc
 50
89.50034299999911
 51
180.0
  0
ARC
  5
10D1
330
2
100
AcDbEntity
  8
0
100
AcDbCircle
 10
53.93390675298736
 20
192.732935618731
 30
0.0
 40
2.0
100
AcDbArc
 50
90.50047299999476
 51
180.0
  0
LINE
  5
10D2
330
2
100
AcDbEntity
  8
0
100
AcDbLine
 10
51.93390675298735
 20
192.732935618731
 30
0.0
 11
51.93380875298737
 21
191.139074618731
 31
0.0
  0
ARC
  5
10D3
330
2
100
AcDbEntity
  8
0
100
AcDbCircle
 10
46.31700875298736
 20
204.9418736187308
 30
0.0
 40
2.014202
100
AcDbArc
 50
109.2256999999949
 51
116.0038989999969
  0
ARC
  5
10D4
330
2
100
AcDbEntity
  8
0
100
AcDbCircle
 10
46.31700875298736
 20
206.049356618731
 30
0.0
 40
2.014202
100
AcDbArc
 50
109.2256999999949
 51
116.0038989999969
  0
ARC
  5
10D5
330
2
100
AcDbEntity
  8
0
100
AcDbCircle
 10
46.43396875298742
 20
204.606577618731
 30
0.0
 40
2.369364
100
AcDbArc
 50
90.0
 51
109.2256999999949
  0
ARC
  5
10D6
330
2
100
AcDbEntity
  8
0
100
AcDbCircle
 10
46.43396875298742
 20
205.7140566187308
 30
0.0
 40
2.369364
100
AcDbArc
 50
90.0
 51
109.2256999999949
  0
ARC
  5
10D7
330
2
100
AcDbEntity
  8
0
100
AcDbCircle
 10
46.33396875298728
 20
209.9303576187308
 30
0.0
 40
2.006931999999999
100
AcDbArc
 50
109.7432020000003
 51
116.6460039999999
  0
ARC
  5
10D8
330
2
100
AcDbEntity
  8
0
100
AcDbCircle
 10
46.33396875298728
 20
210.9182576187308
 30
0.0
 40
2.006931999999999
100
AcDbArc
 50
109.7432020000003
 51
116.6460039999999
  0
ARC
  5
10D9
330
2
100
AcDbEntity
  8
0
100
AcDbCircle
 10
46.43396875298742
 20
213.446974618731
 30
0.0
 40
2.0
100
AcDbArc
 50
89.49999999999542
 51
120.0018010000036
  0
ARC
  5
10DA
330
2
100
AcDbEntity
  8
0
100
AcDbCircle
 10
46.43396875298742
 20
214.2584556187309
 30
0.0
 40
2.0
100
AcDbArc
 50
90.49999999999155
 51
120.0018999999987
  0
ARC
  5
10DB
330
2
100
AcDbEntity
  8
0
100
AcDbCircle
 10
46.43396875298742
 20
209.6517736187308
 30
0.0
 40
2.302912
100
AcDbArc
 50
90.0
 51
109.7432020000003
  0
ARC
  5
10DC
330
2
100
AcDbEntity
  8
0
100
AcDbCircle
 10
46.43396875298742
 20
210.6397536187309
 30
0.0
 40
2.302912
100
AcDbArc
 50
90.0
 51
109.7432020000003
  0
ARC
  5
10DD
330
2
100
AcDbEntity
  8
0
100
AcDbCircle
 10
95.9339337529874
 20
187.9748556187309
 30
0.0
 40
1.0
100
AcDbArc
 50
270.4999999999915
 51
0.0
  0
ARC
  5
10DE
330
2
100
AcDbEntity
  8
0
100
AcDbCircle
 10
95.9339337529874
 20
160.2459616187309
 30
0.0
 40
1.0
100
AcDbArc
 50
270.4999999999915
 51
0.0
  0
ARC
  5
10DF
330
2
100
AcDbEntity
  8
0
100
AcDbCircle
 10
95.9339337529874
 20
169.7715676187308
 30
0.0
 40
1.0
100
AcDbArc
 50
270.4999999999915
 51
0.0
  0
ARC
  5
10E0
330
2
100
AcDbEntity
  8
0
100
AcDbCircle
 10
95.9339337529874
 20
164.9378576187309
 30
0.0
 40
1.0
100
AcDbArc
 50
0.0
 51
89.49999999999542
  0
ARC
  5
10E1
330
2
100
AcDbEntity
  8
0
100
AcDbCircle
 10
95.9339337529874
 20
174.3620656187308
 30
0.0
 40
1.0
100
AcDbArc
 50
0.0
 51
89.49999999999542
  0
ARC
  5
10E2
330
2
100
AcDbEntity
  8
0
100
AcDbCircle
 10
95.9339337529874
 20
179.109066618731
 30
0.0
 40
1.0
100
AcDbArc
 50
270.4999999999915
 51
0.0
  0
ARC
  5
10E3
330
2
100
AcDbEntity
  8
0
100
AcDbCircle
 10
95.9339337529874
 20
183.3984546187309
 30
0.0
 40
1.0
100
AcDbArc
 50
0.0
 51
89.49999999999542
  0
ARC
  5
10E4
330
2
100
AcDbEntity
  8
0
100
AcDbCircle
 10
95.9339337529874
 20
196.0995546187309
 30
0.0
 40
1.0
100
AcDbArc
 50
270.4999999999915
 51
0.0
  0
ARC
  5
10E5
330
2
100
AcDbEntity
  8
0
100
AcDbCircle
 10
95.9339337529874
 20
191.7725546187309
 30
0.0
 40
1.0
100
AcDbArc
 50
0.0
 51
89.49999999999542
  0
ARC
  5
10E6
330
2
100
AcDbEntity
  8
0
100
AcDbCircle
 10
95.9339337529874
 20
199.229856618731
 30
0.0
 40
1.0
100
AcDbArc
 50
0.0
 51
89.49999999999542
  0
ARC
  5
10E7
330
2
100
AcDbEntity
  8
0
100
AcDbCircle
 10
95.9339337529874
 20
203.2605536187308
 30
0.0
 40
1.0
100
AcDbArc
 50
270.4999999999915
 51
0.0
  0
ARC
  5
10E8
330
2
100
AcDbEntity
  8
0
100
AcDbCircle
 10
96.43393375298741
 20
211.0183546187308
 30
0.0
 40
0.5
100
AcDbArc
 50
0.0
 51
89.49999999999542
  0
ARC
  5
10E9
330
2
100
AcDbEntity
  8
0
100
AcDbCircle
 10
95.9339337529874
 20
205.5438556187309
 30
0.0
 40
1.0
100
AcDbArc
 50
0.0
 51
89.49999999999542
  0
ARC
  5
10EA
330
2
100
AcDbEntity
  8
0
100
AcDbCircle
 10
95.9339337529874
 20
209.5154366187309
 30
0.0
 40
1.0
100
AcDbArc
 50
270.4999999999915
 51
0.0
  0
ARC
  5
10EB
330
2
100
AcDbEntity
  8
0
100
AcDbCircle
 10
96.43393375298741
 20
213.8789776187309
 30
0.0
 40
0.5
100
AcDbArc
 50
270.4999999999915
 51
0.0
  0
LINE
  5
10EC
330
2
100
AcDbEntity
  8
0
100
AcDbLine
 10
50.43392290424424
 20
266.8546240074035
 30
0.0
 11
88.85458426223943
 21
266.8546240074036
 31
0.0
  0
ARC
  5
10ED
330
2
100
AcDbEntity
  8
0
100
AcDbCircle
 10
90.73962331090445
 20
291.2188368557026
 30
0.0
 40
42.0
100
AcDbArc
 50
250.5608481874013
 51
270.0
  0
ARC
  5
10EE
330
2
100
AcDbEntity
  8
0
100
AcDbCircle
 10
90.73962331090445
 20
291.2188368557026
 30
0.0
 40
40.0
100
AcDbArc
 50
250.5608481874013
 51
270.0
  0
ARC
  5
10EF
330
2
100
AcDbEntity
  8
0
100
AcDbCircle
 10
90.73962331090445
 20
291.2188368557026
 30
0.0
 40
46.0
100
AcDbArc
 50
250.5608481874013
 51
270.0
  0
ARC
  5
10F0
330
2
100
AcDbEntity
  8
0
100
AcDbCircle
 10
90.73962331090445
 20
291.2188368557026
 30
0.0
 40
44.0
100
AcDbArc
 50
250.5608481874013
 51
270.0
  0
LINE
  5
10F1
330
2
100
AcDbEntity
  8
0
100
AcDbLine
 10
50.43393853170153
 20
260.8546240074037
 30
0.0
 11
88.85406085884175
 21
260.8546240074037
 31
0.0
  0
ARC
  5
10F2
330
2
100
AcDbEntity
  8
0
100
AcDbCircle
 10
50.86631532509557
 20
214.0923359414715
 30
0.0
 40
46.0
100
AcDbArc
 50
70.56084818740129
 51
90.0
  0
ARC
  5
10F3
330
2
100
AcDbEntity
  8
0
100
AcDbCircle
 10
50.86631532509557
 20
214.0923359414715
 30
0.0
 40
42.0
100
AcDbArc
 50
70.56084818740129
 51
90.0
  0
ARC
  5
10F4
330
2
100
AcDbEntity
  8
0
100
AcDbCircle
 10
50.86631532509557
 20
214.0923359414715
 30
0.0
 40
40.0
100
AcDbArc
 50
70.56084818740129
 51
90.0
  0
ARC
  5
10F5
330
2
100
AcDbEntity
  8
0
100
AcDbCircle
 10
50.86631532509557
 20
214.0923359414715
 30
0.0
 40
44.0
100
AcDbArc
 50
70.56084818740129
 51
90.0
  0
LINE
  5
10F6
330
2
100
AcDbEntity
  8
0
100
AcDbLine
 10
45.43395275298746
 20
238.0182763585107
 30
0.0
 11
45.43395275298746
 21
249.0924702202149
 31
0.0
  0
LINE
  5
10F7
330
2
100
AcDbEntity
  8
0
100
AcDbLine
 10
41.43391924394279
 20
249.0798719805943
 30
0.0
 11
41.43391384354401
 21
238.4394290645823
 31
0.0
  0
LINE
  5
10F8
330
2
100
AcDbEntity
  8
0
100
AcDbLine
 10
43.43391052715889
 20
249.092399772604
 30
0.0
 11
43.43391947516249
 21
237.5972859942402
 31
0.0
  0
ARC
  5
10F9
330
2
100
AcDbEntity
  8
HOJO
100
AcDbCircle
 10
44.18396444621009
 20
239.0182908798457
 30
0.0
 40
1.600781
100
AcDbArc
 50
247.1647029999928
 51
321.3401944016193
  0
LINE
  5
10FA
330
2
100
AcDbEntity
  8
HOJO
100
AcDbLine
 10
41.30525644621013
 20
236.4936028798457
 30
0.0
 11
43.56285544621016
 21
235.5429948798457
 31
0.0
  0
ARC
  5
10FB
330
2
100
AcDbEntity
  8
HOJO
100
AcDbCircle
 10
44.18396444621009
 20
237.0182908798457
 30
0.0
 40
1.600781
100
AcDbArc
 50
247.1647029999928
 51
321.3410092286216
  0
LINE
  5
10FC
330
2
100
AcDbEntity
  8
HOJO
100
AcDbLine
 10
41.30525644621013
 20
238.4936028798457
 30
0.0
 11
43.56285544621016
 21
237.5429948798457
 31
0.0
  0
ARC
  5
10FD
330
2
100
AcDbEntity
  8
0
100
AcDbCircle
 10
50.43392847576853
 20
249.0924702202149
 30
0.0
 40
4.999975722839786
100
AcDbArc
 50
89.99988476693856
 51
180.0002781972299
  0
ARC
  5
10FE
330
2
100
AcDbEntity
  8
0
100
AcDbCircle
 10
50.4339583339189
 20
249.0923981362037
 30
0.0
 40
7.000047806854717
100
AcDbArc
 50
90.00012915873288
 51
179.999688182736
  0
ARC
  5
10FF
330
2
100
AcDbEntity
  8
0
100
AcDbCircle
 10
50.43393853170153
 20
255.8546240074036
 30
0.0
 40
5.0
100
AcDbArc
 50
90.0
 51
131.9745559601682
  0
LINE
  5
1100
330
2
100
AcDbEntity
  8
0
100
AcDbLine
 10
50.43377249705656
 20
258.0923359414715
 30
0.0
 11
50.86631532509557
 21
258.0923359414715
 31
0.0
  0
LINE
  5
1101
330
2
100
AcDbEntity
  8
0
100
AcDbLine
 10
50.43377249705656
 20
260.0923359414715
 30
0.0
 11
50.86631532509534
 21
260.0923359414715
 31
0.0
  0
LINE
  5
1102
330
2
100
AcDbEntity
  8
0
100
AcDbLine
 10
50.43377249705656
 20
256.0923359414715
 30
0.0
 11
50.86631532509557
 21
256.0923359414715
 31
0.0
  0
LINE
  5
1103
330
2
100
AcDbEntity
  8
0
100
AcDbLine
 10
50.43377249705656
 20
254.0923359414715
 30
0.0
 11
50.86631532509557
 21
254.0923359414715
 31
0.0
  0
LINE
  5
1104
330
2
100
AcDbEntity
  8
0
100
AcDbLine
 10
65.50976105508323
 20
255.5841363019391
 30
0.0
 11
76.76178875046151
 21
251.613027420711
 31
0.0
  0
LINE
  5
1105
330
2
100
AcDbEntity
  8
0
100
AcDbLine
 10
64.17853871599357
 20
251.8121544509875
 30
0.0
 11
75.43056641137184
 21
247.8410455697595
 31
0.0
  0
LINE
  5
1106
330
2
100
AcDbEntity
  8
0
100
AcDbLine
 10
64.84414988553806
 20
253.6981453764633
 30
0.0
 11
76.09617758091656
 21
249.7270364952353
 31
0.0
  0
LINE
  5
1107
330
2
100
AcDbEntity
  8
0
100
AcDbLine
 10
66.17537222462795
 20
257.4701272274148
 30
0.0
 11
77.42739992000645
 21
253.4990183461869
 31
0.0
  0
LINE
  5
1108
330
2
100
AcDbEntity
  8
0
100
AcDbLine
 10
114.4931210737091
 20
270.103963570671
 30
0.0
 11
114.4931210737091
 21
257.603963570671
 31
0.0
  0
LINE
  5
1109
330
2
100
AcDbEntity
  8
0
100
AcDbLine
 10
98.61485408535793
 20
259.6579276866203
 30
0.0
 11
98.61485408535793
 21
268.0499994547218
 31
0.0
  0
LINE
  5
110A
330
2
100
AcDbEntity
  8
0
100
AcDbLine
 10
88.84823342954986
 20
260.8046240074036
 30
0.0
 11
88.84823342954986
 21
266.9046240074037
 31
0.0
  0
LINE
  5
110B
330
2
100
AcDbEntity
  8
0
100
AcDbLine
 10
116.4931210737091
 20
270.103963570671
 30
0.0
 11
116.4931210737091
 21
257.603963570671
 31
0.0
  0
LINE
  5
110C
330
2
100
AcDbEntity
  8
0
100
AcDbLine
 10
96.2465421403632
 20
259.8371742627382
 30
0.0
 11
98.38012444982439
 21
259.4609661360178
 31
0.0
  0
LINE
  5
110D
330
2
100
AcDbEntity
  8
0
100
AcDbLine
 10
91.13026774815386
 20
245.2188368557027
 30
0.0
 11
90.73962331089489
 21
245.2188368557027
 31
0.0
  0
LINE
  5
110E
330
2
100
AcDbEntity
  8
0
100
AcDbLine
 10
91.13026774815409
 20
251.2188368557027
 30
0.0
 11
90.73962331090445
 21
251.2188368557027
 31
0.0
  0
LINE
  5
110F
330
2
100
AcDbEntity
  8
0
100
AcDbLine
 10
95.8253489974901
 20
259.6708856603488
 30
0.0
 11
91.75826332546296
 21
260.6046240074036
 31
0.0
  0
LINE
  5
1110
330
2
100
AcDbEntity
  8
0
100
AcDbLine
 10
89.04823342954989
 20
260.6046240074036
 30
0.0
 11
91.75826332546296
 21
260.6046240074036
 31
0.0
  0
ARC
  5
1111
330
2
100
AcDbEntity
  8
0
100
AcDbCircle
 10
89.04823342954989
 20
260.8046240074036
 30
0.0
 40
0.2
100
AcDbArc
 50
180.0
 51
270.0
  0
ARC
  5
1112
330
2
100
AcDbEntity
  8
0
100
AcDbCircle
 10
95.91485408535788
 20
260.0607431205131
 30
0.0
 40
0.4
100
AcDbArc
 50
257.0698677002801
 51
326.0187104207699
  0
ARC
  5
1113
330
2
100
AcDbEntity
  8
0
100
AcDbCircle
 10
108.2318899182868
 20
279.4539635706708
 30
0.0
 40
20.0
100
AcDbArc
 50
259.9999999999949
 51
270.0
  0
ARC
  5
1114
330
2
100
AcDbEntity
  8
0
100
AcDbCircle
 10
108.1269035220553
 20
278.2539635706709
 30
0.0
 40
20.0
100
AcDbArc
 50
259.9999999999949
 51
270.0
  0
LINE
  5
1115
330
2
100
AcDbEntity
  8
0
100
AcDbLine
 10
114.4931210737091
 20
260.7539635706709
 30
0.0
 11
106.6381259865148
 21
260.7539635706709
 31
0.0
  0
LINE
  5
1116
330
2
100
AcDbEntity
  8
0
100
AcDbLine
 10
98.61485408535793
 20
260.8411742247415
 30
0.0
 11
104.758926364948
 21
259.7578085104268
 31
0.0
  0
LINE
  5
1117
330
2
100
AcDbEntity
  8
0
100
AcDbLine
 10
98.61181563596041
 20
259.623198051087
 30
0.0
 11
104.6539399687165
 21
258.5578085104268
 31
0.0
  0
LINE
  5
1118
330
2
100
AcDbEntity
  8
0
100
AcDbLine
 10
104.8950111315617
 20
260.8300696088361
 30
0.0
 11
98.61485408535793
 21
261.3795121555412
 31
0.0
  0
ARC
  5
1119
330
2
100
AcDbEntity
  8
0
100
AcDbCircle
 10
98.41485408535788
 20
259.6579276866203
 30
0.0
 40
0.2
100
AcDbArc
 50
259.9999999999949
 51
0.0
  0
ARC
  5
111A
330
2
100
AcDbEntity
  8
0
100
AcDbCircle
 10
106.6381259865148
 20
280.7539635706709
 30
0.0
 40
20.0
100
AcDbArc
 50
265.0000000000003
 51
270.0
  0
LINE
  5
111B
330
2
100
AcDbEntity
  8
0
100
AcDbLine
 10
114.4931210737091
 20
258.253963570671
 30
0.0
 11
108.1269035220553
 21
258.2539635706709
 31
0.0
  0
LINE
  5
111C
330
2
100
AcDbEntity
  8
0
100
AcDbLine
 10
114.4931210737091
 20
259.453963570671
 30
0.0
 11
108.231889918287
 21
259.4539635706709
 31
0.0
  0
LINE
  5
111D
330
2
100
AcDbEntity
  8
0
100
AcDbLine
 10
97.2478911904426
 20
268.0473177332397
 30
0.0
 11
98.38012444982439
 21
268.2469610053243
 31
0.0
  0
LINE
  5
111E
330
2
100
AcDbEntity
  8
0
100
AcDbLine
 10
96.82877944669066
 20
268.2163926615079
 30
0.0
 11
91.7832830627384
 21
267.1046240074037
 31
0.0
  0
LINE
  5
111F
330
2
100
AcDbEntity
  8
0
100
AcDbLine
 10
89.04823342954989
 20
267.1046240074038
 30
0.0
 11
91.78328306273817
 21
267.1046240074037
 31
0.0
  0
ARC
  5
1120
330
2
100
AcDbEntity
  8
0
100
AcDbCircle
 10
89.04823342954989
 20
266.9046240074037
 30
0.0
 40
0.2
100
AcDbArc
 50
90.0
 51
180.0
  0
ARC
  5
1121
330
2
100
AcDbEntity
  8
0
100
AcDbCircle
 10
96.9148540853579
 20
267.82576348111
 30
0.0
 40
0.4
100
AcDbArc
 50
33.63399402201631
 51
102.4264747477321
  0
ARC
  5
1122
330
2
100
AcDbEntity
  8
0
100
AcDbCircle
 10
108.1269035220549
 20
249.453963570671
 30
0.0
 40
20.0
100
AcDbArc
 50
90.0
 51
100.000000000005
  0
ARC
  5
1123
330
2
100
AcDbEntity
  8
0
100
AcDbCircle
 10
108.2318899182858
 20
248.2539635706708
 30
0.0
 40
20.0
100
AcDbArc
 50
90.0
 51
100.000000000005
  0
LINE
  5
1124
330
2
100
AcDbEntity
  8
0
100
AcDbLine
 10
114.4931210737091
 20
266.9539635706708
 30
0.0
 11
106.6381259865116
 21
266.9539635706708
 31
0.0
  0
LINE
  5
1125
330
2
100
AcDbEntity
  8
0
100
AcDbLine
 10
114.4931210737091
 20
264.453963570671
 30
0.0
 11
98.61485408535793
 21
264.453963570671
 31
0.0
  0
LINE
  5
1126
330
2
100
AcDbEntity
  8
0
100
AcDbLine
 10
114.4931210737091
 20
263.253963570671
 30
0.0
 11
98.61485408535793
 21
263.2539635706708
 31
0.0
  0
LINE
  5
1127
330
2
100
AcDbEntity
  8
0
100
AcDbLine
 10
114.4931210737091
 20
265.7539635706709
 30
0.0
 11
106.6905191180018
 21
265.7539635706709
 31
0.0
  0
LINE
  5
1128
330
2
100
AcDbEntity
  8
0
100
AcDbLine
 10
114.4931210737091
 20
261.953963570671
 30
0.0
 11
106.6905191180061
 21
261.9539635706709
 31
0.0
  0
LINE
  5
1129
330
2
100
AcDbEntity
  8
0
100
AcDbLine
 10
98.61485408535793
 20
266.8667529166004
 30
0.0
 11
104.7589263649473
 21
267.950118630915
 31
0.0
  0
LINE
  5
112A
330
2
100
AcDbEntity
  8
0
100
AcDbLine
 10
98.61181563596041
 20
268.0847290902551
 30
0.0
 11
104.6539399687163
 21
269.1501186309151
 31
0.0
  0
LINE
  5
112B
330
2
100
AcDbEntity
  8
0
100
AcDbLine
 10
104.9474042630487
 20
265.6778575325058
 30
0.0
 11
98.61485408535793
 21
265.1238311807488
 31
0.0
  0
LINE
  5
112C
330
2
100
AcDbEntity
  8
0
100
AcDbLine
 10
104.9474042630526
 20
262.030069608836
 30
0.0
 11
98.61485408535793
 21
262.5840959605933
 31
0.0
  0
LINE
  5
112D
330
2
100
AcDbEntity
  8
0
100
AcDbLine
 10
104.8950111315588
 20
266.8778575325057
 30
0.0
 11
98.61485408535793
 21
266.3284149858008
 31
0.0
  0
ARC
  5
112E
330
2
100
AcDbEntity
  8
0
100
AcDbCircle
 10
98.41485408535788
 20
268.0499994547218
 30
0.0
 40
0.2
100
AcDbArc
 50
0.0
 51
100.000000000005
  0
ARC
  5
112F
330
2
100
AcDbEntity
  8
0
100
AcDbCircle
 10
106.6381259865119
 20
246.9539635706709
 30
0.0
 40
20.0
100
AcDbArc
 50
90.0
 51
94.99999999999975
  0
ARC
  5
1130
330
2
100
AcDbEntity
  8
0
100
AcDbCircle
 10
106.690519118002
 20
245.7539635706709
 30
0.0
 40
20.0
100
AcDbArc
 50
90.0
 51
94.99999999999975
  0
ARC
  5
1131
330
2
100
AcDbEntity
  8
0
100
AcDbCircle
 10
106.6905191180059
 20
281.9539635706709
 30
0.0
 40
20.0
100
AcDbArc
 50
265.0000000000003
 51
270.0
  0
LINE
  5
1132
330
2
100
AcDbEntity
  8
0
100
AcDbLine
 10
114.4931210737091
 20
268.2539635706709
 30
0.0
 11
108.2318899182856
 21
268.2539635706708
 31
0.0
  0
LINE
  5
1133
330
2
100
AcDbEntity
  8
0
100
AcDbLine
 10
114.4931210737091
 20
269.453963570671
 30
0.0
 11
108.1269035220549
 21
269.453963570671
 31
0.0
  0
LINE
  5
1134
330
2
100
AcDbEntity
  8
0
100
AcDbLine
 10
124.9931210737091
 20
260.6539635706709
 30
0.0
 11
124.9931210737091
 21
262.053963570671
 31
0.0
  0
LINE
  5
1135
330
2
100
AcDbEntity
  8
0
100
AcDbLine
 10
122.4931210737091
 20
260.453963570671
 30
0.0
 11
122.4931210737091
 21
262.2539635706709
 31
0.0
  0
LINE
  5
1136
330
2
100
AcDbEntity
  8
0
100
AcDbLine
 10
125.9931210737091
 20
270.103963570671
 30
0.0
 11
125.9931210737091
 21
257.603963570671
 31
0.0
  0
LINE
  5
1137
330
2
100
AcDbEntity
  8
0
100
AcDbLine
 10
125.9931210737091
 20
270.103963570671
 30
0.0
 11
125.9931210737091
 21
257.603963570671
 31
0.0
  0
LINE
  5
1138
330
2
100
AcDbEntity
  8
0
100
AcDbLine
 10
125.6166450850286
 20
243.5568265733323
 30
0.0
 11
120.6356715945697
 21
243.9926052870705
 31
0.0
  0
LINE
  5
1139
330
2
100
AcDbEntity
  8
0
100
AcDbLine
 10
125.6640314418265
 20
243.9040177474469
 30
0.0
 11
120.6661761045314
 21
244.3412734314026
 31
0.0
  0
LINE
  5
113A
330
2
100
AcDbEntity
  8
0
100
AcDbLine
 10
125.5251315551435
 20
242.510822140336
 30
0.0
 11
120.5441580646846
 21
242.9466008540742
 31
0.0
  0
LINE
  5
113B
330
2
100
AcDbEntity
  8
0
100
AcDbLine
 10
125.5556360651052
 20
242.8594902846681
 30
0.0
 11
120.5746625746465
 21
243.2952689984064
 31
0.0
  0
LINE
  5
113C
330
2
100
AcDbEntity
  8
0
100
AcDbLine
 10
125.5861405750669
 20
243.2081584290002
 30
0.0
 11
120.6051670846082
 21
243.6439371427385
 31
0.0
  0
LINE
  5
113D
330
2
100
AcDbEntity
  8
0
100
AcDbLine
 10
120.5112827565989
 20
242.6483311195787
 30
0.0
 11
120.6855942420942
 21
244.6407205157621
 31
0.0
  0
LINE
  5
113E
330
2
100
AcDbEntity
  8
0
100
AcDbLine
 10
120.5180113418606
 20
253.7899312667586
 30
0.0
 11
120.6923228273559
 21
251.7975418705751
 31
0.0
  0
LINE
  5
113F
330
2
100
AcDbEntity
  8
0
100
AcDbLine
 10
125.5556360651052
 20
253.5781834267372
 30
0.0
 11
120.5746625746465
 21
253.142404712999
 31
0.0
  0
LINE
  5
1140
330
2
100
AcDbEntity
  8
0
100
AcDbLine
 10
125.630267748154
 20
248.2188368557027
 30
0.0
 11
120.6302677481541
 21
248.2188368557027
 31
0.0
  0
LINE
  5
1141
330
2
100
AcDbEntity
  8
0
100
AcDbLine
 10
125.630267748154
 20
247.8688368557027
 30
0.0
 11
120.6302677481541
 21
247.8688368557027
 31
0.0
  0
LINE
  5
1142
330
2
100
AcDbEntity
  8
0
100
AcDbLine
 10
125.6166450850286
 20
252.880847138073
 30
0.0
 11
120.6356715945697
 21
252.4450684243347
 31
0.0
  0
LINE
  5
1143
330
2
100
AcDbEntity
  8
0
100
AcDbLine
 10
125.6640314418265
 20
252.5336559639585
 30
0.0
 11
120.6661761045314
 21
252.0964002800026
 31
0.0
  0
LINE
  5
1144
330
2
100
AcDbEntity
  8
0
100
AcDbLine
 10
125.5861405750669
 20
253.2295152824051
 30
0.0
 11
120.6051670846082
 21
252.7937365686668
 31
0.0
  0
LINE
  5
1145
330
2
100
AcDbEntity
  8
0
100
AcDbLine
 10
125.630267748154
 20
248.5688368557026
 30
0.0
 11
120.6302677481541
 21
248.5688368557026
 31
0.0
  0
LINE
  5
1146
330
2
100
AcDbEntity
  8
0
100
AcDbLine
 10
125.630267748154
 20
248.9188368557027
 30
0.0
 11
120.6302677481541
 21
248.9188368557027
 31
0.0
  0
LINE
  5
1147
330
2
100
AcDbEntity
  8
0
100
AcDbLine
 10
125.630267748154
 20
247.5188368557027
 30
0.0
 11
120.6302677481541
 21
247.5188368557027
 31
0.0
  0
LINE
  5
1148
330
2
100
AcDbEntity
  8
0
100
AcDbLine
 10
120.6302677481541
 20
247.2188368557027
 30
0.0
 11
120.6302677481541
 21
249.2188368557027
 31
0.0
  0
LINE
  5
1149
330
2
100
AcDbEntity
  8
0
100
AcDbLine
 10
122.3931210737092
 20
257.853963570671
 30
0.0
 11
119.093121073709
 21
257.853963570671
 31
0.0
  0
LINE
  5
114A
330
2
100
AcDbEntity
  8
0
100
AcDbLine
 10
122.3931210737092
 20
259.853963570671
 30
0.0
 11
119.093121073709
 21
259.853963570671
 31
0.0
  0
LINE
  5
114B
330
2
100
AcDbEntity
  8
0
100
AcDbLine
 10
122.3931210737092
 20
260.3539635706709
 30
0.0
 11
119.093121073709
 21
260.3539635706709
 31
0.0
  0
LINE
  5
114C
330
2
100
AcDbEntity
  8
0
100
AcDbLine
 10
125.5251315551435
 20
253.9268515710694
 30
0.0
 11
120.5441580646846
 21
253.4910728573311
 31
0.0
  0
ARC
  5
114D
330
2
100
AcDbEntity
  8
0
100
AcDbCircle
 10
119.093121073709
 20
259.953963570671
 30
0.0
 40
0.1
100
AcDbArc
 50
180.0
 51
270.0
  0
LINE
  5
114E
330
2
100
AcDbEntity
  8
0
100
AcDbLine
 10
118.9931210737091
 20
257.7539635706709
 30
0.0
 11
118.9931210737091
 21
257.603963570671
 31
0.0
  0
ARC
  5
114F
330
2
100
AcDbEntity
  8
0
100
AcDbCircle
 10
119.093121073709
 20
257.7539635706709
 30
0.0
 40
0.1
100
AcDbArc
 50
90.0
 51
180.0
  0
LINE
  5
1150
330
2
100
AcDbEntity
  8
0
100
AcDbLine
 10
118.9931210737091
 20
260.103963570671
 30
0.0
 11
118.9931210737091
 21
259.953963570671
 31
0.0
  0
LINE
  5
1151
330
2
100
AcDbEntity
  8
0
100
AcDbLine
 10
118.9931210737091
 20
260.103963570671
 30
0.0
 11
118.9931210737091
 21
260.2539635706709
 31
0.0
  0
ARC
  5
1152
330
2
100
AcDbEntity
  8
0
100
AcDbCircle
 10
119.093121073709
 20
260.2539635706709
 30
0.0
 40
0.1
100
AcDbArc
 50
90.0
 51
180.0
  0
LINE
  5
1153
330
2
100
AcDbEntity
  8
0
100
AcDbLine
 10
124.9931210737091
 20
259.553963570671
 30
0.0
 11
124.9931210737091
 21
258.153963570671
 31
0.0
  0
ARC
  5
1154
330
2
100
AcDbEntity
  8
0
100
AcDbCircle
 10
124.8931210737092
 20
259.553963570671
 30
0.0
 40
0.1
100
AcDbArc
 50
0.0
 51
90.0
  0
ARC
  5
1155
330
2
100
AcDbEntity
  8
0
100
AcDbCircle
 10
124.8931210737092
 20
258.153963570671
 30
0.0
 40
0.1
100
AcDbArc
 50
270.0
 51
0.0
  0
ARC
  5
1156
330
2
100
AcDbEntity
  8
0
100
AcDbCircle
 10
124.8931210737092
 20
260.6539635706709
 30
0.0
 40
0.1
100
AcDbArc
 50
270.0
 51
0.0
  0
ARC
  5
1157
330
2
100
AcDbEntity
  8
0
100
AcDbCircle
 10
122.3931210737092
 20
259.7539635706709
 30
0.0
 40
0.1
100
AcDbArc
 50
0.0
 51
90.0
  0
LINE
  5
1158
330
2
100
AcDbEntity
  8
0
100
AcDbLine
 10
123.9931210737091
 20
260.103963570671
 30
0.0
 11
123.9931210737091
 21
259.7539635706709
 31
0.0
  0
LINE
  5
1159
330
2
100
AcDbEntity
  8
0
100
AcDbLine
 10
122.4931210737091
 20
259.7539635706709
 30
0.0
 11
122.4931210737091
 21
257.953963570671
 31
0.0
  0
ARC
  5
115A
330
2
100
AcDbEntity
  8
0
100
AcDbCircle
 10
122.3931210737092
 20
257.953963570671
 30
0.0
 40
0.1
100
AcDbArc
 50
270.0
 51
0.0
  0
ARC
  5
115B
330
2
100
AcDbEntity
  8
0
100
AcDbCircle
 10
124.093121073709
 20
259.7539635706709
 30
0.0
 40
0.1
100
AcDbArc
 50
180.0
 51
270.0
  0
ARC
  5
115C
330
2
100
AcDbEntity
  8
0
100
AcDbCircle
 10
124.093121073709
 20
257.953963570671
 30
0.0
 40
0.1
100
AcDbArc
 50
90.0
 51
180.0
  0
LINE
  5
115D
330
2
100
AcDbEntity
  8
0
100
AcDbLine
 10
123.9931210737091
 20
257.603963570671
 30
0.0
 11
123.9931210737091
 21
257.953963570671
 31
0.0
  0
ARC
  5
115E
330
2
100
AcDbEntity
  8
0
100
AcDbCircle
 10
122.3931210737092
 20
260.453963570671
 30
0.0
 40
0.1
100
AcDbArc
 50
270.0
 51
0.0
  0
ARC
  5
115F
330
2
100
AcDbEntity
  8
0
100
AcDbCircle
 10
124.093121073709
 20
260.453963570671
 30
0.0
 40
0.1
100
AcDbArc
 50
90.0
 51
180.0
  0
LINE
  5
1160
330
2
100
AcDbEntity
  8
0
100
AcDbLine
 10
123.9931210737091
 20
260.103963570671
 30
0.0
 11
123.9931210737091
 21
260.453963570671
 31
0.0
  0
LINE
  5
1161
330
2
100
AcDbEntity
  8
0
100
AcDbLine
 10
124.8931210737092
 20
259.653963570671
 30
0.0
 11
124.093121073709
 21
259.653963570671
 31
0.0
  0
LINE
  5
1162
330
2
100
AcDbEntity
  8
0
100
AcDbLine
 10
124.8931210737092
 20
258.053963570671
 30
0.0
 11
124.093121073709
 21
258.053963570671
 31
0.0
  0
LINE
  5
1163
330
2
100
AcDbEntity
  8
0
100
AcDbLine
 10
124.8931210737092
 20
260.553963570671
 30
0.0
 11
124.093121073709
 21
260.553963570671
 31
0.0
  0
LINE
  5
1164
330
2
100
AcDbEntity
  8
0
100
AcDbLine
 10
124.9931210737091
 20
268.1539635706709
 30
0.0
 11
124.9931210737091
 21
269.553963570671
 31
0.0
  0
LINE
  5
1165
330
2
100
AcDbEntity
  8
0
100
AcDbLine
 10
122.4931210737091
 20
267.953963570671
 30
0.0
 11
122.4931210737091
 21
269.7539635706709
 31
0.0
  0
LINE
  5
1166
330
2
100
AcDbEntity
  8
0
100
AcDbLine
 10
122.3931210737092
 20
267.3539635706709
 30
0.0
 11
119.093121073709
 21
267.3539635706709
 31
0.0
  0
LINE
  5
1167
330
2
100
AcDbEntity
  8
0
100
AcDbLine
 10
122.3931210737092
 20
267.853963570671
 30
0.0
 11
119.093121073709
 21
267.853963570671
 31
0.0
  0
LINE
  5
1168
330
2
100
AcDbEntity
  8
0
100
AcDbLine
 10
122.3931210737092
 20
264.8539635706709
 30
0.0
 11
119.093121073709
 21
264.8539635706709
 31
0.0
  0
LINE
  5
1169
330
2
100
AcDbEntity
  8
0
100
AcDbLine
 10
122.3931210737092
 20
265.353963570671
 30
0.0
 11
119.093121073709
 21
265.353963570671
 31
0.0
  0
LINE
  5
116A
330
2
100
AcDbEntity
  8
0
100
AcDbLine
 10
122.3931210737092
 20
262.353963570671
 30
0.0
 11
119.093121073709
 21
262.353963570671
 31
0.0
  0
LINE
  5
116B
330
2
100
AcDbEntity
  8
0
100
AcDbLine
 10
122.3931210737092
 20
262.8539635706709
 30
0.0
 11
119.093121073709
 21
262.8539635706709
 31
0.0
  0
LINE
  5
116C
330
2
100
AcDbEntity
  8
0
100
AcDbLine
 10
118.9931210737091
 20
267.603963570671
 30
0.0
 11
118.9931210737091
 21
267.453963570671
 31
0.0
  0
ARC
  5
116D
330
2
100
AcDbEntity
  8
0
100
AcDbCircle
 10
119.093121073709
 20
267.7539635706709
 30
0.0
 40
0.1
100
AcDbArc
 50
90.0
 51
180.0
  0
LINE
  5
116E
330
2
100
AcDbEntity
  8
0
100
AcDbLine
 10
118.9931210737091
 20
267.603963570671
 30
0.0
 11
118.9931210737091
 21
267.7539635706709
 31
0.0
  0
ARC
  5
116F
330
2
100
AcDbEntity
  8
0
100
AcDbCircle
 10
119.093121073709
 20
267.453963570671
 30
0.0
 40
0.1
100
AcDbArc
 50
180.0
 51
270.0
  0
LINE
  5
1170
330
2
100
AcDbEntity
  8
0
100
AcDbLine
 10
118.9931210737091
 20
265.2539635706709
 30
0.0
 11
118.9931210737091
 21
264.953963570671
 31
0.0
  0
ARC
  5
1171
330
2
100
AcDbEntity
  8
0
100
AcDbCircle
 10
119.093121073709
 20
264.953963570671
 30
0.0
 40
0.1
100
AcDbArc
 50
180.0
 51
270.0
  0
ARC
  5
1172
330
2
100
AcDbEntity
  8
0
100
AcDbCircle
 10
119.093121073709
 20
265.2539635706709
 30
0.0
 40
0.1
100
AcDbArc
 50
90.0
 51
180.0
  0
ARC
  5
1173
330
2
100
AcDbEntity
  8
0
100
AcDbCircle
 10
119.093121073709
 20
262.453963570671
 30
0.0
 40
0.1
100
AcDbArc
 50
180.0
 51
270.0
  0
LINE
  5
1174
330
2
100
AcDbEntity
  8
0
100
AcDbLine
 10
118.9931210737091
 20
262.453963570671
 30
0.0
 11
118.9931210737091
 21
262.753963570671
 31
0.0
  0
ARC
  5
1175
330
2
100
AcDbEntity
  8
0
100
AcDbCircle
 10
119.093121073709
 20
262.753963570671
 30
0.0
 40
0.1
100
AcDbArc
 50
90.0
 51
180.0
  0
ARC
  5
1176
330
2
100
AcDbEntity
  8
0
100
AcDbCircle
 10
124.8931210737092
 20
268.1539635706709
 30
0.0
 40
0.1
100
AcDbArc
 50
270.0
 51
0.0
  0
ARC
  5
1177
330
2
100
AcDbEntity
  8
0
100
AcDbCircle
 10
124.8931210737092
 20
267.053963570671
 30
0.0
 40
0.1
100
AcDbArc
 50
0.0
 51
90.0
  0
ARC
  5
1178
330
2
100
AcDbEntity
  8
0
100
AcDbCircle
 10
122.3931210737092
 20
267.953963570671
 30
0.0
 40
0.1
100
AcDbArc
 50
270.0
 51
0.0
  0
ARC
  5
1179
330
2
100
AcDbEntity
  8
0
100
AcDbCircle
 10
122.3931210737092
 20
267.2539635706709
 30
0.0
 40
0.1
100
AcDbArc
 50
0.0
 51
90.0
  0
LINE
  5
117A
330
2
100
AcDbEntity
  8
0
100
AcDbLine
 10
123.9931210737091
 20
267.603963570671
 30
0.0
 11
123.9931210737091
 21
267.2539635706709
 31
0.0
  0
ARC
  5
117B
330
2
100
AcDbEntity
  8
0
100
AcDbCircle
 10
124.093121073709
 20
267.953963570671
 30
0.0
 40
0.1
100
AcDbArc
 50
90.0
 51
180.0
  0
LINE
  5
117C
330
2
100
AcDbEntity
  8
0
100
AcDbLine
 10
123.9931210737091
 20
267.603963570671
 30
0.0
 11
123.9931210737091
 21
267.953963570671
 31
0.0
  0
ARC
  5
117D
330
2
100
AcDbEntity
  8
0
100
AcDbCircle
 10
124.093121073709
 20
267.2539635706709
 30
0.0
 40
0.1
100
AcDbArc
 50
180.0
 51
270.0
  0
LINE
  5
117E
330
2
100
AcDbEntity
  8
0
100
AcDbLine
 10
124.8931210737092
 20
268.053963570671
 30
0.0
 11
124.093121073709
 21
268.053963570671
 31
0.0
  0
LINE
  5
117F
330
2
100
AcDbEntity
  8
0
100
AcDbLine
 10
124.8931210737092
 20
267.153963570671
 30
0.0
 11
124.093121073709
 21
267.153963570671
 31
0.0
  0
ARC
  5
1180
330
2
100
AcDbEntity
  8
0
100
AcDbCircle
 10
124.8931210737092
 20
265.653963570671
 30
0.0
 40
0.1
100
AcDbArc
 50
270.0
 51
0.0
  0
LINE
  5
1181
330
2
100
AcDbEntity
  8
0
100
AcDbLine
 10
124.9931210737091
 20
263.853963570671
 30
0.0
 11
124.9931210737091
 21
263.1539635706709
 31
0.0
  0
LINE
  5
1182
330
2
100
AcDbEntity
  8
0
100
AcDbLine
 10
124.9931210737091
 20
263.853963570671
 30
0.0
 11
124.9931210737091
 21
264.553963570671
 31
0.0
  0
ARC
  5
1183
330
2
100
AcDbEntity
  8
0
100
AcDbCircle
 10
124.8931210737092
 20
262.053963570671
 30
0.0
 40
0.1
100
AcDbArc
 50
0.0
 51
90.0
  0
ARC
  5
1184
330
2
100
AcDbEntity
  8
0
100
AcDbCircle
 10
124.8931210737092
 20
263.1539635706709
 30
0.0
 40
0.1
100
AcDbArc
 50
270.0
 51
0.0
  0
ARC
  5
1185
330
2
100
AcDbEntity
  8
0
100
AcDbCircle
 10
124.8931210737092
 20
264.553963570671
 30
0.0
 40
0.1
100
AcDbArc
 50
0.0
 51
90.0
  0
ARC
  5
1186
330
2
100
AcDbEntity
  8
0
100
AcDbCircle
 10
122.3931210737092
 20
264.753963570671
 30
0.0
 40
0.1
100
AcDbArc
 50
0.0
 51
90.0
  0
ARC
  5
1187
330
2
100
AcDbEntity
  8
0
100
AcDbCircle
 10
122.3931210737092
 20
265.453963570671
 30
0.0
 40
0.1
100
AcDbArc
 50
270.0
 51
0.0
  0
LINE
  5
1188
330
2
100
AcDbEntity
  8
0
100
AcDbLine
 10
122.4931210737091
 20
262.953963570671
 30
0.0
 11
122.4931210737091
 21
263.853963570671
 31
0.0
  0
ARC
  5
1189
330
2
100
AcDbEntity
  8
0
100
AcDbCircle
 10
122.3931210737092
 20
262.2539635706709
 30
0.0
 40
0.1
100
AcDbArc
 50
0.0
 51
90.0
  0
ARC
  5
118A
330
2
100
AcDbEntity
  8
0
100
AcDbCircle
 10
122.3931210737092
 20
262.953963570671
 30
0.0
 40
0.1
100
AcDbArc
 50
270.0
 51
0.0
  0
LINE
  5
118B
330
2
100
AcDbEntity
  8
0
100
AcDbLine
 10
122.4931210737091
 20
264.753963570671
 30
0.0
 11
122.4931210737091
 21
263.853963570671
 31
0.0
  0
LINE
  5
118C
330
2
100
AcDbEntity
  8
0
100
AcDbLine
 10
123.9931210737091
 20
265.1039635706709
 30
0.0
 11
123.9931210737091
 21
264.753963570671
 31
0.0
  0
ARC
  5
118D
330
2
100
AcDbEntity
  8
0
100
AcDbCircle
 10
124.093121073709
 20
264.753963570671
 30
0.0
 40
0.1
100
AcDbArc
 50
180.0
 51
270.0
  0
ARC
  5
118E
330
2
100
AcDbEntity
  8
0
100
AcDbCircle
 10
124.093121073709
 20
265.453963570671
 30
0.0
 40
0.1
100
AcDbArc
 50
90.0
 51
180.0
  0
LINE
  5
118F
330
2
100
AcDbEntity
  8
0
100
AcDbLine
 10
123.9931210737091
 20
265.1039635706709
 30
0.0
 11
123.9931210737091
 21
265.453963570671
 31
0.0
  0
LINE
  5
1190
330
2
100
AcDbEntity
  8
0
100
AcDbLine
 10
123.9931210737091
 20
262.6039635706709
 30
0.0
 11
123.9931210737091
 21
262.953963570671
 31
0.0
  0
ARC
  5
1191
330
2
100
AcDbEntity
  8
0
100
AcDbCircle
 10
124.093121073709
 20
262.953963570671
 30
0.0
 40
0.1
100
AcDbArc
 50
90.0
 51
180.0
  0
LINE
  5
1192
330
2
100
AcDbEntity
  8
0
100
AcDbLine
 10
123.9931210737091
 20
262.6039635706709
 30
0.0
 11
123.9931210737091
 21
262.2539635706709
 31
0.0
  0
ARC
  5
1193
330
2
100
AcDbEntity
  8
0
100
AcDbCircle
 10
124.093121073709
 20
262.2539635706709
 30
0.0
 40
0.1
100
AcDbArc
 50
180.0
 51
270.0
  0
LINE
  5
1194
330
2
100
AcDbEntity
  8
0
100
AcDbLine
 10
124.8931210737092
 20
264.653963570671
 30
0.0
 11
124.093121073709
 21
264.653963570671
 31
0.0
  0
LINE
  5
1195
330
2
100
AcDbEntity
  8
0
100
AcDbLine
 10
124.8931210737092
 20
265.553963570671
 30
0.0
 11
124.093121073709
 21
265.553963570671
 31
0.0
  0
LINE
  5
1196
330
2
100
AcDbEntity
  8
0
100
AcDbLine
 10
124.8931210737092
 20
263.053963570671
 30
0.0
 11
124.093121073709
 21
263.053963570671
 31
0.0
  0
LINE
  5
1197
330
2
100
AcDbEntity
  8
0
100
AcDbLine
 10
124.8931210737092
 20
262.153963570671
 30
0.0
 11
124.093121073709
 21
262.153963570671
 31
0.0
  0
LINE
  5
1198
330
2
100
AcDbEntity
  8
0
100
AcDbLine
 10
122.4931210737091
 20
267.2539635706709
 30
0.0
 11
122.4931210737091
 21
265.453963570671
 31
0.0
  0
LINE
  5
1199
330
2
100
AcDbEntity
  8
0
100
AcDbLine
 10
124.9931210737091
 20
267.053963570671
 30
0.0
 11
124.9931210737091
 21
265.653963570671
 31
0.0
  0
LINE
  5
119A
330
2
100
AcDbEntity
  8
0
100
AcDbLine
 10
122.3931210737092
 20
269.853963570671
 30
0.0
 11
119.093121073709
 21
269.853963570671
 31
0.0
  0
ARC
  5
119B
330
2
100
AcDbEntity
  8
0
100
AcDbCircle
 10
119.093121073709
 20
269.953963570671
 30
0.0
 40
0.1
100
AcDbArc
 50
180.0
 51
270.0
  0
LINE
  5
119C
330
2
100
AcDbEntity
  8
0
100
AcDbLine
 10
118.9931210737091
 20
269.953963570671
 30
0.0
 11
118.9931210737091
 21
270.103963570671
 31
0.0
  0
ARC
  5
119D
330
2
100
AcDbEntity
  8
0
100
AcDbCircle
 10
124.8931210737092
 20
269.553963570671
 30
0.0
 40
0.1
100
AcDbArc
 50
0.0
 51
90.0
  0
ARC
  5
119E
330
2
100
AcDbEntity
  8
0
100
AcDbCircle
 10
122.3931210737092
 20
269.7539635706709
 30
0.0
 40
0.1
100
AcDbArc
 50
0.0
 51
90.0
  0
LINE
  5
119F
330
2
100
AcDbEntity
  8
0
100
AcDbLine
 10
123.9931210737091
 20
270.103963570671
 30
0.0
 11
123.9931210737091
 21
269.7539635706709
 31
0.0
  0
ARC
  5
11A0
330
2
100
AcDbEntity
  8
0
100
AcDbCircle
 10
124.093121073709
 20
269.7539635706709
 30
0.0
 40
0.1
100
AcDbArc
 50
180.0
 51
270.0
  0
LINE
  5
11A1
330
2
100
AcDbEntity
  8
0
100
AcDbLine
 10
124.8931210737092
 20
269.653963570671
 30
0.0
 11
124.093121073709
 21
269.653963570671
 31
0.0
  0
LINE
  5
11A2
330
2
100
AcDbEntity
  8
0
100
AcDbLine
 10
44.43381575298701
 20
398.6425445001892
 30
0.0
 11
44.43381575298701
 21
400.1055435001893
 31
0.0
  0
ARC
  5
11A3
330
2
100
AcDbEntity
  8
0
100
AcDbCircle
 10
45.53579575298693
 20
400.1055435001893
 30
0.0
 40
1.102084999999999
100
AcDbArc
 50
180.0
 51
209.3200990000072
  0
LINE
  5
11A4
330
2
100
AcDbEntity
  8
0
100
AcDbLine
 10
45.56561575298712
 20
400.0957225001892
 30
0.0
 11
95.25741675298707
 21
399.6619435001893
 31
0.0
  0
LINE
  5
11A5
330
2
100
AcDbEntity
  8
0
100
AcDbLine
 10
53.1337977529871
 20
381.5374295172557
 30
0.0
 11
95.25759975298695
 21
381.1697845001893
 31
0.0
  0
LINE
  5
11A6
330
2
100
AcDbEntity
  8
0
100
AcDbLine
 10
96.43819875298698
 20
378.4560815001892
 30
0.0
 11
53.68834938002385
 21
378.8291877249843
 31
0.0
  0
LINE
  5
11A7
330
2
100
AcDbEntity
  8
0
100
AcDbLine
 10
53.95124989200815
 20
379.9460050694101
 30
0.0
 11
96.43819875298698
 21
380.3167845001892
 31
0.0
  0
LINE
  5
11A8
330
2
100
AcDbEntity
  8
0
100
AcDbLine
 10
96.933819752987
 20
375.1358835001892
 30
0.0
 11
46.416394752987
 21
375.5767025001893
 31
0.0
  0
LINE
  5
11A9
330
2
100
AcDbEntity
  8
0
100
AcDbLine
 10
46.45129475298711
 20
376.3881835001892
 30
0.0
 11
96.933819752987
 21
376.8287855001892
 31
0.0
  0
LINE
  5
11AA
330
2
100
AcDbEntity
  8
0
100
AcDbLine
 10
49.93385475298703
 20
378.3401604804125
 30
0.0
 11
95.25759975298695
 21
377.9445845001893
 31
0.0
  0
LINE
  5
11AB
330
2
100
AcDbEntity
  8
0
100
AcDbLine
 10
95.94241375298691
 20
396.7355615001892
 30
0.0
 11
46.43381575298701
 21
397.1675645001893
 31
0.0
  0
LINE
  5
11AC
330
2
100
AcDbEntity
  8
0
100
AcDbLine
 10
46.43381575298701
 20
398.6305035001893
 30
0.0
 11
95.94241375298691
 21
399.0625235001893
 31
0.0
  0
LINE
  5
11AD
330
2
100
AcDbEntity
  8
0
100
AcDbLine
 10
45.56573475298693
 20
392.7602845001891
 30
0.0
 11
95.25759975298695
 21
392.3267025001893
 31
0.0
  0
LINE
  5
11AE
330
2
100
AcDbEntity
  8
0
100
AcDbLine
 10
53.13379775298733
 20
386.4671348017534
 30
0.0
 11
95.25759975298695
 21
386.0995025001892
 31
0.0
  0
LINE
  5
11AF
330
2
100
AcDbEntity
  8
0
100
AcDbLine
 10
95.9425977529869
 20
383.3197025001892
 30
0.0
 11
54.28311851377486
 21
383.6831951027333
 31
0.0
  0
LINE
  5
11B0
330
2
100
AcDbEntity
  8
0
100
AcDbLine
 10
54.32448159755143
 20
384.9280547983267
 30
0.0
 11
95.9425977529869
 21
385.2913025001892
 31
0.0
  0
LINE
  5
11B1
330
2
100
AcDbEntity
  8
0
100
AcDbLine
 10
95.9425977529869
 20
389.5744825001892
 30
0.0
 11
46.43385475298702
 21
390.0064855001892
 31
0.0
  0
LINE
  5
11B2
330
2
100
AcDbEntity
  8
0
100
AcDbLine
 10
46.43385475298702
 20
391.1732025001893
 30
0.0
 11
95.9425977529869
 21
391.6053055001892
 31
0.0
  0
LINE
  5
11B3
330
2
100
AcDbEntity
  8
0
100
AcDbLine
 10
96.933819752987
 20
373.4638825001892
 30
0.0
 11
46.416394752987
 21
373.9047815001891
 31
0.0
  0
ARC
  5
11B4
330
2
100
AcDbEntity
  8
0
100
AcDbCircle
 10
54.30379675298752
 20
386.0531048922449
 30
0.0
 40
2.37
100
AcDbArc
 50
180.0
 51
269.5000882417261
  0
LINE
  5
11B5
330
2
100
AcDbEntity
  8
0
100
AcDbLine
 10
47.93385475298703
 20
389.4007364996134
 30
0.0
 11
47.93385475298703
 21
376.7448487826849
 31
0.0
  0
LINE
  5
11B6
330
2
100
AcDbEntity
  8
0
100
AcDbLine
 10
45.43385475298703
 20
368.6943352595375
 30
0.0
 11
45.43385475298703
 21
384.2197989939374
 31
0.0
  0
ARC
  5
11B7
330
2
100
AcDbEntity
  8
0
100
AcDbCircle
 10
46.43385475298702
 20
377.5765845001892
 30
0.0
 40
2.0
100
AcDbArc
 50
239.9999999999994
 51
269.4999999999954
  0
ARC
  5
11B8
330
2
100
AcDbEntity
  8
0
100
AcDbCircle
 10
46.43385475298702
 20
375.9046825001892
 30
0.0
 40
2.0
100
AcDbArc
 50
239.9999999999994
 51
269.4999999999954
  0
LINE
  5
11B9
330
2
100
AcDbEntity
  8
0
100
AcDbLine
 10
45.43385475298703
 20
376.744848782685
 30
0.0
 11
47.93385475298703
 21
376.7448487826849
 31
0.0
  0
ARC
  5
11BA
330
2
100
AcDbEntity
  8
0
100
AcDbCircle
 10
46.43385475298702
 20
378.3881835001892
 30
0.0
 40
2.0
100
AcDbArc
 50
239.9999999999994
 51
270.5000000000045
  0
ARC
  5
11BB
330
2
100
AcDbEntity
  8
0
100
AcDbCircle
 10
53.70379675298693
 20
380.599120316545
 30
0.0
 40
1.77
100
AcDbArc
 50
180.0
 51
269.4999545134775
  0
LINE
  5
11BC
330
2
100
AcDbEntity
  8
0
100
AcDbLine
 10
51.93379675298718
 20
381.9459289149448
 30
0.0
 11
51.93379675298695
 21
380.599120316545
 31
0.0
  0
ARC
  5
11BD
330
2
100
AcDbEntity
  8
0
100
AcDbCircle
 10
53.93379675298717
 20
381.9459289149448
 30
0.0
 40
2.0
100
AcDbArc
 50
180.0
 51
270.5000019488311
  0
ARC
  5
11BE
330
2
100
AcDbEntity
  8
0
100
AcDbCircle
 10
46.06405675298709
 20
392.9490015001892
 30
0.0
 40
1.673817999999999
100
AcDbArc
 50
207.4174040000028
 51
231.392395000001
  0
LINE
  5
11BF
330
2
100
AcDbEntity
  8
0
100
AcDbLine
 10
44.43385475298703
 20
391.6035845001891
 30
0.0
 11
44.43385475298703
 21
392.7702035001892
 31
0.0
  0
LINE
  5
11C0
330
2
100
AcDbEntity
  8
0
100
AcDbLine
 10
40.93385475298703
 20
396.2424357616755
 30
0.0
 11
40.93385475298703
 21
387.5984021732782
 31
0.0
  0
ARC
  5
11C1
330
2
100
AcDbEntity
  8
0
100
AcDbCircle
 10
46.28793475298709
 20
393.2292825001892
 30
0.0
 40
2.032614
100
AcDbArc
 50
231.392395000001
 51
251.6983030000062
  0
ARC
  5
11C2
330
2
100
AcDbEntity
  8
0
100
AcDbCircle
 10
46.28793475298709
 20
392.0626835001892
 30
0.0
 40
2.032614
100
AcDbArc
 50
231.392395000001
 51
251.6983030000062
  0
LINE
  5
11C3
330
2
100
AcDbEntity
  8
0
100
AcDbLine
 10
40.93385475298703
 20
389.4007364996134
 30
0.0
 11
47.93385475298703
 21
389.4007364996134
 31
0.0
  0
ARC
  5
11C4
330
2
100
AcDbEntity
  8
0
100
AcDbCircle
 10
45.71951675298703
 20
391.6035845001891
 30
0.0
 40
1.285679
100
AcDbArc
 50
180.0
 51
207.4174040000028
  0
ARC
  5
11C5
330
2
100
AcDbEntity
  8
0
100
AcDbCircle
 10
46.06405675298709
 20
391.7822845001892
 30
0.0
 40
1.673817999999999
100
AcDbArc
 50
207.4174040000028
 51
231.392395000001
  0
ARC
  5
11C6
330
2
100
AcDbEntity
  8
0
100
AcDbCircle
 10
46.43385475298702
 20
393.6703835001892
 30
0.0
 40
2.497222
100
AcDbArc
 50
251.6983030000062
 51
270.0
  0
ARC
  5
11C7
330
2
100
AcDbEntity
  8
0
100
AcDbCircle
 10
46.43385475298702
 20
392.5037845001892
 30
0.0
 40
2.497222
100
AcDbArc
 50
251.6983030000062
 51
270.0
  0
ARC
  5
11C8
330
2
100
AcDbEntity
  8
0
100
AcDbCircle
 10
46.24961575298686
 20
399.2673435001892
 30
0.0
 40
2.072293999999999
100
AcDbArc
 50
233.5906980000074
 51
253.0127030000071
  0
ARC
  5
11C9
330
2
100
AcDbEntity
  8
0
100
AcDbCircle
 10
46.24961575298686
 20
400.7303645001892
 30
0.0
 40
2.072293999999999
100
AcDbArc
 50
233.5906980000074
 51
253.0127030000071
  0
ARC
  5
11CA
330
2
100
AcDbEntity
  8
0
100
AcDbCircle
 10
45.53579575298693
 20
398.6425445001892
 30
0.0
 40
1.102084999999999
100
AcDbArc
 50
180.0
 51
209.3200990000072
  0
ARC
  5
11CB
330
2
100
AcDbEntity
  8
0
100
AcDbCircle
 10
45.96759475298688
 20
398.8851435001892
 30
0.0
 40
1.597306999999999
100
AcDbArc
 50
209.3200990000072
 51
233.5906980000074
  0
ARC
  5
11CC
330
2
100
AcDbEntity
  8
0
100
AcDbCircle
 10
45.96759475298688
 20
400.3479235001893
 30
0.0
 40
1.597306999999999
100
AcDbArc
 50
209.3200990000072
 51
233.5906980000074
  0
ARC
  5
11CD
330
2
100
AcDbEntity
  8
0
100
AcDbCircle
 10
45.71951675298703
 20
392.7702035001892
 30
0.0
 40
1.285679
100
AcDbArc
 50
180.0
 51
207.4174040000028
  0
ARC
  5
11CE
330
2
100
AcDbEntity
  8
0
100
AcDbCircle
 10
46.43381575298701
 20
399.8703825001893
 30
0.0
 40
2.702782
100
AcDbArc
 50
253.0127030000071
 51
270.0
  0
ARC
  5
11CF
330
2
100
AcDbEntity
  8
0
100
AcDbCircle
 10
46.43381575298701
 20
401.3333835001892
 30
0.0
 40
2.702782
100
AcDbArc
 50
253.0127030000071
 51
270.0
  0
LINE
  5
11D0
330
2
100
AcDbEntity
  8
0
100
AcDbLine
 10
51.93379675298718
 20
386.0531048922449
 30
0.0
 11
51.93379675298718
 21
387.2979645301952
 31
0.0
  0
ARC
  5
11D1
330
2
100
AcDbEntity
  8
0
100
AcDbCircle
 10
54.3037967529873
 20
387.2979645301952
 30
0.0
 40
2.37
100
AcDbArc
 50
180.0
 51
270.5000714515918
  0
LINE
  5
11D2
330
2
100
AcDbEntity
  8
0
100
AcDbLine
 10
106.933815752987
 20
371.9931835001892
 30
0.0
 11
97.92529775298692
 21
372.0698815001892
 31
0.0
  0
ARC
  5
11D3
330
2
100
AcDbEntity
  8
0
100
AcDbCircle
 10
97.933819752987
 20
373.0697825001892
 30
0.0
 40
1.0
100
AcDbArc
 50
180.0
 51
269.5122069999976
  0
ARC
  5
11D4
330
2
100
AcDbEntity
  8
0
100
AcDbCircle
 10
95.93381975298701
 20
382.3197025001892
 30
0.0
 40
1.0
100
AcDbArc
 50
0.0
 51
89.49999999999542
  0
ARC
  5
11D5
330
2
100
AcDbEntity
  8
0
100
AcDbCircle
 10
96.43381975298702
 20
380.8167845001892
 30
0.0
 40
0.5
100
AcDbArc
 50
270.5000000000045
 51
0.0
  0
ARC
  5
11D6
330
2
100
AcDbEntity
  8
0
100
AcDbCircle
 10
96.43381975298702
 20
377.9560815001892
 30
0.0
 40
0.5
100
AcDbArc
 50
0.0
 51
89.49999999999542
  0
ARC
  5
11D7
330
2
100
AcDbEntity
  8
0
100
AcDbCircle
 10
95.93381975298701
 20
392.6051835001892
 30
0.0
 40
1.0
100
AcDbArc
 50
270.5000000000045
 51
0.0
  0
ARC
  5
11D8
330
2
100
AcDbEntity
  8
0
100
AcDbCircle
 10
95.93381975298701
 20
386.2911835001892
 30
0.0
 40
1.0
100
AcDbArc
 50
270.5000000000045
 51
0.0
  0
ARC
  5
11D9
330
2
100
AcDbEntity
  8
0
100
AcDbCircle
 10
95.93381975298701
 20
388.5744825001892
 30
0.0
 40
1.0
100
AcDbArc
 50
0.0
 51
89.49999999999542
  0
ARC
  5
11DA
330
2
100
AcDbEntity
  8
0
100
AcDbCircle
 10
95.93381575298701
 20
400.0625235001892
 30
0.0
 40
1.0
100
AcDbArc
 50
270.4999999999915
 51
0.0
  0
ARC
  5
11DB
330
2
100
AcDbEntity
  8
0
100
AcDbCircle
 10
95.93381575298701
 20
395.7355615001893
 30
0.0
 40
1.0
100
AcDbArc
 50
0.0
 51
89.49999999999542
  0
LINE
  5
11DC
330
2
100
AcDbEntity
  8
0
100
AcDbLine
 10
45.56561575298712
 20
441.3136175001892
 30
0.0
 11
95.25741675298707
 21
441.7474555001892
 31
0.0
  0
LINE
  5
11DD
330
2
100
AcDbEntity
  8
0
100
AcDbLine
 10
46.43381575298701
 20
442.4452095001892
 30
0.0
 11
95.94241375298691
 21
442.0132035001891
 31
0.0
  0
LINE
  5
11DE
330
2
100
AcDbEntity
  8
0
100
AcDbLine
 10
95.94241375298691
 20
444.7603955001892
 30
0.0
 11
46.43381575298701
 21
444.3282055001892
 31
0.0
  0
LINE
  5
11DF
330
2
100
AcDbEntity
  8
0
100
AcDbLine
 10
45.56561575298712
 20
450.1700635001892
 30
0.0
 11
95.25741675298707
 21
450.6036625001891
 31
0.0
  0
LINE
  5
11E0
330
2
100
AcDbEntity
  8
0
100
AcDbLine
 10
45.56561575298712
 20
458.3906445001892
 30
0.0
 11
95.25741675298707
 21
458.8244235001893
 31
0.0
  0
LINE
  5
11E1
330
2
100
AcDbEntity
  8
0
100
AcDbLine
 10
46.43381575298701
 20
451.4815835001892
 30
0.0
 11
95.94241375298691
 21
451.0495835001892
 31
0.0
  0
LINE
  5
11E2
330
2
100
AcDbEntity
  8
0
100
AcDbLine
 10
95.94241375298691
 20
453.6262435001892
 30
0.0
 11
46.43381575298701
 21
453.1939835001893
 31
0.0
  0
LINE
  5
11E3
330
2
100
AcDbEntity
  8
0
100
AcDbLine
 10
46.43381575298701
 20
459.8558635001892
 30
0.0
 11
95.94241375298691
 21
459.4238435001892
 31
0.0
  0
LINE
  5
11E4
330
2
100
AcDbEntity
  8
0
100
AcDbLine
 10
95.94254501518992
 20
435.1083943433133
 30
0.0
 11
46.43381575298701
 21
434.6762031974475
 31
0.0
  0
LINE
  5
11E5
330
2
100
AcDbEntity
  8
0
100
AcDbLine
 10
95.94241375298691
 20
461.7508055001892
 30
0.0
 11
46.43381575298701
 21
461.3188025001892
 31
0.0
  0
LINE
  5
11E6
330
2
100
AcDbEntity
  8
0
100
AcDbLine
 10
95.94241375298691
 20
413.7259715001893
 30
0.0
 11
46.43381575298701
 21
414.1581615001893
 31
0.0
  0
LINE
  5
11E7
330
2
100
AcDbEntity
  8
0
100
AcDbLine
 10
46.43381575298701
 20
416.0411575001893
 30
0.0
 11
95.94241375298691
 21
416.4731635001893
 31
0.0
  0
LINE
  5
11E8
330
2
100
AcDbEntity
  8
0
100
AcDbLine
 10
45.56561575298712
 20
417.1727495001893
 30
0.0
 11
95.25741675298707
 21
416.7389115001892
 31
0.0
  0
LINE
  5
11E9
330
2
100
AcDbEntity
  8
0
100
AcDbLine
 10
95.94241375298691
 20
404.8601235001893
 30
0.0
 11
46.43381575298701
 21
405.2923835001892
 31
0.0
  0
LINE
  5
11EA
330
2
100
AcDbEntity
  8
0
100
AcDbLine
 10
46.43381575298701
 20
407.0047835001893
 30
0.0
 11
95.94241375298691
 21
407.4367835001893
 31
0.0
  0
LINE
  5
11EB
330
2
100
AcDbEntity
  8
0
100
AcDbLine
 10
45.56561575298712
 20
408.3163035001892
 30
0.0
 11
95.25741675298707
 21
407.8827045001893
 31
0.0
  0
LINE
  5
11EC
330
2
100
AcDbEntity
  8
0
100
AcDbLine
 10
95.94254501518969
 20
423.3779726570652
 30
0.0
 11
46.43381575298701
 21
423.8101638029311
 31
0.0
  0
LINE
  5
11ED
330
2
100
AcDbEntity
  8
0
100
AcDbLine
 10
96.93381575298701
 20
433.3507989507382
 30
0.0
 11
44.43381575298701
 21
432.8924952233735
 31
0.0
  0
LINE
  5
11EE
330
2
100
AcDbEntity
  8
0
100
AcDbLine
 10
96.93381575298701
 20
425.1355680496402
 30
0.0
 11
44.43381575298701
 21
425.593871777005
 31
0.0
  0
LINE
  5
11EF
330
2
100
AcDbEntity
  8
0
100
AcDbLine
 10
43.13383575298678
 20
433.9931835001892
 30
0.0
 11
43.13383575298678
 21
424.4931835001892
 31
0.0
  0
LINE
  5
11F0
330
2
100
AcDbEntity
  8
0
100
AcDbLine
 10
44.43381575298701
 20
423.7482791728321
 30
0.0
 11
44.43381575298701
 21
434.7431835001892
 31
0.0
  0
ARC
  5
11F1
330
2
100
AcDbEntity
  8
0
100
AcDbCircle
 10
46.43381575298701
 20
419.5339555001893
 30
0.0
 40
3.492887999999999
100
AcDbArc
 50
256.6994019999928
 51
270.0
  0
LINE
  5
11F2
330
2
100
AcDbEntity
  8
0
100
AcDbLine
 10
44.43381575298701
 20
415.2995795001892
 30
0.0
 11
44.43381575298701
 21
417.1825155001892
 31
0.0
  0
LINE
  5
11F3
330
2
100
AcDbEntity
  8
0
100
AcDbLine
 10
44.43381575298701
 20
406.6139035001892
 30
0.0
 11
44.43381575298701
 21
408.3263035001892
 31
0.0
  0
ARC
  5
11F4
330
2
100
AcDbEntity
  8
0
100
AcDbCircle
 10
45.32641475298681
 20
408.3263035001892
 30
0.0
 40
0.8926999999999999
100
AcDbArc
 50
180.0
 51
212.0805969999942
  0
ARC
  5
11F5
330
2
100
AcDbEntity
  8
0
100
AcDbCircle
 10
46.20541675298693
 20
407.4737835001892
 30
0.0
 40
2.150825999999999
100
AcDbArc
 50
236.5428999999958
 51
254.6921010000019
  0
ARC
  5
11F6
330
2
100
AcDbEntity
  8
0
100
AcDbCircle
 10
46.20541675298693
 20
409.1861845001892
 30
0.0
 40
2.150825999999999
100
AcDbArc
 50
236.5428999999958
 51
254.6921010000019
  0
ARC
  5
11F7
330
2
100
AcDbEntity
  8
0
100
AcDbCircle
 10
45.85681575298679
 20
406.9461825001893
 30
0.0
 40
1.518545999999999
100
AcDbArc
 50
212.0805969999942
 51
236.5428999999958
  0
ARC
  5
11F8
330
2
100
AcDbEntity
  8
0
100
AcDbCircle
 10
45.32641475298681
 20
406.6139035001892
 30
0.0
 40
0.8926999999999999
100
AcDbArc
 50
180.0
 51
212.0805969999942
  0
ARC
  5
11F9
330
2
100
AcDbEntity
  8
0
100
AcDbCircle
 10
45.85681575298679
 20
408.6587035001892
 30
0.0
 40
1.518545999999999
100
AcDbArc
 50
212.0805969999942
 51
236.5428999999958
  0
ARC
  5
11FA
330
2
100
AcDbEntity
  8
0
100
AcDbCircle
 10
46.43381575298701
 20
408.3083635001893
 30
0.0
 40
3.016093999999999
100
AcDbArc
 50
254.6921010000019
 51
270.0
  0
ARC
  5
11FB
330
2
100
AcDbEntity
  8
0
100
AcDbCircle
 10
46.43381575298701
 20
410.0207715001891
 30
0.0
 40
3.016093999999999
100
AcDbArc
 50
254.6921010000019
 51
270.0
  0
ARC
  5
11FC
330
2
100
AcDbEntity
  8
0
100
AcDbCircle
 10
46.15921675298716
 20
416.4891555001892
 30
0.0
 40
2.298955999999999
100
AcDbArc
 50
240.2855990000028
 51
256.6994019999928
  0
ARC
  5
11FD
330
2
100
AcDbEntity
  8
0
100
AcDbCircle
 10
45.11099475298681
 20
415.2995795001892
 30
0.0
 40
0.6772650000000001
100
AcDbArc
 50
180.0
 51
215.9710999999995
  0
ARC
  5
11FE
330
2
100
AcDbEntity
  8
0
100
AcDbCircle
 10
45.74121575298716
 20
415.7569775001892
 30
0.0
 40
1.455952
100
AcDbArc
 50
215.9710999999995
 51
240.2855990000028
  0
ARC
  5
11FF
330
2
100
AcDbEntity
  8
0
100
AcDbCircle
 10
46.43381575298701
 20
417.6509595001893
 30
0.0
 40
3.492887999999999
100
AcDbArc
 50
256.6994019999928
 51
270.0
  0
ARC
  5
1200
330
2
100
AcDbEntity
  8
0
100
AcDbCircle
 10
46.15921675298716
 20
418.3721515001892
 30
0.0
 40
2.298955999999999
100
AcDbArc
 50
240.2855990000028
 51
256.6994019999928
  0
ARC
  5
1201
330
2
100
AcDbEntity
  8
0
100
AcDbCircle
 10
45.74121575298716
 20
417.6399115001892
 30
0.0
 40
1.455952
100
AcDbArc
 50
215.9710999999995
 51
240.2855990000028
  0
ARC
  5
1202
330
2
100
AcDbEntity
  8
0
100
AcDbCircle
 10
45.11099475298681
 20
417.1825155001892
 30
0.0
 40
0.6772650000000001
100
AcDbArc
 50
180.0
 51
215.9710999999995
  0
LINE
  5
1203
330
2
100
AcDbEntity
  8
0
100
AcDbLine
 10
44.43381575298701
 20
424.4355655001892
 30
0.0
 11
44.43381575298701
 21
426.4051715001893
 31
0.0
  0
LINE
  5
1204
330
2
100
AcDbEntity
  8
0
100
AcDbLine
 10
43.13383575298678
 20
424.6431435001892
 30
0.0
 11
44.43381575298701
 21
424.6431435001892
 31
0.0
  0
LINE
  5
1205
330
2
100
AcDbEntity
  8
0
100
AcDbLine
 10
43.13383575298678
 20
424.4931835001892
 30
0.0
 11
41.52301475298702
 21
424.4931835001892
 31
0.0
  0
LINE
  5
1206
330
2
100
AcDbEntity
  8
0
100
AcDbLine
 10
43.13383575298678
 20
433.8429635001893
 30
0.0
 11
44.43381575298701
 21
433.8429635001893
 31
0.0
  0
LINE
  5
1207
330
2
100
AcDbEntity
  8
0
100
AcDbLine
 10
43.13383575298678
 20
433.9931835001892
 30
0.0
 11
41.52301475298702
 21
433.9931835001892
 31
0.0
  0
ARC
  5
1208
330
2
100
AcDbEntity
  8
0
100
AcDbCircle
 10
46.15921675298716
 20
440.1142155001893
 30
0.0
 40
2.298955999999999
100
AcDbArc
 50
103.3005980000071
 51
119.7144009999971
  0
ARC
  5
1209
330
2
100
AcDbEntity
  8
0
100
AcDbCircle
 10
46.15921675298716
 20
441.9972115001893
 30
0.0
 40
2.298955999999999
100
AcDbArc
 50
103.3005980000071
 51
119.7144009999971
  0
ARC
  5
120A
330
2
100
AcDbEntity
  8
0
100
AcDbCircle
 10
45.74121575298716
 20
442.7293895001893
 30
0.0
 40
1.455952
100
AcDbArc
 50
119.7144009999971
 51
144.0289000000004
  0
ARC
  5
120B
330
2
100
AcDbEntity
  8
0
100
AcDbCircle
 10
45.11099475298681
 20
443.1867875001893
 30
0.0
 40
0.6772650000000001
100
AcDbArc
 50
144.0289000000004
 51
180.0
  0
ARC
  5
120C
330
2
100
AcDbEntity
  8
0
100
AcDbCircle
 10
45.11099475298681
 20
441.3038515001893
 30
0.0
 40
0.6772650000000001
100
AcDbArc
 50
144.0289000000004
 51
180.0
  0
ARC
  5
120D
330
2
100
AcDbEntity
  8
0
100
AcDbCircle
 10
45.74121575298716
 20
440.8464555001893
 30
0.0
 40
1.455952
100
AcDbArc
 50
119.7144009999971
 51
144.0289000000004
  0
LINE
  5
120E
330
2
100
AcDbEntity
  8
0
100
AcDbLine
 10
44.43381575298701
 20
443.1867875001893
 30
0.0
 11
44.43381575298701
 21
441.3038515001893
 31
0.0
  0
ARC
  5
120F
330
2
100
AcDbEntity
  8
0
100
AcDbCircle
 10
46.43381575298701
 20
438.9524115001892
 30
0.0
 40
3.492887999999999
100
AcDbArc
 50
90.0
 51
103.3005980000071
  0
ARC
  5
1210
330
2
100
AcDbEntity
  8
0
100
AcDbCircle
 10
46.43381575298701
 20
440.8354075001892
 30
0.0
 40
3.492887999999999
100
AcDbArc
 50
90.0
 51
103.3005980000071
  0
ARC
  5
1211
330
2
100
AcDbEntity
  8
0
100
AcDbCircle
 10
46.20541675298693
 20
449.3001825001893
 30
0.0
 40
2.150825999999999
100
AcDbArc
 50
105.307898999998
 51
123.4570999999879
  0
ARC
  5
1212
330
2
100
AcDbEntity
  8
0
100
AcDbCircle
 10
46.20541675298693
 20
451.0125835001892
 30
0.0
 40
2.150825999999999
100
AcDbArc
 50
105.307898999998
 51
123.4570999999879
  0
LINE
  5
1213
330
2
100
AcDbEntity
  8
0
100
AcDbLine
 10
44.43381575298701
 20
451.8724635001892
 30
0.0
 11
44.43381575298701
 21
450.1600635001892
 31
0.0
  0
ARC
  5
1214
330
2
100
AcDbEntity
  8
0
100
AcDbCircle
 10
45.85681575298679
 20
449.8276635001892
 30
0.0
 40
1.518545999999999
100
AcDbArc
 50
123.4570999999879
 51
147.9194030000057
  0
ARC
  5
1215
330
2
100
AcDbEntity
  8
0
100
AcDbCircle
 10
45.32641475298681
 20
450.1600635001892
 30
0.0
 40
0.8926999999999999
100
AcDbArc
 50
147.9194030000057
 51
180.0
  0
ARC
  5
1216
330
2
100
AcDbEntity
  8
0
100
AcDbCircle
 10
45.85681575298679
 20
451.5401845001893
 30
0.0
 40
1.518545999999999
100
AcDbArc
 50
123.4570999999879
 51
147.9194030000057
  0
ARC
  5
1217
330
2
100
AcDbEntity
  8
0
100
AcDbCircle
 10
45.32641475298681
 20
451.8724635001892
 30
0.0
 40
0.8926999999999999
100
AcDbArc
 50
147.9194030000057
 51
180.0
  0
ARC
  5
1218
330
2
100
AcDbEntity
  8
0
100
AcDbCircle
 10
46.43381575298701
 20
448.4655955001893
 30
0.0
 40
3.016093999999999
100
AcDbArc
 50
90.0
 51
105.307898999998
  0
ARC
  5
1219
330
2
100
AcDbEntity
  8
0
100
AcDbCircle
 10
46.43381575298701
 20
450.1780035001892
 30
0.0
 40
3.016093999999999
100
AcDbArc
 50
90.0
 51
105.307898999998
  0
ARC
  5
121A
330
2
100
AcDbEntity
  8
0
100
AcDbCircle
 10
46.24961575298686
 20
459.2190235001893
 30
0.0
 40
2.072293999999999
100
AcDbArc
 50
106.9872969999928
 51
126.4093019999925
  0
ARC
  5
121B
330
2
100
AcDbEntity
  8
0
100
AcDbCircle
 10
46.24961575298686
 20
457.7560025001893
 30
0.0
 40
2.072293999999999
100
AcDbArc
 50
106.9872969999928
 51
126.4093019999925
  0
ARC
  5
121C
330
2
100
AcDbEntity
  8
0
100
AcDbCircle
 10
45.96759475298688
 20
459.6012235001893
 30
0.0
 40
1.597306999999999
100
AcDbArc
 50
126.4093019999925
 51
150.6799009999927
  0
ARC
  5
121D
330
2
100
AcDbEntity
  8
0
100
AcDbCircle
 10
45.53579575298693
 20
459.8438225001892
 30
0.0
 40
1.102084999999999
100
AcDbArc
 50
150.6799009999927
 51
180.0
  0
ARC
  5
121E
330
2
100
AcDbEntity
  8
0
100
AcDbCircle
 10
45.96759475298688
 20
458.1384435001893
 30
0.0
 40
1.597306999999999
100
AcDbArc
 50
126.4093019999925
 51
150.6799009999927
  0
LINE
  5
121F
330
2
100
AcDbEntity
  8
0
100
AcDbLine
 10
44.43381575298701
 20
459.8438225001892
 30
0.0
 11
44.43381575298701
 21
458.3808235001892
 31
0.0
  0
ARC
  5
1220
330
2
100
AcDbEntity
  8
0
100
AcDbCircle
 10
45.53579575298693
 20
458.3808235001892
 30
0.0
 40
1.102084999999999
100
AcDbArc
 50
150.6799009999927
 51
180.0
  0
ARC
  5
1221
330
2
100
AcDbEntity
  8
0
100
AcDbCircle
 10
46.43381575298701
 20
457.1529835001893
 30
0.0
 40
2.702782
100
AcDbArc
 50
90.0
 51
106.9872969999928
  0
ARC
  5
1222
330
2
100
AcDbEntity
  8
0
100
AcDbCircle
 10
46.43381575298701
 20
458.6159845001892
 30
0.0
 40
2.702782
100
AcDbArc
 50
90.0
 51
106.9872969999928
  0
ARC
  5
1223
330
2
100
AcDbEntity
  8
0
100
AcDbCircle
 10
95.93381575298701
 20
408.4367835001893
 30
0.0
 40
1.0
100
AcDbArc
 50
270.4999999999915
 51
0.0
  0
ARC
  5
1224
330
2
100
AcDbEntity
  8
0
100
AcDbCircle
 10
95.93381575298701
 20
403.8601235001892
 30
0.0
 40
1.0
100
AcDbArc
 50
0.0
 51
89.49999999999542
  0
ARC
  5
1225
330
2
100
AcDbEntity
  8
0
100
AcDbCircle
 10
95.93381575298701
 20
412.7261545001893
 30
0.0
 40
1.0
100
AcDbArc
 50
0.0
 51
89.49999999999542
  0
ARC
  5
1226
330
2
100
AcDbEntity
  8
0
100
AcDbCircle
 10
95.93381575298701
 20
417.4731635001893
 30
0.0
 40
1.0
100
AcDbArc
 50
270.4999999999915
 51
0.0
  0
ARC
  5
1227
330
2
100
AcDbEntity
  8
0
100
AcDbCircle
 10
95.93381575298701
 20
445.7602125001892
 30
0.0
 40
1.0
100
AcDbArc
 50
270.4999999999915
 51
0.0
  0
ARC
  5
1228
330
2
100
AcDbEntity
  8
0
100
AcDbCircle
 10
95.93381575298701
 20
441.0132035001891
 30
0.0
 40
1.0
100
AcDbArc
 50
0.0
 51
89.49999999999542
  0
ARC
  5
1229
330
2
100
AcDbEntity
  8
0
100
AcDbCircle
 10
95.93381575298701
 20
450.0495835001892
 30
0.0
 40
1.0
100
AcDbArc
 50
0.0
 51
89.49999999999542
  0
ARC
  5
122A
330
2
100
AcDbEntity
  8
0
100
AcDbCircle
 10
95.93381575298701
 20
454.6262435001892
 30
0.0
 40
1.0
100
AcDbArc
 50
270.4999999999915
 51
0.0
  0
ARC
  5
122B
330
2
100
AcDbEntity
  8
0
100
AcDbCircle
 10
95.93381575298701
 20
458.4238435001892
 30
0.0
 40
1.0
100
AcDbArc
 50
0.0
 51
89.49999999999542
  0
ARC
  5
122C
330
2
100
AcDbEntity
  8
0
100
AcDbCircle
 10
95.93381575298701
 20
462.7508055001892
 30
0.0
 40
1.0
100
AcDbArc
 50
270.4999999999915
 51
0.0
  0
ARC
  5
122D
330
2
100
AcDbEntity
  8
0
100
AcDbCircle
 10
41.43381575298701
 20
480.1229445001894
 30
0.0
 40
2.0
100
AcDbArc
 50
90.0
 51
180.0
  0
LINE
  5
122E
330
2
100
AcDbEntity
  8
0
100
AcDbLine
 10
39.43381575298701
 20
470.7431835001893
 30
0.0
 11
38.93381575298701
 21
470.4098015001892
 31
0.0
  0
LINE
  5
122F
330
2
100
AcDbEntity
  8
0
100
AcDbLine
 10
39.43402875298705
 20
470.7433625001893
 30
0.0
 11
37.93402875298705
 21
469.7433625001893
 31
0.0
  0
LINE
  5
1231
330
2
100
AcDbEntity
  8
0
100
AcDbLine
 10
46.45121675298708
 20
482.0980415001892
 30
0.0
 11
96.93381575298701
 21
481.6576045001892
 31
0.0
  0
LINE
  5
1232
330
2
100
AcDbEntity
  8
0
100
AcDbLine
 10
96.93381575298701
 20
483.3503655001892
 30
0.0
 11
46.41641475298695
 21
482.9095655001892
 31
0.0
  0
LINE
  5
1233
330
2
100
AcDbEntity
  8
0
100
AcDbLine
 10
96.43803475298694
 20
480.0301635001892
 30
0.0
 11
46.43381575298701
 21
479.5940255001893
 31
0.0
  0
LINE
  5
1234
330
2
100
AcDbEntity
  8
0
100
AcDbLine
 10
45.56561575298712
 20
480.1080445001892
 30
0.0
 11
95.25741675298707
 21
480.5416415001892
 31
0.0
  0
LINE
  5
1235
330
2
100
AcDbEntity
  8
0
100
AcDbLine
 10
46.43385475298702
 20
467.3131645001892
 30
0.0
 11
95.9425977529869
 21
466.8810615001892
 31
0.0
  0
LINE
  5
1236
330
2
100
AcDbEntity
  8
0
100
AcDbLine
 10
95.9425977529869
 20
468.9118845001893
 30
0.0
 11
46.43385475298702
 21
468.4798815001893
 31
0.0
  0
LINE
  5
1237
330
2
100
AcDbEntity
  8
0
100
AcDbLine
 10
45.56573475298693
 20
465.7260825001893
 30
0.0
 11
95.25759975298695
 21
466.1596645001892
 31
0.0
  0
LINE
  5
1238
330
2
100
AcDbEntity
  8
0
100
AcDbLine
 10
96.933819752987
 20
485.0224845001893
 30
0.0
 11
46.416394752987
 21
484.5815855001894
 31
0.0
  0
LINE
  5
1239
330
2
100
AcDbEntity
  8
0
100
AcDbLine
 10
46.43385475298702
 20
473.6271825001893
 30
0.0
 11
95.9425977529869
 21
473.1950645001892
 31
0.0
  0
LINE
  5
123A
330
2
100
AcDbEntity
  8
0
100
AcDbLine
 10
95.9425977529869
 20
475.1666645001892
 30
0.0
 11
46.43385475298702
 21
474.7346845001892
 31
0.0
  0
LINE
  5
123B
330
2
100
AcDbEntity
  8
0
100
AcDbLine
 10
46.43385475298702
 20
478.6059655001894
 30
0.0
 11
96.43819875298698
 21
478.1695825001892
 31
0.0
  0
LINE
  5
123C
330
2
100
AcDbEntity
  8
0
100
AcDbLine
 10
45.56573475298693
 20
476.8828855001892
 30
0.0
 11
95.25759975298695
 21
477.3165825001891
 31
0.0
  0
LINE
  5
123D
330
2
100
AcDbEntity
  8
0
100
AcDbLine
 10
45.56573475298693
 20
471.9531825001894
 30
0.0
 11
95.25759975298695
 21
472.3868645001893
 31
0.0
  0
LINE
  5
123E
330
2
100
AcDbEntity
  8
0
100
AcDbLine
 10
44.43385475298703
 20
476.8764559676649
 30
0.0
 11
44.43385475298703
 21
482.5816845001894
 31
0.0
  0
ARC
  5
123F
330
2
100
AcDbEntity
  8
0
100
AcDbCircle
 10
46.28793475298709
 20
466.4236835001893
 30
0.0
 40
2.032614
100
AcDbArc
 50
108.3016969999937
 51
128.6076049999989
  0
ARC
  5
1240
330
2
100
AcDbEntity
  8
0
100
AcDbCircle
 10
46.28793475298709
 20
465.2570845001893
 30
0.0
 40
2.032614
100
AcDbArc
 50
108.3016969999937
 51
128.6076049999989
  0
LINE
  5
1241
330
2
100
AcDbEntity
  8
0
100
AcDbLine
 10
44.43385475298703
 20
466.8827825001893
 30
0.0
 11
44.43385475298703
 21
465.7161635001893
 31
0.0
  0
ARC
  5
1242
330
2
100
AcDbEntity
  8
0
100
AcDbCircle
 10
45.71951675298703
 20
466.8827825001893
 30
0.0
 40
1.285679
100
AcDbArc
 50
152.5825959999971
 51
180.0
  0
ARC
  5
1243
330
2
100
AcDbEntity
  8
0
100
AcDbCircle
 10
45.71951675298703
 20
465.7161635001893
 30
0.0
 40
1.285679
100
AcDbArc
 50
152.5825959999971
 51
180.0
  0
ARC
  5
1244
330
2
100
AcDbEntity
  8
0
100
AcDbCircle
 10
46.06405675298709
 20
465.5373655001893
 30
0.0
 40
1.673817999999999
100
AcDbArc
 50
128.6076049999989
 51
152.5825959999971
  0
ARC
  5
1245
330
2
100
AcDbEntity
  8
0
100
AcDbCircle
 10
46.06405675298709
 20
466.7040825001893
 30
0.0
 40
1.673817999999999
100
AcDbArc
 50
128.6076049999989
 51
152.5825959999971
  0
ARC
  5
1246
330
2
100
AcDbEntity
  8
0
100
AcDbCircle
 10
46.43385475298702
 20
465.9825825001893
 30
0.0
 40
2.497222
100
AcDbArc
 50
90.0
 51
108.3016969999937
  0
ARC
  5
1247
330
2
100
AcDbEntity
  8
0
100
AcDbCircle
 10
46.43385475298702
 20
464.8159835001893
 30
0.0
 40
2.497222
100
AcDbArc
 50
90.0
 51
108.3016969999937
  0
ARC
  5
1248
330
2
100
AcDbEntity
  8
0
100
AcDbCircle
 10
46.3338157529871
 20
477.5694855001892
 30
0.0
 40
2.006931999999999
100
AcDbArc
 50
109.7432020000003
 51
130.9078980000093
  0
ARC
  5
1249
330
2
100
AcDbEntity
  8
0
100
AcDbCircle
 10
46.31689475298697
 20
472.7006645001892
 30
0.0
 40
2.014202
100
AcDbArc
 50
109.2256930000027
 51
130.0950930000028
  0
ARC
  5
124A
330
2
100
AcDbEntity
  8
0
100
AcDbCircle
 10
46.31689475298697
 20
471.5931815001893
 30
0.0
 40
2.014202
100
AcDbArc
 50
109.2256930000027
 51
130.0950930000028
  0
ARC
  5
124B
330
2
100
AcDbEntity
  8
0
100
AcDbCircle
 10
46.33385475298712
 20
476.5815855001894
 30
0.0
 40
2.006931999999999
100
AcDbArc
 50
109.7431949999974
 51
130.9078980000093
  0
LINE
  5
124C
330
2
100
AcDbEntity
  8
0
100
AcDbLine
 10
44.43381575298701
 20
477.8608635001893
 30
0.0
 11
44.43381575298701
 21
476.8730625001893
 31
0.0
  0
ARC
  5
124D
330
2
100
AcDbEntity
  8
0
100
AcDbCircle
 10
45.94181475298694
 20
477.8608635001893
 30
0.0
 40
1.508124
100
AcDbArc
 50
154.4499970000047
 51
180.0
  0
ARC
  5
124E
330
2
100
AcDbEntity
  8
0
100
AcDbCircle
 10
46.17981575298711
 20
477.7472045001892
 30
0.0
 40
1.771906
100
AcDbArc
 50
130.9078980000093
 51
154.4499970000047
  0
ARC
  5
124F
330
2
100
AcDbEntity
  8
0
100
AcDbCircle
 10
45.85947475298701
 20
473.0507815001891
 30
0.0
 40
1.425637
100
AcDbArc
 50
153.8036960000015
 51
180.0
  0
ARC
  5
1250
330
2
100
AcDbEntity
  8
0
100
AcDbCircle
 10
46.1370747529869
 20
472.9142845001891
 30
0.0
 40
1.735008
100
AcDbArc
 50
130.0950930000028
 51
153.8036960000015
  0
ARC
  5
1251
330
2
100
AcDbEntity
  8
0
100
AcDbCircle
 10
46.1370747529869
 20
471.8066825001893
 30
0.0
 40
1.735008
100
AcDbArc
 50
130.0950930000028
 51
153.8036960000015
  0
ARC
  5
1252
330
2
100
AcDbEntity
  8
0
100
AcDbCircle
 10
45.94197475298699
 20
476.8729825001893
 30
0.0
 40
1.508124
100
AcDbArc
 50
154.4499970000017
 51
180.0
  0
ARC
  5
1253
330
2
100
AcDbEntity
  8
0
100
AcDbCircle
 10
46.1799547529871
 20
476.7592855001892
 30
0.0
 40
1.771906
100
AcDbArc
 50
130.9078980000093
 51
154.4499970000017
  0
ARC
  5
1254
330
2
100
AcDbEntity
  8
0
100
AcDbCircle
 10
45.85947475298701
 20
471.9432645001892
 30
0.0
 40
1.425637
100
AcDbArc
 50
153.8036960000015
 51
180.0
  0
LINE
  5
1255
330
2
100
AcDbEntity
  8
0
100
AcDbLine
 10
44.43385475298703
 20
473.0507815001891
 30
0.0
 11
44.43385475298703
 21
471.9432645001892
 31
0.0
  0
ARC
  5
1256
330
2
100
AcDbEntity
  8
0
100
AcDbCircle
 10
46.43385475298702
 20
472.3652845001891
 30
0.0
 40
2.369364
100
AcDbArc
 50
90.0
 51
109.2256930000027
  0
ARC
  5
1257
330
2
100
AcDbEntity
  8
0
100
AcDbCircle
 10
46.43385475298702
 20
471.2577825001893
 30
0.0
 40
2.369364
100
AcDbArc
 50
90.0
 51
109.2256930000027
  0
ARC
  5
1258
330
2
100
AcDbEntity
  8
0
100
AcDbCircle
 10
46.43385475298702
 20
476.3030815001892
 30
0.0
 40
2.302912
100
AcDbArc
 50
90.0
 51
109.7431949999974
  0
ARC
  5
1259
330
2
100
AcDbEntity
  8
0
100
AcDbCircle
 10
46.43381575298701
 20
477.2910425001892
 30
0.0
 40
2.302912
100
AcDbArc
 50
90.0
 51
109.7432020000003
  0
ARC
  5
125A
330
2
100
AcDbEntity
  8
0
100
AcDbCircle
 10
46.43381575298701
 20
480.9098015001892
 30
0.0
 40
2.0
100
AcDbArc
 50
90.49999999999155
 51
180.0
  0
ARC
  5
125B
330
2
100
AcDbEntity
  8
0
100
AcDbCircle
 10
46.43381575298701
 20
480.0981635001893
 30
0.0
 40
2.0
100
AcDbArc
 50
89.49999999999542
 51
180.0
  0
ARC
  5
125C
330
2
100
AcDbEntity
  8
0
100
AcDbCircle
 10
46.43385475298702
 20
482.5816845001894
 30
0.0
 40
2.0
100
AcDbArc
 50
90.50000000000457
 51
180.0
  0
LINE
  5
125D
330
2
100
AcDbEntity
  8
0
100
AcDbLine
 10
44.43381575298701
 20
480.9098015001892
 30
0.0
 11
44.43381575298701
 21
480.0981635001893
 31
0.0
  0
LINE
  5
125E
330
2
100
AcDbEntity
  8
0
100
AcDbLine
 10
44.43385475298703
 20
480.9097825001893
 30
0.0
 11
44.43385475298703
 21
480.0981835001892
 31
0.0
  0
LINE
  5
125F
330
2
100
AcDbEntity
  8
0
100
AcDbLine
 10
41.43381575298701
 20
482.1229445001894
 30
0.0
 11
42.57423675298707
 21
482.1229445001894
 31
0.0
  0
LINE
  5
1260
330
2
100
AcDbEntity
  8
0
100
AcDbLine
 10
41.43381575298701
 20
482.1229445001894
 30
0.0
 11
44.43381575298701
 21
482.1229445001894
 31
0.0
  0
LINE
  5
1261
330
2
100
AcDbEntity
  8
0
100
AcDbLine
 10
106.933815752987
 20
486.4931835001892
 30
0.0
 11
97.92529775298692
 21
486.4164855001894
 31
0.0
  0
ARC
  5
1262
330
2
100
AcDbEntity
  8
0
100
AcDbCircle
 10
95.93381975298701
 20
469.9118845001893
 30
0.0
 40
1.0
100
AcDbArc
 50
270.5000000000045
 51
0.0
  0
ARC
  5
1263
330
2
100
AcDbEntity
  8
0
100
AcDbCircle
 10
95.93381975298701
 20
465.8811835001893
 30
0.0
 40
1.0
100
AcDbArc
 50
0.0
 51
89.49999999999542
  0
ARC
  5
1264
330
2
100
AcDbEntity
  8
0
100
AcDbCircle
 10
95.93381975298701
 20
476.1666645001893
 30
0.0
 40
1.0
100
AcDbArc
 50
270.5000000000045
 51
0.0
  0
ARC
  5
1265
330
2
100
AcDbEntity
  8
0
100
AcDbCircle
 10
95.93381975298701
 20
472.1951835001893
 30
0.0
 40
1.0
100
AcDbArc
 50
0.0
 51
89.49999999999542
  0
ARC
  5
1266
330
2
100
AcDbEntity
  8
0
100
AcDbCircle
 10
96.43381975298702
 20
477.6695825001892
 30
0.0
 40
0.5
100
AcDbArc
 50
0.0
 51
89.49999999999542
  0
ARC
  5
1267
330
2
100
AcDbEntity
  8
0
100
AcDbCircle
 10
96.43381575298702
 20
480.5301635001892
 30
0.0
 40
0.5
100
AcDbArc
 50
270.4999999999915
 51
0.0
  0
ARC
  5
1268
330
2
100
AcDbEntity
  8
0
100
AcDbCircle
 10
97.933819752987
 20
485.4165845001893
 30
0.0
 40
1.0
100
AcDbArc
 50
90.48779300000241
 51
180.0
  0
ENDSEC
  0
SECTION
  2
OBJECTS
  0
DICTIONARY
  5
7
330
0
100
AcDbDictionary
  3
ACAD_GROUP
350
75
  3
ACAD_LAYOUT
350
61
  3
ACAD_MLINESTYLE
350
76
  3
ACAD_PLOTSETTINGS
350
77
  3
ACAD_PLOTSTYLENAME
350
6
  3
ACADDIM
350
480
  3
ACDBHEADERROUNDTRIPXREC
350
1CC4
  3
ACDBVARIABLEDICTIONARY
350
102
  3
DWGPROPS
350
3D2
  0
DICTIONARY
  5
1CE5
330
2
100
AcDbDictionary
280
     1
  3
ACAD_LAYOUTSELFREF
360
1CE6
  0
DICTIONARY
  5
1CE7
330
1CBE
100
AcDbDictionary
280
     1
  3
ACAD_LAYOUTSELFREF
360
1CE8
  0
DICTIONARY
  5
75
102
{ACAD_REACTORS
330
7
102
}
330
7
100
AcDbDictionary
  0
DICTIONARY
  5
61
102
{ACAD_REACTORS
330
7
102
}
330
7
100
AcDbDictionary
  0
DICTIONARY
  5
76
102
{ACAD_REACTORS
330
7
102
}
330
7
100
AcDbDictionary
  3
STANDARD
350
78
  0
DICTIONARY
  5
77
102
{ACAD_REACTORS
330
7
102
}
330
7
100
AcDbDictionary
  0
ACDBDICTIONARYWDFLT
  5
6
102
{ACAD_REACTORS
330
7
102
}
330
7
100
AcDbDictionary
281
     1
  3
Normal
350
5
100
AcDbDictionaryWithDefault
340
5
  0
XRECORD
  5
480
102
{ACAD_REACTORS
330
7
102
}
330
7
100
AcDbXrecord
 90
   990106
  3

 60
     0
 61
     0
 62
     1
 63
     3
 64
     1
 65
     0
 66
     0
 67
     3
 68
     1
 69
     0
 70
     0
 71
     0
 72
     0
 40
0.0
170
     2
340
0
  0
DICTIONARY
  5
1CC4
102
{ACAD_REACTORS
330
7
102
}
330
7
100
AcDbDictionary
  3
CEPSNTYPE
350
1CCE
  3
DIMSTYLEDATA
350
1CD2
  3
FINGERPRINTGUID
350
1CCF
  3
HYPERLINKBASE
350
1CC7
  3
INSUNITS
350
1CCD
  3
LAYOUTDICT
350
1CC9
  3
LWETCUNION
350
1CCC
  3
PLOTSETDICT
350
1CCA
  3
PLOTSTYLNAMDICT
350
1CCB
  3
PSVPSCALE
350
1CD1
  3
PUCSBASE
350
1CD5
  3
PUCSORGBACK
350
1CDB
  3
PUCSORGBOTTOM
350
1CD7
  3
PUCSORGFRONT
350
1CDA
  3
PUCSORGLEFT
350
1CD8
  3
PUCSORGRIGHT
350
1CD9
  3
PUCSORGTOP
350
1CD6
  3
PUCSORTHOREF
350
1CD3
  3
PUCSORTHOVIEW
350
1CD4
  3
STYLESHEET
350
1CC8
  3
TSTACKALIGN
350
1CC5
  3
TSTACKSIZE
350
1CC6
  3
UCSBASE
350
1CDE
  3
UCSORGBACK
350
1CE4
  3
UCSORGBOTTOM
350
1CE0
  3
UCSORGFRONT
350
1CE3
  3
UCSORGLEFT
350
1CE1
  3
UCSORGRIGHT
350
1CE2
  3
UCSORGTOP
350
1CDF
  3
UCSORTHOREF
350
1CDC
  3
UCSORTHOVIEW
350
1CDD
  3
VERSIONGUID
350
1CD0
  0
DICTIONARY
  5
102
102
{ACAD_REACTORS
330
7
102
}
330
7
100
AcDbDictionary
  3
DIMASSOC
350
103
  0
XRECORD
  5
3D2
102
{ACAD_REACTORS
330
7
102
}
330
7
100
AcDbXrecord
  1
DWGPROPS COOKIE
  2

  3

  4

  6

  7

  8

  9

300
=
301
=
302
=
303
=
304
=
305
=
306
=
307
=
308
=
309
=
 40
0.5353330671296296
 41
2452052.431989363
 42
2453406.550756377
  1

 90
        0
  0
XRECORD
  5
1CE6
102
{ACAD_REACTORS
330
1CE5
102
}
330
1CE5
100
AcDbXrecord
340
2
  0
XRECORD
  5
1CE8
102
{ACAD_REACTORS
330
1CE7
102
}
330
1CE7
100
AcDbXrecord
340
1CBE
  0
MLINESTYLE
  5
78
102
{ACAD_REACTORS
330
76
102
}
330
76
100
AcDbMlineStyle
  2
STANDARD
 70
     0
  3

 62
     0
 51
90.0
 52
90.0
 71
     2
 49
0.5
 62
   256
  6
BYLAYER
 49
-0.5
 62
   256
  6
BYLAYER
  0
ACDBPLACEHOLDER
  5
5
102
{ACAD_REACTORS
330
6
102
}
330
6
100
AcDbPlaceHolder
280
     0
  0
XRECORD
  5
1CCE
102
{ACAD_REACTORS
330
1CC4
102
}
330
1CC4
100
AcDbXrecord
 90
        0
  0
XRECORD
  5
1CD2
102
{ACAD_REACTORS
330
1CC4
102
}
330
1CC4
100
AcDbXrecord
1000
DSTYLE
1002
{
1070
   179
 70
     2
1070
   277
 70
     6
1002
}
  0
XRECORD
  5
1CCF
102
{ACAD_REACTORS
330
1CC4
102
}
330
1CC4
100
AcDbXrecord
  1
{6385560B-F4B1-4644-A7C2-A3E32AC3D232}
  0
XRECORD
  5
1CC7
102
{ACAD_REACTORS
330
1CC4
102
}
330
1CC4
100
AcDbXrecord
  1

  0
XRECORD
  5
1CCD
102
{ACAD_REACTORS
330
1CC4
102
}
330
1CC4
100
AcDbXrecord
 90
        0
  0
XRECORD
  5
1CC9
102
{ACAD_REACTORS
330
1CC4
102
}
330
1CC4
100
AcDbXrecord
340
61
  0
XRECORD
  5
1CCC
102
{ACAD_REACTORS
330
1CC4
102
}
330
1CC4
100
AcDbXrecord
 90
    10781
  0
XRECORD
  5
1CCA
102
{ACAD_REACTORS
330
1CC4
102
}
330
1CC4
100
AcDbXrecord
340
77
  0
XRECORD
  5
1CCB
102
{ACAD_REACTORS
330
1CC4
102
}
330
1CC4
100
AcDbXrecord
340
6
  0
XRECORD
  5
1CD1
102
{ACAD_REACTORS
330
1CC4
102
}
330
1CC4
100
AcDbXrecord
 40
0.0
  0
XRECORD
  5
1CD5
102
{ACAD_REACTORS
330
1CC4
102
}
330
1CC4
100
AcDbXrecord
340
0
  0
XRECORD
  5
1CDB
102
{ACAD_REACTORS
330
1CC4
102
}
330
1CC4
100
AcDbXrecord
 10
0.0
 20
0.0
 30
0.0
  0
XRECORD
  5
1CD7
102
{ACAD_REACTORS
330
1CC4
102
}
330
1CC4
100
AcDbXrecord
 10
0.0
 20
0.0
 30
0.0
  0
XRECORD
  5
1CDA
102
{ACAD_REACTORS
330
1CC4
102
}
330
1CC4
100
AcDbXrecord
 10
0.0
 20
0.0
 30
0.0
  0
XRECORD
  5
1CD8
102
{ACAD_REACTORS
330
1CC4
102
}
330
1CC4
100
AcDbXrecord
 10
0.0
 20
0.0
 30
0.0
  0
XRECORD
  5
1CD9
102
{ACAD_REACTORS
330
1CC4
102
}
330
1CC4
100
AcDbXrecord
 10
0.0
 20
0.0
 30
0.0
  0
XRECORD
  5
1CD6
102
{ACAD_REACTORS
330
1CC4
102
}
330
1CC4
100
AcDbXrecord
 10
0.0
 20
0.0
 30
0.0
  0
XRECORD
  5
1CD3
102
{ACAD_REACTORS
330
1CC4
102
}
330
1CC4
100
AcDbXrecord
340
0
  0
XRECORD
  5
1CD4
102
{ACAD_REACTORS
330
1CC4
102
}
330
1CC4
100
AcDbXrecord
 70
     0
  0
XRECORD
  5
1CC8
102
{ACAD_REACTORS
330
1CC4
102
}
330
1CC4
100
AcDbXrecord
  1
Sekkei.ctb
  0
XRECORD
  5
1CC5
102
{ACAD_REACTORS
330
1CC4
102
}
330
1CC4
100
AcDbXrecord
 90
        1
  0
XRECORD
  5
1CC6
102
{ACAD_REACTORS
330
1CC4
102
}
330
1CC4
100
AcDbXrecord
 90
       70
  0
XRECORD
  5
1CDE
102
{ACAD_REACTORS
330
1CC4
102
}
330
1CC4
100
AcDbXrecord
340
0
  0
XRECORD
  5
1CE4
102
{ACAD_REACTORS
330
1CC4
102
}
330
1CC4
100
AcDbXrecord
 10
0.0
 20
0.0
 30
0.0
  0
XRECORD
  5
1CE0
102
{ACAD_REACTORS
330
1CC4
102
}
330
1CC4
100
AcDbXrecord
 10
0.0
 20
0.0
 30
0.0
  0
XRECORD
  5
1CE3
102
{ACAD_REACTORS
330
1CC4
102
}
330
1CC4
100
AcDbXrecord
 10
0.0
 20
0.0
 30
0.0
  0
XRECORD
  5
1CE1
102
{ACAD_REACTORS
330
1CC4
102
}
330
1CC4
100
AcDbXrecord
 10
0.0
 20
0.0
 30
0.0
  0
XRECORD
  5
1CE2
102
{ACAD_REACTORS
330
1CC4
102
}
330
1CC4
100
AcDbXrecord
 10
0.0
 20
0.0
 30
0.0
  0
XRECORD
  5
1CDF
102
{ACAD_REACTORS
330
1CC4
102
}
330
1CC4
100
AcDbXrecord
 10
0.0
 20
0.0
 30
0.0
  0
XRECORD
  5
1CDC
102
{ACAD_REACTORS
330
1CC4
102
}
330
1CC4
100
AcDbXrecord
340
0
  0
XRECORD
  5
1CDD
102
{ACAD_REACTORS
330
1CC4
102
}
330
1CC4
100
AcDbXrecord
 70
     0
  0
XRECORD
  5
1CD0
102
{ACAD_REACTORS
330
1CC4
102
}
330
1CC4
100
AcDbXrecord
  1
{ACF16705-9ABC-4E1C-813E-A452733FEEA6}
  0
DICTIONARYVAR
  5
103
102
{ACAD_REACTORS
330
102
102
}
330
102
100
DictionaryVariables
280
     0
  1
1
  0
ENDSEC
  0
EOF
