  0
SECTION
  2
HEADER
  9
$ACADVER
  1
AC1014
  9
$ACADMAINTVER
 70
     9
  9
$DWGCODEPAGE
  3
ANSI_932
  9
$INSBASE
 10
0.0
 20
0.0
 30
0.0
  9
$EXTMIN
 10
29.96390749623106
 20
24.35386232845599
 30
0.0
  9
$EXTMAX
 10
498.6683605199632
 20
512.6229579464481
 30
0.0
  9
$LIMMIN
 10
0.0
 20
0.0
  9
$LIMMAX
 10
297.0
 20
210.0
  9
$ORTHOMODE
 70
     0
  9
$REGENMODE
 70
     1
  9
$FILLMODE
 70
     1
  9
$QTEXTMODE
 70
     0
  9
$MIRRTEXT
 70
     0
  9
$DRAGMODE
 70
     2
  9
$LTSCALE
 40
3.0
  9
$OSMODE
 70
    37
  9
$ATTMODE
 70
     1
  9
$TEXTSIZE
 40
9.0
  9
$TRACEWID
 40
1.0
  9
$TEXTSTYLE
  7
STANDARD
  9
$CLAYER
  8
0
  9
$CELTYPE
  6
BYLAYER
  9
$CECOLOR
 62
   256
  9
$CELTSCALE
 40
1.0
  9
$DELOBJ
 70
     1
  9
$DISPSILH
 70
     0
  9
$DIMSCALE
 40
3.0
  9
$DIMASZ
 40
1.8
  9
$DIMEXO
 40
0.625
  9
$DIMDLI
 40
3.75
  9
$DIMRND
 40
0.0
  9
$DIMDLE
 40
0.0
  9
$DIMEXE
 40
0.8
  9
$DIMTP
 40
0.0
  9
$DIMTM
 40
0.0
  9
$DIMTXT
 40
1.8
  9
$DIMCEN
 40
2.5
  9
$DIMTSZ
 40
0.0
  9
$DIMTOL
 70
     0
  9
$DIMLIM
 70
     0
  9
$DIMTIH
 70
     0
  9
$DIMTOH
 70
     0
  9
$DIMSE1
 70
     0
  9
$DIMSE2
 70
     0
  9
$DIMTAD
 70
     1
  9
$DIMZIN
 70
     8
  9
$DIMBLK
  1

  9
$DIMASO
 70
     1
  9
$DIMSHO
 70
     1
  9
$DIMPOST
  1

  9
$DIMAPOST
  1

  9
$DIMALT
 70
     0
  9
$DIMALTD
 70
     4
  9
$DIMALTF
 40
0.0394
  9
$DIMLFAC
 40
1.0
  9
$DIMTOFL
 70
     1
  9
$DIMTVP
 40
0.0
  9
$DIMTIX
 70
     0
  9
$DIMSOXD
 70
     0
  9
$DIMSAH
 70
     0
  9
$DIMBLK1
  1

  9
$DIMBLK2
  1

  9
$DIMSTYLE
  2
STANDARD
  9
$DIMCLRD
 70
     0
  9
$DIMCLRE
 70
     0
  9
$DIMCLRT
 70
     0
  9
$DIMTFAC
 40
1.0
  9
$DIMGAP
 40
0.75
  9
$DIMJUST
 70
     0
  9
$DIMSD1
 70
     0
  9
$DIMSD2
 70
     0
  9
$DIMTOLJ
 70
     1
  9
$DIMTZIN
 70
     0
  9
$DIMALTZ
 70
     0
  9
$DIMALTTZ
 70
     0
  9
$DIMFIT
 70
     3
  9
$DIMUPT
 70
     0
  9
$DIMUNIT
 70
     8
  9
$DIMDEC
 70
     2
  9
$DIMTDEC
 70
     2
  9
$DIMALTU
 70
     8
  9
$DIMALTTD
 70
     4
  9
$DIMTXSTY
  7
STANDARD
  9
$DIMAUNIT
 70
     0
  9
$LUNITS
 70
     2
  9
$LUPREC
 70
     3
  9
$SKETCHINC
 40
1.0
  9
$FILLETRAD
 40
10.0
  9
$AUNITS
 70
     0
  9
$AUPREC
 70
     2
  9
$MENU
  1
.
  9
$ELEVATION
 40
0.0
  9
$PELEVATION
 40
0.0
  9
$THICKNESS
 40
0.0
  9
$LIMCHECK
 70
     0
  9
$BLIPMODE
 70
     0
  9
$CHAMFERA
 40
0.0
  9
$CHAMFERB
 40
0.0
  9
$CHAMFERC
 40
20.0
  9
$CHAMFERD
 40
0.0
  9
$SKPOLY
 70
     0
  9
$TDCREATE
 40
2453692.589827835
  9
$TDUPDATE
 40
2454474.449486932
  9
$TDINDWG
 40
0.0656510532
  9
$TDUSRTIMER
 40
0.0656510532
  9
$USRTIMER
 70
     1
  9
$ANGBASE
 50
0.0
  9
$ANGDIR
 70
     0
  9
$PDMODE
 70
     0
  9
$PDSIZE
 40
-10.0
  9
$PLINEWID
 40
0.0
  9
$COORDS
 70
     0
  9
$SPLFRAME
 70
     0
  9
$SPLINETYPE
 70
     6
  9
$SPLINESEGS
 70
     8
  9
$ATTDIA
 70
     0
  9
$ATTREQ
 70
     1
  9
$HANDLING
 70
-16383
  9
$HANDSEED
  5
2B99
  9
$SURFTAB1
 70
     6
  9
$SURFTAB2
 70
     6
  9
$SURFTYPE
 70
     6
  9
$SURFU
 70
     6
  9
$SURFV
 70
     6
  9
$UCSNAME
  2

  9
$UCSORG
 10
0.0
 20
0.0
 30
0.0
  9
$UCSXDIR
 10
1.0
 20
0.0
 30
0.0
  9
$UCSYDIR
 10
0.0
 20
1.0
 30
0.0
  9
$PUCSNAME
  2

  9
$PUCSORG
 10
0.0
 20
0.0
 30
0.0
  9
$PUCSXDIR
 10
1.0
 20
0.0
 30
0.0
  9
$PUCSYDIR
 10
0.0
 20
1.0
 30
0.0
  9
$USERI1
 70
     0
  9
$USERI2
 70
     0
  9
$USERI3
 70
     0
  9
$USERI4
 70
     0
  9
$USERI5
 70
     0
  9
$USERR1
 40
0.0
  9
$USERR2
 40
0.0
  9
$USERR3
 40
0.0
  9
$USERR4
 40
0.0
  9
$USERR5
 40
0.0
  9
$WORLDVIEW
 70
     1
  9
$SHADEDGE
 70
     3
  9
$SHADEDIF
 70
    70
  9
$TILEMODE
 70
     1
  9
$MAXACTVP
 70
    48
  9
$PINSBASE
 10
0.0
 20
0.0
 30
0.0
  9
$PLIMCHECK
 70
     0
  9
$PEXTMIN
 10
0.0
 20
0.0
 30
0.0
  9
$PEXTMAX
 10
0.0
 20
0.0
 30
0.0
  9
$PLIMMIN
 10
0.0
 20
0.0
  9
$PLIMMAX
 10
12.0
 20
9.0
  9
$UNITMODE
 70
     0
  9
$VISRETAIN
 70
     1
  9
$PLINEGEN
 70
     0
  9
$PSLTSCALE
 70
     1
  9
$TREEDEPTH
 70
  3020
  9
$PICKSTYLE
 70
     1
  9
$CMLSTYLE
  2
STANDARD
  9
$CMLJUST
 70
     0
  9
$CMLSCALE
 40
1.0
  9
$PROXYGRAPHICS
 70
     1
  9
$MEASUREMENT
 70
     0
  0
ENDSEC
  0
SECTION
  2
CLASSES
  0
CLASS
  1
DICTIONARYVAR
  2
AcDbDictionaryVar
  3
AutoCAD 2000
 90
        0
280
     0
281
     0
  0
CLASS
  1
ACDBDICTIONARYWDFLT
  2
AcDbDictionaryWithDefault
  3
AutoCAD 2000
 90
        0
280
     0
281
     0
  0
CLASS
  1
ACDBPLACEHOLDER
  2
AcDbPlaceHolder
  3
AutoCAD 2000
 90
        0
280
     0
281
     0
  0
CLASS
  1
LAYOUT
  2
AcDbLayout
  3
AutoCAD 2000
 90
        0
280
     0
281
     0
  0
CLASS
  1
MATERIAL
  2
AcDbMaterial
  3
ObjectDBX Classes
 90
     1153
280
     0
281
     0
  0
CLASS
  1
VISUALSTYLE
  2
AcDbVisualStyle
  3
ObjectDBX Classes
 90
     4095
280
     0
281
     0
  0
CLASS
  1
TABLESTYLE
  2
AcDbTableStyle
  3
ObjectDBX Classes
 90
     4095
280
     0
281
     0
  0
CLASS
  1
SCALE
  2
AcDbScale
  3
ObjectDBX Classes
 90
     1153
280
     0
281
     0
  0
CLASS
  1
MLEADERSTYLE
  2
AcDbMLeaderStyle
  3
ACDB_MLEADERSTYLE_CLASS
 90
     4095
280
     0
281
     0
  0
CLASS
  1
SORTENTSTABLE
  2
AcDbSortentsTable
  3
AutoCAD 2000
 90
        0
280
     0
281
     0
  0
CLASS
  1
CELLSTYLEMAP
  2
AcDbCellStyleMap
  3
ObjectDBX Classes
 90
     1152
280
     0
281
     0
  0
CLASS
  1
ACAD_PROXY_OBJECT_WRAPPER
  2
AcDbProxyObjectWrapper
  3
AutoCAD 2000
 90
        0
280
     0
281
     0
  0
CLASS
  1
LONG_TRANSACTION
  2
AcDbLongTransaction
  3
AutoCAD 2000
 90
        0
280
     0
281
     0
  0
CLASS
  1
LWPOLYLINE
  2
AcDbPolyline
  3
AutoCAD 2000
 90
        0
280
     0
281
     1
  0
CLASS
  1
HATCH
  2
AcDbHatch
  3
AutoCAD 2000
 90
        0
280
     0
281
     1
  0
CLASS
  1
XRECORD
  2
AcDbXrecord
  3
AutoCAD 2000
 90
        0
280
     0
281
     0
  0
ENDSEC
  0
SECTION
  2
TABLES
  0
TABLE
  2
VPORT
  5
6E
102
{ACAD_XDICTIONARY
360
2AFB
102
}
330
0
100
AcDbSymbolTable
 70
     2
  0
VPORT
  5
2B73
330
6E
100
AcDbSymbolTableRecord
100
AcDbViewportTableRecord
  2
*ACTIVE
 70
     0
 10
0.0
 20
0.0
 11
1.0
 21
1.0
 12
287.8049472220828
 22
271.4203656312129
 13
0.0
 23
0.0
 14
10.0
 24
10.0
 15
10.0
 25
10.0
 16
0.0
 26
0.0
 36
1.0
 17
0.0
 27
0.0
 37
0.0
 40
497.4346397091077
 41
1.701814058956916
 42
50.0
 43
0.0
 44
0.0
 50
0.0
 51
0.0
 71
     0
 72
   100
 73
     1
 74
     3
 75
     0
 76
     0
 77
     0
 78
     0
  0
ENDTAB
  0
TABLE
  2
LTYPE
  5
69
330
0
100
AcDbSymbolTable
 70
     4
  0
LTYPE
  5
6A
330
69
100
AcDbSymbolTableRecord
100
AcDbLinetypeTableRecord
  2
BYBLOCK
 70
     0
  3

 72
    65
 73
     0
 40
0.0
  0
LTYPE
  5
6B
330
69
100
AcDbSymbolTableRecord
100
AcDbLinetypeTableRecord
  2
BYLAYER
 70
     0
  3

 72
    65
 73
     0
 40
0.0
  0
LTYPE
  5
8
330
69
100
AcDbSymbolTableRecord
100
AcDbLinetypeTableRecord
  2
CONTINUOUS
 70
     0
  3
Solid line
 72
    65
 73
     0
 40
0.0
  0
LTYPE
  5
27C
330
69
100
AcDbSymbolTableRecord
100
AcDbLinetypeTableRecord
  2
SEKKEI_A2_
 70
     0
  3
center(A2)  ____ _ ____ _ ____ _ ____ _ ____ _ 
 72
    65
 73
     4
 40
14.28749999999999
 49
9.525
 74
     0
 49
-1.587499999999999
 74
     0
 49
1.587499999999999
 74
     0
 49
-1.587499999999999
 74
     0
  0
LTYPE
  5
2B4
330
69
100
AcDbSymbolTableRecord
100
AcDbLinetypeTableRecord
  2
HIDDEN2
 70
     0
  3
Hidden (.5x) _ _ _ _ _ _ _ _ _ _ _ _ _ _ _ _ _
 72
    65
 73
     2
 40
4.762499999999999
 49
3.174999999999999
 74
     0
 49
-1.587499999999999
 74
     0
  0
LTYPE
  5
48F
330
69
100
AcDbSymbolTableRecord
100
AcDbLinetypeTableRecord
  2
SEKKEI_H
 70
     0
  3
Hidden-S _ _ _ _ _ _ _ _ _ _ _ _ _ _ _ _ _
 72
    65
 73
     2
 40
2.381249999999999
 49
1.587499999999999
 74
     0
 49
-0.79375
 74
     0
  0
ENDTAB
  0
TABLE
  2
LAYER
  5
66
102
{ACAD_XDICTIONARY
360
25B8
102
}
330
0
100
AcDbSymbolTable
 70
     9
  0
LAYER
  5
5E
102
{ACAD_XDICTIONARY
360
2AE0
102
}
330
66
100
AcDbSymbolTableRecord
100
AcDbLayerTableRecord
  2
0
 70
     0
 62
     7
  6
CONTINUOUS
  0
LAYER
  5
3E
102
{ACAD_XDICTIONARY
360
2AE2
102
}
330
66
100
AcDbSymbolTableRecord
100
AcDbLayerTableRecord
  2
CENTER
 70
     0
 62
     3
  6
SEKKEI_A2_
  0
LAYER
  5
2B5
102
{ACAD_XDICTIONARY
360
2AE8
102
}
330
66
100
AcDbSymbolTableRecord
100
AcDbLayerTableRecord
  2
HIDS
 70
     0
 62
     1
  6
HIDDEN2
  0
LAYER
  5
2BA
102
{ACAD_XDICTIONARY
360
2AEA
102
}
330
66
100
AcDbSymbolTableRecord
100
AcDbLayerTableRecord
  2
HOJO
 70
     0
 62
     4
  6
CONTINUOUS
  0
LAYER
  5
3FA
102
{ACAD_XDICTIONARY
360
2AEE
102
}
330
66
100
AcDbSymbolTableRecord
100
AcDbLayerTableRecord
  2
TITLE
 70
     0
 62
     4
  6
CONTINUOUS
  0
ENDTAB
  0
TABLE
  2
STYLE
  5
67
330
0
100
AcDbSymbolTable
 70
     1
  0
STYLE
  5
16
330
67
100
AcDbSymbolTableRecord
100
AcDbTextStyleTableRecord
  2
STANDARD
 70
     0
 40
0.0
 41
1.0
 50
0.0
 71
     0
 42
9.0
  3
simplex.shx
  4
extfont.shx
  0
ENDTAB
  0
TABLE
  2
VIEW
  5
6C
330
0
100
AcDbSymbolTable
 70
     0
  0
ENDTAB
  0
TABLE
  2
UCS
  5
6D
330
0
100
AcDbSymbolTable
 70
     0
  0
ENDTAB
  0
TABLE
  2
APPID
  5
70
330
0
100
AcDbSymbolTable
 70
     2
  0
APPID
  5
71
330
70
100
AcDbSymbolTableRecord
100
AcDbRegAppTableRecord
  2
ACAD
 70
     0
  0
APPID
  5
25B5
330
70
100
AcDbSymbolTableRecord
100
AcDbRegAppTableRecord
  2
ACAD_MLEADERVER
 70
     0
  0
ENDTAB
  0
TABLE
  2
DIMSTYLE
  5
72
330
0
100
AcDbSymbolTable
 70
     1
  0
DIMSTYLE
105
73
330
72
100
AcDbSymbolTableRecord
100
AcDbDimStyleTableRecord
  2
STANDARD
 70
     0
  3

  4

  5

  6

  7

 40
3.0
 41
1.8
 42
0.625
 43
3.75
 44
0.8
 45
0.0
 46
0.0
 47
0.0
 48
0.0
140
1.8
141
2.5
142
0.0
143
0.0394
144
1.0
145
0.0
146
1.0
147
0.75
 71
     0
 72
     0
 73
     0
 74
     0
 75
     0
 76
     0
 77
     1
 78
     8
170
     0
171
     4
172
     1
173
     0
174
     0
175
     0
176
     0
177
     0
178
     0
270
     8
271
     2
272
     2
273
     8
274
     4
340
16
275
     0
280
     0
281
     0
282
     0
283
     1
284
     0
285
     0
286
     0
287
     3
288
     0
  0
ENDTAB
  0
TABLE
  2
BLOCK_RECORD
  5
1
330
0
100
AcDbSymbolTable
 70
    39
  0
BLOCK_RECORD
  5
2
102
{ACAD_XDICTIONARY
360
2B95
102
}
330
1
100
AcDbSymbolTableRecord
100
AcDbBlockTableRecord
  2
*MODEL_SPACE
  0
BLOCK_RECORD
  5
2B6E
102
{ACAD_XDICTIONARY
360
2B97
102
}
330
1
100
AcDbSymbolTableRecord
100
AcDbBlockTableRecord
  2
*PAPER_SPACE
  0
ENDTAB
  0
ENDSEC
  0
SECTION
  2
BLOCKS
  0
BLOCK
  5
5D
330
2
100
AcDbEntity
  8
0
100
AcDbBlockBegin
  2
*MODEL_SPACE
 70
     0
 10
0.0
 20
0.0
 30
0.0
  3
*MODEL_SPACE
  1

  0
ENDBLK
  5
5F
330
2
100
AcDbEntity
  8
0
100
AcDbBlockEnd
  0
BLOCK
  5
2B70
330
2B6E
100
AcDbEntity
 67
     1
  8
0
100
AcDbBlockBegin
  2
*PAPER_SPACE
 70
     0
 10
0.0
 20
0.0
 30
0.0
  3
*PAPER_SPACE
  1

  0
ENDBLK
  5
2B71
330
2B6E
100
AcDbEntity
 67
     1
  8
0
100
AcDbBlockEnd
  0
ENDSEC
  0
SECTION
  2
ENTITIES
  0
ARC
  5
719
330
2
100
AcDbEntity
  8
0
  6
CONTINUOUS
100
AcDbCircle
 10
143.245127496231
 20
-300.6699607284956
 30
0.0
 40
530.0
100
AcDbArc
 50
83.7174070000019
 51
89.00066400000067
  0
LINE
  5
71A
330
2
100
AcDbEntity
  8
CENTER
100
AcDbLine
 10
270.245127496231
 20
180.4108502715042
 30
0.0
 11
167.245127496231
 21
180.4108502715043
 31
0.0
  0
ARC
  5
71B
330
2
100
AcDbEntity
  8
0
  6
CONTINUOUS
100
AcDbCircle
 10
181.020335496231
 20
262.2724912715043
 30
0.0
 40
142.392197
100
AcDbArc
 50
273.5635990000021
 51
280.300110000002
  0
LINE
  5
71C
330
2
100
AcDbEntity
  8
0
  6
CONTINUOUS
100
AcDbLine
 10
127.745127496231
 20
90.41078927150431
 30
0.0
 11
217.745127496231
 21
90.41078927150431
 31
0.0
  0
LINE
  5
71D
330
2
100
AcDbEntity
  8
0
  6
CONTINUOUS
100
AcDbLine
 10
193.8901314962311
 20
102.7608102715043
 30
0.0
 11
213.9463294962311
 21
102.4107892715043
 31
0.0
  0
ARC
  5
71E
330
2
100
AcDbEntity
  8
0
  6
CONTINUOUS
100
AcDbCircle
 10
312.2451274962311
 20
154.4108502715043
 30
0.0
 40
130.0
100
AcDbArc
 50
147.7115940000012
 51
180.0
  0
ARC
  5
721
330
2
100
AcDbEntity
  8
0
  6
CONTINUOUS
100
AcDbCircle
 10
139.245150496231
 20
227.2696682715042
 30
0.0
 40
2.0
100
AcDbArc
 50
92.00174699999596
 51
180.0
  0
LINE
  5
722
330
2
100
AcDbEntity
  8
0
  6
CONTINUOUS
100
AcDbLine
 10
143.245127496231
 20
229.4106902715043
 30
0.0
 11
143.245127496231
 21
102.6150322715043
 31
0.0
  0
LINE
  5
754
330
2
100
AcDbEntity
  8
CENTER
100
AcDbLine
 10
29.96390749623106
 20
161.4108502715043
 30
0.0
 11
151.6616436367072
 21
161.4108502715043
 31
0.0
  0
ARC
  5
7B2
330
2
100
AcDbEntity
  8
0
  6
CONTINUOUS
100
AcDbCircle
 10
352.245127496231
 20
154.4108502715043
 30
0.0
 40
170.0
100
AcDbArc
 50
180.0
 51
196.4234920000008
  0
ARC
  5
7B3
330
2
100
AcDbEntity
  8
0
  6
CONTINUOUS
100
AcDbCircle
 10
-84.75487250376898
 20
103.1952092715043
 30
0.0
 40
240.0
100
AcDbArc
 50
1.107464000001306
 51
18.19492900000142
  0
LINE
  5
7B4
330
2
100
AcDbEntity
  8
0
  6
CONTINUOUS
100
AcDbLine
 10
137.245127496231
 20
102.5103112715043
 30
0.0
 11
137.245127496231
 21
227.2696682715042
 31
0.0
  0
LINE
  5
7B5
330
2
100
AcDbEntity
  8
0
  6
CONTINUOUS
100
AcDbLine
 10
126.745127496231
 20
224.9108882715043
 30
0.0
 11
126.745127496231
 21
97.91075127150435
 31
0.0
  0
LINE
  5
7B6
330
2
100
AcDbEntity
  8
0
  6
CONTINUOUS
100
AcDbLine
 10
142.3739044962311
 20
124.9139702715043
 30
0.0
 11
138.623888496231
 21
124.9139702715043
 31
0.0
  0
LINE
  5
7B7
330
2
100
AcDbEntity
  8
0
  6
CONTINUOUS
100
AcDbLine
 10
142.3739044962311
 20
108.0939522715043
 30
0.0
 11
138.623888496231
 21
108.0939522715043
 31
0.0
  0
LINE
  5
7B8
330
2
100
AcDbEntity
  8
0
  6
CONTINUOUS
100
AcDbLine
 10
131.543925496231
 20
102.4107892715043
 30
0.0
 11
150.288531496231
 21
102.7379722715043
 31
0.0
  0
LINE
  5
7BA
330
2
100
AcDbEntity
  8
CENTER
100
AcDbLine
 10
140.245127496231
 20
110.5172302715043
 30
0.0
 11
140.245127496231
 21
85.3328472715043
 31
0.0
  0
LINE
  5
7BB
330
2
100
AcDbEntity
  8
0
  6
CONTINUOUS
100
AcDbLine
 10
126.745127496231
 20
97.91085027150433
 30
0.0
 11
128.4012474962311
 21
97.91085027150433
 31
0.0
  0
ARC
  5
7BE
330
2
100
AcDbEntity
  8
0
  6
CONTINUOUS
100
AcDbCircle
 10
131.543925496231
 20
99.41078927150437
 30
0.0
 40
3.0
100
AcDbArc
 50
90.0
 51
175.0005040000013
  0
LINE
  5
7BF
330
2
100
AcDbEntity
  8
HIDS
  6
SEKKEI_H
100
AcDbLine
 10
134.745127496231
 20
102.4666702715043
 30
0.0
 11
134.745127496231
 21
90.41078927150431
 31
0.0
  0
LINE
  5
7C0
330
2
100
AcDbEntity
  8
0
  6
CONTINUOUS
100
AcDbLine
 10
128.5553464962311
 20
99.67222927150437
 30
0.0
 11
127.745127496231
 21
90.41078927150431
 31
0.0
  0
ARC
  5
7D1
330
2
100
AcDbEntity
  8
0
  6
CONTINUOUS
100
AcDbCircle
 10
193.977320496231
 20
107.7599902715043
 30
0.0
 40
5.0
100
AcDbArc
 50
196.4232940000012
 51
269.0006099999964
  0
LINE
  5
7D2
330
2
100
AcDbEntity
  8
0
  6
CONTINUOUS
100
AcDbLine
 10
145.245127496231
 20
102.6986312715043
 30
0.0
 11
145.245127496231
 21
108.0939522715043
 31
0.0
  0
ARC
  5
7D3
330
2
100
AcDbEntity
  8
0
  6
CONTINUOUS
100
AcDbCircle
 10
150.201327496231
 20
107.7372322715042
 30
0.0
 40
5.0
100
AcDbArc
 50
271.0000919999962
 51
1.107672999999401
  0
LINE
  5
7D4
330
2
100
AcDbEntity
  8
HIDS
  6
SEKKEI_H
100
AcDbLine
 10
145.745127496231
 20
102.6586722715043
 30
0.0
 11
145.745127496231
 21
90.41078927150431
 31
0.0
  0
LINE
  5
7D5
330
2
100
AcDbEntity
  8
0
  6
CONTINUOUS
100
AcDbLine
 10
144.325091496231
 20
124.9139702715043
 30
0.0
 11
152.575129496231
 21
124.9139702715043
 31
0.0
  0
LINE
  5
7D6
330
2
100
AcDbEntity
  8
0
  6
CONTINUOUS
100
AcDbLine
 10
144.325091496231
 20
108.0939522715043
 30
0.0
 11
152.575129496231
 21
108.0939522715043
 31
0.0
  0
LINE
  5
7EF
330
2
100
AcDbEntity
  8
0
  6
CONTINUOUS
100
AcDbLine
 10
126.745127496231
 20
224.9108502715043
 30
0.0
 11
137.245127496231
 21
224.9108502715043
 31
0.0
  0
LINE
  5
80F
330
2
100
AcDbEntity
  8
0
  6
CONTINUOUS
100
AcDbLine
 10
139.175265496231
 20
229.2684322715043
 30
0.0
 11
143.245127496231
 21
229.4106672715043
 31
0.0
  0
LINE
  5
8B2
330
2
100
AcDbEntity
  8
0
  6
CONTINUOUS
100
AcDbLine
 10
143.245127496231
 20
229.4106902715043
 30
0.0
 11
152.487925496231
 21
229.2494122715043
 31
0.0
  0
LINE
  5
8B3
330
2
100
AcDbEntity
  8
0
  6
CONTINUOUS
100
AcDbLine
 10
347.9136200179268
 20
102.4108502715043
 30
0.0
 11
367.1994170179267
 21
102.4108502715043
 31
0.0
  0
LINE
  5
8B4
330
2
100
AcDbEntity
  8
0
  6
CONTINUOUS
100
AcDbLine
 10
343.6308140179268
 20
90.41085027150433
 30
0.0
 11
386.7002110179268
 21
90.41085027150433
 31
0.0
  0
LINE
  5
8B5
330
2
100
AcDbEntity
  8
CENTER
100
AcDbLine
 10
342.7324875158903
 20
161.4108502715043
 30
0.0
 11
498.6683605199632
 21
161.4108502715043
 31
0.0
  0
LINE
  5
8B6
330
2
100
AcDbEntity
  8
0
  6
CONTINUOUS
100
AcDbLine
 10
355.8522190179268
 20
178.1346052715043
 30
0.0
 11
343.6308140179268
 21
90.41085027150433
 31
0.0
  0
ARC
  5
8B7
330
2
100
AcDbEntity
  8
0
  6
CONTINUOUS
100
AcDbCircle
 10
-483.755299503769
 20
161.4108502715043
 30
0.0
 40
700.0
100
AcDbArc
 50
356.6426089999987
 51
3.603821000000682
  0
LINE
  5
8B8
330
2
100
AcDbEntity
  8
CENTER
100
AcDbLine
 10
205.245127496231
 20
109.5828512715043
 30
0.0
 11
205.245127496231
 21
85.3328472715043
 31
0.0
  0
ARC
  5
8B9
330
2
100
AcDbEntity
  8
0
  6
CONTINUOUS
100
AcDbCircle
 10
287.548334496231
 20
128.0205492715043
 30
0.0
 40
80.0
100
AcDbArc
 50
184.0191040000008
 51
197.075302
  0
ARC
  5
8BA
330
2
100
AcDbEntity
  8
0
  6
CONTINUOUS
100
AcDbCircle
 10
213.942332496231
 20
105.4113312715043
 30
0.0
 40
3.0
100
AcDbArc
 50
197.0751950000009
 51
269.0006099999964
  0
LINE
  5
8BB
330
2
100
AcDbEntity
  8
HIDS
  6
SEKKEI_H
100
AcDbLine
 10
210.745127496231
 20
102.4666512715043
 30
0.0
 11
210.745127496231
 21
90.41078927150431
 31
0.0
  0
LINE
  5
8BC
330
2
100
AcDbEntity
  8
HIDS
  6
SEKKEI_H
100
AcDbLine
 10
199.745127496231
 20
102.6586302715043
 30
0.0
 11
199.745127496231
 21
90.41078927150431
 31
0.0
  0
ARC
  5
8BD
330
2
100
AcDbEntity
  8
0
  6
CONTINUOUS
100
AcDbCircle
 10
213.9463294962311
 20
99.41077027150431
 30
0.0
 40
3.0
100
AcDbArc
 50
5.000380000000087
 51
90.0
  0
LINE
  5
8BE
330
2
100
AcDbEntity
  8
0
  6
CONTINUOUS
100
AcDbLine
 10
216.934901496231
 20
99.67227127150431
 30
0.0
 11
217.745127496231
 21
90.41078927150431
 31
0.0
  0
ARC
  5
8BF
330
2
100
AcDbEntity
  8
0
  6
CONTINUOUS
100
AcDbCircle
 10
198.0723214962311
 20
121.4109112715043
 30
0.0
 40
17.0
100
AcDbArc
 50
313.6499940000021
 51
356.6427920000005
  0
ARC
  5
8C0
330
2
100
AcDbEntity
  8
0
  6
CONTINUOUS
100
AcDbCircle
 10
210.7449134962311
 20
122.4130702715043
 30
0.0
 40
3.0
100
AcDbArc
 50
129.0888060000012
 51
180.0
  0
LINE
  5
8C1
330
2
100
AcDbEntity
  8
0
  6
CONTINUOUS
100
AcDbLine
 10
220.245127496231
 20
191.4108502715043
 30
0.0
 11
260.245127496231
 21
191.4108502715043
 31
0.0
  0
LINE
  5
8C2
330
2
100
AcDbEntity
  8
0
  6
CONTINUOUS
100
AcDbLine
 10
228.245127496231
 20
183.4108502715043
 30
0.0
 11
260.245127496231
 21
183.4108502715043
 31
0.0
  0
LINE
  5
8C3
330
2
100
AcDbEntity
  8
0
  6
CONTINUOUS
100
AcDbLine
 10
228.245127496231
 20
177.4108502715043
 30
0.0
 11
260.245127496231
 21
177.4108502715043
 31
0.0
  0
LINE
  5
8C4
330
2
100
AcDbEntity
  8
0
  6
CONTINUOUS
100
AcDbLine
 10
220.245127496231
 20
169.4108502715043
 30
0.0
 11
260.245127496231
 21
169.4108502715043
 31
0.0
  0
LINE
  5
8C5
330
2
100
AcDbEntity
  8
0
  6
CONTINUOUS
100
AcDbLine
 10
220.245127496231
 20
192.4108502715043
 30
0.0
 11
220.245127496231
 21
168.4108502715043
 31
0.0
  0
LINE
  5
8C6
330
2
100
AcDbEntity
  8
0
  6
CONTINUOUS
100
AcDbLine
 10
218.245127496231
 20
202.9108502715043
 30
0.0
 11
218.245127496231
 21
157.9108482715043
 31
0.0
  0
ARC
  5
8C7
330
2
100
AcDbEntity
  8
0
  6
CONTINUOUS
100
AcDbCircle
 10
215.745127496231
 20
157.9108482715043
 30
0.0
 40
2.5
100
AcDbArc
 50
280.9344789999993
 51
0.0
  0
ARC
  5
8C8
330
2
100
AcDbEntity
  8
0
  6
CONTINUOUS
100
AcDbCircle
 10
228.245127496231
 20
180.4108502715043
 30
0.0
 40
3.0
100
AcDbArc
 50
90.0
 51
270.0
  0
LINE
  5
8C9
330
2
100
AcDbEntity
  8
0
  6
CONTINUOUS
100
AcDbLine
 10
218.245127496231
 20
168.4108502715043
 30
0.0
 11
220.245127496231
 21
168.4108502715043
 31
0.0
  0
ARC
  5
8CA
330
2
100
AcDbEntity
  8
0
  6
CONTINUOUS
100
AcDbCircle
 10
-483.755299503769
 20
161.4108502715043
 30
0.0
 40
700.0
100
AcDbArc
 50
3.603821000000682
 51
3.895952000000533
  0
LINE
  5
8CB
330
2
100
AcDbEntity
  8
0
  6
CONTINUOUS
100
AcDbLine
 10
214.860331496231
 20
205.4108502715043
 30
0.0
 11
215.745127496231
 21
205.4108502715043
 31
0.0
  0
ARC
  5
8CC
330
2
100
AcDbEntity
  8
0
  6
CONTINUOUS
100
AcDbCircle
 10
215.745127496231
 20
202.9108502715043
 30
0.0
 40
2.5
100
AcDbArc
 50
0.0
 51
90.0
  0
LINE
  5
8CD
330
2
100
AcDbEntity
  8
0
  6
CONTINUOUS
100
AcDbLine
 10
218.245127496231
 20
192.4108502715043
 30
0.0
 11
220.245127496231
 21
192.4108502715043
 31
0.0
  0
ARC
  5
8CE
330
2
100
AcDbEntity
  8
0
  6
CONTINUOUS
100
AcDbCircle
 10
197.6949264962311
 20
207.3964502715043
 30
0.0
 40
17.0
100
AcDbArc
 50
5.316978000000066
 51
66.96292899999933
  0
ARC
  5
8CF
330
2
100
AcDbEntity
  8
0
  6
CONTINUOUS
100
AcDbCircle
 10
182.041926496231
 20
170.5863302715043
 30
0.0
 40
57.0
100
AcDbArc
 50
66.9629209999999
 51
68.61509699999875
  0
ARC
  5
8D0
330
2
100
AcDbEntity
  8
0
  6
CONTINUOUS
100
AcDbCircle
 10
203.008127496231
 20
224.1275902715043
 30
0.0
 40
0.5
100
AcDbArc
 50
164.6766050000007
 51
248.6154020000021
  0
ARC
  5
8D1
330
2
100
AcDbEntity
  8
0
  6
CONTINUOUS
100
AcDbCircle
 10
201.079325496231
 20
224.6561312715043
 30
0.0
 40
1.5
100
AcDbArc
 50
327.711788000002
 51
83.7175369999989
  0
LINE
  5
8D2
330
2
100
AcDbEntity
  8
0
  6
CONTINUOUS
100
AcDbLine
 10
260.245127496231
 20
191.4108502715043
 30
0.0
 11
260.245127496231
 21
169.4108502715043
 31
0.0
  0
ARC
  5
8D3
330
2
100
AcDbEntity
  8
0
  6
CONTINUOUS
100
AcDbCircle
 10
347.9136200179268
 20
99.41096827150438
 30
0.0
 40
3.0
100
AcDbArc
 50
90.0
 51
172.0691070000002
  0
ARC
  5
8D4
330
2
100
AcDbEntity
  8
0
  6
CONTINUOUS
100
AcDbCircle
 10
420.7004240179267
 20
119.4105492715043
 30
0.0
 40
110.0
100
AcDbArc
 50
67.79785899999743
 51
90.0
  0
ARC
  5
8D5
330
2
100
AcDbEntity
  8
0
  6
CONTINUOUS
100
AcDbCircle
 10
420.7004240179267
 20
119.4105492715043
 30
0.0
 40
110.0
100
AcDbArc
 50
90.0
 51
112.2023999999982
  0
LINE
  5
8D6
330
2
100
AcDbEntity
  8
CENTER
100
AcDbLine
 10
420.7004240179267
 20
252.0268483317177
 30
0.0
 11
420.7004240179267
 21
80.13472888772639
 31
0.0
  0
ARC
  5
8D7
330
2
100
AcDbEntity
  8
0
  6
CONTINUOUS
100
AcDbCircle
 10
450.9304350179268
 20
193.4791482715043
 30
0.0
 40
30.0
100
AcDbArc
 50
20.39996900000022
 51
67.79795099999835
  0
ARC
  5
8D8
330
2
100
AcDbEntity
  8
0
  6
CONTINUOUS
100
AcDbCircle
 10
449.0674290179269
 20
194.2126692715043
 30
0.0
 40
24.5
100
AcDbArc
 50
27.31327099999928
 51
69.23240700000261
  0
ARC
  5
8D9
330
2
100
AcDbEntity
  8
0
  6
CONTINUOUS
100
AcDbCircle
 10
470.5034330179268
 20
117.5703312715043
 30
0.0
 40
5.0
100
AcDbArc
 50
151.0935059999987
 51
199.9996029999984
  0
LINE
  5
8DA
330
2
100
AcDbEntity
  8
0
  6
CONTINUOUS
100
AcDbLine
 10
458.9666290179268
 20
102.4108502715043
 30
0.0
 11
474.2014310179268
 21
102.4108502715043
 31
0.0
  0
LINE
  5
8DB
330
2
100
AcDbEntity
  8
0
  6
CONTINUOUS
100
AcDbLine
 10
497.7700350179268
 20
90.41078927150431
 30
0.0
 11
454.7006070179269
 21
90.41078927150431
 31
0.0
  0
LINE
  5
8DC
330
2
100
AcDbEntity
  8
0
  6
CONTINUOUS
100
AcDbLine
 10
470.0374300179268
 20
104.2309722715043
 30
0.0
 11
464.1124110179268
 21
120.5102692715043
 31
0.0
  0
ARC
  5
8DD
330
2
100
AcDbEntity
  8
0
  6
CONTINUOUS
100
AcDbCircle
 10
484.7004240179268
 20
180.4108502715043
 30
0.0
 40
125.0
100
AcDbArc
 50
190.0164030000004
 51
208.906906000001
  0
LINE
  5
8DE
330
2
100
AcDbEntity
  8
0
  6
CONTINUOUS
100
AcDbLine
 10
406.0004120179268
 20
120.4108502715043
 30
0.0
 11
415.8006130179268
 21
120.4108502715043
 31
0.0
  0
ARC
  5
8DF
330
2
100
AcDbEntity
  8
0
  6
CONTINUOUS
100
AcDbCircle
 10
411.3006130179268
 20
124.1738502715043
 30
0.0
 40
6.5
100
AcDbArc
 50
112.3525010000009
 51
215.3744960000012
  0
ARC
  5
8E0
330
2
100
AcDbEntity
  8
0
  6
CONTINUOUS
100
AcDbCircle
 10
420.7004240179267
 20
-105.5891497284956
 30
0.0
 40
200.0
100
AcDbArc
 50
80.18475300000181
 51
99.81522399999633
  0
ARC
  5
8E1
330
2
100
AcDbEntity
  8
0
  6
CONTINUOUS
100
AcDbCircle
 10
420.7004240179267
 20
227.4108502715043
 30
0.0
 40
123.0
100
AcDbArc
 50
255.7680049999968
 51
270.0
  0
ARC
  5
8E2
330
2
100
AcDbEntity
  8
0
  6
CONTINUOUS
100
AcDbCircle
 10
382.4346160179268
 20
105.4108502715043
 30
0.0
 40
3.0
100
AcDbArc
 50
159.9989930000028
 51
270.0
  0
ARC
  5
8E3
330
2
100
AcDbEntity
  8
0
  6
CONTINUOUS
100
AcDbCircle
 10
367.1994170179267
 20
107.4108502715043
 30
0.0
 40
5.0
100
AcDbArc
 50
270.0
 51
339.9986879999987
  0
LINE
  5
8E4
330
2
100
AcDbEntity
  8
CENTER
100
AcDbLine
 10
355.7004240179268
 20
86.39234927150431
 30
0.0
 11
355.7004240179268
 21
107.0671692715043
 31
0.0
  0
LINE
  5
8E5
330
2
100
AcDbEntity
  8
0
  6
CONTINUOUS
100
AcDbLine
 10
382.4346160179268
 20
102.4108502715043
 30
0.0
 11
367.1994170179267
 21
102.4108502715043
 31
0.0
  0
LINE
  5
8E6
330
2
100
AcDbEntity
  8
HIDS
  6
SEKKEI_H
100
AcDbLine
 10
350.2004240179268
 20
102.4108502715043
 30
0.0
 11
350.2004240179268
 21
90.41085027150433
 31
0.0
  0
LINE
  5
8E7
330
2
100
AcDbEntity
  8
HIDS
  6
SEKKEI_H
100
AcDbLine
 10
361.2004240179268
 20
102.4108502715043
 30
0.0
 11
361.2004240179268
 21
90.41085027150433
 31
0.0
  0
LINE
  5
8E8
330
2
100
AcDbEntity
  8
0
  6
CONTINUOUS
100
AcDbLine
 10
382.9014130179267
 20
102.4108502715043
 30
0.0
 11
382.4346160179268
 21
102.4108502715043
 31
0.0
  0
ARC
  5
8E9
330
2
100
AcDbEntity
  8
0
  6
CONTINUOUS
100
AcDbCircle
 10
382.9014130179267
 20
99.41085027150434
 30
0.0
 40
3.0
100
AcDbArc
 50
5.000447999999098
 51
90.0
  0
LINE
  5
8EA
330
2
100
AcDbEntity
  8
0
  6
CONTINUOUS
100
AcDbLine
 10
385.8904270179268
 20
99.67238927150431
 30
0.0
 11
386.7002110179268
 21
90.41085027150433
 31
0.0
  0
ARC
  5
8EB
330
2
100
AcDbEntity
  8
0
  6
CONTINUOUS
100
AcDbCircle
 10
372.5894320179268
 20
122.2213282715043
 30
0.0
 40
5.0
100
AcDbArc
 50
339.9976500000007
 51
21.21484900000033
  0
ARC
  5
8EC
330
2
100
AcDbEntity
  8
0
  6
CONTINUOUS
100
AcDbCircle
 10
370.8974150179268
 20
117.5705712715043
 30
0.0
 40
5.0
100
AcDbArc
 50
339.998469999999
 51
28.90654899999915
  0
LINE
  5
8ED
330
2
100
AcDbEntity
  8
0
  6
CONTINUOUS
100
AcDbLine
 10
371.8974150179268
 20
105.7006492715043
 30
0.0
 11
377.2882230179268
 21
120.5109512715043
 31
0.0
  0
ARC
  5
8EE
330
2
100
AcDbEntity
  8
0
  6
CONTINUOUS
100
AcDbCircle
 10
384.0034330179268
 20
112.6469912715043
 30
0.0
 40
2.0
100
AcDbArc
 50
56.68413900000014
 51
159.9963070000016
  0
ARC
  5
8EF
330
2
100
AcDbEntity
  8
0
  6
CONTINUOUS
100
AcDbCircle
 10
383.3086090179268
 20
107.8141092715043
 30
0.0
 40
3.0
100
AcDbArc
 50
61.0896300000001
 51
159.9962009999981
  0
ARC
  5
8F0
330
2
100
AcDbEntity
  8
0
  6
CONTINUOUS
100
AcDbCircle
 10
396.3616180179268
 20
131.4492512715043
 30
0.0
 40
24.0
100
AcDbArc
 50
241.0894009999994
 51
255.7678990000013
  0
LINE
  5
8F1
330
2
100
AcDbEntity
  8
0
  6
CONTINUOUS
100
AcDbLine
 10
379.6144260179268
 20
106.4369082715043
 30
0.0
 11
382.1244350179268
 21
113.3311912715043
 31
0.0
  0
ARC
  5
8F2
330
2
100
AcDbEntity
  8
0
  6
CONTINUOUS
100
AcDbCircle
 10
458.9666290179268
 20
105.4108502715043
 30
0.0
 40
3.0
100
AcDbArc
 50
270.0
 51
20.00141000000021
  0
ARC
  5
8F3
330
2
100
AcDbEntity
  8
0
  6
CONTINUOUS
100
AcDbCircle
 10
420.7004240179267
 20
227.4108502715043
 30
0.0
 40
123.0
100
AcDbArc
 50
270.0
 51
284.2320860000008
  0
LINE
  5
8F4
330
2
100
AcDbEntity
  8
0
  6
CONTINUOUS
100
AcDbLine
 10
458.4994350179268
 20
102.4108502715043
 30
0.0
 11
458.9666290179268
 21
102.4108502715043
 31
0.0
  0
ARC
  5
8F5
330
2
100
AcDbEntity
  8
0
  6
CONTINUOUS
100
AcDbCircle
 10
458.4994350179268
 20
99.41085027150434
 30
0.0
 40
3.0
100
AcDbArc
 50
90.0
 51
175.0000000000001
  0
LINE
  5
8F6
330
2
100
AcDbEntity
  8
0
  6
CONTINUOUS
100
AcDbLine
 10
455.5104220179267
 20
99.67238927150431
 30
0.0
 11
454.7006070179269
 21
90.41078927150431
 31
0.0
  0
ARC
  5
8F7
330
2
100
AcDbEntity
  8
0
  6
CONTINUOUS
100
AcDbCircle
 10
432.1006320179268
 20
126.2649112715043
 30
0.0
 40
4.5
100
AcDbArc
 50
311.8104210000016
 51
59.13299199999959
  0
ARC
  5
8F8
330
2
100
AcDbEntity
  8
0
  6
CONTINUOUS
100
AcDbCircle
 10
432.0506130179268
 20
126.1608502715043
 30
0.0
 40
0.75
100
AcDbArc
 50
270.0
 51
90.0
  0
LINE
  5
8F9
330
2
100
AcDbEntity
  8
0
  6
CONTINUOUS
100
AcDbLine
 10
418.8006130179267
 20
126.9108502715043
 30
0.0
 11
418.8006130179267
 21
120.4108502715043
 31
0.0
  0
LINE
  5
8FA
330
2
100
AcDbEntity
  8
0
  6
CONTINUOUS
100
AcDbLine
 10
422.3006130179268
 20
126.9108502715043
 30
0.0
 11
422.3006130179268
 21
120.4108502715043
 31
0.0
  0
LINE
  5
8FB
330
2
100
AcDbEntity
  8
0
  6
CONTINUOUS
100
AcDbLine
 10
428.5506130179268
 20
126.9108502715043
 30
0.0
 11
428.5506130179268
 21
120.4108502715043
 31
0.0
  0
LINE
  5
8FC
330
2
100
AcDbEntity
  8
0
  6
CONTINUOUS
100
AcDbLine
 10
425.3006130179268
 20
130.4108502715043
 30
0.0
 11
425.3006130179268
 21
120.4108502715043
 31
0.0
  0
ARC
  5
8FD
330
2
100
AcDbEntity
  8
0
  6
CONTINUOUS
100
AcDbCircle
 10
411.8006130179268
 20
123.8603702715043
 30
0.0
 40
3.5
100
AcDbArc
 50
135.5460969999979
 51
220.5290070000021
  0
LINE
  5
8FE
330
2
100
AcDbEntity
  8
0
  6
CONTINUOUS
100
AcDbLine
 10
418.8006130179267
 20
120.4108502715043
 30
0.0
 11
422.3006130179268
 21
120.4108502715043
 31
0.0
  0
LINE
  5
8FF
330
2
100
AcDbEntity
  8
0
  6
CONTINUOUS
100
AcDbLine
 10
412.5506130179267
 20
125.4108502715043
 30
0.0
 11
415.8006130179268
 21
125.4108502715043
 31
0.0
  0
ARC
  5
900
330
2
100
AcDbEntity
  8
0
  6
CONTINUOUS
100
AcDbCircle
 10
409.5202180179268
 20
121.9108502715043
 30
0.0
 40
0.5
100
AcDbArc
 50
220.5301969999981
 51
270.0
  0
LINE
  5
901
330
2
100
AcDbEntity
  8
0
  6
CONTINUOUS
100
AcDbLine
 10
409.5202180179268
 20
121.4108502715043
 30
0.0
 11
412.5506130179267
 21
121.4108502715043
 31
0.0
  0
LINE
  5
902
330
2
100
AcDbEntity
  8
0
  6
CONTINUOUS
100
AcDbLine
 10
412.5506130179267
 20
125.4108502715043
 30
0.0
 11
412.5506130179267
 21
121.4108502715043
 31
0.0
  0
LINE
  5
903
330
2
100
AcDbEntity
  8
0
  6
CONTINUOUS
100
AcDbLine
 10
415.8006130179268
 20
125.4108502715043
 30
0.0
 11
415.8006130179268
 21
120.4108502715043
 31
0.0
  0
LINE
  5
904
330
2
100
AcDbEntity
  8
0
  6
CONTINUOUS
100
AcDbLine
 10
429.8006130179268
 20
125.4108502715043
 30
0.0
 11
432.0506130179268
 21
125.4108502715043
 31
0.0
  0
LINE
  5
905
330
2
100
AcDbEntity
  8
0
  6
CONTINUOUS
100
AcDbLine
 10
425.3006130179268
 20
120.4108502715043
 30
0.0
 11
428.5506130179268
 21
120.4108502715043
 31
0.0
  0
LINE
  5
906
330
2
100
AcDbEntity
  8
0
  6
CONTINUOUS
100
AcDbLine
 10
429.8006130179268
 20
125.4108502715043
 30
0.0
 11
432.8006130179268
 21
120.4108502715043
 31
0.0
  0
LINE
  5
907
330
2
100
AcDbEntity
  8
0
  6
CONTINUOUS
100
AcDbLine
 10
436.6006320179268
 20
120.4108502715043
 30
0.0
 11
435.1006320179268
 21
122.9108502715043
 31
0.0
  0
LINE
  5
908
330
2
100
AcDbEntity
  8
0
  6
CONTINUOUS
100
AcDbLine
 10
432.8006130179268
 20
120.4108502715043
 30
0.0
 11
436.6006320179268
 21
120.4108502715043
 31
0.0
  0
LINE
  5
909
330
2
100
AcDbEntity
  8
0
  6
CONTINUOUS
100
AcDbLine
 10
417.0506130179267
 20
130.4108502715043
 30
0.0
 11
424.0506130179268
 21
130.4108502715043
 31
0.0
  0
LINE
  5
90A
330
2
100
AcDbEntity
  8
0
  6
CONTINUOUS
100
AcDbLine
 10
417.0506130179267
 20
126.9108502715043
 30
0.0
 11
418.8006130179267
 21
126.9108502715043
 31
0.0
  0
LINE
  5
90B
330
2
100
AcDbEntity
  8
0
  6
CONTINUOUS
100
AcDbLine
 10
417.0506130179267
 20
130.4108502715043
 30
0.0
 11
417.0506130179267
 21
126.9108502715043
 31
0.0
  0
ARC
  5
90C
330
2
100
AcDbEntity
  8
0
  6
CONTINUOUS
100
AcDbCircle
 10
409.9694060179269
 20
127.4108502715043
 30
0.0
 40
3.0
100
AcDbArc
 50
90.0
 51
112.352698999996
  0
LINE
  5
90D
330
2
100
AcDbEntity
  8
0
  6
CONTINUOUS
100
AcDbLine
 10
409.9694060179269
 20
130.4108502715043
 30
0.0
 11
415.8006130179268
 21
130.4108502715043
 31
0.0
  0
ARC
  5
90E
330
2
100
AcDbEntity
  8
0
  6
CONTINUOUS
100
AcDbCircle
 10
410.7298130179268
 20
124.9108502715043
 30
0.0
 40
2.0
100
AcDbArc
 50
90.0
 51
135.5462039999984
  0
LINE
  5
90F
330
2
100
AcDbEntity
  8
0
  6
CONTINUOUS
100
AcDbLine
 10
410.7298130179268
 20
126.9108502715043
 30
0.0
 11
415.8006130179268
 21
126.9108502715043
 31
0.0
  0
LINE
  5
910
330
2
100
AcDbEntity
  8
0
  6
CONTINUOUS
100
AcDbLine
 10
415.8006130179268
 20
126.9108502715043
 30
0.0
 11
415.8006130179268
 21
130.4108502715043
 31
0.0
  0
ARC
  5
911
330
2
100
AcDbEntity
  8
0
  6
CONTINUOUS
100
AcDbCircle
 10
433.3830110179268
 20
128.4108502715043
 30
0.0
 40
2.0
100
AcDbArc
 50
59.13309899999717
 51
90.0
  0
LINE
  5
912
330
2
100
AcDbEntity
  8
0
  6
CONTINUOUS
100
AcDbLine
 10
433.3830110179268
 20
130.4108502715043
 30
0.0
 11
425.3006130179268
 21
130.4108502715043
 31
0.0
  0
LINE
  5
913
330
2
100
AcDbEntity
  8
0
  6
CONTINUOUS
100
AcDbLine
 10
428.5506130179268
 20
126.9108502715043
 30
0.0
 11
432.0506130179268
 21
126.9108502715043
 31
0.0
  0
LINE
  5
914
330
2
100
AcDbEntity
  8
0
  6
CONTINUOUS
100
AcDbLine
 10
422.3006130179268
 20
126.9108502715043
 30
0.0
 11
424.0506130179268
 21
126.9108502715043
 31
0.0
  0
LINE
  5
915
330
2
100
AcDbEntity
  8
0
  6
CONTINUOUS
100
AcDbLine
 10
424.0506130179268
 20
130.4108502715043
 30
0.0
 11
424.0506130179268
 21
126.9108502715043
 31
0.0
  0
ARC
  5
916
330
2
100
AcDbEntity
  8
0
  6
CONTINUOUS
100
AcDbCircle
 10
445.0396270179267
 20
131.4493712715043
 30
0.0
 40
24.0
100
AcDbArc
 50
284.2320860000008
 51
298.9096979999974
  0
ARC
  5
917
330
2
100
AcDbEntity
  8
0
  6
CONTINUOUS
100
AcDbCircle
 10
457.3974150179268
 20
112.6469912715043
 30
0.0
 40
2.0
100
AcDbArc
 50
20.00369099999796
 51
123.3159029999985
  0
ARC
  5
918
330
2
100
AcDbEntity
  8
0
  6
CONTINUOUS
100
AcDbCircle
 10
468.8114170179268
 20
122.2213282715043
 30
0.0
 40
5.0
100
AcDbArc
 50
158.7852019999987
 51
200.0023039999986
  0
ARC
  5
919
330
2
100
AcDbEntity
  8
0
  6
CONTINUOUS
100
AcDbCircle
 10
458.0924220179269
 20
107.8139912715043
 30
0.0
 40
3.0
100
AcDbArc
 50
20.00011999999862
 51
118.9102019999998
  0
LINE
  5
91A
330
2
100
AcDbEntity
  8
0
  6
CONTINUOUS
100
AcDbLine
 10
461.7854160179269
 20
106.4369082715043
 30
0.0
 11
459.2764130179268
 21
113.3305892715043
 31
0.0
  0
LINE
  5
91B
330
2
100
AcDbEntity
  8
0
  6
CONTINUOUS
100
AcDbLine
 10
407.2004240179268
 20
183.4108502715043
 30
0.0
 11
413.2004240179268
 21
183.4108502715043
 31
0.0
  0
LINE
  5
91C
330
2
100
AcDbEntity
  8
0
  6
CONTINUOUS
100
AcDbLine
 10
407.2004240179268
 20
177.4108502715043
 30
0.0
 11
413.2004240179268
 21
177.4108502715043
 31
0.0
  0
LINE
  5
91D
330
2
100
AcDbEntity
  8
CENTER
100
AcDbLine
 10
383.9485705102859
 20
180.4108502715043
 30
0.0
 11
457.4522775255677
 21
180.4108502715043
 31
0.0
  0
ARC
  5
91E
330
2
100
AcDbEntity
  8
0
  6
CONTINUOUS
100
AcDbCircle
 10
420.7004240179267
 20
119.4106712715043
 30
0.0
 40
104.4999999999999
100
AcDbArc
 50
90.0
 51
110.7677990000017
  0
CIRCLE
  5
91F
330
2
100
AcDbEntity
  8
0
  6
CONTINUOUS
100
AcDbCircle
 10
420.7004240179267
 20
180.4108502715043
 30
0.0
 40
25.0
  0
ARC
  5
920
330
2
100
AcDbEntity
  8
0
  6
CONTINUOUS
100
AcDbCircle
 10
476.7004240179268
 20
161.4108502715043
 30
0.0
 40
122.0
100
AcDbArc
 50
159.6002959999994
 51
172.1208949999985
  0
ARC
  5
921
330
2
100
AcDbEntity
  8
0
  6
CONTINUOUS
100
AcDbCircle
 10
445.2004240179268
 20
166.9108502715043
 30
0.0
 40
84.0
100
AcDbArc
 50
152.6869050000003
 51
185.6307069999993
  0
LINE
  5
922
330
2
100
AcDbEntity
  8
0
  6
CONTINUOUS
100
AcDbLine
 10
407.2004240179268
 20
183.4108502715043
 30
0.0
 11
407.2004240179268
 21
177.4108502715043
 31
0.0
  0
ARC
  5
923
330
2
100
AcDbEntity
  8
0
  6
CONTINUOUS
100
AcDbCircle
 10
390.4704130179268
 20
193.4791482715043
 30
0.0
 40
30.0
100
AcDbArc
 50
112.202003000001
 51
159.6000060000005
  0
ARC
  5
924
330
2
100
AcDbEntity
  8
0
  6
CONTINUOUS
100
AcDbCircle
 10
392.3344270179268
 20
194.2126692715043
 30
0.0
 40
24.5
100
AcDbArc
 50
110.7676009999984
 51
152.6867070000005
  0
ARC
  5
925
330
2
100
AcDbEntity
  8
0
  6
CONTINUOUS
100
AcDbCircle
 10
420.7004240179267
 20
180.4108502715043
 30
0.0
 40
11.0
100
AcDbArc
 50
195.8265989999994
 51
164.1734010000005
  0
LINE
  5
926
330
2
100
AcDbEntity
  8
0
  6
CONTINUOUS
100
AcDbLine
 10
413.2004240179268
 20
183.4108502715043
 30
0.0
 11
413.2004240179268
 21
177.4108502715043
 31
0.0
  0
ARC
  5
927
330
2
100
AcDbEntity
  8
0
  6
CONTINUOUS
100
AcDbCircle
 10
420.7004240179267
 20
119.4106712715043
 30
0.0
 40
104.4999999999999
100
AcDbArc
 50
69.23223099999836
 51
90.0
  0
ARC
  5
928
330
2
100
AcDbEntity
  8
0
  6
CONTINUOUS
100
AcDbCircle
 10
356.7004240179268
 20
180.4108502715043
 30
0.0
 40
125.0
100
AcDbArc
 50
331.0027599999985
 51
349.9835799999987
  0
LINE
  5
929
330
2
100
AcDbEntity
  8
0
  6
CONTINUOUS
100
AcDbLine
 10
485.5486300179268
 20
178.1350322715043
 30
0.0
 11
497.7700350179268
 21
90.41078927150431
 31
0.0
  0
LINE
  5
92A
330
2
100
AcDbEntity
  8
CENTER
100
AcDbLine
 10
485.7004240179268
 20
107.0671692715043
 30
0.0
 11
485.7004240179268
 21
85.56716927150432
 31
0.0
  0
ARC
  5
92B
330
2
100
AcDbEntity
  8
0
  6
CONTINUOUS
100
AcDbCircle
 10
493.4872280179269
 20
99.41102927150433
 30
0.0
 40
3.0
100
AcDbArc
 50
7.931651999999493
 51
90.0
  0
LINE
  5
92C
330
2
100
AcDbEntity
  8
0
  6
CONTINUOUS
100
AcDbLine
 10
493.4872280179269
 20
102.4108502715043
 30
0.0
 11
474.2014310179268
 21
102.4108502715043
 31
0.0
  0
ARC
  5
92D
330
2
100
AcDbEntity
  8
0
  6
CONTINUOUS
100
AcDbCircle
 10
472.8012240179269
 20
105.4110292715043
 30
0.0
 40
3.0
100
AcDbArc
 50
199.9996950000008
 51
270.0
  0
LINE
  5
92E
330
2
100
AcDbEntity
  8
HIDS
  6
SEKKEI_H
100
AcDbLine
 10
491.2004240179268
 20
102.4108502715043
 30
0.0
 11
491.2004240179268
 21
90.41085027150433
 31
0.0
  0
LINE
  5
92F
330
2
100
AcDbEntity
  8
HIDS
  6
SEKKEI_H
100
AcDbLine
 10
480.2004240179268
 20
102.4108502715043
 30
0.0
 11
480.2004240179268
 21
90.41085027150433
 31
0.0
  0
ARC
  5
930
330
2
100
AcDbEntity
  8
0
  6
CONTINUOUS
100
AcDbCircle
 10
364.7004240179268
 20
161.4108502715043
 30
0.0
 40
122.0
100
AcDbArc
 50
7.879120000000896
 51
20.39979900000159
  0
ARC
  5
931
330
2
100
AcDbEntity
  8
0
  6
CONTINUOUS
100
AcDbCircle
 10
396.2004240179268
 20
166.9108502715043
 30
0.0
 40
84.0
100
AcDbArc
 50
354.3693079999997
 51
27.31318100000244
  0
ARC
  5
932
330
2
100
AcDbEntity
  8
HOJO
  6
CONTINUOUS
100
AcDbCircle
 10
417.9503417476163
 20
248.38169879568
 30
0.0
 40
1.600781
100
AcDbArc
 50
247.1647030000001
 51
321.3401790000018
  0
LINE
  5
933
330
2
100
AcDbEntity
  8
0
  6
CONTINUOUS
100
AcDbLine
 10
419.2003417476163
 20
247.38169879568
 30
0.0
 11
419.2003417476163
 21
229.4003204012885
 31
0.0
  0
ARC
  5
934
330
2
100
AcDbEntity
  8
HOJO
  6
CONTINUOUS
100
AcDbCircle
 10
414.4503417476163
 20
246.38169879568
 30
0.0
 40
1.600781999999999
100
AcDbArc
 50
67.16467299999876
 51
141.340195000003
  0
LINE
  5
935
330
2
100
AcDbEntity
  8
0
  6
CONTINUOUS
100
AcDbLine
 10
413.2003417476163
 20
247.38169879568
 30
0.0
 11
413.2003417476163
 21
229.1545639872899
 31
0.0
  0
LINE
  5
936
330
2
100
AcDbEntity
  8
HOJO
  6
CONTINUOUS
100
AcDbLine
 10
415.0716497476163
 20
247.85700979568
 30
0.0
 11
417.3292487476163
 21
246.90640279568
 31
0.0
  0
LINE
  5
937
330
2
100
AcDbEntity
  8
HOJO
  6
CONTINUOUS
100
AcDbLine
 10
427.0716497476163
 20
247.85700979568
 30
0.0
 11
428.2003417476163
 21
247.38174479568
 31
0.0
  0
LINE
  5
938
330
2
100
AcDbEntity
  8
HOJO
  6
CONTINUOUS
100
AcDbLine
 10
422.2003417476163
 20
247.38174479568
 30
0.0
 11
423.3292487476163
 21
246.90640279568
 31
0.0
  0
ARC
  5
939
330
2
100
AcDbEntity
  8
HOJO
  6
CONTINUOUS
100
AcDbCircle
 10
423.9503417476162
 20
248.38169879568
 30
0.0
 40
1.600781
100
AcDbArc
 50
247.1647030000001
 51
321.3401790000018
  0
ARC
  5
93A
330
2
100
AcDbEntity
  8
HOJO
  6
CONTINUOUS
100
AcDbCircle
 10
426.4503417476163
 20
246.38169879568
 30
0.0
 40
1.600781999999999
100
AcDbArc
 50
67.16467299999876
 51
141.340195000003
  0
LINE
  5
93B
330
2
100
AcDbEntity
  8
0
  6
CONTINUOUS
100
AcDbLine
 10
428.2003417476163
 20
247.38174479568
 30
0.0
 11
428.2003417476164
 21
229.1545752321364
 31
0.0
  0
LINE
  5
93C
330
2
100
AcDbEntity
  8
0
  6
CONTINUOUS
100
AcDbLine
 10
415.2005062882373
 20
247.80275218416
 30
0.0
 11
415.2005062882373
 21
229.2729673450505
 31
0.0
  0
LINE
  5
93D
330
2
100
AcDbEntity
  8
0
  6
CONTINUOUS
100
AcDbLine
 10
417.2005062882373
 20
246.9606123710223
 30
0.0
 11
417.2005062882373
 21
229.3548559721489
 31
0.0
  0
LINE
  5
93E
330
2
100
AcDbEntity
  8
0
  6
CONTINUOUS
100
AcDbLine
 10
422.2003417476163
 20
247.38174479568
 30
0.0
 11
422.2003417476163
 21
229.4003226452328
 31
0.0
  0
TEXT
  5
93F
330
2
100
AcDbEntity
  8
TITLE
100
AcDbText
 10
40.17212016054076
 20
27.24609005352289
 30
0.0
 40
9.0
  1
VGLC22-5～30N400
100
AcDbText
  0
LINE
  5
C6F
330
2
100
AcDbEntity
  8
CENTER
100
AcDbLine
 10
29.96390749623106
 20
433.6618301930325
 30
0.0
 11
270.245127496231
 21
433.6618301930325
 31
0.0
  0
LINE
  5
C70
330
2
100
AcDbEntity
  8
0
100
AcDbLine
 10
225.2451274962311
 20
420.1618301930325
 30
0.0
 11
260.2451274962311
 21
420.1618301930325
 31
0.0
  0
LINE
  5
C71
330
2
100
AcDbEntity
  8
0
100
AcDbLine
 10
225.2451274962311
 20
423.0788531930325
 30
0.0
 11
260.2451274962311
 21
423.0788531930325
 31
0.0
  0
LINE
  5
C72
330
2
100
AcDbEntity
  8
0
100
AcDbLine
 10
220.2451274962311
 20
444.6618301930325
 30
0.0
 11
260.2451274962311
 21
444.6618301930325
 31
0.0
  0
ARC
  5
C78
330
2
100
AcDbEntity
  8
0
100
AcDbCircle
 10
614.989268496231
 20
434.0848041930326
 30
0.0
 40
400.0
100
AcDbArc
 50
180.0605930000017
 51
183.6439970000011
  0
ARC
  5
C79
330
2
100
AcDbEntity
  8
0
100
AcDbCircle
 10
99.19501749623101
 20
429.7060201930325
 30
0.0
 40
103.7254029999999
100
AcDbArc
 50
323.256470000001
 51
2.18563499999837
  0
LINE
  5
C7A
330
2
100
AcDbEntity
  8
0
100
AcDbLine
 10
126.746638496231
 20
497.1618301930325
 30
0.0
 11
126.7466384962309
 21
370.1618301939323
 31
0.0
  0
LINE
  5
C7B
330
2
100
AcDbEntity
  8
0
100
AcDbLine
 10
137.2450514962309
 20
369.8028511930325
 30
0.0
 11
137.2450514962309
 21
497.5208091930324
 31
0.0
  0
LINE
  5
C7C
330
2
100
AcDbEntity
  8
0
100
AcDbLine
 10
218.2451274962311
 20
456.1618301930325
 30
0.0
 11
218.2451274962311
 21
411.1618301930326
 31
0.0
  0
LINE
  5
C7D
330
2
100
AcDbEntity
  8
0
100
AcDbLine
 10
220.2451274962311
 20
445.6618301930325
 30
0.0
 11
220.2451274962311
 21
421.6618301930325
 31
0.0
  0
LINE
  5
C7E
330
2
100
AcDbEntity
  8
0
100
AcDbLine
 10
143.2450514962309
 20
367.6618301930326
 30
0.0
 11
143.2450514962309
 21
499.6618301930324
 31
0.0
  0
ARC
  5
CA3
330
2
100
AcDbEntity
  8
0
100
AcDbCircle
 10
140.2450514962309
 20
354.9804341930325
 30
0.0
 40
15.0
100
AcDbArc
 50
6.430361000000786
 51
78.46295900000057
  0
LINE
  5
CA4
330
2
100
AcDbEntity
  8
0
100
AcDbLine
 10
155.250666496231
 20
356.6620441930325
 30
0.0
 11
139.430964496231
 21
357.0764731930324
 31
0.0
  0
LINE
  5
CA5
330
2
100
AcDbEntity
  8
CENTER
100
AcDbLine
 10
140.2450514962309
 20
359.9603381930324
 30
0.0
 11
140.2450514962309
 21
377.3633221930325
 31
0.0
  0
ARC
  5
CA6
330
2
100
AcDbEntity
  8
0
100
AcDbCircle
 10
139.7450514962309
 20
369.0721091930325
 30
0.0
 40
12.0
100
AcDbArc
 50
180.0
 51
268.4996949999983
  0
LINE
  5
CA7
330
2
100
AcDbEntity
  8
0
100
AcDbLine
 10
126.7466384962309
 20
370.1618301939323
 30
0.0
 11
137.2450514962309
 21
370.1618301939323
 31
0.0
  0
LINE
  5
CA8
330
2
100
AcDbEntity
  8
0
100
AcDbLine
 10
126.746638496231
 20
370.1618301930325
 30
0.0
 11
127.0973164962309
 21
370.1618301930325
 31
0.0
  0
LINE
  5
CA9
330
2
100
AcDbEntity
  8
CENTER
100
AcDbLine
 10
131.5435594962309
 20
368.6618301930325
 30
0.0
 11
148.946543496231
 21
368.6618301930325
 31
0.0
  0
ARC
  5
CAA
330
2
100
AcDbEntity
  8
0
100
AcDbCircle
 10
139.2450514962309
 20
369.8028511930325
 30
0.0
 40
2.0
100
AcDbArc
 50
180.0
 51
268.000213999999
  0
ARC
  5
CAB
330
2
100
AcDbEntity
  8
HIDS
  6
SEKKEI_H
100
AcDbCircle
 10
140.2450514962309
 20
368.6618301930325
 30
0.0
 40
5.5
100
AcDbArc
 50
349.5243000000006
 51
123.1975860000005
  0
ARC
  5
CAC
330
2
100
AcDbEntity
  8
0
100
AcDbCircle
 10
140.2450514962309
 20
368.6618301930325
 30
0.0
 40
5.5
100
AcDbArc
 50
123.1975860000005
 51
349.5242919999993
  0
LINE
  5
CAD
330
2
100
AcDbEntity
  8
0
100
AcDbLine
 10
127.7450514962309
 20
370.1618301930325
 30
0.0
 11
127.7450514962309
 21
369.0721081930325
 31
0.0
  0
LINE
  5
CAE
330
2
100
AcDbEntity
  8
0
100
AcDbLine
 10
143.2450514962309
 20
367.6618301930326
 30
0.0
 11
148.256464496231
 21
367.6618301930326
 31
0.0
  0
LINE
  5
CAF
330
2
100
AcDbEntity
  8
0
100
AcDbLine
 10
139.1752274962309
 20
367.8040421930325
 30
0.0
 11
143.2450514962309
 21
367.6619521930325
 31
0.0
  0
ARC
  5
CB0
330
2
100
AcDbEntity
  8
0
100
AcDbCircle
 10
205.7450664962309
 20
369.5154681930325
 30
0.0
 40
12.0
100
AcDbArc
 50
271.0003130000003
 51
0.0
  0
LINE
  5
CB1
330
2
100
AcDbEntity
  8
CENTER
100
AcDbLine
 10
205.2450664962309
 20
359.9603381930324
 30
0.0
 11
205.2450664962309
 21
377.3633221930325
 31
0.0
  0
ARC
  5
CB2
330
2
100
AcDbEntity
  8
0
100
AcDbCircle
 10
193.2442424962309
 20
368.8721581930324
 30
0.0
 40
11.0
100
AcDbArc
 50
186.3612979999983
 51
220.5068049999992
  0
LINE
  5
CB3
330
2
100
AcDbEntity
  8
0
100
AcDbLine
 10
155.251154496231
 20
356.6320451930325
 30
0.0
 11
205.9544174962309
 21
357.5172991930325
 31
0.0
  0
ARC
  5
CB4
330
2
100
AcDbEntity
  8
0
100
AcDbCircle
 10
194.1857404962311
 20
369.3045311930325
 30
0.0
 40
12.0
100
AcDbArc
 50
219.1566010000002
 51
273.238892
  0
ARC
  5
CB5
330
2
100
AcDbEntity
  8
0
100
AcDbCircle
 10
182.2450514962308
 20
430.1618301930325
 30
0.0
 40
57.0
100
AcDbArc
 50
277.5310970000008
 51
293.2874149999999
  0
LINE
  5
CB6
330
2
100
AcDbEntity
  8
CENTER
100
AcDbLine
 10
196.5435744962308
 20
368.6618301930325
 30
0.0
 11
213.946558496231
 21
368.6618301930325
 31
0.0
  0
ARC
  5
CB7
330
2
100
AcDbEntity
  8
0
100
AcDbCircle
 10
182.2450514962308
 20
430.1619531930326
 30
0.0
 40
57.0
100
AcDbArc
 50
274.0237119999987
 51
277.5307010000005
  0
ARC
  5
CB8
330
2
100
AcDbEntity
  8
0
100
AcDbCircle
 10
205.745188496231
 20
387.6618301930325
 30
0.0
 40
12.0
100
AcDbArc
 50
0.0
 51
38.15891999999913
  0
ARC
  5
CB9
330
2
100
AcDbEntity
  8
0
100
AcDbCircle
 10
-483.755330503769
 20
433.6618301930325
 30
0.0
 40
700.0
100
AcDbArc
 50
356.6170959999985
 51
357.9533080000006
  0
ARC
  5
CBA
330
2
100
AcDbEntity
  8
0
100
AcDbCircle
 10
198.058665496231
 20
393.4204361930325
 30
0.0
 40
17.0
100
AcDbArc
 50
293.2874149999999
 51
356.6224979999989
  0
LINE
  5
CBB
330
2
100
AcDbEntity
  8
0
100
AcDbLine
 10
217.7451274962311
 20
387.6618301930325
 30
0.0
 11
217.7451274962311
 21
369.5154681930325
 31
0.0
  0
CIRCLE
  5
CBC
330
2
100
AcDbEntity
  8
0
100
AcDbCircle
 10
205.2450664962309
 20
368.6618301930325
 30
0.0
 40
5.5
  0
LINE
  5
CBD
330
2
100
AcDbEntity
  8
0
100
AcDbLine
 10
220.2451274962311
 20
422.6618301930325
 30
0.0
 11
225.2451274962311
 21
422.6618301930325
 31
0.0
  0
LINE
  5
CBE
330
2
100
AcDbEntity
  8
0
100
AcDbLine
 10
220.2451274962311
 20
421.6618301930325
 30
0.0
 11
218.2451274962311
 21
421.6618301930325
 31
0.0
  0
ARC
  5
CBF
330
2
100
AcDbEntity
  8
0
100
AcDbCircle
 10
215.7451274962311
 20
411.1618301930326
 30
0.0
 40
2.5
100
AcDbArc
 50
271.2145080000007
 51
0.0
  0
LINE
  5
CC0
330
2
100
AcDbEntity
  8
0
100
AcDbLine
 10
225.2451274962311
 20
423.0788531930325
 30
0.0
 11
225.2451274962311
 21
420.1618301930325
 31
0.0
  0
ARC
  5
CC2
330
2
100
AcDbEntity
  8
0
100
AcDbCircle
 10
140.355158496231
 20
512.3743241930326
 30
0.0
 40
15.0
100
AcDbArc
 50
281.1073000000007
 51
353.4448849999999
  0
LINE
  5
CC3
330
2
100
AcDbEntity
  8
0
100
AcDbLine
 10
155.250666496231
 20
510.6615861930325
 30
0.0
 11
139.430964496231
 21
510.2472801930325
 31
0.0
  0
LINE
  5
CC4
330
2
100
AcDbEntity
  8
0
100
AcDbLine
 10
126.746638496231
 20
497.1618301930325
 30
0.0
 11
127.0973164962309
 21
497.1618301930325
 31
0.0
  0
ARC
  5
CC5
330
2
100
AcDbEntity
  8
0
100
AcDbCircle
 10
139.7450514962309
 20
498.2515521930324
 30
0.0
 40
12.0
100
AcDbArc
 50
91.50030499999834
 51
180.0
  0
ARC
  5
CC6
330
2
100
AcDbEntity
  8
0
100
AcDbCircle
 10
139.2450514962309
 20
497.5208091930325
 30
0.0
 40
2.0
100
AcDbArc
 50
92.0013119999994
 51
180.0
  0
ARC
  5
CC7
330
2
100
AcDbEntity
  8
0
100
AcDbCircle
 10
140.2450514962309
 20
498.6618301930325
 30
0.0
 40
5.5
100
AcDbArc
 50
10.47567000000058
 51
236.8025209999983
  0
ARC
  5
CC8
330
2
100
AcDbEntity
  8
HIDS
  6
SEKKEI_H
100
AcDbCircle
 10
140.2450514962309
 20
498.6618301930325
 30
0.0
 40
5.5
100
AcDbArc
 50
236.8025129999998
 51
10.47567000000058
  0
LINE
  5
CC9
330
2
100
AcDbEntity
  8
CENTER
100
AcDbLine
 10
140.2450514962309
 20
489.9603381930323
 30
0.0
 11
140.2450514962309
 21
507.3633221930324
 31
0.0
  0
LINE
  5
CCA
330
2
100
AcDbEntity
  8
CENTER
100
AcDbLine
 10
131.5435594962309
 20
498.6618301930325
 30
0.0
 11
148.946543496231
 21
498.6618301930325
 31
0.0
  0
LINE
  5
CCB
330
2
100
AcDbEntity
  8
0
100
AcDbLine
 10
127.0973164962309
 20
497.1618301930325
 30
0.0
 11
137.2450514962309
 21
497.1618301930325
 31
0.0
  0
LINE
  5
CCC
330
2
100
AcDbEntity
  8
0
100
AcDbLine
 10
127.7450514962309
 20
497.1618301930322
 30
0.0
 11
127.7450514962309
 21
498.2515521930324
 31
0.0
  0
LINE
  5
CCD
330
2
100
AcDbEntity
  8
0
100
AcDbLine
 10
139.1752274962309
 20
499.5196181930325
 30
0.0
 11
143.2450514962309
 21
499.6618301930324
 31
0.0
  0
LINE
  5
CCE
330
2
100
AcDbEntity
  8
0
100
AcDbLine
 10
143.244807496231
 20
499.6618301930324
 30
0.0
 11
148.317072496231
 21
499.6618301930324
 31
0.0
  0
ARC
  5
CCF
330
2
100
AcDbEntity
  8
0
100
AcDbCircle
 10
198.058665496231
 20
473.9032861930325
 30
0.0
 40
17.0
100
AcDbArc
 50
3.377502000001053
 51
66.71258500000006
  0
LINE
  5
CD0
330
2
100
AcDbEntity
  8
0
100
AcDbLine
 10
217.7451274962311
 20
479.6618301930325
 30
0.0
 11
217.7451274962311
 21
497.8081931930326
 31
0.0
  0
ARC
  5
CD1
330
2
100
AcDbEntity
  8
0
100
AcDbCircle
 10
99.19501749623101
 20
437.6176411930325
 30
0.0
 40
103.7254029999999
100
AcDbArc
 50
357.8143649999983
 51
36.74352999999896
  0
ARC
  5
CD2
330
2
100
AcDbEntity
  8
0
100
AcDbCircle
 10
614.989268496231
 20
433.2388571930326
 30
0.0
 40
400.0
100
AcDbArc
 50
176.3560029999988
 51
179.9394069999982
  0
LINE
  5
CD3
330
2
100
AcDbEntity
  8
0
100
AcDbLine
 10
220.2451274962311
 20
445.6618301930325
 30
0.0
 11
218.2451274962311
 21
445.6618301930325
 31
0.0
  0
ARC
  5
CD4
330
2
100
AcDbEntity
  8
0
100
AcDbCircle
 10
-483.755330503769
 20
433.6618301930325
 30
0.0
 40
700.0
100
AcDbArc
 50
2.046958000000382
 51
3.377728999999253
  0
ARC
  5
CD5
330
2
100
AcDbEntity
  8
0
100
AcDbCircle
 10
215.7451274962311
 20
456.1618301930325
 30
0.0
 40
2.5
100
AcDbArc
 50
0.0
 51
88.78549199999923
  0
ARC
  5
CD6
330
2
100
AcDbEntity
  8
0
100
AcDbCircle
 10
205.745188496231
 20
479.6618301930325
 30
0.0
 40
12.0
100
AcDbArc
 50
321.8410800000008
 51
0.0
  0
LINE
  5
CD7
330
2
100
AcDbEntity
  8
0
100
AcDbLine
 10
155.251154496231
 20
510.6915851930325
 30
0.0
 11
205.9544174962309
 21
509.8063921930324
 31
0.0
  0
ARC
  5
CD8
330
2
100
AcDbEntity
  8
0
100
AcDbCircle
 10
182.2450514962308
 20
437.1618301930324
 30
0.0
 40
57.0
100
AcDbArc
 50
66.71258500000006
 51
82.4689029999992
  0
LINE
  5
CD9
330
2
100
AcDbEntity
  8
CENTER
100
AcDbLine
 10
196.5435744962308
 20
498.6618301930325
 30
0.0
 11
213.946558496231
 21
498.6618301930325
 31
0.0
  0
ARC
  5
CDA
330
2
100
AcDbEntity
  8
0
100
AcDbCircle
 10
182.2450514962308
 20
437.1617081930323
 30
0.0
 40
57.0
100
AcDbArc
 50
82.46929899999951
 51
85.97628799999798
  0
ARC
  5
CDB
330
2
100
AcDbEntity
  8
0
100
AcDbCircle
 10
194.1857404962311
 20
498.0191301930326
 30
0.0
 40
12.0
100
AcDbArc
 50
86.76110800000001
 51
140.8433989999998
  0
ARC
  5
CDC
330
2
100
AcDbEntity
  8
0
100
AcDbCircle
 10
193.2442424962309
 20
498.4515341930325
 30
0.0
 40
11.0
100
AcDbArc
 50
139.4931950000007
 51
173.6387020000016
  0
CIRCLE
  5
CDD
330
2
100
AcDbEntity
  8
0
100
AcDbCircle
 10
205.2450664962309
 20
498.6618301930325
 30
0.0
 40
5.5
  0
ARC
  5
CDE
330
2
100
AcDbEntity
  8
0
100
AcDbCircle
 10
205.7450664962309
 20
497.8081931930326
 30
0.0
 40
12.0
100
AcDbArc
 50
0.0
 51
88.99968699999964
  0
LINE
  5
CDF
330
2
100
AcDbEntity
  8
CENTER
100
AcDbLine
 10
205.2450664962309
 20
489.9603381930323
 30
0.0
 11
205.2450664962309
 21
507.3633221930324
 31
0.0
  0
LINE
  5
CE0
330
2
100
AcDbEntity
  8
0
100
AcDbLine
 10
260.2451274962311
 20
444.6618301930325
 30
0.0
 11
260.2451274962311
 21
422.6618301930325
 31
0.0
  0
LINE
  5
CF4
330
2
100
AcDbEntity
  8
0
100
AcDbLine
 10
260.2451274962311
 20
422.6618301930325
 30
0.0
 11
260.2451274962311
 21
420.1618301930325
 31
0.0
  0
MTEXT
  5
255B
330
2
100
AcDbEntity
  8
TITLE
100
AcDbMText
 10
176.3485643339938
 20
39.43866232845599
 30
0.0
 40
5.6568
 41
23.355513
 71
     1
 72
     5
  1
L2\PL4
1001
ACAD
1000
MTEXTBEGIN
1070
    73
1070
     1
1070
    44
1040
1.0
1070
    74
1070
     0
1000
MTEXTEND
1000
MTEXTBEGIN
1070
    73
1070
     1
1070
    44
1040
1.0
1070
    74
1070
     0
1000
MTEXTEND
  0
LINE
  5
26B5
330
2
100
AcDbEntity
  8
0
100
AcDbLine
 10
38.24654649623124
 20
383.6618301930325
 30
0.0
 11
39.74663849623101
 21
383.6618301930325
 31
0.0
  0
LINE
  5
26B6
330
2
100
AcDbEntity
  8
0
100
AcDbLine
 10
38.24624190974117
 20
483.6792799413837
 30
0.0
 11
39.74663849623101
 21
483.7316749447267
 31
0.0
  0
LINE
  5
26B7
330
2
100
AcDbEntity
  8
0
100
AcDbLine
 10
126.746638496231
 20
497.1618681930322
 30
0.0
 11
117.7291594962309
 21
497.0042301930325
 31
0.0
  0
LINE
  5
26B8
330
2
100
AcDbEntity
  8
CENTER
100
AcDbLine
 10
106.684756496231
 20
474.6718701930322
 30
0.0
 11
130.9442164962308
 21
474.6718701930322
 31
0.0
  0
LINE
  5
26B9
330
2
100
AcDbEntity
  8
0
100
AcDbLine
 10
126.746638496231
 20
370.1617311930322
 30
0.0
 11
117.7291594962309
 21
370.3191101930324
 31
0.0
  0
LINE
  5
26BA
330
2
100
AcDbEntity
  8
CENTER
100
AcDbLine
 10
107.363459496231
 20
392.6517291930322
 30
0.0
 11
130.9442164962308
 21
392.6517291930322
 31
0.0
  0
LINE
  5
26BB
330
2
100
AcDbEntity
  8
0
100
AcDbLine
 10
116.746638496231
 20
496.0044511930322
 30
0.0
 11
116.746638496231
 21
371.3189691930324
 31
0.0
  0
LINE
  5
26BC
330
2
100
AcDbEntity
  8
0
100
AcDbLine
 10
37.24663849623101
 20
451.6618301930325
 30
0.0
 11
37.24663849623101
 21
415.6618301930325
 31
0.0
  0
ARC
  5
26BD
330
2
100
AcDbEntity
  8
0
100
AcDbCircle
 10
47.24663849623602
 20
443.5040860716094
 30
0.0
 40
1.0
100
AcDbArc
 50
0.0
 51
87.9999999999964
  0
LINE
  5
26BE
330
2
100
AcDbEntity
  8
0
100
AcDbLine
 10
42.74663849623602
 20
444.6618301930325
 30
0.0
 11
42.74663849623602
 21
441.1118301930323
 31
0.0
  0
LINE
  5
26BF
330
2
100
AcDbEntity
  8
0
100
AcDbLine
 10
115.7553584962312
 20
430.3976081930327
 30
0.0
 11
53.17807557748636
 21
429.8515212629935
 31
0.0
  0
LINE
  5
26C0
330
2
100
AcDbEntity
  8
0
100
AcDbLine
 10
115.7553584962312
 20
427.4262201930327
 30
0.0
 11
53.34302164498757
 21
427.9708801602374
 31
0.0
  0
LINE
  5
26C1
330
2
100
AcDbEntity
  8
0
100
AcDbLine
 10
115.7553584962312
 20
426.6118121930325
 30
0.0
 11
54.1281142267764
 21
427.1496392675294
 31
0.0
  0
LINE
  5
26C2
330
2
100
AcDbEntity
  8
0
100
AcDbLine
 10
115.7553584962312
 20
431.4834241930325
 30
0.0
 11
54.12811350479859
 21
430.9455736677413
 31
0.0
  0
LINE
  5
26C3
330
2
100
AcDbEntity
  8
0
100
AcDbLine
 10
115.7553584962308
 20
440.7118481930324
 30
0.0
 11
54.12811422677595
 21
440.1740211185356
 31
0.0
  0
LINE
  5
26C4
330
2
100
AcDbEntity
  8
0
100
AcDbLine
 10
115.7553584962308
 20
435.8402361930325
 30
0.0
 11
54.12811350479859
 21
436.3780867183236
 31
0.0
  0
LINE
  5
26C5
330
2
100
AcDbEntity
  8
0
100
AcDbLine
 10
115.7553584962308
 20
436.9260521930323
 30
0.0
 11
53.71672152687978
 21
437.4674385752182
 31
0.0
  0
LINE
  5
26C6
330
2
100
AcDbEntity
  8
0
100
AcDbLine
 10
115.7553584962308
 20
439.8974401930327
 30
0.0
 11
54.37256205926013
 21
439.3617648188837
 31
0.0
  0
LINE
  5
26C7
330
2
100
AcDbEntity
  8
0
100
AcDbLine
 10
115.7553584962308
 20
417.5976361930325
 30
0.0
 11
46.07493849623113
 21
418.2056381930324
 31
0.0
  0
LINE
  5
26C8
330
2
100
AcDbEntity
  8
0
100
AcDbLine
 10
115.7553584962308
 20
422.3204301930322
 30
0.0
 11
46.8679384962308
 21
421.7192341930322
 31
0.0
  0
LINE
  5
26C9
330
2
100
AcDbEntity
  8
0
100
AcDbLine
 10
115.7553584962308
 20
418.1158401930324
 30
0.0
 11
45.55948249623106
 21
418.7284501930321
 31
0.0
  0
LINE
  5
26CA
330
2
100
AcDbEntity
  8
0
100
AcDbLine
 10
115.7553584962308
 20
420.9962421930322
 30
0.0
 11
45.55948249623106
 21
420.3838461930322
 31
0.0
  0
LINE
  5
26CB
330
2
100
AcDbEntity
  8
0
100
AcDbLine
 10
115.7553584962308
 20
377.8834721930325
 30
0.0
 11
44.93001849623095
 21
378.5015291930321
 31
0.0
  0
LINE
  5
26CC
330
2
100
AcDbEntity
  8
0
100
AcDbLine
 10
116.0486404962309
 20
379.4937511930324
 30
0.0
 11
44.93001849623095
 21
378.8731111930323
 31
0.0
  0
LINE
  5
26CD
330
2
100
AcDbEntity
  8
0
100
AcDbLine
 10
115.7553584962308
 20
381.3983301930324
 30
0.0
 11
45.05392049623077
 21
380.7813291930324
 31
0.0
  0
LINE
  5
26CE
330
2
100
AcDbEntity
  8
0
100
AcDbLine
 10
115.7553584962308
 20
379.5404081930323
 30
0.0
 11
45.05392049623077
 21
380.1574091930324
 31
0.0
  0
LINE
  5
26CF
330
2
100
AcDbEntity
  8
0
100
AcDbLine
 10
115.7553584962308
 20
382.8320911930322
 30
0.0
 11
45.15305649623104
 21
383.4482111930324
 31
0.0
  0
LINE
  5
26D0
330
2
100
AcDbEntity
  8
0
100
AcDbLine
 10
115.7553584962308
 20
384.8932101930322
 30
0.0
 11
45.15305649623104
 21
384.2770681930323
 31
0.0
  0
LINE
  5
26D1
330
2
100
AcDbEntity
  8
0
100
AcDbLine
 10
97.60045949623117
 20
382.9905081930323
 30
0.0
 11
46.78863849623093
 21
382.5470921930323
 31
0.0
  0
LINE
  5
26D2
330
2
100
AcDbEntity
  8
0
100
AcDbLine
 10
115.7553584962308
 20
387.5266101930323
 30
0.0
 11
45.29183449623104
 21
388.1415281930321
 31
0.0
  0
LINE
  5
26D3
330
2
100
AcDbEntity
  8
0
100
AcDbLine
 10
112.2565564962307
 20
389.8391101930324
 30
0.0
 11
45.29183449623104
 21
389.2547291930323
 31
0.0
  0
LINE
  5
26D4
330
2
100
AcDbEntity
  8
0
100
AcDbLine
 10
115.7553584962308
 20
400.9198291930324
 30
0.0
 11
45.47024049623104
 21
401.5332291930321
 31
0.0
  0
LINE
  5
26D5
330
2
100
AcDbEntity
  8
0
100
AcDbLine
 10
115.7553584962308
 20
403.6218101930321
 30
0.0
 11
45.47024049623104
 21
403.0084111930323
 31
0.0
  0
LINE
  5
26D6
330
2
100
AcDbEntity
  8
0
100
AcDbLine
 10
115.7553584962308
 20
409.1378111930321
 30
0.0
 11
45.53963849623113
 21
409.7506091930322
 31
0.0
  0
LINE
  5
26D7
330
2
100
AcDbEntity
  8
0
100
AcDbLine
 10
115.7553584962308
 20
411.9798311930321
 30
0.0
 11
45.53963849623113
 21
411.3670301930324
 31
0.0
  0
LINE
  5
26D8
330
2
100
AcDbEntity
  8
0
100
AcDbLine
 10
115.7553584962308
 20
386.7072291930321
 30
0.0
 11
46.94723849623113
 21
386.1067501930324
 31
0.0
  0
LINE
  5
26D9
330
2
100
AcDbEntity
  8
0
100
AcDbLine
 10
111.8078564962308
 20
391.6574891930322
 30
0.0
 11
47.09595849623082
 21
391.0927691930323
 31
0.0
  0
LINE
  5
26DA
330
2
100
AcDbEntity
  8
0
100
AcDbLine
 10
115.7553584962308
 20
405.296010193032
 30
0.0
 11
47.125696496231
 21
404.6972301930322
 31
0.0
  0
LINE
  5
26DB
330
2
100
AcDbEntity
  8
0
100
AcDbLine
 10
115.7553584962308
 20
413.5022311930324
 30
0.0
 11
47.04639649623112
 21
412.9024101930322
 31
0.0
  0
LINE
  5
26DC
330
2
100
AcDbEntity
  8
0
100
AcDbLine
 10
39.74663849623101
 20
414.6618301930325
 30
0.0
 11
39.74663849623101
 21
383.3162911930321
 31
0.0
  0
LINE
  5
26DD
330
2
100
AcDbEntity
  8
0
100
AcDbLine
 10
44.90893849623097
 20
381.2886111930324
 30
0.0
 11
41.7291604962308
 21
381.3163711930324
 31
0.0
  0
ARC
  5
26DE
330
2
100
AcDbEntity
  8
0
100
AcDbCircle
 10
41.74663849623101
 20
383.3162911930321
 30
0.0
 40
2.0
100
AcDbArc
 50
180.0
 51
269.5000000000084
  0
ARC
  5
26DF
330
2
100
AcDbEntity
  8
0
100
AcDbCircle
 10
45.29661849623079
 20
388.7047301930324
 30
0.0
 40
0.55
100
AcDbArc
 50
90.49999999999155
 51
180.0
  0
ARC
  5
26E0
330
2
100
AcDbEntity
  8
0
100
AcDbCircle
 10
47.11664049623112
 20
388.7228311930321
 30
0.0
 40
2.37
100
AcDbArc
 50
90.49999999999155
 51
180.0
  0
ARC
  5
26E1
330
2
100
AcDbEntity
  8
0
100
AcDbCircle
 10
45.15661849623092
 20
383.8670911930321
 30
0.0
 40
0.41
100
AcDbArc
 50
90.49999999999155
 51
180.0
  0
ARC
  5
26E2
330
2
100
AcDbEntity
  8
0
100
AcDbCircle
 10
46.96664049623104
 20
383.8868281930322
 30
0.0
 40
2.22
100
AcDbArc
 50
90.49999999999155
 51
180.0
  0
ARC
  5
26E3
330
2
100
AcDbEntity
  8
0
100
AcDbCircle
 10
46.80662049623077
 20
380.4871701930323
 30
0.0
 40
2.06
100
AcDbArc
 50
90.49999999999155
 51
180.0
  0
ARC
  5
26E4
330
2
100
AcDbEntity
  8
0
100
AcDbCircle
 10
45.05662049623078
 20
380.4674101930322
 30
0.0
 40
0.31
100
AcDbArc
 50
180.0
 51
269.5000000000084
  0
ARC
  5
26E5
330
2
100
AcDbEntity
  8
0
100
AcDbCircle
 10
45.05662049623078
 20
380.4713511930322
 30
0.0
 40
0.31
100
AcDbArc
 50
90.49999999999155
 51
180.0
  0
LINE
  5
26E6
330
2
100
AcDbEntity
  8
0
100
AcDbLine
 10
44.74663849623101
 20
380.4871701930323
 30
0.0
 11
44.74663849623101
 21
380.4674101930322
 31
0.0
  0
LINE
  5
26E7
330
2
100
AcDbEntity
  8
0
100
AcDbLine
 10
44.74663849623101
 20
380.4713511930322
 30
0.0
 11
44.74663849623101
 21
380.4674101930322
 31
0.0
  0
ARC
  5
26E8
330
2
100
AcDbEntity
  8
0
100
AcDbCircle
 10
45.15661849623092
 20
383.8581921930322
 30
0.0
 40
0.41
100
AcDbArc
 50
180.0
 51
269.5000000000084
  0
LINE
  5
26E9
330
2
100
AcDbEntity
  8
0
100
AcDbLine
 10
44.74663849623101
 20
383.8868281930322
 30
0.0
 11
44.74663849623101
 21
383.8581921930322
 31
0.0
  0
LINE
  5
26EA
330
2
100
AcDbEntity
  8
0
100
AcDbLine
 10
44.74663849623101
 20
383.8670911930321
 30
0.0
 11
44.74663849623101
 21
383.8581921930322
 31
0.0
  0
ARC
  5
26EB
330
2
100
AcDbEntity
  8
0
100
AcDbCircle
 10
45.29661849623079
 20
388.6915311930324
 30
0.0
 40
0.55
100
AcDbArc
 50
180.0
 51
269.5000000000084
  0
LINE
  5
26EC
330
2
100
AcDbEntity
  8
0
100
AcDbLine
 10
44.74663849623101
 20
388.7228311930321
 30
0.0
 11
44.74663849623101
 21
388.6915311930324
 31
0.0
  0
LINE
  5
26ED
330
2
100
AcDbEntity
  8
0
100
AcDbLine
 10
44.74663849623101
 20
388.7047301930324
 30
0.0
 11
44.74663849623101
 21
388.6915311930324
 31
0.0
  0
ARC
  5
26EE
330
2
100
AcDbEntity
  8
0
100
AcDbCircle
 10
44.93162049623077
 20
378.6865491930325
 30
0.0
 40
0.185
100
AcDbArc
 50
180.0
 51
269.5000000000084
  0
ARC
  5
26EF
330
2
100
AcDbEntity
  8
0
100
AcDbCircle
 10
44.93162049623077
 20
378.6881091930322
 30
0.0
 40
0.185
100
AcDbArc
 50
90.49999999999155
 51
180.0
  0
LINE
  5
26F0
330
2
100
AcDbEntity
  8
0
100
AcDbLine
 10
44.74663849623101
 20
378.7062901930321
 30
0.0
 11
44.74663849623101
 21
378.6865491930325
 31
0.0
  0
ARC
  5
26F1
330
2
100
AcDbEntity
  8
0
100
AcDbCircle
 10
46.56161849623112
 20
378.7062901930321
 30
0.0
 40
1.814999999999999
100
AcDbArc
 50
127.1051030000114
 51
180.0
  0
ARC
  5
26F2
330
2
100
AcDbEntity
  8
0
100
AcDbCircle
 10
46.88663849623089
 20
419.5794321930325
 30
0.0
 40
2.14
100
AcDbArc
 50
90.49999999999155
 51
180.0
  0
LINE
  5
26F3
330
2
100
AcDbEntity
  8
0
100
AcDbLine
 10
41.24663849623101
 20
422.6356475956399
 30
0.0
 11
41.24663849623101
 21
414.6618301930325
 31
0.0
  0
LINE
  5
26F4
330
2
100
AcDbEntity
  8
0
100
AcDbLine
 10
41.24663849623101
 20
414.6618301930325
 30
0.0
 11
38.24663849623147
 21
414.6618301930325
 31
0.0
  0
ARC
  5
26F5
330
2
100
AcDbEntity
  8
0
100
AcDbCircle
 10
38.24663849623101
 20
415.6618301930325
 30
0.0
 40
1.0
100
AcDbArc
 50
180.0
 51
270.0
  0
ARC
  5
26F6
330
2
100
AcDbEntity
  8
0
100
AcDbCircle
 10
47.06663849623072
 20
410.5826101930324
 30
0.0
 40
2.319999999999999
100
AcDbArc
 50
90.49999999999155
 51
180.0
  0
ARC
  5
26F7
330
2
100
AcDbEntity
  8
0
100
AcDbCircle
 10
45.54661849623079
 20
410.5670101930322
 30
0.0
 40
0.8
100
AcDbArc
 50
90.49999999999155
 51
180.0
  0
ARC
  5
26F8
330
2
100
AcDbEntity
  8
0
100
AcDbCircle
 10
45.54661849623079
 20
410.5506301930322
 30
0.0
 40
0.8
100
AcDbArc
 50
180.0
 51
269.5000000000084
  0
LINE
  5
26F9
330
2
100
AcDbEntity
  8
0
100
AcDbLine
 10
44.74663849623101
 20
410.5826101930324
 30
0.0
 11
44.74663849623101
 21
410.5670101930322
 31
0.0
  0
LINE
  5
26FA
330
2
100
AcDbEntity
  8
0
100
AcDbLine
 10
44.74663849623101
 20
410.5670101930322
 30
0.0
 11
44.74663849623101
 21
410.5506301930322
 31
0.0
  0
ARC
  5
26FB
330
2
100
AcDbEntity
  8
0
100
AcDbCircle
 10
45.47664249623102
 20
402.2632301930325
 30
0.0
 40
0.73
100
AcDbArc
 50
180.0
 51
269.5000000000084
  0
LINE
  5
26FC
330
2
100
AcDbEntity
  8
0
100
AcDbLine
 10
44.74663849623101
 20
402.2972101930322
 30
0.0
 11
44.74663849623101
 21
402.2786091930324
 31
0.0
  0
LINE
  5
26FD
330
2
100
AcDbEntity
  8
0
100
AcDbLine
 10
44.74663849623101
 20
402.2786091930324
 30
0.0
 11
44.74663849623101
 21
402.2632301930325
 31
0.0
  0
ARC
  5
26FE
330
2
100
AcDbEntity
  8
0
100
AcDbCircle
 10
47.14661649623093
 20
402.2972101930322
 30
0.0
 40
2.399999999999999
100
AcDbArc
 50
90.49999999999155
 51
180.0
  0
ARC
  5
26FF
330
2
100
AcDbEntity
  8
0
100
AcDbCircle
 10
45.47664249623102
 20
402.2786091930324
 30
0.0
 40
0.73
100
AcDbArc
 50
90.49999999999155
 51
180.0
  0
ARC
  5
2700
330
2
100
AcDbEntity
  8
0
100
AcDbCircle
 10
45.56663849623072
 20
419.5484421930323
 30
0.0
 40
0.8199999999999999
100
AcDbArc
 50
180.0
 51
269.5000000000084
  0
ARC
  5
2701
330
2
100
AcDbEntity
  8
0
100
AcDbCircle
 10
45.56663849623072
 20
419.563838193032
 30
0.0
 40
0.8199999999999999
100
AcDbArc
 50
90.49999999999155
 51
180.0
  0
ARC
  5
2702
330
2
100
AcDbEntity
  8
0
100
AcDbCircle
 10
46.08663449623117
 20
419.5456501930325
 30
0.0
 40
1.34
100
AcDbArc
 50
180.0
 51
269.5000000000084
  0
LINE
  5
2703
330
2
100
AcDbEntity
  8
0
100
AcDbLine
 10
44.74663849623101
 20
419.5794321930325
 30
0.0
 11
44.74663849623101
 21
419.5456501930325
 31
0.0
  0
LINE
  5
2704
330
2
100
AcDbEntity
  8
0
100
AcDbLine
 10
44.74663849623101
 20
419.563838193032
 30
0.0
 11
44.74663849623101
 21
419.5484421930323
 31
0.0
  0
ARC
  5
2705
330
2
100
AcDbEntity
  8
0
100
AcDbCircle
 10
42.74663849623602
 20
438.1118301930323
 30
0.0
 40
3.0
100
AcDbArc
 50
90.0
 51
270.0
  0
ARC
  5
2706
330
2
100
AcDbEntity
  8
0
100
AcDbCircle
 10
42.74663849623647
 20
427.7618301930324
 30
0.0
 40
1.0
100
AcDbArc
 50
90.0
 51
270.0
  0
LINE
  5
2707
330
2
100
AcDbEntity
  8
0
100
AcDbLine
 10
42.74663849623647
 20
422.6618301930325
 30
0.0
 11
38.24663849623647
 21
422.5832824008553
 31
0.0
  0
LINE
  5
2708
330
2
100
AcDbEntity
  8
0
100
AcDbLine
 10
40.9466384962372
 20
432.8618301930323
 30
0.0
 11
44.54663849623528
 21
432.8618301930323
 31
0.0
  0
ARC
  5
2709
330
2
100
AcDbEntity
  8
0
100
AcDbCircle
 10
42.74663849623647
 20
427.7618301930324
 30
0.0
 40
2.0
100
AcDbArc
 50
235.272931295441
 51
304.7270687045571
  0
LINE
  5
270A
330
2
100
AcDbEntity
  8
0
100
AcDbLine
 10
40.94663849623628
 20
429.8618301930323
 30
0.0
 11
51.76959450742941
 21
429.8618301930323
 31
0.0
  0
LINE
  5
270B
330
2
100
AcDbEntity
  8
0
100
AcDbLine
 10
40.94663849623628
 20
431.8618301930323
 30
0.0
 11
51.67533491396961
 21
431.8618301930323
 31
0.0
  0
ARC
  5
270C
330
2
100
AcDbEntity
  8
0
100
AcDbCircle
 10
40.94663849623628
 20
430.8618301930323
 30
0.0
 40
2.0
100
AcDbArc
 50
89.99999999997395
 51
204.6092450239375
  0
LINE
  5
270D
330
2
100
AcDbEntity
  8
0
100
AcDbLine
 10
39.12830064071039
 20
430.0289751977529
 30
0.0
 11
39.50386728026222
 21
429.3784746964215
 31
0.0
  0
ARC
  5
270E
330
2
100
AcDbEntity
  8
0
100
AcDbCircle
 10
42.74663849623647
 20
429.1618301930325
 30
0.0
 40
3.25
100
AcDbArc
 50
176.177837868673
 51
249.4781325999777
  0
ARC
  5
270F
330
2
100
AcDbEntity
  8
0
100
AcDbCircle
 10
40.94663849623628
 20
430.8618301930323
 30
0.0
 40
1.0
100
AcDbArc
 50
90.0
 51
270.0
  0
LINE
  5
2710
330
2
100
AcDbEntity
  8
0
100
AcDbLine
 10
42.74663849623602
 20
435.1118301930323
 30
0.0
 11
42.74663849623647
 21
432.8618301930323
 31
0.0
  0
LINE
  5
2711
330
2
100
AcDbEntity
  8
0
100
AcDbLine
 10
48.24663849623556
 20
435.1118301930323
 30
0.0
 11
48.24663849623647
 21
431.8618301930323
 31
0.0
  0
ARC
  5
2712
330
2
100
AcDbEntity
  8
0
100
AcDbCircle
 10
44.5466384962362
 20
430.8618301930323
 30
0.0
 40
2.0
100
AcDbArc
 50
29.9999999999965
 51
90.00000000002605
  0
ARC
  5
2713
330
2
100
AcDbEntity
  8
0
100
AcDbCircle
 10
47.24663849623647
 20
423.8195832000442
 30
0.0
 40
1.0
100
AcDbArc
 50
272.0000000000035
 51
0.0
  0
LINE
  5
2714
330
2
100
AcDbEntity
  8
0
100
AcDbLine
 10
42.74663849623647
 20
428.7618301930324
 30
0.0
 11
53.47533491396979
 21
428.7618301930324
 31
0.0
  0
LINE
  5
2715
330
2
100
AcDbEntity
  8
0
100
AcDbLine
 10
42.74663849623647
 20
426.7618301930324
 30
0.0
 11
53.5695945074296
 21
426.7618301930324
 31
0.0
  0
LINE
  5
2716
330
2
100
AcDbEntity
  8
0
100
AcDbLine
 10
42.74663849623647
 20
425.7618301930324
 30
0.0
 11
42.74663849623647
 21
422.6618301930325
 31
0.0
  0
LINE
  5
2717
330
2
100
AcDbEntity
  8
0
100
AcDbLine
 10
42.74663849623647
 20
422.6618301930325
 30
0.0
 11
47.28153799293903
 21
422.8201923730248
 31
0.0
  0
ARC
  5
2718
330
2
100
AcDbEntity
  8
0
100
AcDbCircle
 10
42.74663849623647
 20
429.1618301930325
 30
0.0
 40
3.25
100
AcDbArc
 50
352.930285957695
 51
3.822162131326958
  0
LINE
  5
2719
330
2
100
AcDbEntity
  8
0
100
AcDbLine
 10
46.26847513829278
 20
429.8618301930323
 30
0.0
 11
45.98940971221071
 21
429.3784746964215
 31
0.0
  0
LINE
  5
271A
330
2
100
AcDbEntity
  8
0
100
AcDbLine
 10
46.26847513829278
 20
429.8618301930323
 30
0.0
 11
45.98940971221071
 21
429.3784746964215
 31
0.0
  0
ARC
  5
271B
330
2
100
AcDbEntity
  8
0
100
AcDbCircle
 10
42.74663849623647
 20
429.1618301930325
 30
0.0
 40
3.25
100
AcDbArc
 50
290.5218674000222
 51
312.3994733644338
  0
ARC
  5
271C
330
2
100
AcDbEntity
  8
0
100
AcDbCircle
 10
54.14467797484775
 20
429.0476064707859
 30
0.0
 40
1.898039478616692
100
AcDbArc
 50
260.5613775252245
 51
269.4999867419111
  0
ARC
  5
271D
330
2
100
AcDbEntity
  8
0
100
AcDbCircle
 10
53.18627509824608
 20
428.9119204372678
 30
0.0
 40
0.9396366020142174
100
AcDbArc
 50
90.49998466970505
 51
189.1913538948804
  0
ARC
  5
271E
330
2
100
AcDbEntity
  8
0
100
AcDbCircle
 10
54.14467797484775
 20
429.0476064707859
 30
0.0
 40
1.898039478616692
100
AcDbArc
 50
90.50003505310135
 51
188.6596083652989
  0
SPLINE
  5
271F
330
2
100
AcDbEntity
  8
HOJO
100
AcDbSpline
210
0.0
220
0.0
230
1.0
 70
     8
 71
     3
 72
    10
 73
     6
 74
     4
 42
0.0000000001
 43
0.0000000001
 44
0.0000000001
 40
0.0
 40
0.0
 40
0.0
 40
0.0
 40
0.6971907634055975
 40
1.694952319108457
 40
2.335350738679081
 40
2.335350738679081
 40
2.335350738679081
 40
2.335350738679081
 10
53.5695945074296
 20
426.7618301930324
 30
0.0
 10
53.73680864953779
 20
426.9828152051561
 30
0.0
 10
54.14332579352516
 20
427.5200556254932
 30
0.0
 10
52.96701668274198
 20
428.0305026711664
 30
0.0
 10
53.33246993730128
 20
428.5562875173427
 30
0.0
 10
53.47533491396979
 20
428.7618301930324
 30
0.0
 11
53.5695945074296
 21
426.7618301930324
 31
0.0
 11
53.85800695655888
 21
427.396568894992
 31
0.0
 11
53.22868908906611
 21
428.170834446139
 31
0.0
 11
53.47533491396979
 21
428.7618301930324
 31
0.0
  0
SPLINE
  5
2720
330
2
100
AcDbEntity
  8
HOJO
100
AcDbSpline
210
0.0
220
0.0
230
1.0
 70
     8
 71
     3
 72
    10
 73
     6
 74
     4
 42
0.0000000001
 43
0.0000000001
 44
0.0000000001
 40
0.0
 40
0.0
 40
0.0
 40
0.0
 40
0.6971907634055975
 40
1.694952319108457
 40
2.335350738679081
 40
2.335350738679081
 40
2.335350738679081
 40
2.335350738679081
 10
51.76959450742941
 20
429.8618301930323
 30
0.0
 10
51.93680864953761
 20
430.0828152051559
 30
0.0
 10
52.343325793525
 20
430.6200556254932
 30
0.0
 10
51.16701668274178
 20
431.1305026711663
 30
0.0
 10
51.53246993730111
 20
431.6562875173426
 30
0.0
 10
51.67533491396961
 20
431.8618301930323
 30
0.0
 11
51.76959450742941
 21
429.8618301930323
 31
0.0
 11
52.0580069565587
 21
430.4965688949919
 31
0.0
 11
51.42868908906592
 21
431.2708344461388
 31
0.0
 11
51.67533491396961
 21
431.8618301930323
 31
0.0
  0
LINE
  5
2721
330
2
100
AcDbEntity
  8
0
100
AcDbLine
 10
48.24663849623647
 20
429.8618301930323
 30
0.0
 11
48.24663849623647
 21
428.7618301930324
 31
0.0
  0
LINE
  5
2722
330
2
100
AcDbEntity
  8
0
100
AcDbLine
 10
48.24663849623647
 20
426.7618301930324
 30
0.0
 11
48.24663849623647
 21
423.8195832000442
 31
0.0
  0
LINE
  5
2723
330
2
100
AcDbEntity
  8
0
100
AcDbLine
 10
42.74663849623602
 20
441.1118301930323
 30
0.0
 11
53.79422759161269
 21
441.1118301930323
 31
0.0
  0
LINE
  5
2724
330
2
100
AcDbEntity
  8
0
100
AcDbLine
 10
42.74663849623602
 20
435.1118301930323
 30
0.0
 11
53.87201793547337
 21
435.1118301930323
 31
0.0
  0
ARC
  5
2725
330
2
100
AcDbEntity
  8
0
100
AcDbCircle
 10
54.14467797484775
 20
438.2760539152791
 30
0.0
 40
1.898039478616692
100
AcDbArc
 50
246.5592971331421
 51
269.4999649468986
  0
SPLINE
  5
2726
330
2
100
AcDbEntity
  8
HOJO
100
AcDbSpline
210
0.0
220
0.0
230
1.0
 70
     8
 71
     3
 72
    12
 73
     8
 74
     6
 42
0.0000000001
 43
0.0000000001
 44
0.0000000001
 40
0.0
 40
0.0
 40
0.0
 40
0.0
 40
1.684659730310068
 40
2.786160565551293
 40
4.550934817628394
 40
5.718899366606923
 40
6.335570522766976
 40
6.335570522766976
 40
6.335570522766976
 40
6.335570522766976
 10
53.87201793547337
 20
435.1118301930323
 30
0.0
 10
53.59510632719977
 20
435.6627900067158
 30
0.0
 10
53.13713835346938
 20
436.5739903390261
 30
0.0
 10
54.01976297140694
 20
437.9109915710483
 30
0.0
 10
54.58184080925429
 20
439.2368110375183
 30
0.0
 10
54.08443131777599
 20
440.3710042461274
 30
0.0
 10
53.86875378825143
 20
440.9215812912555
 30
0.0
 10
53.79422759161269
 20
441.1118301930323
 30
0.0
 11
53.87201793547337
 21
435.1118301930323
 31
0.0
 11
53.40627605159188
 21
436.7308307812122
 31
0.0
 11
53.8680058879583
 21
437.7308856038325
 31
0.0
 11
54.36821346324695
 21
439.4232864258656
 31
0.0
 11
54.02191583341409
 21
440.5387321391312
 31
0.0
 11
53.79422759161269
 21
441.1118301930323
 31
0.0
  0
LINE
  5
2727
330
2
100
AcDbEntity
  8
0
100
AcDbLine
 10
48.24663849623601
 20
443.5040860716094
 30
0.0
 11
48.24663849623647
 21
441.1118301930323
 31
0.0
  0
ARC
  5
2728
330
2
100
AcDbEntity
  8
0
100
AcDbCircle
 10
115.746638496231
 20
399.9199101930321
 30
0.0
 40
1.0
100
AcDbArc
 50
0.0
 51
89.49999999998238
  0
ARC
  5
2729
330
2
100
AcDbEntity
  8
0
100
AcDbCircle
 10
117.746638496231
 20
371.3189691930324
 30
0.0
 40
1.0
100
AcDbArc
 50
180.0
 51
268.9999999999982
  0
ARC
  5
272A
330
2
100
AcDbEntity
  8
0
100
AcDbCircle
 10
115.746638496231
 20
376.8834911930321
 30
0.0
 40
1.0
100
AcDbArc
 50
0.0
 51
89.49999999998238
  0
LINE
  5
272B
330
2
100
AcDbEntity
  8
0
100
AcDbLine
 10
115.4458574962311
 20
387.9017291930322
 30
0.0
 11
113.8350404962308
 21
387.9017291930322
 31
0.0
  0
LINE
  5
272C
330
2
100
AcDbEntity
  8
0
100
AcDbLine
 10
115.4458574962311
 20
397.4017291930322
 30
0.0
 11
113.8350404962308
 21
397.4017291930322
 31
0.0
  0
ARC
  5
272D
330
2
100
AcDbEntity
  8
0
100
AcDbCircle
 10
119.7458374962308
 20
392.6517291930322
 30
0.0
 40
8.0
100
AcDbArc
 50
147.6076050000078
 51
212.3923949999916
  0
ARC
  5
272E
330
2
100
AcDbEntity
  8
0
100
AcDbCircle
 10
113.8350404962308
 20
388.9017291930322
 30
0.0
 40
1.0
100
AcDbArc
 50
212.3923949999916
 51
270.0
  0
ARC
  5
272F
330
2
100
AcDbEntity
  8
0
100
AcDbCircle
 10
113.8350404962308
 20
396.4017291930322
 30
0.0
 40
1.0
100
AcDbArc
 50
90.0
 51
147.6076050000078
  0
LINE
  5
2730
330
2
100
AcDbEntity
  8
0
100
AcDbLine
 10
115.4458574962311
 20
397.4017291930322
 30
0.0
 11
115.4458574962311
 21
387.9017291930322
 31
0.0
  0
LINE
  5
2731
330
2
100
AcDbEntity
  8
0
100
AcDbLine
 10
116.7458374962308
 20
388.0517301930322
 30
0.0
 11
116.7458374962308
 21
392.6517291930322
 31
0.0
  0
ARC
  5
2732
330
2
100
AcDbEntity
  8
0
100
AcDbCircle
 10
115.746638496231
 20
382.3982921930323
 30
0.0
 40
1.0
100
AcDbArc
 50
270.4999999999915
 51
343.5553890000036
  0
ARC
  5
2733
330
2
100
AcDbEntity
  8
0
100
AcDbCircle
 10
115.746638496231
 20
381.8321101930323
 30
0.0
 40
1.0
100
AcDbArc
 50
0.0
 51
89.49999999998238
  0
ARC
  5
2734
330
2
100
AcDbEntity
  8
0
100
AcDbCircle
 10
115.746638496231
 20
385.8931911930321
 30
0.0
 40
1.0
100
AcDbArc
 50
270.4999999999915
 51
0.0
  0
ARC
  5
2735
330
2
100
AcDbEntity
  8
0
100
AcDbCircle
 10
115.746638496231
 20
387.7071911930324
 30
0.0
 40
1.0
100
AcDbArc
 50
270.4999999999915
 51
323.8237000000115
  0
ARC
  5
2736
330
2
100
AcDbEntity
  8
0
100
AcDbCircle
 10
115.746638496231
 20
386.5266291930324
 30
0.0
 40
1.0
100
AcDbArc
 50
0.0
 51
89.49999999998238
  0
LINE
  5
2737
330
2
100
AcDbEntity
  8
0
100
AcDbLine
 10
115.4458574962311
 20
388.0517301930322
 30
0.0
 11
116.7458374962308
 21
388.0517301930322
 31
0.0
  0
ARC
  5
2738
330
2
100
AcDbEntity
  8
0
100
AcDbCircle
 10
115.746638496231
 20
378.5404501930325
 30
0.0
 40
1.0
100
AcDbArc
 50
0.0
 51
89.49999999998238
  0
LINE
  5
2739
330
2
100
AcDbEntity
  8
0
100
AcDbLine
 10
115.4458574962311
 20
397.2517121930323
 30
0.0
 11
116.7458374962308
 21
397.2517121930323
 31
0.0
  0
ARC
  5
273A
330
2
100
AcDbEntity
  8
0
100
AcDbCircle
 10
115.746638496231
 20
404.6218101930321
 30
0.0
 40
1.0
100
AcDbArc
 50
270.4999999999915
 51
0.0
  0
ARC
  5
273B
330
2
100
AcDbEntity
  8
0
100
AcDbCircle
 10
115.746638496231
 20
406.296010193032
 30
0.0
 40
1.0
100
AcDbArc
 50
270.4999999999915
 51
0.0
  0
ARC
  5
273C
330
2
100
AcDbEntity
  8
0
100
AcDbCircle
 10
115.746638496231
 20
408.137811193032
 30
0.0
 40
1.0
100
AcDbArc
 50
0.0
 51
89.49999999998238
  0
ARC
  5
273D
330
2
100
AcDbEntity
  8
0
100
AcDbCircle
 10
115.746638496231
 20
421.9962421930322
 30
0.0
 40
1.0
100
AcDbArc
 50
270.4999999999915
 51
0.0
  0
ARC
  5
273E
330
2
100
AcDbEntity
  8
0
100
AcDbCircle
 10
115.746638496231
 20
416.5976361930324
 30
0.0
 40
1.0
100
AcDbArc
 50
0.0
 51
89.49999999998238
  0
ARC
  5
273F
330
2
100
AcDbEntity
  8
0
100
AcDbCircle
 10
115.746638496231
 20
417.1158401930324
 30
0.0
 40
1.0
100
AcDbArc
 50
0.0
 51
89.49999999998238
  0
ARC
  5
2740
330
2
100
AcDbEntity
  8
0
100
AcDbCircle
 10
115.746638496231
 20
412.9798311930321
 30
0.0
 40
1.0
100
AcDbArc
 50
270.4999999999915
 51
0.0
  0
ARC
  5
2741
330
2
100
AcDbEntity
  8
0
100
AcDbCircle
 10
115.746638496231
 20
414.5020401930323
 30
0.0
 40
1.0
100
AcDbArc
 50
270.4999999999915
 51
0.0
  0
ARC
  5
2742
330
2
100
AcDbEntity
  8
0
100
AcDbCircle
 10
115.746638496231
 20
432.4832111930327
 30
0.0
 40
1.0
100
AcDbArc
 50
270.4999999999915
 51
0.0
  0
ARC
  5
2743
330
2
100
AcDbEntity
  8
0
100
AcDbCircle
 10
115.746638496231
 20
431.3976081930327
 30
0.0
 40
1.0
100
AcDbArc
 50
270.4999999999915
 51
0.0
  0
ARC
  5
2744
330
2
100
AcDbEntity
  8
0
100
AcDbCircle
 10
115.746638496231
 20
426.4264181930325
 30
0.0
 40
1.0
100
AcDbArc
 50
0.0
 51
89.49999999998238
  0
ARC
  5
2745
330
2
100
AcDbEntity
  8
0
100
AcDbCircle
 10
115.746638496231
 20
423.3204301930323
 30
0.0
 40
1.0
100
AcDbArc
 50
270.4999999999915
 51
0.0
  0
ARC
  5
2746
330
2
100
AcDbEntity
  8
0
100
AcDbCircle
 10
115.746638496231
 20
425.6120261930322
 30
0.0
 40
1.0
100
AcDbArc
 50
0.0
 51
89.49999999998238
  0
ARC
  5
2747
330
2
100
AcDbEntity
  8
0
100
AcDbCircle
 10
115.746638496231
 20
440.8972421930325
 30
0.0
 40
1.0
100
AcDbArc
 50
270.4999999999915
 51
0.0
  0
ARC
  5
2748
330
2
100
AcDbEntity
  8
0
100
AcDbCircle
 10
115.746638496231
 20
441.7116341930323
 30
0.0
 40
1.0
100
AcDbArc
 50
270.4999999999915
 51
0.0
  0
ARC
  5
2749
330
2
100
AcDbEntity
  8
0
100
AcDbCircle
 10
115.746638496231
 20
435.9260521930322
 30
0.0
 40
1.0
100
AcDbArc
 50
0.0
 51
89.49999999998238
  0
ARC
  5
274A
330
2
100
AcDbEntity
  8
0
100
AcDbCircle
 10
115.746638496231
 20
434.8404491930323
 30
0.0
 40
1.0
100
AcDbArc
 50
0.0
 51
89.49999999998238
  0
LINE
  5
274B
330
2
100
AcDbEntity
  8
0
100
AcDbLine
 10
54.22917449623099
 20
488.9030101930325
 30
0.0
 11
115.7553584962308
 21
489.4400511930321
 31
0.0
  0
LINE
  5
274C
330
2
100
AcDbEntity
  8
0
100
AcDbLine
 10
115.7553584962308
 20
487.7830111930324
 30
0.0
 11
45.05392049623077
 21
487.1660111930323
 31
0.0
  0
LINE
  5
274D
330
2
100
AcDbEntity
  8
0
100
AcDbLine
 10
115.7553584962308
 20
485.9250521930321
 30
0.0
 11
45.05392049623077
 21
486.5420491930321
 31
0.0
  0
LINE
  5
274E
330
2
100
AcDbEntity
  8
0
100
AcDbLine
 10
115.7553584962308
 20
484.4914501930325
 30
0.0
 11
45.15305649623104
 21
483.8752321930323
 31
0.0
  0
LINE
  5
274F
330
2
100
AcDbEntity
  8
0
100
AcDbLine
 10
97.60045949623117
 20
484.3330721930324
 30
0.0
 11
46.78863849623093
 21
484.7764501930323
 31
0.0
  0
LINE
  5
2750
330
2
100
AcDbEntity
  8
0
100
AcDbLine
 10
115.7553584962308
 20
446.3270361930321
 30
0.0
 11
45.55948249623106
 21
446.9396321930321
 31
0.0
  0
LINE
  5
2751
330
2
100
AcDbEntity
  8
0
100
AcDbLine
 10
115.7553584962308
 20
445.0030481930321
 30
0.0
 11
46.8679384962308
 21
445.6042441930321
 31
0.0
  0
LINE
  5
2752
330
2
100
AcDbEntity
  8
0
100
AcDbLine
 10
112.2565564962307
 20
477.4844311930324
 30
0.0
 11
45.29183449623104
 21
478.0686481930324
 31
0.0
  0
LINE
  5
2753
330
2
100
AcDbEntity
  8
0
100
AcDbLine
 10
115.7553584962308
 20
479.7968701930321
 30
0.0
 11
45.29183449623104
 21
479.1818111930324
 31
0.0
  0
LINE
  5
2754
330
2
100
AcDbEntity
  8
0
100
AcDbLine
 10
115.7553584962308
 20
463.7016311930324
 30
0.0
 11
45.47024049623104
 21
464.3148511930321
 31
0.0
  0
LINE
  5
2755
330
2
100
AcDbEntity
  8
0
100
AcDbLine
 10
115.7553584962308
 20
466.4036281930325
 30
0.0
 11
45.47024049623104
 21
465.7902291930322
 31
0.0
  0
LINE
  5
2756
330
2
100
AcDbEntity
  8
0
100
AcDbLine
 10
115.7553584962308
 20
455.3436501930323
 30
0.0
 11
45.53963849623113
 21
455.9564301930322
 31
0.0
  0
LINE
  5
2757
330
2
100
AcDbEntity
  8
0
100
AcDbLine
 10
115.7553584962308
 20
458.1856301930324
 30
0.0
 11
45.53963849623113
 21
457.5728291930322
 31
0.0
  0
LINE
  5
2758
330
2
100
AcDbEntity
  8
0
100
AcDbLine
 10
111.8078564962308
 20
475.6660111930322
 30
0.0
 11
47.09595849623082
 21
476.2306511930323
 31
0.0
  0
LINE
  5
2759
330
2
100
AcDbEntity
  8
0
100
AcDbLine
 10
115.7553584962308
 20
462.0274501930321
 30
0.0
 11
47.125696496231
 21
462.6262501930323
 31
0.0
  0
LINE
  5
275A
330
2
100
AcDbEntity
  8
0
100
AcDbLine
 10
115.7553584962308
 20
453.8212501930324
 30
0.0
 11
47.04639649623112
 21
454.4210501930324
 31
0.0
  0
LINE
  5
275B
330
2
100
AcDbEntity
  8
0
100
AcDbLine
 10
115.7553584962308
 20
449.2076361930322
 30
0.0
 11
45.55948249623106
 21
448.5950281930322
 31
0.0
  0
LINE
  5
275C
330
2
100
AcDbEntity
  8
0
100
AcDbLine
 10
115.7553584962308
 20
449.7258251930325
 30
0.0
 11
46.07493849623113
 21
449.1178541930321
 31
0.0
  0
LINE
  5
275D
330
2
100
AcDbEntity
  8
0
100
AcDbLine
 10
115.7553584962308
 20
480.6162291930323
 30
0.0
 11
46.94723849623113
 21
481.2166701930323
 31
0.0
  0
LINE
  5
275E
330
2
100
AcDbEntity
  8
0
100
AcDbLine
 10
115.7553584962308
 20
482.4302281930322
 30
0.0
 11
45.15305649623104
 21
483.0464511930322
 31
0.0
  0
LINE
  5
275F
330
2
100
AcDbEntity
  8
0
100
AcDbLine
 10
115.7553584962308
 20
489.4401881930325
 30
0.0
 11
44.93001849623095
 21
488.8221311930323
 31
0.0
  0
ARC
  5
2760
330
2
100
AcDbEntity
  8
0
100
AcDbCircle
 10
46.56161849623112
 20
488.6173701930324
 30
0.0
 40
1.814999999999999
100
AcDbArc
 50
180.0
 51
232.8948969999884
  0
ARC
  5
2761
330
2
100
AcDbEntity
  8
0
100
AcDbCircle
 10
45.47664249623102
 20
465.0602291930322
 30
0.0
 40
0.73
100
AcDbArc
 50
90.49999999999155
 51
180.0
  0
LINE
  5
2762
330
2
100
AcDbEntity
  8
0
100
AcDbLine
 10
39.74663849623101
 20
484.0070491930323
 30
0.0
 11
39.74663849623101
 21
452.6618301930325
 31
0.0
  0
LINE
  5
2763
330
2
100
AcDbEntity
  8
0
100
AcDbLine
 10
42.74663849623602
 20
444.6618301930325
 30
0.0
 11
38.24663849623601
 21
444.7403779852093
 31
0.0
  0
LINE
  5
2764
330
2
100
AcDbEntity
  8
0
100
AcDbLine
 10
41.24663849623101
 20
452.6618301930325
 30
0.0
 11
38.24663849623101
 21
452.6618301930325
 31
0.0
  0
ARC
  5
2765
330
2
100
AcDbEntity
  8
0
100
AcDbCircle
 10
38.24663849623101
 20
451.6618301930325
 30
0.0
 40
1.0
100
AcDbArc
 50
90.0
 51
180.0
  0
LINE
  5
2766
330
2
100
AcDbEntity
  8
0
100
AcDbLine
 10
41.24663849623101
 20
444.6880127904246
 30
0.0
 11
41.24663849623101
 21
452.6618301930325
 31
0.0
  0
ARC
  5
2767
330
2
100
AcDbEntity
  8
0
100
AcDbCircle
 10
47.06663849623072
 20
456.7408301930322
 30
0.0
 40
2.319999999999999
100
AcDbArc
 50
180.0
 51
269.5000000000084
  0
ARC
  5
2768
330
2
100
AcDbEntity
  8
0
100
AcDbCircle
 10
45.56663849623072
 20
447.7750501930322
 30
0.0
 40
0.8199999999999999
100
AcDbArc
 50
90.49999999999155
 51
180.0
  0
ARC
  5
2769
330
2
100
AcDbEntity
  8
0
100
AcDbCircle
 10
46.08663449623117
 20
447.7778281930323
 30
0.0
 40
1.34
100
AcDbArc
 50
90.49999999999155
 51
180.0
  0
ARC
  5
276A
330
2
100
AcDbEntity
  8
0
100
AcDbCircle
 10
45.56663849623072
 20
447.7596541930324
 30
0.0
 40
0.8199999999999999
100
AcDbArc
 50
180.0
 51
269.5000000000084
  0
ARC
  5
276B
330
2
100
AcDbEntity
  8
0
100
AcDbCircle
 10
46.88663849623089
 20
447.7440441930321
 30
0.0
 40
2.14
100
AcDbArc
 50
180.0
 51
269.5000000000084
  0
LINE
  5
276C
330
2
100
AcDbEntity
  8
0
100
AcDbLine
 10
44.74663849623101
 20
447.7596541930324
 30
0.0
 11
44.74663849623101
 21
447.7750501930322
 31
0.0
  0
LINE
  5
276D
330
2
100
AcDbEntity
  8
0
100
AcDbLine
 10
44.74663849623101
 20
447.7440441930321
 30
0.0
 11
44.74663849623101
 21
447.7778281930323
 31
0.0
  0
LINE
  5
276E
330
2
100
AcDbEntity
  8
0
100
AcDbLine
 10
42.7471472411691
 20
444.6618213128568
 30
0.0
 11
47.28153799293858
 21
444.5034768986284
 31
0.0
  0
ARC
  5
276F
330
2
100
AcDbEntity
  8
0
100
AcDbCircle
 10
47.14661649623093
 20
465.0262311930323
 30
0.0
 40
2.399999999999999
100
AcDbArc
 50
180.0
 51
269.5000000000084
  0
ARC
  5
2770
330
2
100
AcDbEntity
  8
0
100
AcDbCircle
 10
45.47664249623102
 20
465.0448291930324
 30
0.0
 40
0.73
100
AcDbArc
 50
180.0
 51
269.5000000000084
  0
LINE
  5
2771
330
2
100
AcDbEntity
  8
0
100
AcDbLine
 10
44.74663849623101
 20
465.0448291930324
 30
0.0
 11
44.74663849623101
 21
465.0602291930322
 31
0.0
  0
LINE
  5
2772
330
2
100
AcDbEntity
  8
0
100
AcDbLine
 10
44.74663849623101
 20
465.0262311930323
 30
0.0
 11
44.74663849623101
 21
465.0448291930324
 31
0.0
  0
ARC
  5
2773
330
2
100
AcDbEntity
  8
0
100
AcDbCircle
 10
45.54661849623079
 20
456.7564311930323
 30
0.0
 40
0.8
100
AcDbArc
 50
180.0
 51
269.5000000000084
  0
LINE
  5
2774
330
2
100
AcDbEntity
  8
0
100
AcDbLine
 10
44.74663849623101
 20
456.7564311930323
 30
0.0
 11
44.74663849623101
 21
456.7728491930324
 31
0.0
  0
LINE
  5
2775
330
2
100
AcDbEntity
  8
0
100
AcDbLine
 10
44.74663849623101
 20
456.7408301930322
 30
0.0
 11
44.74663849623101
 21
456.7564311930323
 31
0.0
  0
ARC
  5
2776
330
2
100
AcDbEntity
  8
0
100
AcDbCircle
 10
45.54661849623079
 20
456.7728491930324
 30
0.0
 40
0.8
100
AcDbArc
 50
90.49999999999155
 51
180.0
  0
LINE
  5
2777
330
2
100
AcDbEntity
  8
0
100
AcDbLine
 10
44.90893849623097
 20
486.0348501930324
 30
0.0
 11
41.7291604962308
 21
486.0070491930323
 31
0.0
  0
ARC
  5
2778
330
2
100
AcDbEntity
  8
0
100
AcDbCircle
 10
41.74663849623101
 20
484.0070491930323
 30
0.0
 40
2.0
100
AcDbArc
 50
90.49999999999155
 51
180.0
  0
ARC
  5
2779
330
2
100
AcDbEntity
  8
0
100
AcDbCircle
 10
47.11664049623112
 20
478.6006501930323
 30
0.0
 40
2.37
100
AcDbArc
 50
180.0
 51
269.5000000000084
  0
ARC
  5
277A
330
2
100
AcDbEntity
  8
0
100
AcDbCircle
 10
45.05662049623078
 20
486.8520501930325
 30
0.0
 40
0.31
100
AcDbArc
 50
180.0
 51
269.5000000000084
  0
ARC
  5
277B
330
2
100
AcDbEntity
  8
0
100
AcDbCircle
 10
45.05662049623078
 20
486.8560511930322
 30
0.0
 40
0.31
100
AcDbArc
 50
90.49999999999155
 51
180.0
  0
ARC
  5
277C
330
2
100
AcDbEntity
  8
0
100
AcDbCircle
 10
45.29661849623079
 20
478.6186511930322
 30
0.0
 40
0.55
100
AcDbArc
 50
180.0
 51
269.5000000000084
  0
ARC
  5
277D
330
2
100
AcDbEntity
  8
0
100
AcDbCircle
 10
45.29661849623079
 20
478.6318311930322
 30
0.0
 40
0.55
100
AcDbArc
 50
90.49999999999155
 51
180.0
  0
LINE
  5
277E
330
2
100
AcDbEntity
  8
0
100
AcDbLine
 10
44.74663849623101
 20
478.6186511930322
 30
0.0
 11
44.74663849623101
 21
478.6318311930322
 31
0.0
  0
LINE
  5
277F
330
2
100
AcDbEntity
  8
0
100
AcDbLine
 10
44.74663849623101
 20
478.6006501930323
 30
0.0
 11
44.74663849623101
 21
478.6318311930322
 31
0.0
  0
ARC
  5
2780
330
2
100
AcDbEntity
  8
0
100
AcDbCircle
 10
45.15661849623092
 20
483.4564091930324
 30
0.0
 40
0.41
100
AcDbArc
 50
180.0
 51
269.5000000000084
  0
LINE
  5
2781
330
2
100
AcDbEntity
  8
0
100
AcDbLine
 10
44.74663849623101
 20
483.4366481930324
 30
0.0
 11
44.74663849623101
 21
483.4652281930325
 31
0.0
  0
ARC
  5
2782
330
2
100
AcDbEntity
  8
0
100
AcDbCircle
 10
45.15661849623092
 20
483.4652281930325
 30
0.0
 40
0.41
100
AcDbArc
 50
90.49999999999155
 51
180.0
  0
LINE
  5
2783
330
2
100
AcDbEntity
  8
0
100
AcDbLine
 10
44.74663849623101
 20
483.4564091930324
 30
0.0
 11
44.74663849623101
 21
483.4652281930325
 31
0.0
  0
ARC
  5
2784
330
2
100
AcDbEntity
  8
0
100
AcDbCircle
 10
46.96664049623104
 20
483.4366481930324
 30
0.0
 40
2.22
100
AcDbArc
 50
180.0
 51
269.5000000000084
  0
ARC
  5
2785
330
2
100
AcDbEntity
  8
0
100
AcDbCircle
 10
46.80662049623077
 20
486.8362301930324
 30
0.0
 40
2.06
100
AcDbArc
 50
180.0
 51
269.5000000000084
  0
ARC
  5
2786
330
2
100
AcDbEntity
  8
0
100
AcDbCircle
 10
47.24666049623073
 20
487.1618681930321
 30
0.0
 40
1.0
100
AcDbArc
 50
0.0
 51
1.824028999993647
  0
LINE
  5
2787
330
2
100
AcDbEntity
  8
0
100
AcDbLine
 10
48.24666049623073
 20
483.9022091930323
 30
0.0
 11
48.24666049623073
 21
483.8850321930322
 31
0.0
  0
ARC
  5
2788
330
2
100
AcDbEntity
  8
0
100
AcDbCircle
 10
44.93162049623077
 20
488.6371111930325
 30
0.0
 40
0.185
100
AcDbArc
 50
90.49999999999155
 51
180.0
  0
ARC
  5
2789
330
2
100
AcDbEntity
  8
0
100
AcDbCircle
 10
44.93162049623077
 20
488.6355511930323
 30
0.0
 40
0.185
100
AcDbArc
 50
180.0
 51
269.5000000000084
  0
LINE
  5
278A
330
2
100
AcDbEntity
  8
0
100
AcDbLine
 10
44.74663849623101
 20
488.6173701930324
 30
0.0
 11
44.74663849623101
 21
488.6371111930325
 31
0.0
  0
ARC
  5
278B
330
2
100
AcDbEntity
  8
0
100
AcDbCircle
 10
115.746638496231
 20
488.7830111930325
 30
0.0
 40
1.0
100
AcDbArc
 50
270.4999999999915
 51
0.0
  0
ARC
  5
278C
330
2
100
AcDbEntity
  8
0
100
AcDbCircle
 10
115.746638496231
 20
454.3436501930322
 30
0.0
 40
1.0
100
AcDbArc
 50
0.0
 51
89.49999999998238
  0
ARC
  5
278D
330
2
100
AcDbEntity
  8
0
100
AcDbCircle
 10
115.746638496231
 20
452.8214371930321
 30
0.0
 40
1.0
100
AcDbArc
 50
0.0
 51
89.49999999998238
  0
ARC
  5
278E
330
2
100
AcDbEntity
  8
0
100
AcDbCircle
 10
115.746638496231
 20
444.003048193032
 30
0.0
 40
1.0
100
AcDbArc
 50
0.0
 51
89.49999999998238
  0
ARC
  5
278F
330
2
100
AcDbEntity
  8
0
100
AcDbCircle
 10
115.746638496231
 20
445.3272361930321
 30
0.0
 40
1.0
100
AcDbArc
 50
0.0
 51
89.49999999998238
  0
ARC
  5
2790
330
2
100
AcDbEntity
  8
0
100
AcDbCircle
 10
115.746638496231
 20
450.7258251930324
 30
0.0
 40
1.0
100
AcDbArc
 50
270.4999999999915
 51
0.0
  0
ARC
  5
2791
330
2
100
AcDbEntity
  8
0
100
AcDbCircle
 10
115.746638496231
 20
450.2076371930325
 30
0.0
 40
1.0
100
AcDbArc
 50
270.4999999999915
 51
0.0
  0
ARC
  5
2792
330
2
100
AcDbEntity
  8
0
100
AcDbCircle
 10
115.746638496231
 20
462.7016311930324
 30
0.0
 40
1.0
100
AcDbArc
 50
0.0
 51
89.49999999998238
  0
ARC
  5
2793
330
2
100
AcDbEntity
  8
0
100
AcDbCircle
 10
115.746638496231
 20
459.1856301930325
 30
0.0
 40
1.0
100
AcDbArc
 50
270.4999999999915
 51
0.0
  0
ARC
  5
2794
330
2
100
AcDbEntity
  8
0
100
AcDbCircle
 10
115.746638496231
 20
461.027450193032
 30
0.0
 40
1.0
100
AcDbArc
 50
0.0
 51
89.49999999998238
  0
LINE
  5
2795
330
2
100
AcDbEntity
  8
0
100
AcDbLine
 10
115.4458574962311
 20
469.9218511930321
 30
0.0
 11
113.8350404962308
 21
469.9218511930321
 31
0.0
  0
LINE
  5
2796
330
2
100
AcDbEntity
  8
0
100
AcDbLine
 10
115.4458574962311
 20
479.4218701930321
 30
0.0
 11
113.8350404962308
 21
479.4218701930321
 31
0.0
  0
ARC
  5
2797
330
2
100
AcDbEntity
  8
0
100
AcDbCircle
 10
119.7458374962308
 20
474.6718701930322
 30
0.0
 40
8.0
100
AcDbArc
 50
147.6076050000078
 51
212.3923949999916
  0
ARC
  5
2798
330
2
100
AcDbEntity
  8
0
100
AcDbCircle
 10
113.8350404962308
 20
470.9218511930321
 30
0.0
 40
1.0
100
AcDbArc
 50
212.3923949999916
 51
270.0
  0
ARC
  5
2799
330
2
100
AcDbEntity
  8
0
100
AcDbCircle
 10
113.8350404962308
 20
478.4218701930321
 30
0.0
 40
1.0
100
AcDbArc
 50
90.0
 51
147.6076050000078
  0
LINE
  5
279A
330
2
100
AcDbEntity
  8
0
100
AcDbLine
 10
116.7458374962308
 20
479.2716701930321
 30
0.0
 11
116.7458374962308
 21
474.6718701930322
 31
0.0
  0
LINE
  5
279B
330
2
100
AcDbEntity
  8
0
100
AcDbLine
 10
115.4458574962311
 20
479.4218701930321
 30
0.0
 11
115.4458574962311
 21
469.9218511930321
 31
0.0
  0
LINE
  5
279C
330
2
100
AcDbEntity
  8
0
100
AcDbLine
 10
115.4458574962311
 20
470.0718491930324
 30
0.0
 11
116.7458374962308
 21
470.0718491930324
 31
0.0
  0
ARC
  5
279D
330
2
100
AcDbEntity
  8
0
100
AcDbCircle
 10
115.746638496231
 20
467.4034491930324
 30
0.0
 40
1.0
100
AcDbArc
 50
270.4999999999915
 51
0.0
  0
ARC
  5
279E
330
2
100
AcDbEntity
  8
0
100
AcDbCircle
 10
115.746638496231
 20
484.9252311930322
 30
0.0
 40
1.0
100
AcDbArc
 50
16.44459900000769
 51
89.49999999998238
  0
ARC
  5
279F
330
2
100
AcDbEntity
  8
0
100
AcDbCircle
 10
115.746638496231
 20
479.6162291930322
 30
0.0
 40
1.0
100
AcDbArc
 50
36.17633799998822
 51
89.49999999998238
  0
ARC
  5
27A0
330
2
100
AcDbEntity
  8
0
100
AcDbCircle
 10
115.746638496231
 20
480.7968701930321
 30
0.0
 40
1.0
100
AcDbArc
 50
270.4999999999915
 51
0.0
  0
LINE
  5
27A1
330
2
100
AcDbEntity
  8
0
100
AcDbLine
 10
115.4458574962311
 20
479.2716701930321
 30
0.0
 11
116.7458374962308
 21
479.2716701930321
 31
0.0
  0
ARC
  5
27A2
330
2
100
AcDbEntity
  8
0
100
AcDbCircle
 10
115.746638496231
 20
481.4302281930322
 30
0.0
 40
1.0
100
AcDbArc
 50
0.0
 51
89.49999999998238
  0
ARC
  5
27A3
330
2
100
AcDbEntity
  8
0
100
AcDbCircle
 10
115.746638496231
 20
485.4912291930323
 30
0.0
 40
1.0
100
AcDbArc
 50
270.4999999999915
 51
0.0
  0
ARC
  5
27A4
330
2
100
AcDbEntity
  8
0
100
AcDbCircle
 10
115.746638496231
 20
490.4398491930323
 30
0.0
 40
1.0
100
AcDbArc
 50
270.4999999999915
 51
0.0
  0
ARC
  5
27A5
330
2
100
AcDbEntity
  8
0
100
AcDbCircle
 10
117.746638496231
 20
496.0044511930322
 30
0.0
 40
1.0
100
AcDbArc
 50
91.00000000000177
 51
180.0
  0
LINE
  5
27A6
330
2
100
AcDbEntity
  8
0
100
AcDbLine
 10
37.7465464962317
 20
483.1618301930325
 30
0.0
 11
37.7465464962317
 21
452.5278024740766
 31
0.0
  0
LINE
  5
27A7
330
2
100
AcDbEntity
  8
0
100
AcDbLine
 10
38.24624190974117
 20
483.6792799413837
 30
0.0
 11
37.7465464962317
 21
483.1618301930325
 31
0.0
  0
LINE
  5
27A8
330
2
100
AcDbEntity
  8
0
100
AcDbLine
 10
37.74654649623125
 20
414.7958579119887
 30
0.0
 11
37.74654649623125
 21
384.1618301930325
 31
0.0
  0
LINE
  5
27A9
330
2
100
AcDbEntity
  8
0
100
AcDbLine
 10
38.24654649623124
 20
383.6618301930325
 30
0.0
 11
37.74654649623125
 21
384.1618301930325
 31
0.0
  0
LINE
  5
2948
330
2
100
AcDbEntity
  8
0
100
AcDbLine
 10
38.24482290974049
 20
207.8083000198554
 30
0.0
 11
39.74512749623147
 21
207.8606918104879
 31
0.0
  0
LINE
  5
2949
330
2
100
AcDbEntity
  8
0
100
AcDbLine
 10
38.24482290974049
 20
111.393400523153
 30
0.0
 11
39.74512749623147
 21
111.3410087325208
 31
0.0
  0
LINE
  5
294A
330
2
100
AcDbEntity
  8
0
100
AcDbLine
 10
116.745127496231
 20
223.7534712715041
 30
0.0
 11
116.745127496231
 21
99.06798927150425
 31
0.0
  0
LINE
  5
294B
330
2
100
AcDbEntity
  8
0
100
AcDbLine
 10
39.74512749623102
 20
211.7560692715041
 30
0.0
 11
39.74512749623102
 21
111.0653112715044
 31
0.0
  0
LINE
  5
294C
330
2
100
AcDbEntity
  8
CENTER
100
AcDbLine
 10
107.3619484962306
 20
120.400749271504
 30
0.0
 11
130.9427054962303
 21
120.400749271504
 31
0.0
  0
LINE
  5
294D
330
2
100
AcDbEntity
  8
0
100
AcDbLine
 10
126.745127496231
 20
97.91075127150447
 30
0.0
 11
117.7276750897932
 21
98.06814157634784
 31
0.0
  0
LINE
  5
294E
330
2
100
AcDbEntity
  8
0
100
AcDbLine
 10
115.7538474962308
 20
174.0760562715039
 30
0.0
 11
45.55797149623106
 21
174.6886522715039
 31
0.0
  0
LINE
  5
294F
330
2
100
AcDbEntity
  8
0
100
AcDbLine
 10
115.7538474962308
 20
172.7520682715043
 30
0.0
 11
46.86642749623081
 21
173.3532642715044
 31
0.0
  0
LINE
  5
2950
330
2
100
AcDbEntity
  8
0
100
AcDbLine
 10
115.7538474962308
 20
164.6750722715041
 30
0.0
 11
45.60258749623073
 21
165.2872542715039
 31
0.0
  0
LINE
  5
2951
330
2
100
AcDbEntity
  8
0
100
AcDbLine
 10
115.7538474962308
 20
167.646460271504
 30
0.0
 11
45.60258749623073
 21
167.034264271504
 31
0.0
  0
LINE
  5
2952
330
2
100
AcDbEntity
  8
0
100
AcDbLine
 10
115.7538474962308
 20
168.4608682715042
 30
0.0
 11
46.40548949623064
 21
167.855658271504
 31
0.0
  0
LINE
  5
2953
330
2
100
AcDbEntity
  8
0
100
AcDbLine
 10
115.7538474962308
 20
163.5892562715043
 30
0.0
 11
46.68304749623087
 21
164.1920702715041
 31
0.0
  0
LINE
  5
2954
330
2
100
AcDbEntity
  8
0
100
AcDbLine
 10
115.7538474962308
 20
159.2322622715041
 30
0.0
 11
46.68304749623087
 21
158.629462271504
 31
0.0
  0
LINE
  5
2955
330
2
100
AcDbEntity
  8
0
100
AcDbLine
 10
115.7538474962308
 20
154.3606482715039
 30
0.0
 11
46.40548949623064
 21
154.9658582715041
 31
0.0
  0
LINE
  5
2956
330
2
100
AcDbEntity
  8
0
100
AcDbLine
 10
115.7538474962308
 20
155.1750722715041
 30
0.0
 11
45.60258749623073
 21
155.7872542715039
 31
0.0
  0
LINE
  5
2957
330
2
100
AcDbEntity
  8
0
100
AcDbLine
 10
115.7538474962308
 20
158.146460271504
 30
0.0
 11
45.60258749623073
 21
157.534264271504
 31
0.0
  0
LINE
  5
2958
330
2
100
AcDbEntity
  8
0
100
AcDbLine
 10
115.7538474962308
 20
105.6324922715043
 30
0.0
 11
44.92850749623051
 21
106.2505492715044
 31
0.0
  0
LINE
  5
2959
330
2
100
AcDbEntity
  8
0
100
AcDbLine
 10
116.0471294962304
 20
107.2427712715043
 30
0.0
 11
44.92850749623051
 21
106.6221312715041
 31
0.0
  0
LINE
  5
295A
330
2
100
AcDbEntity
  8
0
100
AcDbLine
 10
115.7538474962308
 20
109.1473502715043
 30
0.0
 11
45.05240949623078
 21
108.5303492715042
 31
0.0
  0
LINE
  5
295B
330
2
100
AcDbEntity
  8
0
100
AcDbLine
 10
115.7538474962308
 20
107.2894282715041
 30
0.0
 11
45.05240949623078
 21
107.9064292715042
 31
0.0
  0
LINE
  5
295C
330
2
100
AcDbEntity
  8
0
100
AcDbLine
 10
115.7538474962308
 20
110.581111271504
 30
0.0
 11
45.15154549623059
 21
111.1972312715042
 31
0.0
  0
LINE
  5
295D
330
2
100
AcDbEntity
  8
0
100
AcDbLine
 10
115.7538474962308
 20
112.6422302715045
 30
0.0
 11
45.15154549623059
 21
112.0260882715041
 31
0.0
  0
LINE
  5
295E
330
2
100
AcDbEntity
  8
0
100
AcDbLine
 10
115.7538474962308
 20
115.2756302715042
 30
0.0
 11
45.29032349623105
 21
115.8905482715044
 31
0.0
  0
LINE
  5
295F
330
2
100
AcDbEntity
  8
0
100
AcDbLine
 10
115.7538474962308
 20
114.4562492715039
 30
0.0
 11
46.94572749623069
 21
113.8557702715042
 31
0.0
  0
LINE
  5
2960
330
2
100
AcDbEntity
  8
0
100
AcDbLine
 10
111.8063489904026
 20
119.4065093019966
 30
0.0
 11
47.09444749623083
 21
118.8417892715041
 31
0.0
  0
LINE
  5
2961
330
2
100
AcDbEntity
  8
0
100
AcDbLine
 10
112.2550558462327
 20
117.5881303618256
 30
0.0
 11
45.29032349623105
 21
117.003749271504
 31
0.0
  0
LINE
  5
2962
330
2
100
AcDbEntity
  8
0
100
AcDbLine
 10
115.7538474962308
 20
128.6688492715042
 30
0.0
 11
45.46872949623105
 21
129.2822492715039
 31
0.0
  0
LINE
  5
2963
330
2
100
AcDbEntity
  8
0
100
AcDbLine
 10
115.7538474962308
 20
131.3708302715039
 30
0.0
 11
45.46872949623105
 21
130.7574312715041
 31
0.0
  0
LINE
  5
2964
330
2
100
AcDbEntity
  8
0
100
AcDbLine
 10
115.7538474962308
 20
136.8868312715039
 30
0.0
 11
45.53812749623069
 21
137.499629271504
 31
0.0
  0
LINE
  5
2965
330
2
100
AcDbEntity
  8
0
100
AcDbLine
 10
115.7538474962308
 20
139.7288512715039
 30
0.0
 11
45.53812749623069
 21
139.1160502715041
 31
0.0
  0
LINE
  5
2966
330
2
100
AcDbEntity
  8
0
100
AcDbLine
 10
115.7538474962308
 20
133.0450302715043
 30
0.0
 11
47.12418549623055
 21
132.446250271504
 31
0.0
  0
LINE
  5
2967
330
2
100
AcDbEntity
  8
0
100
AcDbLine
 10
115.7538474962308
 20
141.2512512715042
 30
0.0
 11
47.04488549623067
 21
140.651430271504
 31
0.0
  0
LINE
  5
2968
330
2
100
AcDbEntity
  8
0
100
AcDbLine
 10
115.7538474962308
 20
145.3466562715042
 30
0.0
 11
46.07342749623069
 21
145.9546582715042
 31
0.0
  0
LINE
  5
2969
330
2
100
AcDbEntity
  8
0
100
AcDbLine
 10
115.7538474962308
 20
150.069450271504
 30
0.0
 11
46.86642749623081
 21
149.4682542715044
 31
0.0
  0
LINE
  5
296A
330
2
100
AcDbEntity
  8
0
100
AcDbLine
 10
115.7538474962308
 20
145.8648602715042
 30
0.0
 11
45.55797149623106
 21
146.4774702715039
 31
0.0
  0
LINE
  5
296B
330
2
100
AcDbEntity
  8
0
100
AcDbLine
 10
115.7538474962308
 20
148.7452622715044
 30
0.0
 11
45.55797149623106
 21
148.132866271504
 31
0.0
  0
LINE
  5
296C
330
2
100
AcDbEntity
  8
0
100
AcDbLine
 10
97.59894849623073
 20
110.7395282715041
 30
0.0
 11
46.78712749623094
 21
110.2961122715041
 31
0.0
  0
LINE
  5
296D
330
2
100
AcDbEntity
  8
0
100
AcDbLine
 10
115.7538474962308
 20
176.9566562715044
 30
0.0
 11
45.55797149623106
 21
176.344048271504
 31
0.0
  0
LINE
  5
296E
330
2
100
AcDbEntity
  8
0
100
AcDbLine
 10
115.7538474962308
 20
177.4748452715043
 30
0.0
 11
46.07342749623069
 21
176.8668742715044
 31
0.0
  0
ARC
  5
296F
330
2
100
AcDbEntity
  8
0
100
AcDbCircle
 10
46.96512949623104
 20
111.635848271504
 30
0.0
 40
2.22
100
AcDbArc
 50
90.49999999999155
 51
180.0
  0
LINE
  5
2970
330
2
100
AcDbEntity
  8
0
100
AcDbLine
 10
44.90742749623097
 20
109.0376312715042
 30
0.0
 11
41.72764949623081
 21
109.0653912715042
 31
0.0
  0
ARC
  5
2971
330
2
100
AcDbEntity
  8
0
100
AcDbCircle
 10
41.74512749623102
 20
111.0653112715044
 30
0.0
 40
2.0
100
AcDbArc
 50
180.0
 51
269.5000000000084
  0
ARC
  5
2972
330
2
100
AcDbEntity
  8
0
100
AcDbCircle
 10
46.80510949623078
 20
108.2361902715041
 30
0.0
 40
2.06
100
AcDbArc
 50
90.49999999999155
 51
180.0
  0
LINE
  5
2973
330
2
100
AcDbEntity
  8
0
100
AcDbLine
 10
44.74512749623102
 20
106.4553102715044
 30
0.0
 11
44.74512749623102
 21
106.4355692715043
 31
0.0
  0
LINE
  5
2974
330
2
100
AcDbEntity
  8
0
100
AcDbLine
 10
44.74512749623102
 20
108.2361902715041
 30
0.0
 11
44.74512749623102
 21
108.2164302715045
 31
0.0
  0
LINE
  5
2975
330
2
100
AcDbEntity
  8
0
100
AcDbLine
 10
44.74512749623102
 20
108.2203712715044
 30
0.0
 11
44.74512749623102
 21
108.2164302715045
 31
0.0
  0
ARC
  5
2976
330
2
100
AcDbEntity
  8
0
100
AcDbCircle
 10
46.56010749623066
 20
106.4553102715044
 30
0.0
 40
1.814999999999999
100
AcDbArc
 50
127.1051030000105
 51
180.0
  0
ARC
  5
2977
330
2
100
AcDbEntity
  8
0
100
AcDbCircle
 10
44.93010949623078
 20
106.4355692715043
 30
0.0
 40
0.185
100
AcDbArc
 50
180.0
 51
269.5000000000084
  0
ARC
  5
2978
330
2
100
AcDbEntity
  8
0
100
AcDbCircle
 10
44.93010949623078
 20
106.437129271504
 30
0.0
 40
0.185
100
AcDbArc
 50
90.49999999999155
 51
180.0
  0
ARC
  5
2979
330
2
100
AcDbEntity
  8
0
100
AcDbCircle
 10
45.05510949623078
 20
108.2164302715045
 30
0.0
 40
0.31
100
AcDbArc
 50
180.0
 51
269.5000000000084
  0
ARC
  5
297A
330
2
100
AcDbEntity
  8
0
100
AcDbCircle
 10
45.05510949623078
 20
108.2203712715044
 30
0.0
 40
0.31
100
AcDbArc
 50
90.49999999999155
 51
180.0
  0
LINE
  5
297B
330
2
100
AcDbEntity
  8
0
100
AcDbLine
 10
44.74512749623102
 20
111.635848271504
 30
0.0
 11
44.74512749623102
 21
111.607212271504
 31
0.0
  0
LINE
  5
297C
330
2
100
AcDbEntity
  8
0
100
AcDbLine
 10
44.74512749623102
 20
111.6161112715043
 30
0.0
 11
44.74512749623102
 21
111.607212271504
 31
0.0
  0
ARC
  5
297D
330
2
100
AcDbEntity
  8
0
100
AcDbCircle
 10
45.15510749623092
 20
111.607212271504
 30
0.0
 40
0.41
100
AcDbArc
 50
180.0
 51
269.5000000000084
  0
ARC
  5
297E
330
2
100
AcDbEntity
  8
0
100
AcDbCircle
 10
45.15510749623092
 20
111.6161112715043
 30
0.0
 40
0.41
100
AcDbArc
 50
90.49999999999155
 51
180.0
  0
ARC
  5
297F
330
2
100
AcDbEntity
  8
0
100
AcDbCircle
 10
47.11512949623068
 20
116.4718512715043
 30
0.0
 40
2.37
100
AcDbArc
 50
90.49999999999155
 51
180.0
  0
LINE
  5
2980
330
2
100
AcDbEntity
  8
0
100
AcDbLine
 10
44.74512749623102
 20
116.4718512715043
 30
0.0
 11
44.74512749623102
 21
116.4405512715042
 31
0.0
  0
LINE
  5
2981
330
2
100
AcDbEntity
  8
0
100
AcDbLine
 10
44.74512749623102
 20
116.4537502715042
 30
0.0
 11
44.74512749623102
 21
116.4405512715042
 31
0.0
  0
ARC
  5
2982
330
2
100
AcDbEntity
  8
0
100
AcDbCircle
 10
45.2951074962308
 20
116.4537502715042
 30
0.0
 40
0.55
100
AcDbArc
 50
90.49999999999155
 51
180.0
  0
ARC
  5
2983
330
2
100
AcDbEntity
  8
0
100
AcDbCircle
 10
45.2951074962308
 20
116.4405512715042
 30
0.0
 40
0.55
100
AcDbArc
 50
180.0
 51
269.5000000000084
  0
ARC
  5
2984
330
2
100
AcDbEntity
  8
0
100
AcDbCircle
 10
47.14510549623094
 20
130.046230271504
 30
0.0
 40
2.399999999999999
100
AcDbArc
 50
90.49999999999155
 51
180.0
  0
ARC
  5
2985
330
2
100
AcDbEntity
  8
0
100
AcDbCircle
 10
45.47513149623102
 20
130.0276292715042
 30
0.0
 40
0.73
100
AcDbArc
 50
90.49999999999155
 51
180.0
  0
LINE
  5
2986
330
2
100
AcDbEntity
  8
0
100
AcDbLine
 10
44.74512749623102
 20
130.046230271504
 30
0.0
 11
44.74512749623102
 21
130.0276292715042
 31
0.0
  0
LINE
  5
2987
330
2
100
AcDbEntity
  8
0
100
AcDbLine
 10
44.74512749623102
 20
130.0276292715042
 30
0.0
 11
44.74512749623102
 21
130.0122502715043
 31
0.0
  0
ARC
  5
2988
330
2
100
AcDbEntity
  8
0
100
AcDbCircle
 10
45.47513149623102
 20
130.0122502715043
 30
0.0
 40
0.73
100
AcDbArc
 50
180.0
 51
269.5000000000084
  0
ARC
  5
2989
330
2
100
AcDbEntity
  8
0
100
AcDbCircle
 10
46.70010549623078
 20
156.6744602715043
 30
0.0
 40
1.955
100
AcDbArc
 50
90.49999999999155
 51
180.0
  0
ARC
  5
298A
330
2
100
AcDbEntity
  8
0
100
AcDbCircle
 10
45.61012549623103
 20
156.669258271504
 30
0.0
 40
0.865
100
AcDbArc
 50
90.49999999999155
 51
180.0
  0
ARC
  5
298B
330
2
100
AcDbEntity
  8
0
100
AcDbCircle
 10
46.08512349623071
 20
147.2946702715043
 30
0.0
 40
1.34
100
AcDbArc
 50
180.0
 51
269.5000000000084
  0
ARC
  5
298C
330
2
100
AcDbEntity
  8
0
100
AcDbCircle
 10
47.06512749623072
 20
138.3316302715042
 30
0.0
 40
2.319999999999999
100
AcDbArc
 50
90.49999999999155
 51
180.0
  0
LINE
  5
298D
330
2
100
AcDbEntity
  8
0
100
AcDbLine
 10
44.74512749623102
 20
138.3316302715042
 30
0.0
 11
44.74512749623102
 21
138.316030271504
 31
0.0
  0
LINE
  5
298E
330
2
100
AcDbEntity
  8
0
100
AcDbLine
 10
44.74512749623102
 20
138.316030271504
 30
0.0
 11
44.74512749623102
 21
138.299650271504
 31
0.0
  0
ARC
  5
298F
330
2
100
AcDbEntity
  8
0
100
AcDbCircle
 10
45.54510749623079
 20
138.299650271504
 30
0.0
 40
0.8
100
AcDbArc
 50
180.0
 51
269.5000000000084
  0
ARC
  5
2990
330
2
100
AcDbEntity
  8
0
100
AcDbCircle
 10
45.54510749623079
 20
138.316030271504
 30
0.0
 40
0.8
100
AcDbArc
 50
90.49999999999155
 51
180.0
  0
ARC
  5
2991
330
2
100
AcDbEntity
  8
0
100
AcDbCircle
 10
46.88512749623089
 20
147.3284522715043
 30
0.0
 40
2.14
100
AcDbArc
 50
90.49999999999155
 51
180.0
  0
LINE
  5
2992
330
2
100
AcDbEntity
  8
0
100
AcDbLine
 10
44.74512749623102
 20
147.3284522715043
 30
0.0
 11
44.74512749623102
 21
147.2946702715043
 31
0.0
  0
LINE
  5
2993
330
2
100
AcDbEntity
  8
0
100
AcDbLine
 10
44.74512749623102
 20
147.3128582715043
 30
0.0
 11
44.74512749623102
 21
147.2974622715041
 31
0.0
  0
ARC
  5
2994
330
2
100
AcDbEntity
  8
0
100
AcDbCircle
 10
45.56512749623073
 20
147.3128582715043
 30
0.0
 40
0.8199999999999999
100
AcDbArc
 50
90.49999999999155
 51
180.0
  0
ARC
  5
2995
330
2
100
AcDbEntity
  8
0
100
AcDbCircle
 10
46.4201074962308
 20
156.6408602715041
 30
0.0
 40
1.675
100
AcDbArc
 50
180.0
 51
269.5000000000084
  0
LINE
  5
2996
330
2
100
AcDbEntity
  8
0
100
AcDbLine
 10
44.74512749623102
 20
156.6744602715043
 30
0.0
 11
44.74512749623102
 21
156.6408602715041
 31
0.0
  0
LINE
  5
2997
330
2
100
AcDbEntity
  8
0
100
AcDbLine
 10
44.74512749623102
 20
156.669258271504
 30
0.0
 11
44.74512749623102
 21
156.6522602715039
 31
0.0
  0
ARC
  5
2998
330
2
100
AcDbEntity
  8
0
100
AcDbCircle
 10
45.61012549623103
 20
156.6522602715039
 30
0.0
 40
0.865
100
AcDbArc
 50
180.0
 51
269.5000000000084
  0
ARC
  5
2999
330
2
100
AcDbEntity
  8
0
100
AcDbCircle
 10
45.56512749623073
 20
147.2974622715041
 30
0.0
 40
0.8199999999999999
100
AcDbArc
 50
180.0
 51
269.5000000000084
  0
ARC
  5
299A
330
2
100
AcDbEntity
  8
0
100
AcDbCircle
 10
46.4201074962308
 20
166.1806562715041
 30
0.0
 40
1.675
100
AcDbArc
 50
90.49999999999155
 51
180.0
  0
ARC
  5
299B
330
2
100
AcDbEntity
  8
0
100
AcDbCircle
 10
46.70010549623078
 20
166.1470562715039
 30
0.0
 40
1.955
100
AcDbArc
 50
180.0
 51
269.5000000000084
  0
LINE
  5
299C
330
2
100
AcDbEntity
  8
0
100
AcDbLine
 10
44.74512749623102
 20
166.1522602715039
 30
0.0
 11
44.74512749623102
 21
166.169258271504
 31
0.0
  0
LINE
  5
299D
330
2
100
AcDbEntity
  8
0
100
AcDbLine
 10
44.74512749623102
 20
166.1470562715039
 30
0.0
 11
44.74512749623102
 21
166.1806562715041
 31
0.0
  0
ARC
  5
299E
330
2
100
AcDbEntity
  8
0
100
AcDbCircle
 10
45.61012549623103
 20
166.1522602715039
 30
0.0
 40
0.865
100
AcDbArc
 50
180.0
 51
269.5000000000084
  0
ARC
  5
299F
330
2
100
AcDbEntity
  8
0
100
AcDbCircle
 10
45.61012549623103
 20
166.169258271504
 30
0.0
 40
0.865
100
AcDbArc
 50
90.49999999999155
 51
180.0
  0
ARC
  5
29A0
330
2
100
AcDbEntity
  8
0
100
AcDbCircle
 10
46.88512749623089
 20
175.4930642715043
 30
0.0
 40
2.14
100
AcDbArc
 50
180.0
 51
269.5000000000084
  0
LINE
  5
29A1
330
2
100
AcDbEntity
  8
0
100
AcDbLine
 10
44.74512749623102
 20
175.5086742715042
 30
0.0
 11
44.74512749623102
 21
175.5240702715045
 31
0.0
  0
LINE
  5
29A2
330
2
100
AcDbEntity
  8
0
100
AcDbLine
 10
44.74512749623102
 20
175.4930642715043
 30
0.0
 11
44.74512749623102
 21
175.526848271504
 31
0.0
  0
ARC
  5
29A3
330
2
100
AcDbEntity
  8
0
100
AcDbCircle
 10
45.56512749623073
 20
175.5086742715042
 30
0.0
 40
0.8199999999999999
100
AcDbArc
 50
180.0
 51
269.5000000000084
  0
ARC
  5
29A4
330
2
100
AcDbEntity
  8
0
100
AcDbCircle
 10
46.08512349623071
 20
175.526848271504
 30
0.0
 40
1.34
100
AcDbArc
 50
90.49999999999155
 51
180.0
  0
ARC
  5
29A5
330
2
100
AcDbEntity
  8
0
100
AcDbCircle
 10
45.56512749623073
 20
175.5240702715045
 30
0.0
 40
0.8199999999999999
100
AcDbArc
 50
90.49999999999155
 51
180.0
  0
ARC
  5
29A6
330
2
100
AcDbEntity
  8
0
100
AcDbCircle
 10
115.745127496231
 20
113.6422112715044
 30
0.0
 40
1.0
100
AcDbArc
 50
270.4999999999915
 51
0.0
  0
ARC
  5
29A7
330
2
100
AcDbEntity
  8
0
100
AcDbCircle
 10
117.745127496231
 20
99.06798927150425
 30
0.0
 40
1.0
100
AcDbArc
 50
180.0
 51
268.9999999999982
  0
ARC
  5
29A8
330
2
100
AcDbEntity
  8
0
100
AcDbCircle
 10
115.745127496231
 20
109.5811302715041
 30
0.0
 40
1.0
100
AcDbArc
 50
0.0
 51
89.50000000000846
  0
ARC
  5
29A9
330
2
100
AcDbEntity
  8
0
100
AcDbCircle
 10
115.745127496231
 20
110.1473122715041
 30
0.0
 40
1.0
100
AcDbArc
 50
270.4999999999915
 51
343.5553890000036
  0
ARC
  5
29AA
330
2
100
AcDbEntity
  8
0
100
AcDbCircle
 10
115.745127496231
 20
106.2894702715042
 30
0.0
 40
1.0
100
AcDbArc
 50
0.0
 51
89.50000000000846
  0
ARC
  5
29AB
330
2
100
AcDbEntity
  8
0
100
AcDbCircle
 10
115.745127496231
 20
104.6325112715039
 30
0.0
 40
1.0
100
AcDbArc
 50
0.0
 51
89.50000000000846
  0
LINE
  5
29AC
330
2
100
AcDbEntity
  8
0
100
AcDbLine
 10
115.444346496231
 20
115.650749271504
 30
0.0
 11
113.8335294962304
 21
115.650749271504
 31
0.0
  0
LINE
  5
29AD
330
2
100
AcDbEntity
  8
0
100
AcDbLine
 10
115.444346496231
 20
125.150749271504
 30
0.0
 11
113.8335294962304
 21
125.150749271504
 31
0.0
  0
ARC
  5
29AE
330
2
100
AcDbEntity
  8
0
100
AcDbCircle
 10
119.7443264962308
 20
120.400749271504
 30
0.0
 40
8.0
100
AcDbArc
 50
147.6076050000065
 51
212.392394999993
  0
ARC
  5
29AF
330
2
100
AcDbEntity
  8
0
100
AcDbCircle
 10
113.8335294962304
 20
116.650749271504
 30
0.0
 40
1.0
100
AcDbArc
 50
212.392394999993
 51
270.0
  0
ARC
  5
29B0
330
2
100
AcDbEntity
  8
0
100
AcDbCircle
 10
113.8335294962304
 20
124.150749271504
 30
0.0
 40
1.0
100
AcDbArc
 50
90.0
 51
147.6076050000065
  0
LINE
  5
29B1
330
2
100
AcDbEntity
  8
0
100
AcDbLine
 10
115.444346496231
 20
125.150749271504
 30
0.0
 11
115.444346496231
 21
115.650749271504
 31
0.0
  0
LINE
  5
29B2
330
2
100
AcDbEntity
  8
0
100
AcDbLine
 10
115.444346496231
 20
115.800750271504
 30
0.0
 11
116.7443264962308
 21
115.800750271504
 31
0.0
  0
ARC
  5
29B3
330
2
100
AcDbEntity
  8
0
100
AcDbCircle
 10
115.745127496231
 20
115.4562112715042
 30
0.0
 40
1.0
100
AcDbArc
 50
270.4999999999915
 51
323.8237000000101
  0
ARC
  5
29B4
330
2
100
AcDbEntity
  8
0
100
AcDbCircle
 10
115.745127496231
 20
114.2756492715042
 30
0.0
 40
1.0
100
AcDbArc
 50
0.0
 51
89.50000000000846
  0
LINE
  5
29B5
330
2
100
AcDbEntity
  8
0
100
AcDbLine
 10
115.444346496231
 20
125.0007322715041
 30
0.0
 11
116.7443264962308
 21
125.0007322715041
 31
0.0
  0
ARC
  5
29B6
330
2
100
AcDbEntity
  8
0
100
AcDbCircle
 10
115.745127496231
 20
127.6689302715039
 30
0.0
 40
1.0
100
AcDbArc
 50
0.0
 51
89.50000000000846
  0
ARC
  5
29B7
330
2
100
AcDbEntity
  8
0
100
AcDbCircle
 10
115.745127496231
 20
132.3708302715039
 30
0.0
 40
1.0
100
AcDbArc
 50
270.4999999999915
 51
0.0
  0
ARC
  5
29B8
330
2
100
AcDbEntity
  8
0
100
AcDbCircle
 10
115.745127496231
 20
134.0450302715043
 30
0.0
 40
1.0
100
AcDbArc
 50
270.4999999999915
 51
0.0
  0
ARC
  5
29B9
330
2
100
AcDbEntity
  8
0
100
AcDbCircle
 10
115.745127496231
 20
144.8648602715042
 30
0.0
 40
1.0
100
AcDbArc
 50
0.0
 51
89.50000000000846
  0
ARC
  5
29BA
330
2
100
AcDbEntity
  8
0
100
AcDbCircle
 10
115.745127496231
 20
144.3466562715042
 30
0.0
 40
1.0
100
AcDbArc
 50
0.0
 51
89.50000000000846
  0
ARC
  5
29BB
330
2
100
AcDbEntity
  8
0
100
AcDbCircle
 10
115.745127496231
 20
140.7288512715039
 30
0.0
 40
1.0
100
AcDbArc
 50
270.4999999999915
 51
0.0
  0
ARC
  5
29BC
330
2
100
AcDbEntity
  8
0
100
AcDbCircle
 10
115.745127496231
 20
142.2510602715041
 30
0.0
 40
1.0
100
AcDbArc
 50
270.4999999999915
 51
0.0
  0
ARC
  5
29BD
330
2
100
AcDbEntity
  8
0
100
AcDbCircle
 10
115.745127496231
 20
135.8868312715039
 30
0.0
 40
1.0
100
AcDbArc
 50
0.0
 51
89.50000000000846
  0
ARC
  5
29BE
330
2
100
AcDbEntity
  8
0
100
AcDbCircle
 10
115.745127496231
 20
151.069450271504
 30
0.0
 40
1.0
100
AcDbArc
 50
270.4999999999915
 51
0.0
  0
ARC
  5
29BF
330
2
100
AcDbEntity
  8
0
100
AcDbCircle
 10
115.745127496231
 20
149.7452622715044
 30
0.0
 40
1.0
100
AcDbArc
 50
270.4999999999915
 51
0.0
  0
ARC
  5
29C0
330
2
100
AcDbEntity
  8
0
100
AcDbCircle
 10
115.745127496231
 20
153.3608622715041
 30
0.0
 40
1.0
100
AcDbArc
 50
0.0
 51
89.50000000000846
  0
ARC
  5
29C1
330
2
100
AcDbEntity
  8
0
100
AcDbCircle
 10
115.745127496231
 20
154.1752542715043
 30
0.0
 40
1.0
100
AcDbArc
 50
0.0
 51
89.50000000000846
  0
ARC
  5
29C2
330
2
100
AcDbEntity
  8
0
100
AcDbCircle
 10
115.745127496231
 20
168.6462622715043
 30
0.0
 40
1.0
100
AcDbArc
 50
270.4999999999915
 51
0.0
  0
ARC
  5
29C3
330
2
100
AcDbEntity
  8
0
100
AcDbCircle
 10
115.745127496231
 20
163.6750722715041
 30
0.0
 40
1.0
100
AcDbArc
 50
0.0
 51
89.50000000000846
  0
ARC
  5
29C4
330
2
100
AcDbEntity
  8
0
100
AcDbCircle
 10
115.745127496231
 20
160.2320632715044
 30
0.0
 40
1.0
100
AcDbArc
 50
270.4999999999915
 51
0.0
  0
ARC
  5
29C5
330
2
100
AcDbEntity
  8
0
100
AcDbCircle
 10
115.745127496231
 20
159.146460271504
 30
0.0
 40
1.0
100
AcDbArc
 50
270.4999999999915
 51
0.0
  0
ARC
  5
29C6
330
2
100
AcDbEntity
  8
0
100
AcDbCircle
 10
115.745127496231
 20
162.5894692715041
 30
0.0
 40
1.0
100
AcDbArc
 50
0.0
 51
89.50000000000846
  0
ARC
  5
29C7
330
2
100
AcDbEntity
  8
0
100
AcDbCircle
 10
115.745127496231
 20
169.4606542715041
 30
0.0
 40
1.0
100
AcDbArc
 50
270.4999999999915
 51
0.0
  0
ARC
  5
29C8
330
2
100
AcDbEntity
  8
0
100
AcDbCircle
 10
115.745127496231
 20
173.0762562715043
 30
0.0
 40
1.0
100
AcDbArc
 50
0.0
 51
89.50000000000846
  0
ARC
  5
29C9
330
2
100
AcDbEntity
  8
0
100
AcDbCircle
 10
115.745127496231
 20
171.7520682715043
 30
0.0
 40
1.0
100
AcDbArc
 50
0.0
 51
89.50000000000846
  0
ARC
  5
29CA
330
2
100
AcDbEntity
  8
0
100
AcDbCircle
 10
115.745127496231
 20
177.9566572715042
 30
0.0
 40
1.0
100
AcDbArc
 50
270.4999999999915
 51
0.0
  0
ARC
  5
29CB
330
2
100
AcDbEntity
  8
0
100
AcDbCircle
 10
115.745127496231
 20
178.4748452715042
 30
0.0
 40
1.0
100
AcDbArc
 50
270.4999999999915
 51
0.0
  0
LINE
  5
29CC
330
2
100
AcDbEntity
  8
CENTER
100
AcDbLine
 10
106.683245496231
 20
202.4208902715039
 30
0.0
 11
130.9427054962303
 21
202.4208902715039
 31
0.0
  0
LINE
  5
29CD
330
2
100
AcDbEntity
  8
0
100
AcDbLine
 10
126.745127496231
 20
224.9108882715044
 30
0.0
 11
117.7276484962309
 21
224.7532502715043
 31
0.0
  0
LINE
  5
29CE
330
2
100
AcDbEntity
  8
0
100
AcDbLine
 10
115.7538474962308
 20
207.5458902715044
 30
0.0
 11
45.29032349623105
 21
206.9308312715042
 31
0.0
  0
LINE
  5
29CF
330
2
100
AcDbEntity
  8
0
100
AcDbLine
 10
115.7538474962308
 20
208.365249271504
 30
0.0
 11
46.94572749623069
 21
208.9656902715041
 31
0.0
  0
LINE
  5
29D0
330
2
100
AcDbEntity
  8
0
100
AcDbLine
 10
115.7538474962308
 20
191.4506512715042
 30
0.0
 11
45.46872949623105
 21
192.0638712715044
 31
0.0
  0
LINE
  5
29D1
330
2
100
AcDbEntity
  8
0
100
AcDbLine
 10
115.7538474962308
 20
194.1526482715043
 30
0.0
 11
45.46872949623105
 21
193.5392492715044
 31
0.0
  0
LINE
  5
29D2
330
2
100
AcDbEntity
  8
0
100
AcDbLine
 10
115.7538474962308
 20
183.0926702715041
 30
0.0
 11
45.53812749623069
 21
183.7054502715045
 31
0.0
  0
LINE
  5
29D3
330
2
100
AcDbEntity
  8
0
100
AcDbLine
 10
115.7538474962308
 20
185.9346502715042
 30
0.0
 11
45.53812749623069
 21
185.321849271504
 31
0.0
  0
LINE
  5
29D4
330
2
100
AcDbEntity
  8
0
100
AcDbLine
 10
115.7538474962308
 20
189.7764702715043
 30
0.0
 11
47.12418549623055
 21
190.3752702715041
 31
0.0
  0
LINE
  5
29D5
330
2
100
AcDbEntity
  8
0
100
AcDbLine
 10
115.7538474962308
 20
181.5702702715043
 30
0.0
 11
47.04488549623067
 21
182.1700702715042
 31
0.0
  0
LINE
  5
29D6
330
2
100
AcDbEntity
  8
0
100
AcDbLine
 10
111.8063366047114
 20
203.4150313490867
 30
0.0
 11
47.09444749623083
 21
203.9796712715041
 31
0.0
  0
LINE
  5
29D7
330
2
100
AcDbEntity
  8
0
100
AcDbLine
 10
112.2550341355496
 20
205.2334513706177
 30
0.0
 11
45.29032349623105
 21
205.8176682715042
 31
0.0
  0
LINE
  5
29D8
330
2
100
AcDbEntity
  8
0
100
AcDbLine
 10
115.7538474962308
 20
215.5320312715043
 30
0.0
 11
45.05240949623078
 21
214.9150312715041
 31
0.0
  0
LINE
  5
29D9
330
2
100
AcDbEntity
  8
0
100
AcDbLine
 10
115.7538474962308
 20
213.6740722715039
 30
0.0
 11
45.05240949623078
 21
214.291069271504
 31
0.0
  0
LINE
  5
29DA
330
2
100
AcDbEntity
  8
0
100
AcDbLine
 10
115.7538474962308
 20
212.2404702715043
 30
0.0
 11
45.15154549623059
 21
211.6242522715042
 31
0.0
  0
LINE
  5
29DB
330
2
100
AcDbEntity
  8
0
100
AcDbLine
 10
54.22766349623055
 20
216.6520302715043
 30
0.0
 11
115.7538474962308
 21
217.1890712715043
 31
0.0
  0
LINE
  5
29DC
330
2
100
AcDbEntity
  8
0
100
AcDbLine
 10
115.7538474962308
 20
210.1792482715044
 30
0.0
 11
45.15154549623059
 21
210.7954712715044
 31
0.0
  0
LINE
  5
29DD
330
2
100
AcDbEntity
  8
0
100
AcDbLine
 10
97.59894849623073
 20
212.0820922715042
 30
0.0
 11
46.78712749623094
 21
212.5254702715041
 31
0.0
  0
ARC
  5
29DE
330
2
100
AcDbEntity
  8
0
100
AcDbCircle
 10
91.05084227543386
 20
284.8615047389229
 30
0.0
 40
46.0
100
AcDbArc
 50
250.5608481874146
 51
270.0
  0
ARC
  5
29DF
330
2
100
AcDbEntity
  8
0
100
AcDbCircle
 10
91.05084227543386
 20
284.8615047389229
 30
0.0
 40
44.0
100
AcDbArc
 50
250.5608481874146
 51
270.0
  0
ARC
  5
29E0
330
2
100
AcDbEntity
  8
0
100
AcDbCircle
 10
91.05084227543386
 20
284.8615047389229
 30
0.0
 40
42.0
100
AcDbArc
 50
250.5608481874146
 51
270.0
  0
ARC
  5
29E1
330
2
100
AcDbEntity
  8
0
100
AcDbCircle
 10
91.05084227543386
 20
284.8615047389229
 30
0.0
 40
40.0
100
AcDbArc
 50
250.5608481874146
 51
270.0
  0
LINE
  5
29E2
330
2
100
AcDbEntity
  8
0
100
AcDbLine
 10
50.74517749623066
 20
260.4972918906236
 30
0.0
 11
89.16580322676884
 21
260.4972918906236
 31
0.0
  0
LINE
  5
29E3
330
2
100
AcDbEntity
  8
0
100
AcDbLine
 10
50.74515749623117
 20
254.4972918906236
 30
0.0
 11
89.16527982337095
 21
254.4972918906236
 31
0.0
  0
LINE
  5
29E4
330
2
100
AcDbEntity
  8
0
100
AcDbLine
 10
41.74512749623056
 20
241.1562432408103
 30
0.0
 11
41.74512749623102
 21
215.9108882715044
 31
0.0
  0
LINE
  5
29E5
330
2
100
AcDbEntity
  8
0
100
AcDbLine
 10
43.74512749623057
 20
240.3209161463723
 30
0.0
 11
43.74512749623102
 21
215.9108882715044
 31
0.0
  0
LINE
  5
29E6
330
2
100
AcDbEntity
  8
0
100
AcDbLine
 10
39.74512749623102
 20
240.7350777359096
 30
0.0
 11
39.74512749623102
 21
215.9108882715044
 31
0.0
  0
LINE
  5
29E7
330
2
100
AcDbEntity
  8
0
100
AcDbLine
 10
45.74512749623102
 20
240.7350763274143
 30
0.0
 11
45.74512749623102
 21
215.9108882715044
 31
0.0
  0
ARC
  5
29E8
330
2
100
AcDbEntity
  8
0
100
AcDbCircle
 10
54.24512749623102
 20
214.6521492715041
 30
0.0
 40
2.0
100
AcDbArc
 50
90.50070200000861
 51
170.6273039999844
  0
LINE
  5
29E9
330
2
100
AcDbEntity
  8
0
100
AcDbLine
 10
37.24512749623102
 20
214.9108882715044
 30
0.0
 11
37.24506649623083
 21
183.4108692715044
 31
0.0
  0
ARC
  5
29EA
330
2
100
AcDbEntity
  8
0
100
AcDbCircle
 10
38.24515049623062
 20
183.4108692715044
 30
0.0
 40
1.0
100
AcDbArc
 50
180.0
 51
239.9984783206095
  0
ARC
  5
29EB
330
2
100
AcDbEntity
  8
0
100
AcDbCircle
 10
47.06512749623072
 20
184.489850271504
 30
0.0
 40
2.319999999999999
100
AcDbArc
 50
180.0
 51
269.5000000000084
  0
LINE
  5
29EC
330
2
100
AcDbEntity
  8
0
100
AcDbLine
 10
44.74512749623102
 20
184.5054512715041
 30
0.0
 11
44.74512749623102
 21
184.5218692715042
 31
0.0
  0
LINE
  5
29ED
330
2
100
AcDbEntity
  8
0
100
AcDbLine
 10
44.74512749623102
 20
184.489850271504
 30
0.0
 11
44.74512749623102
 21
184.5054512715041
 31
0.0
  0
ARC
  5
29EE
330
2
100
AcDbEntity
  8
0
100
AcDbCircle
 10
45.54510749623079
 20
184.5054512715041
 30
0.0
 40
0.8
100
AcDbArc
 50
180.0
 51
269.5000000000084
  0
ARC
  5
29EF
330
2
100
AcDbEntity
  8
0
100
AcDbCircle
 10
45.54510749623079
 20
184.5218692715042
 30
0.0
 40
0.8
100
AcDbArc
 50
90.49999999999155
 51
180.0
  0
ARC
  5
29F0
330
2
100
AcDbEntity
  8
0
100
AcDbCircle
 10
47.14510549623094
 20
192.7752512715041
 30
0.0
 40
2.399999999999999
100
AcDbArc
 50
180.0
 51
269.5000000000084
  0
ARC
  5
29F1
330
2
100
AcDbEntity
  8
0
100
AcDbCircle
 10
45.47513149623102
 20
192.7938492715042
 30
0.0
 40
0.73
100
AcDbArc
 50
180.0
 51
269.5000000000084
  0
LINE
  5
29F2
330
2
100
AcDbEntity
  8
0
100
AcDbLine
 10
44.74512749623102
 20
192.7938492715042
 30
0.0
 11
44.74512749623102
 21
192.809249271504
 31
0.0
  0
LINE
  5
29F3
330
2
100
AcDbEntity
  8
0
100
AcDbLine
 10
44.74512749623102
 20
192.7752512715041
 30
0.0
 11
44.74512749623102
 21
192.7938492715042
 31
0.0
  0
ARC
  5
29F4
330
2
100
AcDbEntity
  8
0
100
AcDbCircle
 10
45.47513149623102
 20
192.809249271504
 30
0.0
 40
0.73
100
AcDbArc
 50
90.49999999999155
 51
180.0
  0
LINE
  5
29F5
330
2
100
AcDbEntity
  8
0
100
AcDbLine
 10
44.90742749623097
 20
213.7838702715043
 30
0.0
 11
41.72764949623081
 21
213.7560692715041
 31
0.0
  0
LINE
  5
29F6
330
2
100
AcDbEntity
  8
0
100
AcDbLine
 10
47.24512749623102
 20
215.9108122715041
 30
0.0
 11
38.24512749623102
 21
215.9108882715044
 31
0.0
  0
ARC
  5
29F7
330
2
100
AcDbEntity
  8
0
100
AcDbCircle
 10
38.24515049623062
 20
214.9108882715044
 30
0.0
 40
1.0
100
AcDbArc
 50
90.0
 51
180.0
  0
ARC
  5
29F8
330
2
100
AcDbEntity
  8
0
100
AcDbCircle
 10
41.74512749623102
 20
211.7560692715041
 30
0.0
 40
2.0
100
AcDbArc
 50
90.49999999999155
 51
180.0
  0
LINE
  5
29F9
330
2
100
AcDbEntity
  8
0
100
AcDbLine
 10
48.24514949623074
 20
211.6512292715041
 30
0.0
 11
48.24514949623074
 21
211.6340522715044
 31
0.0
  0
ARC
  5
29FA
330
2
100
AcDbEntity
  8
0
100
AcDbCircle
 10
45.15510749623092
 20
211.2142482715043
 30
0.0
 40
0.41
100
AcDbArc
 50
90.49999999999155
 51
180.0
  0
ARC
  5
29FB
330
2
100
AcDbEntity
  8
0
100
AcDbCircle
 10
46.96512949623104
 20
211.1856682715042
 30
0.0
 40
2.22
100
AcDbArc
 50
180.0
 51
269.5000000000084
  0
LINE
  5
29FC
330
2
100
AcDbEntity
  8
0
100
AcDbLine
 10
44.74512749623102
 20
211.1856682715042
 30
0.0
 11
44.74512749623102
 21
211.2142482715043
 31
0.0
  0
LINE
  5
29FD
330
2
100
AcDbEntity
  8
0
100
AcDbLine
 10
44.74512749623102
 20
211.2054292715042
 30
0.0
 11
44.74512749623102
 21
211.2142482715043
 31
0.0
  0
ARC
  5
29FE
330
2
100
AcDbEntity
  8
0
100
AcDbCircle
 10
45.15510749623092
 20
211.2054292715042
 30
0.0
 40
0.41
100
AcDbArc
 50
180.0
 51
269.5000000000084
  0
ARC
  5
29FF
330
2
100
AcDbEntity
  8
0
100
AcDbCircle
 10
47.11512949623068
 20
206.3496702715041
 30
0.0
 40
2.37
100
AcDbArc
 50
180.0
 51
269.5000000000084
  0
LINE
  5
2A00
330
2
100
AcDbEntity
  8
0
100
AcDbLine
 10
44.74512749623102
 20
206.367671271504
 30
0.0
 11
44.74512749623102
 21
206.380851271504
 31
0.0
  0
LINE
  5
2A01
330
2
100
AcDbEntity
  8
0
100
AcDbLine
 10
44.74512749623102
 20
206.3496702715041
 30
0.0
 11
44.74512749623102
 21
206.380851271504
 31
0.0
  0
ARC
  5
2A02
330
2
100
AcDbEntity
  8
0
100
AcDbCircle
 10
45.2951074962308
 20
206.367671271504
 30
0.0
 40
0.55
100
AcDbArc
 50
180.0
 51
269.5000000000084
  0
ARC
  5
2A03
330
2
100
AcDbEntity
  8
0
100
AcDbCircle
 10
45.2951074962308
 20
206.380851271504
 30
0.0
 40
0.55
100
AcDbArc
 50
90.49999999999155
 51
180.0
  0
ARC
  5
2A04
330
2
100
AcDbEntity
  8
0
100
AcDbCircle
 10
47.24512749623102
 20
214.9108882715044
 30
0.0
 40
1.0
100
AcDbArc
 50
0.0
 51
90.0
  0
ARC
  5
2A05
330
2
100
AcDbEntity
  8
0
100
AcDbCircle
 10
46.80510949623078
 20
214.5852502715042
 30
0.0
 40
2.06
100
AcDbArc
 50
180.0
 51
269.5000000000084
  0
ARC
  5
2A06
330
2
100
AcDbEntity
  8
0
100
AcDbCircle
 10
45.05510949623078
 20
214.6010702715043
 30
0.0
 40
0.31
100
AcDbArc
 50
180.0
 51
269.5000000000084
  0
ARC
  5
2A07
330
2
100
AcDbEntity
  8
0
100
AcDbCircle
 10
45.05510949623078
 20
214.605071271504
 30
0.0
 40
0.31
100
AcDbArc
 50
90.49999999999155
 51
180.0
  0
ARC
  5
2A08
330
2
100
AcDbEntity
  8
0
100
AcDbCircle
 10
47.24514949623073
 20
214.9108882715044
 30
0.0
 40
1.0
100
AcDbArc
 50
0.0
 51
1.824028999993647
  0
ARC
  5
2A09
330
2
100
AcDbEntity
  8
0
100
AcDbCircle
 10
51.17753428962498
 20
207.7350038246917
 30
0.0
 40
40.0
100
AcDbArc
 50
70.56084818741466
 51
90.0
  0
ARC
  5
2A0A
330
2
100
AcDbEntity
  8
0
100
AcDbCircle
 10
51.17753428962498
 20
207.7350038246917
 30
0.0
 40
42.0
100
AcDbArc
 50
70.56084818741466
 51
90.0
  0
ARC
  5
2A0B
330
2
100
AcDbEntity
  8
0
100
AcDbCircle
 10
51.17753428962498
 20
207.7350038246917
 30
0.0
 40
46.0
100
AcDbArc
 50
70.56084818741466
 51
90.0
  0
ARC
  5
2A0C
330
2
100
AcDbEntity
  8
0
100
AcDbCircle
 10
51.17753428962498
 20
207.7350038246917
 30
0.0
 40
44.0
100
AcDbArc
 50
70.56084818741466
 51
90.0
  0
ARC
  5
2A0D
330
2
100
AcDbEntity
  8
0
100
AcDbCircle
 10
50.74517870941566
 20
242.735062613106
 30
0.0
 40
9.000051213203853
100
AcDbArc
 50
90.00024308268166
 51
177.3436678381762
  0
ARC
  5
2A0E
330
2
100
AcDbEntity
  8
0
100
AcDbCircle
 10
50.74517870941566
 20
242.735062613106
 30
0.0
 40
11.00005121320385
100
AcDbArc
 50
90.00024308268166
 51
179.9998428472075
  0
ARC
  5
2A0F
330
2
100
AcDbEntity
  8
0
100
AcDbCircle
 10
50.74517870941566
 20
242.735062613106
 30
0.0
 40
7.000051213203854
100
AcDbArc
 50
90.00024308268166
 51
179.9998428472075
  0
ARC
  5
2A10
330
2
100
AcDbEntity
  8
0
100
AcDbCircle
 10
50.74517870941566
 20
242.735062613106
 30
0.0
 40
5.000051213203854
100
AcDbArc
 50
90.00024308268166
 51
179.9998428472075
  0
LINE
  5
2A11
330
2
100
AcDbEntity
  8
0
100
AcDbLine
 10
39.74517749623066
 20
249.4972918906236
 30
0.0
 11
39.74512749623102
 21
242.7350777359096
 31
0.0
  0
LINE
  5
2A12
330
2
100
AcDbEntity
  8
HOJO
100
AcDbLine
 10
41.61644949623098
 20
243.2104257312452
 30
0.0
 11
43.87404849623101
 21
242.2598177312456
 31
0.0
  0
LINE
  5
2A13
330
2
100
AcDbEntity
  8
HOJO
100
AcDbLine
 10
41.61644949623098
 20
241.2104257312452
 30
0.0
 11
43.87404849623101
 21
240.2598177312456
 31
0.0
  0
ARC
  5
2A14
330
2
100
AcDbEntity
  8
HOJO
100
AcDbCircle
 10
40.99515749623117
 20
241.7351137312452
 30
0.0
 40
1.600781999999999
100
AcDbArc
 50
67.16467300002067
 51
141.3418685642233
  0
ARC
  5
2A15
330
2
100
AcDbEntity
  8
HOJO
100
AcDbCircle
 10
40.99515749623117
 20
239.7351137312452
 30
0.0
 40
1.600781999999999
100
AcDbArc
 50
67.16467300002067
 51
141.3418685641862
  0
LINE
  5
2A16
330
2
100
AcDbEntity
  8
HOJO
100
AcDbLine
 10
39.74512749623102
 20
240.7351497265812
 30
0.0
 11
39.74512749623102
 21
240.4963174072449
 31
0.0
  0
LINE
  5
2A17
330
2
100
AcDbEntity
  8
0
100
AcDbLine
 10
43.74512749623102
 20
242.735062613106
 30
0.0
 11
43.74512749623057
 21
242.3141025417757
 31
0.0
  0
ARC
  5
2A18
330
2
100
AcDbEntity
  8
HOJO
100
AcDbCircle
 10
44.49515749623117
 20
243.7351137312452
 30
0.0
 40
1.600781
100
AcDbArc
 50
247.1647030000082
 51
321.3401944016112
  0
ARC
  5
2A19
330
2
100
AcDbEntity
  8
HOJO
100
AcDbCircle
 10
44.49515749623117
 20
241.7351137312452
 30
0.0
 40
1.600781
100
AcDbArc
 50
247.1647030000082
 51
321.3401944016112
  0
ARC
  5
2A1A
330
2
100
AcDbEntity
  8
0
100
AcDbCircle
 10
50.74517749623066
 20
249.4972918906236
 30
0.0
 40
11.0
100
AcDbArc
 50
90.0
 51
180.0
  0
ARC
  5
2A1B
330
2
100
AcDbEntity
  8
0
100
AcDbCircle
 10
50.74515749623117
 20
249.4972918906236
 30
0.0
 40
5.0
100
AcDbArc
 50
90.0
 51
131.9745634210986
  0
ARC
  5
2A1C
330
2
100
AcDbEntity
  8
0
100
AcDbCircle
 10
50.74515749623117
 20
242.7351138262646
 30
0.0
 40
9.0
100
AcDbArc
 50
90.0
 51
123.3057915968492
  0
LINE
  5
2A1D
330
2
100
AcDbEntity
  8
0
100
AcDbLine
 10
50.74499146158598
 20
247.7350038246917
 30
0.0
 11
51.17753428962498
 21
247.7350038246917
 31
0.0
  0
LINE
  5
2A1E
330
2
100
AcDbEntity
  8
0
100
AcDbLine
 10
50.74499146158598
 20
253.7350038246917
 30
0.0
 11
51.17753428962498
 21
253.7350038246917
 31
0.0
  0
LINE
  5
2A1F
330
2
100
AcDbEntity
  8
0
100
AcDbLine
 10
50.74499146158598
 20
251.7350038246917
 30
0.0
 11
51.17753428962498
 21
251.7350038246917
 31
0.0
  0
LINE
  5
2A20
330
2
100
AcDbEntity
  8
0
100
AcDbLine
 10
50.74499146158598
 20
249.7350038246917
 30
0.0
 11
51.17753428962498
 21
249.7350038246917
 31
0.0
  0
LINE
  5
2A21
330
2
100
AcDbEntity
  8
0
100
AcDbLine
 10
64.48975768052298
 20
245.4548223342075
 30
0.0
 11
75.74178537590126
 21
241.4837134529797
 31
0.0
  0
LINE
  5
2A22
330
2
100
AcDbEntity
  8
0
100
AcDbLine
 10
65.15536885006724
 20
247.3408132596832
 30
0.0
 11
76.40739654544598
 21
243.3697043784554
 31
0.0
  0
LINE
  5
2A23
330
2
100
AcDbEntity
  8
0
100
AcDbLine
 10
65.82098001961242
 20
249.2268041851593
 30
0.0
 11
77.0730077149907
 21
245.255695303931
 31
0.0
  0
LINE
  5
2A24
330
2
100
AcDbEntity
  8
0
100
AcDbLine
 10
66.48659118915714
 20
251.1127951106349
 30
0.0
 11
77.73861888453587
 21
247.1416862294071
 31
0.0
  0
LINE
  5
2A25
330
2
100
AcDbEntity
  8
0
100
AcDbLine
 10
115.444346496231
 20
207.170890271504
 30
0.0
 11
115.444346496231
 21
197.6708712715039
 31
0.0
  0
ARC
  5
2A26
330
2
100
AcDbEntity
  8
0
100
AcDbCircle
 10
119.7443264962308
 20
202.4208902715039
 30
0.0
 40
8.0
100
AcDbArc
 50
147.6076050000065
 51
212.392394999993
  0
LINE
  5
2A27
330
2
100
AcDbEntity
  8
0
100
AcDbLine
 10
115.444346496231
 20
197.6708712715039
 30
0.0
 11
113.8335294962304
 21
197.6708712715039
 31
0.0
  0
ARC
  5
2A28
330
2
100
AcDbEntity
  8
0
100
AcDbCircle
 10
113.8335294962304
 20
198.6708712715039
 30
0.0
 40
1.0
100
AcDbArc
 50
212.392394999993
 51
270.0
  0
ARC
  5
2A29
330
2
100
AcDbEntity
  8
0
100
AcDbCircle
 10
115.745127496231
 20
188.7764702715043
 30
0.0
 40
1.0
100
AcDbArc
 50
0.0
 51
89.50000000000846
  0
ARC
  5
2A2A
330
2
100
AcDbEntity
  8
0
100
AcDbCircle
 10
115.745127496231
 20
186.9346502715042
 30
0.0
 40
1.0
100
AcDbArc
 50
270.4999999999915
 51
0.0
  0
ARC
  5
2A2B
330
2
100
AcDbEntity
  8
0
100
AcDbCircle
 10
115.745127496231
 20
182.0926702715041
 30
0.0
 40
1.0
100
AcDbArc
 50
0.0
 51
89.50000000000846
  0
ARC
  5
2A2C
330
2
100
AcDbEntity
  8
0
100
AcDbCircle
 10
115.745127496231
 20
180.5704572715039
 30
0.0
 40
1.0
100
AcDbArc
 50
0.0
 51
89.50000000000846
  0
LINE
  5
2A2D
330
2
100
AcDbEntity
  8
0
100
AcDbLine
 10
115.444346496231
 20
197.8208692715042
 30
0.0
 11
116.7443264962308
 21
197.8208692715042
 31
0.0
  0
ARC
  5
2A2E
330
2
100
AcDbEntity
  8
0
100
AcDbCircle
 10
115.745127496231
 20
190.4506512715042
 30
0.0
 40
1.0
100
AcDbArc
 50
0.0
 51
89.50000000000846
  0
ARC
  5
2A2F
330
2
100
AcDbEntity
  8
0
100
AcDbCircle
 10
115.745127496231
 20
195.1524692715042
 30
0.0
 40
1.0
100
AcDbArc
 50
270.4999999999915
 51
0.0
  0
LINE
  5
2A30
330
2
100
AcDbEntity
  8
0
100
AcDbLine
 10
115.444346496231
 20
207.170890271504
 30
0.0
 11
113.8335294962304
 21
207.170890271504
 31
0.0
  0
ARC
  5
2A31
330
2
100
AcDbEntity
  8
0
100
AcDbCircle
 10
113.8335294962304
 20
206.1708902715039
 30
0.0
 40
1.0
100
AcDbArc
 50
90.0
 51
147.6076050000065
  0
LINE
  5
2A32
330
2
100
AcDbEntity
  8
0
100
AcDbLine
 10
115.444346496231
 20
207.0206902715039
 30
0.0
 11
116.7443264962308
 21
207.0206902715039
 31
0.0
  0
ARC
  5
2A33
330
2
100
AcDbEntity
  8
0
100
AcDbCircle
 10
115.745127496231
 20
209.1792482715045
 30
0.0
 40
1.0
100
AcDbArc
 50
0.0
 51
89.50000000000846
  0
ARC
  5
2A34
330
2
100
AcDbEntity
  8
0
100
AcDbCircle
 10
115.745127496231
 20
207.365249271504
 30
0.0
 40
1.0
100
AcDbArc
 50
36.17633799998952
 51
89.50000000000846
  0
ARC
  5
2A35
330
2
100
AcDbEntity
  8
0
100
AcDbCircle
 10
115.745127496231
 20
208.5458902715044
 30
0.0
 40
1.0
100
AcDbArc
 50
270.4999999999915
 51
0.0
  0
ARC
  5
2A36
330
2
100
AcDbEntity
  8
0
100
AcDbCircle
 10
115.745127496231
 20
213.240249271504
 30
0.0
 40
1.0
100
AcDbArc
 50
270.4999999999915
 51
0.0
  0
ARC
  5
2A37
330
2
100
AcDbEntity
  8
0
100
AcDbCircle
 10
115.745127496231
 20
216.5320312715043
 30
0.0
 40
1.0
100
AcDbArc
 50
270.4999999999915
 51
0.0
  0
ARC
  5
2A38
330
2
100
AcDbEntity
  8
0
100
AcDbCircle
 10
115.745127496231
 20
218.1888692715042
 30
0.0
 40
1.0
100
AcDbArc
 50
270.4999999999915
 51
0.0
  0
ARC
  5
2A39
330
2
100
AcDbEntity
  8
0
100
AcDbCircle
 10
115.745127496231
 20
212.6742512715044
 30
0.0
 40
1.0
100
AcDbArc
 50
16.44459900000769
 51
89.50000000000846
  0
LINE
  5
2A3A
330
2
100
AcDbEntity
  8
0
100
AcDbLine
 10
98.92303460048935
 20
261.7273969734751
 30
0.0
 11
104.9651589332457
 21
262.7927865141354
 31
0.0
  0
LINE
  5
2A3B
330
2
100
AcDbEntity
  8
0
100
AcDbLine
 10
105.2062300960912
 20
254.4727374920561
 30
0.0
 11
98.9260730498869
 21
255.0221800387616
 31
0.0
  0
LINE
  5
2A3C
330
2
100
AcDbEntity
  8
0
100
AcDbLine
 10
98.9260730498869
 20
254.4838421079615
 30
0.0
 11
105.0701453294774
 21
253.4004763936467
 31
0.0
  0
LINE
  5
2A3D
330
2
100
AcDbEntity
  8
0
100
AcDbLine
 10
105.2586232275822
 20
255.6727374920559
 30
0.0
 11
98.9260730498869
 21
256.2267638438133
 31
0.0
  0
LINE
  5
2A3E
330
2
100
AcDbEntity
  8
0
100
AcDbLine
 10
105.2062300960884
 20
260.5205254157262
 30
0.0
 11
98.9260730498869
 21
259.9710828690207
 31
0.0
  0
LINE
  5
2A3F
330
2
100
AcDbEntity
  8
0
100
AcDbLine
 10
98.9260730498869
 20
260.5094207998208
 30
0.0
 11
105.0701453294765
 21
261.5927865141352
 31
0.0
  0
LINE
  5
2A40
330
2
100
AcDbEntity
  8
0
100
AcDbLine
 10
105.2586232275781
 20
259.3205254157259
 30
0.0
 11
98.9260730498869
 21
258.766499063969
 31
0.0
  0
LINE
  5
2A41
330
2
100
AcDbEntity
  8
0
100
AcDbLine
 10
98.92303460048935
 20
253.2658659343068
 30
0.0
 11
104.9651589332457
 21
252.2004763936469
 31
0.0
  0
LINE
  5
2A42
330
2
100
AcDbEntity
  8
0
100
AcDbLine
 10
114.8043400382386
 20
256.896631453891
 30
0.0
 11
98.9260730498869
 21
256.896631453891
 31
0.0
  0
LINE
  5
2A43
330
2
100
AcDbEntity
  8
0
100
AcDbLine
 10
114.8043400382386
 20
258.0966314538908
 30
0.0
 11
98.9260730498869
 21
258.0966314538908
 31
0.0
  0
LINE
  5
2A44
330
2
100
AcDbEntity
  8
0
100
AcDbLine
 10
91.52880859850041
 20
242.8615047389229
 30
0.0
 11
121.0035417918849
 21
245.4402097537954
 31
0.0
  0
LINE
  5
2A45
330
2
100
AcDbEntity
  8
0
100
AcDbLine
 10
91.52880859850041
 20
240.8615047389229
 30
0.0
 11
120.9968132066238
 21
238.2833883989823
 31
0.0
  0
LINE
  5
2A46
330
2
100
AcDbEntity
  8
0
100
AcDbLine
 10
91.44148671268306
 20
244.8615047389229
 30
0.0
 11
120.8292303063896
 21
247.432599149979
 31
0.0
  0
LINE
  5
2A47
330
2
100
AcDbEntity
  8
0
100
AcDbLine
 10
91.44148671268306
 20
238.8615047389229
 30
0.0
 11
120.8225017211285
 21
236.2909990027987
 31
0.0
  0
LINE
  5
2A48
330
2
100
AcDbEntity
  8
0
100
AcDbLine
 10
120.941486712683
 20
242.8615047389229
 30
0.0
 11
91.05084227542523
 21
242.8615047389229
 31
0.0
  0
LINE
  5
2A49
330
2
100
AcDbEntity
  8
0
100
AcDbLine
 10
120.941486712683
 20
240.8615047389229
 30
0.0
 11
91.05084227542477
 21
240.8615047389229
 31
0.0
  0
LINE
  5
2A4A
330
2
100
AcDbEntity
  8
0
100
AcDbLine
 10
91.44148671268306
 20
238.8615047389229
 30
0.0
 11
91.05084227542432
 21
238.8615047389229
 31
0.0
  0
LINE
  5
2A4B
330
2
100
AcDbEntity
  8
0
100
AcDbLine
 10
89.35945239407885
 20
254.2472918906236
 30
0.0
 11
92.06948228999193
 21
254.2472918906236
 31
0.0
  0
LINE
  5
2A4C
330
2
100
AcDbEntity
  8
0
100
AcDbLine
 10
89.35945239407885
 20
260.7472918906241
 30
0.0
 11
92.0945020272676
 21
260.7472918906241
 31
0.0
  0
LINE
  5
2A4D
330
2
100
AcDbEntity
  8
0
100
AcDbLine
 10
89.15945239407903
 20
254.4472918906239
 30
0.0
 11
89.15945239407903
 21
260.5472918906238
 31
0.0
  0
ARC
  5
2A4E
330
2
100
AcDbEntity
  8
0
100
AcDbCircle
 10
89.35945239407885
 20
254.4472918906239
 30
0.0
 40
0.2
100
AcDbArc
 50
180.0
 51
270.0
  0
ARC
  5
2A4F
330
2
100
AcDbEntity
  8
0
100
AcDbCircle
 10
89.35945239407885
 20
260.5472918906238
 30
0.0
 40
0.2
100
AcDbArc
 50
90.0
 51
180.0
  0
LINE
  5
2A50
330
2
100
AcDbEntity
  8
0
100
AcDbLine
 10
98.9260730498869
 20
253.3005955698403
 30
0.0
 11
98.9260730498869
 21
261.692667337942
 31
0.0
  0
ARC
  5
2A51
330
2
100
AcDbEntity
  8
0
100
AcDbCircle
 10
96.22607304988708
 20
253.7034110037333
 30
0.0
 40
0.4
100
AcDbArc
 50
257.0698677002812
 51
326.0187104207559
  0
LINE
  5
2A52
330
2
100
AcDbEntity
  8
0
100
AcDbLine
 10
96.13656796201906
 20
253.3135535435689
 30
0.0
 11
92.06948228999237
 21
254.2472918906236
 31
0.0
  0
LINE
  5
2A53
330
2
100
AcDbEntity
  8
0
100
AcDbLine
 10
91.44148671268306
 20
244.8615047389229
 30
0.0
 11
91.05084227543386
 21
244.8615047389229
 31
0.0
  0
LINE
  5
2A54
330
2
100
AcDbEntity
  8
0
100
AcDbLine
 10
96.55776110489263
 20
253.4798421459581
 30
0.0
 11
98.69134341435405
 21
253.103634019238
 31
0.0
  0
ARC
  5
2A55
330
2
100
AcDbEntity
  8
0
100
AcDbCircle
 10
98.72607304988708
 20
253.3005955698403
 30
0.0
 40
0.2
100
AcDbArc
 50
259.9999999999949
 51
0.0
  0
LINE
  5
2A56
330
2
100
AcDbEntity
  8
0
100
AcDbLine
 10
97.13999841122006
 20
261.8590605447279
 30
0.0
 11
92.0945020272676
 21
260.7472918906236
 31
0.0
  0
LINE
  5
2A57
330
2
100
AcDbEntity
  8
0
100
AcDbLine
 10
97.55911015497225
 20
261.6899856164599
 30
0.0
 11
98.69134341435405
 21
261.8896288885443
 31
0.0
  0
ARC
  5
2A58
330
2
100
AcDbEntity
  8
0
100
AcDbCircle
 10
97.22607304988708
 20
261.4684313643301
 30
0.0
 40
0.4
100
AcDbArc
 50
33.6339940220023
 51
102.4264747477467
  0
ARC
  5
2A59
330
2
100
AcDbEntity
  8
0
100
AcDbCircle
 10
98.72607304988708
 20
261.692667337942
 30
0.0
 40
0.2
100
AcDbArc
 50
0.0
 51
100.000000000005
  0
ARC
  5
2A5A
330
2
100
AcDbEntity
  8
0
100
AcDbCircle
 10
117.745127496231
 20
223.7534712715041
 30
0.0
 40
1.0
100
AcDbArc
 50
91.00000000000177
 51
180.0
  0
LINE
  5
2A5B
330
2
100
AcDbEntity
  8
0
100
AcDbLine
 10
125.897359539596
 20
236.8508263122202
 30
0.0
 11
120.9163860491377
 21
237.2866050259585
 31
0.0
  0
LINE
  5
2A5C
330
2
100
AcDbEntity
  8
0
100
AcDbLine
 10
125.8668550296348
 20
236.5021581678883
 30
0.0
 11
120.8858815391755
 21
236.9379368816266
 31
0.0
  0
LINE
  5
2A5D
330
2
100
AcDbEntity
  8
0
100
AcDbLine
 10
125.8363505196727
 20
236.153490023556
 30
0.0
 11
120.8553770292143
 21
236.5892687372942
 31
0.0
  0
LINE
  5
2A5E
330
2
100
AcDbEntity
  8
0
100
AcDbLine
 10
125.9752504063559
 20
237.546685630667
 30
0.0
 11
120.9773950690611
 21
237.9839413146227
 31
0.0
  0
LINE
  5
2A5F
330
2
100
AcDbEntity
  8
0
100
AcDbLine
 10
125.9278640495578
 20
237.1994944565526
 30
0.0
 11
120.9468905590989
 21
237.6352731702908
 31
0.0
  0
LINE
  5
2A60
330
2
100
AcDbEntity
  8
0
100
AcDbLine
 10
120.8225017211285
 20
236.2909990027987
 30
0.0
 11
120.9968132066238
 21
238.2833883989823
 31
0.0
  0
LINE
  5
2A61
330
2
100
AcDbEntity
  8
0
100
AcDbLine
 10
125.941486712683
 20
242.5615047389228
 30
0.0
 11
120.941486712683
 21
242.5615047389228
 31
0.0
  0
LINE
  5
2A62
330
2
100
AcDbEntity
  8
0
100
AcDbLine
 10
125.941486712683
 20
242.2115047389228
 30
0.0
 11
120.941486712683
 21
242.2115047389228
 31
0.0
  0
LINE
  5
2A63
330
2
100
AcDbEntity
  8
0
100
AcDbLine
 10
125.941486712683
 20
241.8615047389229
 30
0.0
 11
120.941486712683
 21
241.8615047389229
 31
0.0
  0
LINE
  5
2A64
330
2
100
AcDbEntity
  8
0
100
AcDbLine
 10
125.941486712683
 20
241.1615047389227
 30
0.0
 11
120.941486712683
 21
241.1615047389227
 31
0.0
  0
LINE
  5
2A65
330
2
100
AcDbEntity
  8
0
100
AcDbLine
 10
125.941486712683
 20
241.5115047389225
 30
0.0
 11
120.941486712683
 21
241.5115047389225
 31
0.0
  0
LINE
  5
2A66
330
2
100
AcDbEntity
  8
0
100
AcDbLine
 10
120.941486712683
 20
240.8615047389229
 30
0.0
 11
120.941486712683
 21
242.8615047389229
 31
0.0
  0
LINE
  5
2A67
330
2
100
AcDbEntity
  8
0
100
AcDbLine
 10
114.8043400382386
 20
255.5966314538908
 30
0.0
 11
107.0017380825353
 21
255.5966314538908
 31
0.0
  0
LINE
  5
2A68
330
2
100
AcDbEntity
  8
0
100
AcDbLine
 10
114.8043400382386
 20
254.396631453891
 30
0.0
 11
106.9493449510442
 21
254.396631453891
 31
0.0
  0
LINE
  5
2A69
330
2
100
AcDbEntity
  8
0
100
AcDbLine
 10
114.8043400382386
 20
253.0966314538908
 30
0.0
 11
108.5431088828164
 21
253.0966314538908
 31
0.0
  0
LINE
  5
2A6A
330
2
100
AcDbEntity
  8
0
100
AcDbLine
 10
114.8043400382386
 20
251.896631453891
 30
0.0
 11
108.4381224865843
 21
251.896631453891
 31
0.0
  0
LINE
  5
2A6B
330
2
100
AcDbEntity
  8
0
100
AcDbLine
 10
114.8043400382386
 20
263.0966314538909
 30
0.0
 11
108.4381224865843
 21
263.0966314538909
 31
0.0
  0
LINE
  5
2A6C
330
2
100
AcDbEntity
  8
0
100
AcDbLine
 10
114.8043400382386
 20
261.896631453891
 30
0.0
 11
108.543108882815
 21
261.896631453891
 31
0.0
  0
LINE
  5
2A6D
330
2
100
AcDbEntity
  8
0
100
AcDbLine
 10
114.8043400382386
 20
260.5966314538909
 30
0.0
 11
106.949344951041
 21
260.5966314538909
 31
0.0
  0
LINE
  5
2A6E
330
2
100
AcDbEntity
  8
0
100
AcDbLine
 10
114.8043400382386
 20
259.396631453891
 30
0.0
 11
107.0017380825312
 21
259.396631453891
 31
0.0
  0
ARC
  5
2A6F
330
2
100
AcDbEntity
  8
0
100
AcDbCircle
 10
108.5431088828159
 20
273.0966314538909
 30
0.0
 40
20.0
100
AcDbArc
 50
259.9999999999949
 51
270.0
  0
ARC
  5
2A70
330
2
100
AcDbEntity
  8
0
100
AcDbCircle
 10
106.9493449510442
 20
274.396631453891
 30
0.0
 40
20.0
100
AcDbArc
 50
265.0000000000003
 51
270.0
  0
ARC
  5
2A71
330
2
100
AcDbEntity
  8
0
100
AcDbCircle
 10
108.4381224865843
 20
271.896631453891
 30
0.0
 40
20.0
100
AcDbArc
 50
259.9999999999949
 51
270.0
  0
ARC
  5
2A72
330
2
100
AcDbEntity
  8
0
100
AcDbCircle
 10
108.543108882815
 20
241.896631453891
 30
0.0
 40
20.0
100
AcDbArc
 50
90.0
 51
100.000000000005
  0
ARC
  5
2A73
330
2
100
AcDbEntity
  8
0
100
AcDbCircle
 10
107.0017380825353
 20
275.5966314538909
 30
0.0
 40
20.0
100
AcDbArc
 50
265.0000000000003
 51
270.0
  0
ARC
  5
2A74
330
2
100
AcDbEntity
  8
0
100
AcDbCircle
 10
107.0017380825316
 20
239.396631453891
 30
0.0
 40
20.0
100
AcDbArc
 50
90.0
 51
94.99999999999975
  0
ARC
  5
2A75
330
2
100
AcDbEntity
  8
0
100
AcDbCircle
 10
106.9493449510415
 20
240.5966314538908
 30
0.0
 40
20.0
100
AcDbArc
 50
90.0
 51
94.99999999999975
  0
ARC
  5
2A76
330
2
100
AcDbEntity
  8
0
100
AcDbCircle
 10
108.4381224865843
 20
243.0966314538908
 30
0.0
 40
20.0
100
AcDbArc
 50
90.0
 51
100.000000000005
  0
LINE
  5
2A77
330
2
100
AcDbEntity
  8
0
100
AcDbLine
 10
125.3043400382386
 20
254.2966314538911
 30
0.0
 11
125.3043400382386
 21
255.6966314538912
 31
0.0
  0
LINE
  5
2A78
330
2
100
AcDbEntity
  8
0
100
AcDbLine
 10
122.8043400382385
 20
254.0966314538909
 30
0.0
 11
122.8043400382385
 21
255.896631453891
 31
0.0
  0
LINE
  5
2A79
330
2
100
AcDbEntity
  8
0
100
AcDbLine
 10
116.8043400382385
 20
263.7466314538909
 30
0.0
 11
116.8043400382385
 21
251.2466314538909
 31
0.0
  0
LINE
  5
2A7A
330
2
100
AcDbEntity
  8
0
100
AcDbLine
 10
114.8043400382386
 20
263.7466314538909
 30
0.0
 11
114.8043400382386
 21
251.2466314538909
 31
0.0
  0
LINE
  5
2A7B
330
2
100
AcDbEntity
  8
0
100
AcDbLine
 10
126.3043400382386
 20
263.7466314538909
 30
0.0
 11
126.3043400382386
 21
251.2466314538909
 31
0.0
  0
LINE
  5
2A7C
330
2
100
AcDbEntity
  8
0
100
AcDbLine
 10
126.3043400382386
 20
263.7466314538909
 30
0.0
 11
126.3043400382386
 21
251.2466314538909
 31
0.0
  0
LINE
  5
2A7D
330
2
100
AcDbEntity
  8
0
100
AcDbLine
 10
126.3043400382386
 20
251.2466314538909
 30
0.0
 11
114.8043400382386
 21
251.2466314538909
 31
0.0
  0
LINE
  5
2A7E
330
2
100
AcDbEntity
  8
0
100
AcDbLine
 10
122.7043400382386
 20
253.9966314538909
 30
0.0
 11
119.4043400382384
 21
253.9966314538909
 31
0.0
  0
LINE
  5
2A7F
330
2
100
AcDbEntity
  8
0
100
AcDbLine
 10
122.7043400382386
 20
253.4966314538909
 30
0.0
 11
119.4043400382384
 21
253.4966314538909
 31
0.0
  0
LINE
  5
2A80
330
2
100
AcDbEntity
  8
0
100
AcDbLine
 10
122.7043400382386
 20
251.4966314538909
 30
0.0
 11
119.4043400382384
 21
251.4966314538909
 31
0.0
  0
ARC
  5
2A81
330
2
100
AcDbEntity
  8
0
100
AcDbCircle
 10
119.4043400382384
 20
253.896631453891
 30
0.0
 40
0.1
100
AcDbArc
 50
90.0
 51
180.0
  0
LINE
  5
2A82
330
2
100
AcDbEntity
  8
0
100
AcDbLine
 10
119.3043400382385
 20
253.7466314538909
 30
0.0
 11
119.3043400382385
 21
253.896631453891
 31
0.0
  0
ARC
  5
2A83
330
2
100
AcDbEntity
  8
0
100
AcDbCircle
 10
119.4043400382384
 20
253.5966314538908
 30
0.0
 40
0.1
100
AcDbArc
 50
180.0
 51
270.0
  0
LINE
  5
2A84
330
2
100
AcDbEntity
  8
0
100
AcDbLine
 10
119.3043400382385
 20
253.7466314538909
 30
0.0
 11
119.3043400382385
 21
253.5966314538908
 31
0.0
  0
ARC
  5
2A85
330
2
100
AcDbEntity
  8
0
100
AcDbCircle
 10
119.4043400382384
 20
251.396631453891
 30
0.0
 40
0.1
100
AcDbArc
 50
90.0
 51
180.0
  0
LINE
  5
2A86
330
2
100
AcDbEntity
  8
0
100
AcDbLine
 10
119.3043400382385
 20
251.396631453891
 30
0.0
 11
119.3043400382385
 21
251.2466314538909
 31
0.0
  0
LINE
  5
2A87
330
2
100
AcDbEntity
  8
0
100
AcDbLine
 10
125.8668550296348
 20
247.2208513099575
 30
0.0
 11
120.8858815391755
 21
246.7850725962188
 31
0.0
  0
LINE
  5
2A88
330
2
100
AcDbEntity
  8
0
100
AcDbLine
 10
125.897359539596
 20
246.8721831656252
 30
0.0
 11
120.9163860491377
 21
246.4364044518869
 31
0.0
  0
LINE
  5
2A89
330
2
100
AcDbEntity
  8
0
100
AcDbLine
 10
125.9752504063559
 20
246.1763238471784
 30
0.0
 11
120.9773950690611
 21
245.7390681632227
 31
0.0
  0
LINE
  5
2A8A
330
2
100
AcDbEntity
  8
0
100
AcDbLine
 10
125.9278640495578
 20
246.5235150212929
 30
0.0
 11
120.9468905590989
 21
246.087736307555
 31
0.0
  0
LINE
  5
2A8B
330
2
100
AcDbEntity
  8
0
100
AcDbLine
 10
125.8363505196727
 20
247.5695194542895
 30
0.0
 11
120.8553770292143
 21
247.1337407405512
 31
0.0
  0
LINE
  5
2A8C
330
2
100
AcDbEntity
  8
0
100
AcDbLine
 10
125.2043400382386
 20
254.1966314538912
 30
0.0
 11
124.4043400382385
 21
254.1966314538912
 31
0.0
  0
LINE
  5
2A8D
330
2
100
AcDbEntity
  8
0
100
AcDbLine
 10
124.3043400382386
 20
253.7466314538909
 30
0.0
 11
124.3043400382386
 21
254.0966314538909
 31
0.0
  0
ARC
  5
2A8E
330
2
100
AcDbEntity
  8
0
100
AcDbCircle
 10
124.4043400382385
 20
254.0966314538909
 30
0.0
 40
0.1
100
AcDbArc
 50
90.0
 51
180.0
  0
ARC
  5
2A8F
330
2
100
AcDbEntity
  8
0
100
AcDbCircle
 10
125.2043400382386
 20
254.2966314538911
 30
0.0
 40
0.1
100
AcDbArc
 50
270.0
 51
0.0
  0
LINE
  5
2A90
330
2
100
AcDbEntity
  8
0
100
AcDbLine
 10
125.2043400382386
 20
253.2966314538911
 30
0.0
 11
124.4043400382385
 21
253.2966314538911
 31
0.0
  0
ARC
  5
2A91
330
2
100
AcDbEntity
  8
0
100
AcDbCircle
 10
124.4043400382385
 20
253.396631453891
 30
0.0
 40
0.1
100
AcDbArc
 50
180.0
 51
270.0
  0
ARC
  5
2A92
330
2
100
AcDbEntity
  8
0
100
AcDbCircle
 10
125.2043400382386
 20
253.1966314538912
 30
0.0
 40
0.1
100
AcDbArc
 50
0.0
 51
90.0
  0
LINE
  5
2A93
330
2
100
AcDbEntity
  8
0
100
AcDbLine
 10
124.3043400382386
 20
253.7466314538909
 30
0.0
 11
124.3043400382386
 21
253.396631453891
 31
0.0
  0
ARC
  5
2A94
330
2
100
AcDbEntity
  8
0
100
AcDbCircle
 10
122.7043400382386
 20
254.0966314538909
 30
0.0
 40
0.1
100
AcDbArc
 50
270.0
 51
0.0
  0
ARC
  5
2A95
330
2
100
AcDbEntity
  8
0
100
AcDbCircle
 10
122.7043400382386
 20
253.396631453891
 30
0.0
 40
0.1
100
AcDbArc
 50
0.0
 51
90.0
  0
LINE
  5
2A96
330
2
100
AcDbEntity
  8
0
100
AcDbLine
 10
125.2043400382386
 20
251.6966314538912
 30
0.0
 11
124.4043400382385
 21
251.6966314538912
 31
0.0
  0
LINE
  5
2A97
330
2
100
AcDbEntity
  8
0
100
AcDbLine
 10
124.3043400382386
 20
251.2466314538909
 30
0.0
 11
124.3043400382386
 21
251.5966314538908
 31
0.0
  0
ARC
  5
2A98
330
2
100
AcDbEntity
  8
0
100
AcDbCircle
 10
124.4043400382385
 20
251.5966314538908
 30
0.0
 40
0.1
100
AcDbArc
 50
90.0
 51
180.0
  0
ARC
  5
2A99
330
2
100
AcDbEntity
  8
0
100
AcDbCircle
 10
125.2043400382386
 20
251.7966314538911
 30
0.0
 40
0.1
100
AcDbArc
 50
270.0
 51
0.0
  0
ARC
  5
2A9A
330
2
100
AcDbEntity
  8
0
100
AcDbCircle
 10
122.7043400382386
 20
251.5966314538908
 30
0.0
 40
0.1
100
AcDbArc
 50
270.0
 51
0.0
  0
LINE
  5
2A9B
330
2
100
AcDbEntity
  8
0
100
AcDbLine
 10
125.3043400382386
 20
253.1966314538912
 30
0.0
 11
125.3043400382386
 21
251.7966314538911
 31
0.0
  0
LINE
  5
2A9C
330
2
100
AcDbEntity
  8
0
100
AcDbLine
 10
122.8043400382385
 20
253.396631453891
 30
0.0
 11
122.8043400382385
 21
251.5966314538908
 31
0.0
  0
LINE
  5
2A9D
330
2
100
AcDbEntity
  8
0
100
AcDbLine
 10
120.8292303063896
 20
247.432599149979
 30
0.0
 11
121.0035417918849
 21
245.4402097537954
 31
0.0
  0
LINE
  5
2A9E
330
2
100
AcDbEntity
  8
0
100
AcDbLine
 10
126.3043400382386
 20
263.7466314538909
 30
0.0
 11
114.8043400382386
 21
263.7466314538909
 31
0.0
  0
LINE
  5
2A9F
330
2
100
AcDbEntity
  8
0
100
AcDbLine
 10
122.7043400382386
 20
256.496631453891
 30
0.0
 11
119.4043400382384
 21
256.496631453891
 31
0.0
  0
LINE
  5
2AA0
330
2
100
AcDbEntity
  8
0
100
AcDbLine
 10
122.7043400382386
 20
255.9966314538909
 30
0.0
 11
119.4043400382384
 21
255.9966314538909
 31
0.0
  0
LINE
  5
2AA1
330
2
100
AcDbEntity
  8
0
100
AcDbLine
 10
122.7043400382386
 20
261.4966314538909
 30
0.0
 11
119.4043400382384
 21
261.4966314538909
 31
0.0
  0
LINE
  5
2AA2
330
2
100
AcDbEntity
  8
0
100
AcDbLine
 10
122.7043400382386
 20
260.996631453891
 30
0.0
 11
119.4043400382384
 21
260.996631453891
 31
0.0
  0
LINE
  5
2AA3
330
2
100
AcDbEntity
  8
0
100
AcDbLine
 10
122.7043400382386
 20
258.996631453891
 30
0.0
 11
119.4043400382384
 21
258.996631453891
 31
0.0
  0
LINE
  5
2AA4
330
2
100
AcDbEntity
  8
0
100
AcDbLine
 10
122.7043400382386
 20
258.4966314538909
 30
0.0
 11
119.4043400382384
 21
258.4966314538909
 31
0.0
  0
LINE
  5
2AA5
330
2
100
AcDbEntity
  8
0
100
AcDbLine
 10
122.7043400382386
 20
263.4966314538909
 30
0.0
 11
119.4043400382384
 21
263.4966314538909
 31
0.0
  0
ARC
  5
2AA6
330
2
100
AcDbEntity
  8
0
100
AcDbCircle
 10
119.4043400382384
 20
256.396631453891
 30
0.0
 40
0.1
100
AcDbArc
 50
90.0
 51
180.0
  0
LINE
  5
2AA7
330
2
100
AcDbEntity
  8
0
100
AcDbLine
 10
119.3043400382385
 20
256.0966314538908
 30
0.0
 11
119.3043400382385
 21
256.396631453891
 31
0.0
  0
ARC
  5
2AA8
330
2
100
AcDbEntity
  8
0
100
AcDbCircle
 10
119.4043400382384
 20
256.0966314538908
 30
0.0
 40
0.1
100
AcDbArc
 50
180.0
 51
270.0
  0
ARC
  5
2AA9
330
2
100
AcDbEntity
  8
0
100
AcDbCircle
 10
119.4043400382384
 20
261.0966314538909
 30
0.0
 40
0.1
100
AcDbArc
 50
180.0
 51
270.0
  0
LINE
  5
2AAA
330
2
100
AcDbEntity
  8
0
100
AcDbLine
 10
119.3043400382385
 20
258.8966314538911
 30
0.0
 11
119.3043400382385
 21
258.5966314538909
 31
0.0
  0
ARC
  5
2AAB
330
2
100
AcDbEntity
  8
0
100
AcDbCircle
 10
119.4043400382384
 20
258.8966314538911
 30
0.0
 40
0.1
100
AcDbArc
 50
90.0
 51
180.0
  0
ARC
  5
2AAC
330
2
100
AcDbEntity
  8
0
100
AcDbCircle
 10
119.4043400382384
 20
258.5966314538909
 30
0.0
 40
0.1
100
AcDbArc
 50
180.0
 51
270.0
  0
LINE
  5
2AAD
330
2
100
AcDbEntity
  8
0
100
AcDbLine
 10
119.3043400382385
 20
261.2466314538909
 30
0.0
 11
119.3043400382385
 21
261.396631453891
 31
0.0
  0
ARC
  5
2AAE
330
2
100
AcDbEntity
  8
0
100
AcDbCircle
 10
119.4043400382384
 20
261.396631453891
 30
0.0
 40
0.1
100
AcDbArc
 50
90.0
 51
180.0
  0
LINE
  5
2AAF
330
2
100
AcDbEntity
  8
0
100
AcDbLine
 10
119.3043400382385
 20
261.2466314538909
 30
0.0
 11
119.3043400382385
 21
261.0966314538909
 31
0.0
  0
ARC
  5
2AB0
330
2
100
AcDbEntity
  8
0
100
AcDbCircle
 10
119.4043400382384
 20
263.5966314538908
 30
0.0
 40
0.1
100
AcDbArc
 50
180.0
 51
270.0
  0
LINE
  5
2AB1
330
2
100
AcDbEntity
  8
0
100
AcDbLine
 10
119.3043400382385
 20
263.5966314538908
 30
0.0
 11
119.3043400382385
 21
263.7466314538909
 31
0.0
  0
LINE
  5
2AB2
330
2
100
AcDbEntity
  8
0
100
AcDbLine
 10
124.3043400382386
 20
256.2466314538909
 30
0.0
 11
124.3043400382386
 21
255.896631453891
 31
0.0
  0
ARC
  5
2AB3
330
2
100
AcDbEntity
  8
0
100
AcDbCircle
 10
122.7043400382386
 20
255.896631453891
 30
0.0
 40
0.1
100
AcDbArc
 50
0.0
 51
90.0
  0
LINE
  5
2AB4
330
2
100
AcDbEntity
  8
0
100
AcDbLine
 10
125.2043400382386
 20
255.7966314538911
 30
0.0
 11
124.4043400382385
 21
255.7966314538911
 31
0.0
  0
ARC
  5
2AB5
330
2
100
AcDbEntity
  8
0
100
AcDbCircle
 10
124.4043400382385
 20
255.896631453891
 30
0.0
 40
0.1
100
AcDbArc
 50
180.0
 51
270.0
  0
ARC
  5
2AB6
330
2
100
AcDbEntity
  8
0
100
AcDbCircle
 10
125.2043400382386
 20
255.6966314538912
 30
0.0
 40
0.1
100
AcDbArc
 50
0.0
 51
90.0
  0
LINE
  5
2AB7
330
2
100
AcDbEntity
  8
0
100
AcDbLine
 10
125.3043400382386
 20
261.7966314538911
 30
0.0
 11
125.3043400382386
 21
263.1966314538912
 31
0.0
  0
LINE
  5
2AB8
330
2
100
AcDbEntity
  8
0
100
AcDbLine
 10
122.8043400382385
 20
261.5966314538908
 30
0.0
 11
122.8043400382385
 21
263.396631453891
 31
0.0
  0
ARC
  5
2AB9
330
2
100
AcDbEntity
  8
0
100
AcDbCircle
 10
125.2043400382386
 20
256.7966314538911
 30
0.0
 40
0.1
100
AcDbArc
 50
270.0
 51
0.0
  0
LINE
  5
2ABA
330
2
100
AcDbEntity
  8
0
100
AcDbLine
 10
125.2043400382386
 20
256.6966314538912
 30
0.0
 11
124.4043400382385
 21
256.6966314538912
 31
0.0
  0
ARC
  5
2ABB
330
2
100
AcDbEntity
  8
0
100
AcDbCircle
 10
124.4043400382385
 20
256.5966314538909
 30
0.0
 40
0.1
100
AcDbArc
 50
90.0
 51
180.0
  0
LINE
  5
2ABC
330
2
100
AcDbEntity
  8
0
100
AcDbLine
 10
124.3043400382386
 20
256.2466314538909
 30
0.0
 11
124.3043400382386
 21
256.5966314538909
 31
0.0
  0
ARC
  5
2ABD
330
2
100
AcDbEntity
  8
0
100
AcDbCircle
 10
122.7043400382386
 20
256.5966314538909
 30
0.0
 40
0.1
100
AcDbArc
 50
270.0
 51
0.0
  0
ARC
  5
2ABE
330
2
100
AcDbEntity
  8
0
100
AcDbCircle
 10
124.4043400382385
 20
260.896631453891
 30
0.0
 40
0.1
100
AcDbArc
 50
180.0
 51
270.0
  0
LINE
  5
2ABF
330
2
100
AcDbEntity
  8
0
100
AcDbLine
 10
122.8043400382385
 20
260.896631453891
 30
0.0
 11
122.8043400382385
 21
259.0966314538909
 31
0.0
  0
ARC
  5
2AC0
330
2
100
AcDbEntity
  8
0
100
AcDbCircle
 10
122.7043400382386
 20
260.896631453891
 30
0.0
 40
0.1
100
AcDbArc
 50
0.0
 51
90.0
  0
LINE
  5
2AC1
330
2
100
AcDbEntity
  8
0
100
AcDbLine
 10
125.2043400382386
 20
258.2966314538911
 30
0.0
 11
124.4043400382385
 21
258.2966314538911
 31
0.0
  0
LINE
  5
2AC2
330
2
100
AcDbEntity
  8
0
100
AcDbLine
 10
125.2043400382386
 20
259.1966314538912
 30
0.0
 11
124.4043400382385
 21
259.1966314538912
 31
0.0
  0
LINE
  5
2AC3
330
2
100
AcDbEntity
  8
0
100
AcDbLine
 10
125.2043400382386
 20
260.7966314538911
 30
0.0
 11
124.4043400382385
 21
260.7966314538911
 31
0.0
  0
LINE
  5
2AC4
330
2
100
AcDbEntity
  8
0
100
AcDbLine
 10
124.3043400382386
 20
258.746631453891
 30
0.0
 11
124.3043400382386
 21
258.396631453891
 31
0.0
  0
LINE
  5
2AC5
330
2
100
AcDbEntity
  8
0
100
AcDbLine
 10
124.3043400382386
 20
258.746631453891
 30
0.0
 11
124.3043400382386
 21
259.0966314538909
 31
0.0
  0
ARC
  5
2AC6
330
2
100
AcDbEntity
  8
0
100
AcDbCircle
 10
124.4043400382385
 20
259.0966314538909
 30
0.0
 40
0.1
100
AcDbArc
 50
90.0
 51
180.0
  0
ARC
  5
2AC7
330
2
100
AcDbEntity
  8
0
100
AcDbCircle
 10
124.4043400382385
 20
258.396631453891
 30
0.0
 40
0.1
100
AcDbArc
 50
180.0
 51
270.0
  0
ARC
  5
2AC8
330
2
100
AcDbEntity
  8
0
100
AcDbCircle
 10
125.2043400382386
 20
259.2966314538911
 30
0.0
 40
0.1
100
AcDbArc
 50
270.0
 51
0.0
  0
LINE
  5
2AC9
330
2
100
AcDbEntity
  8
0
100
AcDbLine
 10
125.3043400382386
 20
260.6966314538912
 30
0.0
 11
125.3043400382386
 21
259.2966314538911
 31
0.0
  0
ARC
  5
2ACA
330
2
100
AcDbEntity
  8
0
100
AcDbCircle
 10
125.2043400382386
 20
260.6966314538912
 30
0.0
 40
0.1
100
AcDbArc
 50
0.0
 51
90.0
  0
ARC
  5
2ACB
330
2
100
AcDbEntity
  8
0
100
AcDbCircle
 10
125.2043400382386
 20
258.1966314538912
 30
0.0
 40
0.1
100
AcDbArc
 50
0.0
 51
90.0
  0
LINE
  5
2ACC
330
2
100
AcDbEntity
  8
0
100
AcDbLine
 10
125.3043400382386
 20
257.4966314538909
 30
0.0
 11
125.3043400382386
 21
258.1966314538912
 31
0.0
  0
ARC
  5
2ACD
330
2
100
AcDbEntity
  8
0
100
AcDbCircle
 10
122.7043400382386
 20
259.0966314538909
 30
0.0
 40
0.1
100
AcDbArc
 50
270.0
 51
0.0
  0
ARC
  5
2ACE
330
2
100
AcDbEntity
  8
0
100
AcDbCircle
 10
122.7043400382386
 20
258.396631453891
 30
0.0
 40
0.1
100
AcDbArc
 50
0.0
 51
90.0
  0
LINE
  5
2ACF
330
2
100
AcDbEntity
  8
0
100
AcDbLine
 10
122.8043400382385
 20
258.396631453891
 30
0.0
 11
122.8043400382385
 21
257.4966314538909
 31
0.0
  0
LINE
  5
2AD0
330
2
100
AcDbEntity
  8
0
100
AcDbLine
 10
125.2043400382386
 20
261.6966314538912
 30
0.0
 11
124.4043400382385
 21
261.6966314538912
 31
0.0
  0
LINE
  5
2AD1
330
2
100
AcDbEntity
  8
0
100
AcDbLine
 10
124.3043400382386
 20
261.2466314538909
 30
0.0
 11
124.3043400382386
 21
261.5966314538908
 31
0.0
  0
ARC
  5
2AD2
330
2
100
AcDbEntity
  8
0
100
AcDbCircle
 10
124.4043400382385
 20
261.5966314538908
 30
0.0
 40
0.1
100
AcDbArc
 50
90.0
 51
180.0
  0
ARC
  5
2AD3
330
2
100
AcDbEntity
  8
0
100
AcDbCircle
 10
125.2043400382386
 20
261.7966314538911
 30
0.0
 40
0.1
100
AcDbArc
 50
270.0
 51
0.0
  0
ARC
  5
2AD4
330
2
100
AcDbEntity
  8
0
100
AcDbCircle
 10
122.7043400382386
 20
261.5966314538908
 30
0.0
 40
0.1
100
AcDbArc
 50
270.0
 51
0.0
  0
LINE
  5
2AD5
330
2
100
AcDbEntity
  8
0
100
AcDbLine
 10
124.3043400382386
 20
261.2466314538909
 30
0.0
 11
124.3043400382386
 21
260.896631453891
 31
0.0
  0
LINE
  5
2AD6
330
2
100
AcDbEntity
  8
0
100
AcDbLine
 10
125.3043400382386
 20
257.4966314538909
 30
0.0
 11
125.3043400382386
 21
256.7966314538911
 31
0.0
  0
LINE
  5
2AD7
330
2
100
AcDbEntity
  8
0
100
AcDbLine
 10
122.8043400382385
 20
256.5966314538909
 30
0.0
 11
122.8043400382385
 21
257.4966314538909
 31
0.0
  0
LINE
  5
2AD8
330
2
100
AcDbEntity
  8
0
100
AcDbLine
 10
125.2043400382386
 20
263.2966314538911
 30
0.0
 11
124.4043400382385
 21
263.2966314538911
 31
0.0
  0
ARC
  5
2AD9
330
2
100
AcDbEntity
  8
0
100
AcDbCircle
 10
124.4043400382385
 20
263.396631453891
 30
0.0
 40
0.1
100
AcDbArc
 50
180.0
 51
270.0
  0
ARC
  5
2ADA
330
2
100
AcDbEntity
  8
0
100
AcDbCircle
 10
125.2043400382386
 20
263.1966314538912
 30
0.0
 40
0.1
100
AcDbArc
 50
0.0
 51
90.0
  0
ARC
  5
2ADB
330
2
100
AcDbEntity
  8
0
100
AcDbCircle
 10
122.7043400382386
 20
263.396631453891
 30
0.0
 40
0.1
100
AcDbArc
 50
0.0
 51
90.0
  0
LINE
  5
2ADC
330
2
100
AcDbEntity
  8
0
100
AcDbLine
 10
124.3043400382386
 20
263.7466314538909
 30
0.0
 11
124.3043400382386
 21
263.396631453891
 31
0.0
  0
LINE
  5
2ADD
330
2
100
AcDbEntity
  8
0
100
AcDbLine
 10
37.74512749623102
 20
111.9108502715043
 30
0.0
 11
37.74512749623102
 21
207.2908502715042
 31
0.0
  0
LINE
  5
2ADE
330
2
100
AcDbEntity
  8
0
100
AcDbLine
 10
38.24482290974049
 20
111.393400523153
 30
0.0
 11
37.74512749623102
 21
111.9108502715043
 31
0.0
  0
LINE
  5
2ADF
330
2
100
AcDbEntity
  8
0
100
AcDbLine
 10
38.24482290974049
 20
207.8083000198554
 30
0.0
 11
37.74512749623102
 21
207.2908502715042
 31
0.0
  0
ENDSEC
  0
SECTION
  2
OBJECTS
  0
DICTIONARY
  5
7
330
0
100
AcDbDictionary
  3
ACAD_COLOR
350
258E
  3
ACAD_GROUP
350
75
  3
ACAD_LAYOUT
350
61
  3
ACAD_MATERIAL
350
2564
  3
ACAD_MLEADERSTYLE
350
25B3
  3
ACAD_MLINESTYLE
350
76
  3
ACAD_PLOTSETTINGS
350
77
  3
ACAD_PLOTSTYLENAME
350
6
  3
ACAD_SCALELIST
350
2591
  3
ACAD_TABLESTYLE
350
258F
  3
ACAD_VISUALSTYLE
350
257D
  3
ACADDIM
350
480
  3
ACDB_RECOMPOSE_DATA
350
2AF2
  3
ACDBHEADERROUNDTRIPXREC
350
2B74
  3
ACDBVARIABLEDICTIONARY
350
102
  3
DWGPROPS
350
2AF3
  0
DICTIONARY
  5
2AFB
330
6E
100
AcDbDictionary
280
     1
  3
ACAD_XREC_ROUNDTRIP
360
2AFC
  0
DICTIONARY
  5
25B8
330
66
100
AcDbDictionary
280
     1
  3
ACAD_LAYERSTATES
360
25B9
  0
DICTIONARY
  5
2AE0
330
5E
100
AcDbDictionary
280
     1
  3
ACAD_XREC_ROUNDTRIP
360
2AF6
  3
ADSK_XREC_LAYER_RECONCILED
360
2AE1
  0
DICTIONARY
  5
2AE2
330
3E
100
AcDbDictionary
280
     1
  3
ACAD_XREC_ROUNDTRIP
360
2AF5
  3
ADSK_XREC_LAYER_RECONCILED
360
2AE3
  0
DICTIONARY
  5
2AE8
330
2B5
100
AcDbDictionary
280
     1
  3
ACAD_XREC_ROUNDTRIP
360
2B02
  3
ADSK_XREC_LAYER_RECONCILED
360
2AE9
  0
DICTIONARY
  5
2AEA
330
2BA
100
AcDbDictionary
280
     1
  3
ACAD_XREC_ROUNDTRIP
360
2B03
  3
ADSK_XREC_LAYER_RECONCILED
360
2AEB
  0
DICTIONARY
  5
2AEE
330
3FA
100
AcDbDictionary
280
     1
  3
ACAD_XREC_ROUNDTRIP
360
2B05
  3
ADSK_XREC_LAYER_RECONCILED
360
2AEF
  0
DICTIONARY
  5
2B95
330
2
100
AcDbDictionary
280
     1
  3
ACAD_LAYOUTSELFREF
360
2B96
  0
DICTIONARY
  5
2B97
330
2B6E
100
AcDbDictionary
280
     1
  3
ACAD_LAYOUTSELFREF
360
2B98
  0
DICTIONARY
  5
258E
102
{ACAD_REACTORS
330
7
102
}
330
7
100
AcDbDictionary
  0
DICTIONARY
  5
75
102
{ACAD_REACTORS
330
7
102
}
330
7
100
AcDbDictionary
  0
DICTIONARY
  5
61
102
{ACAD_REACTORS
330
7
102
}
330
7
100
AcDbDictionary
  0
DICTIONARY
  5
2564
102
{ACAD_REACTORS
330
7
102
}
330
7
100
AcDbDictionary
  3
BYBLOCK
350
256D
  3
BYLAYER
350
2565
  3
GLOBAL
350
2575
  0
DICTIONARY
  5
25B3
102
{ACAD_REACTORS
330
7
102
}
330
7
100
AcDbDictionary
  3
STANDARD
350
25B4
  0
DICTIONARY
  5
76
102
{ACAD_REACTORS
330
7
102
}
330
7
100
AcDbDictionary
  3
STANDARD
350
78
  0
DICTIONARY
  5
77
102
{ACAD_REACTORS
330
7
102
}
330
7
100
AcDbDictionary
  0
ACDBDICTIONARYWDFLT
  5
6
102
{ACAD_REACTORS
330
7
102
}
330
7
100
AcDbDictionary
281
     1
  3
Normal
350
5
100
AcDbDictionaryWithDefault
340
5
  0
DICTIONARY
  5
2591
102
{ACAD_REACTORS
330
7
102
}
330
7
100
AcDbDictionary
  3
A0
350
2592
  3
A1
350
2593
  3
A2
350
2594
  3
A3
350
2595
  3
A4
350
2596
  3
A5
350
2597
  3
A6
350
2598
  3
A7
350
2599
  3
A8
350
259A
  3
A9
350
259B
  3
B0
350
259C
  3
B1
350
259D
  3
B2
350
259E
  3
B3
350
259F
  3
B4
350
25A0
  3
B5
350
25A1
  3
B6
350
25A2
  3
B7
350
25A3
  3
B8
350
25A4
  3
B9
350
25A5
  3
C0
350
25A6
  3
C1
350
25A7
  3
C2
350
25A8
  3
C3
350
25A9
  3
C4
350
25AA
  3
C5
350
25AB
  3
C6
350
25AC
  3
C7
350
25AD
  3
C8
350
25AE
  3
C9
350
25AF
  3
D0
350
25B0
  3
D1
350
25B1
  3
D2
350
25B2
  0
DICTIONARY
  5
258F
102
{ACAD_REACTORS
330
7
102
}
330
7
100
AcDbDictionary
  3
STANDARD
350
2590
  0
DICTIONARY
  5
257D
102
{ACAD_REACTORS
330
7
102
}
330
7
100
AcDbDictionary
  3
2DWIREFRAME
350
2583
  3
3D_HIDDEN
350
2585
  3
3DWIREFRAME
350
2584
  3
BASIC
350
2582
  3
BRIGHTEN
350
2589
  3
COLORCHANGE
350
258D
  3
CONCEPTUAL
350
2586
  3
DIM
350
2588
  3
FACEPATTERN
350
258C
  3
FLAT
350
257E
  3
FLATWITHEDGES
350
257F
  3
GOURAUD
350
2580
  3
GOURAUDWITHEDGES
350
2581
  3
LINEPATTERN
350
258B
  3
REALISTIC
350
2587
  3
THICKEN
350
258A
  0
XRECORD
  5
480
102
{ACAD_REACTORS
330
7
102
}
330
7
100
AcDbXrecord
 90
   990106
  3

 60
     0
 61
     0
 62
     1
 63
     3
 64
     1
 65
     0
 66
     0
 67
     3
 68
     1
 69
     0
 70
     0
 71
     0
 72
     0
 40
0.0
170
     2
340
0
  0
XRECORD
  5
2AF2
102
{ACAD_REACTORS
330
7
102
}
330
7
100
AcDbXrecord
 90
        1
330
2590
  0
DICTIONARY
  5
2B74
102
{ACAD_REACTORS
330
7
102
}
330
7
100
AcDbDictionary
  3
CEPSNTYPE
350
2B7E
  3
DIMSTYLEDATA
350
2B82
  3
FINGERPRINTGUID
350
2B7F
  3
HYPERLINKBASE
350
2B77
  3
INSUNITS
350
2B7D
  3
LAYOUTDICT
350
2B79
  3
LWETCUNION
350
2B7C
  3
PLOTSETDICT
350
2B7A
  3
PLOTSTYLNAMDICT
350
2B7B
  3
PSVPSCALE
350
2B81
  3
PUCSBASE
350
2B85
  3
PUCSORGBACK
350
2B8B
  3
PUCSORGBOTTOM
350
2B87
  3
PUCSORGFRONT
350
2B8A
  3
PUCSORGLEFT
350
2B88
  3
PUCSORGRIGHT
350
2B89
  3
PUCSORGTOP
350
2B86
  3
PUCSORTHOREF
350
2B83
  3
PUCSORTHOVIEW
350
2B84
  3
STYLESHEET
350
2B78
  3
TSTACKALIGN
350
2B75
  3
TSTACKSIZE
350
2B76
  3
UCSBASE
350
2B8E
  3
UCSORGBACK
350
2B94
  3
UCSORGBOTTOM
350
2B90
  3
UCSORGFRONT
350
2B93
  3
UCSORGLEFT
350
2B91
  3
UCSORGRIGHT
350
2B92
  3
UCSORGTOP
350
2B8F
  3
UCSORTHOREF
350
2B8C
  3
UCSORTHOVIEW
350
2B8D
  3
VERSIONGUID
350
2B80
  0
DICTIONARY
  5
102
102
{ACAD_REACTORS
330
7
102
}
330
7
100
AcDbDictionary
  3
CANNOSCALE
350
2B0E
  3
CMLEADERSTYLE
350
2B0D
  3
CTABLESTYLE
350
2B0C
  3
DIMASSOC
350
103
  3
INDEXCTL
350
2B10
  3
SORTENTS
350
2B0F
  0
XRECORD
  5
2AF3
102
{ACAD_REACTORS
330
7
102
}
330
7
100
AcDbXrecord
  1
DWGPROPS COOKIE
  2

  3

  4

  6

  7

  8
ymorima
  9

300
=
301
=
302
=
303
=
304
=
305
=
306
=
307
=
308
=
309
=
 40
0.0653427083333333
 41
2453692.589827835
 42
2454474.411939734
  1

 90
        0
  0
XRECORD
  5
2AFC
102
{ACAD_REACTORS
330
2AFB
102
}
330
2AFB
100
AcDbXrecord
102
VTR_0.000_0.000_1.000_1.000_VISUALSTYLE
340
2583
102
VTR_0.000_0.000_1.000_1.000_GRIDDISPLAY
 70
     3
102
VTR_0.000_0.000_1.000_1.000_GRIDMAJOR
 70
     5
102
VTR_0.000_0.000_1.000_1.000_DEFAULTLIGHTING
280
     1
102
VTR_0.000_0.000_1.000_1.000_DEFAULTLIGHTINGTYPE
 70
     1
102
VTR_0.000_0.000_1.000_1.000_BRIGHTNESS
141
0.0
102
VTR_0.000_0.000_1.000_1.000_CONTRAST
142
0.0
  0
DICTIONARY
  5
25B9
102
{ACAD_REACTORS
330
25B8
102
}
330
25B8
100
AcDbDictionary
  0
XRECORD
  5
2AF6
102
{ACAD_REACTORS
330
2AE0
102
}
330
2AE0
100
AcDbXrecord
102
MATERIAL
340
2575
  0
XRECORD
  5
2AE1
102
{ACAD_REACTORS
330
2AE0
102
}
330
2AE0
100
AcDbXrecord
290
     1
  0
XRECORD
  5
2AF5
102
{ACAD_REACTORS
330
2AE2
102
}
330
2AE2
100
AcDbXrecord
102
MATERIAL
340
2575
  0
XRECORD
  5
2AE3
102
{ACAD_REACTORS
330
2AE2
102
}
330
2AE2
100
AcDbXrecord
290
     1
  0
XRECORD
  5
2B02
102
{ACAD_REACTORS
330
2AE8
102
}
330
2AE8
100
AcDbXrecord
102
MATERIAL
340
2575
  0
XRECORD
  5
2AE9
102
{ACAD_REACTORS
330
2AE8
102
}
330
2AE8
100
AcDbXrecord
290
     1
  0
XRECORD
  5
2B03
102
{ACAD_REACTORS
330
2AEA
102
}
330
2AEA
100
AcDbXrecord
102
MATERIAL
340
2575
  0
XRECORD
  5
2AEB
102
{ACAD_REACTORS
330
2AEA
102
}
330
2AEA
100
AcDbXrecord
290
     1
  0
XRECORD
  5
2B05
102
{ACAD_REACTORS
330
2AEE
102
}
330
2AEE
100
AcDbXrecord
102
MATERIAL
340
2575
  0
XRECORD
  5
2AEF
102
{ACAD_REACTORS
330
2AEE
102
}
330
2AEE
100
AcDbXrecord
290
     1
  0
XRECORD
  5
2B96
102
{ACAD_REACTORS
330
2B95
102
}
330
2B95
100
AcDbXrecord
340
2
  0
XRECORD
  5
2B98
102
{ACAD_REACTORS
330
2B97
102
}
330
2B97
100
AcDbXrecord
340
2B6E
  0
ACAD_PROXY_OBJECT
  5
256D
102
{ACAD_XDICTIONARY
360
256E
102
}
102
{ACAD_REACTORS
330
2564
102
}
330
2564
100
AcDbProxyObject
 90
      499
 91
      511
 93
     1340
310
42109E509B1BD8DAC02004014080404555555555555953FAA155555555555654FEA9AA400014080404555555555555953FAA155555555555654FEA9AA400000000000000E03F4080404555555555555953FAA155555555555654FEA9AA4014080404555555555555953FAA155555555555654FEA9AA4010201011555555555
310
55654FEA8555555555555953FAA6A9005020101155555555555654FEA8555555555555953FAA6A9001
 94
        0
1001
ACAD
1000
AcadProxyRoundTripData
1071
      504
1071
   655383
1070
     0
  0
ACAD_PROXY_OBJECT
  5
2565
102
{ACAD_XDICTIONARY
360
2566
102
}
102
{ACAD_REACTORS
330
2564
102
}
330
2564
100
AcDbProxyObject
 90
      499
 91
      511
 93
     1340
310
42109E53185E595C802004014080404555555555555953FAA155555555555654FEA9AA400014080404555555555555953FAA155555555555654FEA9AA400000000000000E03F4080404555555555555953FAA155555555555654FEA9AA4014080404555555555555953FAA155555555555654FEA9AA4010201011555555555
310
55654FEA8555555555555953FAA6A9005020101155555555555654FEA8555555555555953FAA6A9001
 94
        0
1001
ACAD
1000
AcadProxyRoundTripData
1071
      504
1071
   655383
1070
     0
  0
ACAD_PROXY_OBJECT
  5
2575
102
{ACAD_XDICTIONARY
360
2576
102
}
102
{ACAD_REACTORS
330
2564
102
}
330
2564
100
AcDbProxyObject
 90
      499
 91
      511
 93
     1332
310
41D1DB1BD8985B002004014080404555555555555953FAA155555555555654FEA9AA400014080404555555555555953FAA155555555555654FEA9AA400000000000000E03F4080404555555555555953FAA155555555555654FEA9AA4014080404555555555555953FAA155555555555654FEA9AA401020101155555555555
310
654FEA8555555555555953FAA6A9005020101155555555555654FEA8555555555555953FAA6A9000
 94
        0
1001
ACAD
1000
AcadProxyRoundTripData
1071
      504
1071
   655383
1070
     0
  0
ACAD_PROXY_OBJECT
  5
25B4
102
{ACAD_REACTORS
330
25B3
102
}
330
25B3
100
AcDbProxyObject
 90
      499
 91
      511
 93
      618
310
40901902A4063FBFFFFFE056BD1B81E855B9FC0AD7A3703D0AD73F4254DD185B99185C990000AD7A3703D0AC73F90141901A02B5E8DC0F42B1CFC02B5E8DC0F42B1CFE5764000000000000300FC6
340
6A
340
0
340
16
340
0
 94
        0
1001
ACAD_MLEADERVER
1070
     2
1001
ACAD
1000
AcadProxyRoundTripData
1071
      508
1071
   655383
1070
     0
  0
MLINESTYLE
  5
78
102
{ACAD_REACTORS
330
76
102
}
330
76
100
AcDbMlineStyle
  2
STANDARD
 70
     0
  3

 62
     0
 51
90.0
 52
90.0
 71
     2
 49
0.5
 62
   256
  6
BYLAYER
 49
-0.5
 62
   256
  6
BYLAYER
  0
ACDBPLACEHOLDER
  5
5
102
{ACAD_REACTORS
330
6
102
}
330
6
100
AcDbPlaceHolder
280
     0
  0
ACAD_PROXY_OBJECT
  5
2592
102
{ACAD_REACTORS
330
2591
102
}
330
2591
100
AcDbProxyObject
 90
      499
 91
      511
 93
       49
310
904313A3100598
 94
        0
1001
ACAD
1000
AcadProxyRoundTripData
1071
      507
1071
   655383
1070
     0
  0
ACAD_PROXY_OBJECT
  5
2593
102
{ACAD_REACTORS
330
2591
102
}
330
2591
100
AcDbProxyObject
 90
      499
 91
      511
 93
      113
310
904313A3200400000000000000406B
 94
        0
1001
ACAD
1000
AcadProxyRoundTripData
1071
      507
1071
   655383
1070
     0
  0
ACAD_PROXY_OBJECT
  5
2594
102
{ACAD_REACTORS
330
2591
102
}
330
2591
100
AcDbProxyObject
 90
      499
 91
      511
 93
      113
310
904313A3400400000000000010406B
 94
        0
1001
ACAD
1000
AcadProxyRoundTripData
1071
      507
1071
   655383
1070
     0
  0
ACAD_PROXY_OBJECT
  5
2595
102
{ACAD_REACTORS
330
2591
102
}
330
2591
100
AcDbProxyObject
 90
      499
 91
      511
 93
      113
310
904313A3500400000000000014406B
 94
        0
1001
ACAD
1000
AcadProxyRoundTripData
1071
      507
1071
   655383
1070
     0
  0
ACAD_PROXY_OBJECT
  5
2596
102
{ACAD_REACTORS
330
2591
102
}
330
2591
100
AcDbProxyObject
 90
      499
 91
      511
 93
      113
310
904313A3800400000000000020406B
 94
        0
1001
ACAD
1000
AcadProxyRoundTripData
1071
      507
1071
   655383
1070
     0
  0
ACAD_PROXY_OBJECT
  5
2597
102
{ACAD_REACTORS
330
2591
102
}
330
2591
100
AcDbProxyObject
 90
      499
 91
      511
 93
      121
310
905313A3130004000000000000244051
 94
        0
1001
ACAD
1000
AcadProxyRoundTripData
1071
      507
1071
   655383
1070
     0
  0
ACAD_PROXY_OBJECT
  5
2598
102
{ACAD_REACTORS
330
2591
102
}
330
2591
100
AcDbProxyObject
 90
      499
 91
      511
 93
      121
310
905313A3136004000000000000304051
 94
        0
1001
ACAD
1000
AcadProxyRoundTripData
1071
      507
1071
   655383
1070
     0
  0
ACAD_PROXY_OBJECT
  5
2599
102
{ACAD_REACTORS
330
2591
102
}
330
2591
100
AcDbProxyObject
 90
      499
 91
      511
 93
      121
310
905313A3230004000000000000344051
 94
        0
1001
ACAD
1000
AcadProxyRoundTripData
1071
      507
1071
   655383
1070
     0
  0
ACAD_PROXY_OBJECT
  5
259A
102
{ACAD_REACTORS
330
2591
102
}
330
2591
100
AcDbProxyObject
 90
      499
 91
      511
 93
      121
310
905313A33300040000000000003E4051
 94
        0
1001
ACAD
1000
AcadProxyRoundTripData
1071
      507
1071
   655383
1070
     0
  0
ACAD_PROXY_OBJECT
  5
259B
102
{ACAD_REACTORS
330
2591
102
}
330
2591
100
AcDbProxyObject
 90
      499
 91
      511
 93
      121
310
905313A3430004000000000000444051
 94
        0
1001
ACAD
1000
AcadProxyRoundTripData
1071
      507
1071
   655383
1070
     0
  0
ACAD_PROXY_OBJECT
  5
259C
102
{ACAD_REACTORS
330
2591
102
}
330
2591
100
AcDbProxyObject
 90
      499
 91
      511
 93
      121
310
905313A3530004000000000000494051
 94
        0
1001
ACAD
1000
AcadProxyRoundTripData
1071
      507
1071
   655383
1070
     0
  0
ACAD_PROXY_OBJECT
  5
259D
102
{ACAD_REACTORS
330
2591
102
}
330
2591
100
AcDbProxyObject
 90
      499
 91
      511
 93
      129
310
906313A313030004000000000000594038
 94
        0
1001
ACAD
1000
AcadProxyRoundTripData
1071
      507
1071
   655383
1070
     0
  0
ACAD_PROXY_OBJECT
  5
259E
102
{ACAD_REACTORS
330
2591
102
}
330
2591
100
AcDbProxyObject
 90
      499
 91
      511
 93
      113
310
904323A31000000000000000010159
 94
        0
1001
ACAD
1000
AcadProxyRoundTripData
1071
      507
1071
   655383
1070
     0
  0
ACAD_PROXY_OBJECT
  5
259F
102
{ACAD_REACTORS
330
2591
102
}
330
2591
100
AcDbProxyObject
 90
      499
 91
      511
 93
      113
310
904343A31000000000000000410159
 94
        0
1001
ACAD
1000
AcadProxyRoundTripData
1071
      507
1071
   655383
1070
     0
  0
ACAD_PROXY_OBJECT
  5
25A0
102
{ACAD_REACTORS
330
2591
102
}
330
2591
100
AcDbProxyObject
 90
      499
 91
      511
 93
      113
310
904383A31000000000000000810159
 94
        0
1001
ACAD
1000
AcadProxyRoundTripData
1071
      507
1071
   655383
1070
     0
  0
ACAD_PROXY_OBJECT
  5
25A1
102
{ACAD_REACTORS
330
2591
102
}
330
2591
100
AcDbProxyObject
 90
      499
 91
      511
 93
      121
310
90531303A31000000000000000910140
 94
        0
1001
ACAD
1000
AcadProxyRoundTripData
1071
      507
1071
   655383
1070
     0
  0
ACAD_PROXY_OBJECT
  5
25A2
102
{ACAD_REACTORS
330
2591
102
}
330
2591
100
AcDbProxyObject
 90
      499
 91
      511
 93
      129
310
9063130303A31000000000000001650138
 94
        0
1001
ACAD
1000
AcadProxyRoundTripData
1071
      507
1071
   655383
1070
     0
  0
ACAD_PROXY_OBJECT
  5
25A3
102
{ACAD_REACTORS
330
2591
102
}
330
2591
100
AcDbProxyObject
 90
      499
 91
      511
 93
      265
310
90F312F31323822203D2031272D302200000000000000200FC00000000000028402B
 94
        0
1001
ACAD
1000
AcadProxyRoundTripData
1071
      507
1071
   655383
1070
     0
  0
ACAD_PROXY_OBJECT
  5
25A4
102
{ACAD_REACTORS
330
2591
102
}
330
2591
100
AcDbProxyObject
 90
      499
 91
      511
 93
      257
310
90E312F363422203D2031272D302200000000000000240FC000000000000284040
 94
        0
1001
ACAD
1000
AcadProxyRoundTripData
1071
      507
1071
   655383
1070
     0
  0
ACAD_PROXY_OBJECT
  5
25A5
102
{ACAD_REACTORS
330
2591
102
}
330
2591
100
AcDbProxyObject
 90
      499
 91
      511
 93
      257
310
90E312F333222203D2031272D302200000000000000280FC000000000000284040
 94
        0
1001
ACAD
1000
AcadProxyRoundTripData
1071
      507
1071
   655383
1070
     0
  0
ACAD_PROXY_OBJECT
  5
25A6
102
{ACAD_REACTORS
330
2591
102
}
330
2591
100
AcDbProxyObject
 90
      499
 91
      511
 93
      257
310
90E312F313622203D2031272D3022000000000000002C0FC000000000000284040
 94
        0
1001
ACAD
1000
AcadProxyRoundTripData
1071
      507
1071
   655383
1070
     0
  0
ACAD_PROXY_OBJECT
  5
25A7
102
{ACAD_REACTORS
330
2591
102
}
330
2591
100
AcDbProxyObject
 90
      499
 91
      511
 93
      257
310
90E332F333222203D2031272D3022000000000000002E0FC000000000000284040
 94
        0
1001
ACAD
1000
AcadProxyRoundTripData
1071
      507
1071
   655383
1070
     0
  0
ACAD_PROXY_OBJECT
  5
25A8
102
{ACAD_REACTORS
330
2591
102
}
330
2591
100
AcDbProxyObject
 90
      499
 91
      511
 93
      249
310
90D312F3822203D2031272D302200000000000000300FC000000000000284040
 94
        0
1001
ACAD
1000
AcadProxyRoundTripData
1071
      507
1071
   655383
1070
     0
  0
ACAD_PROXY_OBJECT
  5
25A9
102
{ACAD_REACTORS
330
2591
102
}
330
2591
100
AcDbProxyObject
 90
      499
 91
      511
 93
      257
310
90E332F313622203D2031272D302200000000000000320FC000000000000284040
 94
        0
1001
ACAD
1000
AcadProxyRoundTripData
1071
      507
1071
   655383
1070
     0
  0
ACAD_PROXY_OBJECT
  5
25AA
102
{ACAD_REACTORS
330
2591
102
}
330
2591
100
AcDbProxyObject
 90
      499
 91
      511
 93
      249
310
90D312F3422203D2031272D302200000000000000340FC000000000000284040
 94
        0
1001
ACAD
1000
AcadProxyRoundTripData
1071
      507
1071
   655383
1070
     0
  0
ACAD_PROXY_OBJECT
  5
25AB
102
{ACAD_REACTORS
330
2591
102
}
330
2591
100
AcDbProxyObject
 90
      499
 91
      511
 93
      249
310
90D332F3822203D2031272D302200000000000000360FC000000000000284040
 94
        0
1001
ACAD
1000
AcadProxyRoundTripData
1071
      507
1071
   655383
1070
     0
  0
ACAD_PROXY_OBJECT
  5
25AC
102
{ACAD_REACTORS
330
2591
102
}
330
2591
100
AcDbProxyObject
 90
      499
 91
      511
 93
      249
310
90D312F3222203D2031272D302200000000000000380FC000000000000284040
 94
        0
1001
ACAD
1000
AcadProxyRoundTripData
1071
      507
1071
   655383
1070
     0
  0
ACAD_PROXY_OBJECT
  5
25AD
102
{ACAD_REACTORS
330
2591
102
}
330
2591
100
AcDbProxyObject
 90
      499
 91
      511
 93
      249
310
90D332F3422203D2031272D3022000000000000003A0FC000000000000284040
 94
        0
1001
ACAD
1000
AcadProxyRoundTripData
1071
      507
1071
   655383
1070
     0
  0
ACAD_PROXY_OBJECT
  5
25AE
102
{ACAD_REACTORS
330
2591
102
}
330
2591
100
AcDbProxyObject
 90
      499
 91
      511
 93
      169
310
90B3122203D2031272D3022004000000000000284020
 94
        0
1001
ACAD
1000
AcadProxyRoundTripData
1071
      507
1071
   655383
1070
     0
  0
ACAD_PROXY_OBJECT
  5
25AF
102
{ACAD_REACTORS
330
2591
102
}
330
2591
100
AcDbProxyObject
 90
      499
 91
      511
 93
      265
310
90F312D312F3222203D2031272D3022000000000000003E0FC00000000000028402B
 94
        0
1001
ACAD
1000
AcadProxyRoundTripData
1071
      507
1071
   655383
1070
     0
  0
ACAD_PROXY_OBJECT
  5
25B0
102
{ACAD_REACTORS
330
2591
102
}
330
2591
100
AcDbProxyObject
 90
      499
 91
      511
 93
      233
310
90B3322203D2031272D30220000000000000002100000000000000284000
 94
        0
1001
ACAD
1000
AcadProxyRoundTripData
1071
      507
1071
   655383
1070
     0
  0
ACAD_PROXY_OBJECT
  5
25B1
102
{ACAD_REACTORS
330
2591
102
}
330
2591
100
AcDbProxyObject
 90
      499
 91
      511
 93
      233
310
90B3622203D2031272D30220000000000000006100000000000000284000
 94
        0
1001
ACAD
1000
AcadProxyRoundTripData
1071
      507
1071
   655383
1070
     0
  0
ACAD_PROXY_OBJECT
  5
25B2
102
{ACAD_REACTORS
330
2591
102
}
330
2591
100
AcDbProxyObject
 90
      499
 91
      511
 93
      257
310
90E31272D3022203D2031272D3022000000000000000A100000000000000284040
 94
        0
1001
ACAD
1000
AcadProxyRoundTripData
1071
      507
1071
   655383
1070
     0
  0
ACAD_PROXY_OBJECT
  5
2590
102
{ACAD_XDICTIONARY
360
2AF0
102
}
102
{ACAD_REACTORS
330
258F
102
}
330
258F
100
AcDbProxyObject
 90
      499
 91
      511
 93
     1849
310
4254DD185B99185C990028B81E85EB51B8AE3F2E07A17AD46E2B8FC02B5E8DC0F42B1CFD028000000C1008070000C3001FDFF8000000C1003FBFF000000182007F7FE00000030400FEFFC00000060801FDFF8000000C1003FBFF00000018200000000000000681FA0B0000001820100E000186003FBFF000000182007F7FE0
310
0000030400FEFFC00000060801FDFF8000000C1003FBFF000000182007F7FE000000304000AD7A3703D0AC73F4160000003040201C00030C007F7FE00000030400FEFFC00000060801FDFF8000000C1003FBFF000000182007F7FE00000030400FEFFC00000060804D
340
16
340
16
340
16
 94
        0
1001
ACAD
1000
AcadProxyRoundTripData
1071
      506
1071
   655383
1070
     0
  0
ACAD_PROXY_OBJECT
  5
2583
102
{ACAD_REACTORS
330
257D
102
}
330
257D
100
AcDbProxyObject
 90
      499
 91
      511
 93
      444
310
430C9915DA5C99599C985B59401049028333333333333E3BF0000000000000FB0107901411070040501600405405064090741402480A0340
 94
        0
1001
ACAD
1000
AcDbSavedByObjectVersion
1070
     0
1000
AcadProxyRoundTripData
1071
      505
1071
   655383
1070
     0
  0
ACAD_PROXY_OBJECT
  5
2585
102
{ACAD_REACTORS
330
257D
102
}
330
257D
100
AcDbProxyObject
 90
      499
 91
      511
 93
      508
310
428CD108121A5919195B8010640502408333333333333E3BF0000000000000FB01079024090700405020000000000001110200405405064090740C02480A0340
 94
        0
1001
ACAD
1000
AcDbSavedByObjectVersion
1070
     0
1000
AcadProxyRoundTripData
1071
      505
1071
   655383
1070
     0
  0
ACAD_PROXY_OBJECT
  5
2584
102
{ACAD_REACTORS
330
257D
102
}
330
257D
100
AcDbProxyObject
 90
      499
 91
      511
 93
      444
310
430CD915DA5C99599C985B59401059028333333333333E3BF0000000000000FB0107901411070040501600405405064090741402480A0340
 94
        0
1001
ACAD
1000
AcDbSavedByObjectVersion
1070
     0
1000
AcadProxyRoundTripData
1071
      505
1071
   655383
1070
     0
  0
ACAD_PROXY_OBJECT
  5
2582
102
{ACAD_REACTORS
330
257D
102
}
330
257D
100
AcDbProxyObject
 90
      499
 91
      511
 93
      396
310
4190985CDA58C0107406404333333333333E3BF0000000000000FB0107A41107004050150841D405064090741402480A0356
 94
        0
1001
ACAD
1000
AcDbSavedByObjectVersion
1070
     0
1000
AcadProxyRoundTripData
1071
      505
1071
   655383
1070
     0
  0
ACAD_PROXY_OBJECT
  5
2589
102
{ACAD_REACTORS
330
257D
102
}
330
257D
100
AcDbProxyObject
 90
      499
 91
      511
 93
      436
310
42509C9A59DA1D195B8010C409028333333333333E3BF0000000000000FB010790141107004050150841D405064090741402480A029956
 94
        0
1001
ACAD
1000
AcDbSavedByObjectVersion
1070
     0
1000
AcadProxyRoundTripData
1071
      505
1071
   655383
1070
     0
  0
ACAD_PROXY_OBJECT
  5
258D
102
{ACAD_REACTORS
330
257D
102
}
330
257D
100
AcDbProxyObject
 90
      499
 91
      511
 93
      460
310
4310DBDB1BDC90DA185B99D9401104090240C333333333333E3BF0000000000000FB0108901411070040501508421405064090741402480A0354
 94
        0
1001
ACAD
1000
AcDbSavedByObjectVersion
1070
     0
1000
AcadProxyRoundTripData
1071
      505
1071
   655383
1070
     0
  0
ACAD_PROXY_OBJECT
  5
2586
102
{ACAD_REACTORS
330
257D
102
}
330
257D
100
AcDbProxyObject
 90
      499
 91
      511
 93
      508
310
42D0DBDB98D95C1D1D585B0010940D028333333333333E3BF0000000000000FB0107902409070040501000000000000111010841D405064090740C02480A0340
 94
        0
1001
ACAD
1000
AcDbSavedByObjectVersion
1070
     0
1000
AcadProxyRoundTripData
1071
      505
1071
   655383
1070
     0
  0
ACAD_PROXY_OBJECT
  5
2588
102
{ACAD_REACTORS
330
257D
102
}
330
257D
100
AcDbProxyObject
 90
      499
 91
      511
 93
      420
310
41111A5B4010B409028333333333333E3BF0000000000000FB010790141107004050150841D405064090741402480A02677FFFFFDB
 94
        0
1001
ACAD
1000
AcDbSavedByObjectVersion
1070
     0
1000
AcadProxyRoundTripData
1071
      505
1071
   655383
1070
     0
  0
ACAD_PROXY_OBJECT
  5
258C
102
{ACAD_REACTORS
330
257D
102
}
330
257D
100
AcDbProxyObject
 90
      499
 91
      511
 93
      452
310
43119858D95C185D1D195C9B8010F409028333333333333E3BF0000000000000FB010790141107004050150841D405064090741402480A0350
 94
        0
1001
ACAD
1000
AcDbSavedByObjectVersion
1070
     0
1000
AcadProxyRoundTripData
1071
      505
1071
   655383
1070
     0
  0
ACAD_PROXY_OBJECT
  5
257E
102
{ACAD_REACTORS
330
257D
102
}
330
257D
100
AcDbProxyObject
 90
      499
 91
      511
 93
      396
310
41519B185D00240901404333333333333E3BF0000000000000F9010740A41107004050150841D405064090741402480A1B55
 94
        0
1001
ACAD
1000
AcDbSavedByObjectVersion
1070
     0
1000
AcadProxyRoundTripData
1071
      505
1071
   655383
1070
     0
  0
ACAD_PROXY_OBJECT
  5
257F
102
{ACAD_REACTORS
330
257D
102
}
330
257D
100
AcDbProxyObject
 90
      499
 91
      511
 93
      484
310
43919B185D15DA5D1A115919D95CC010140901404333333333333E3BF0000000000000F9010740901411070040501600405405064090741402480A1B50
 94
        0
1001
ACAD
1000
AcDbSavedByObjectVersion
1070
     0
1000
AcadProxyRoundTripData
1071
      505
1071
   655383
1070
     0
  0
ACAD_PROXY_OBJECT
  5
2580
102
{ACAD_REACTORS
330
257D
102
}
330
257D
100
AcDbProxyObject
 90
      499
 91
      511
 93
      420
310
4211DBDD5C985D590010240902404333333333333E3BF0000000000000F9010740A411070040501641D405064090741402480A1B50
 94
        0
1001
ACAD
1000
AcDbSavedByObjectVersion
1070
     0
1000
AcadProxyRoundTripData
1071
      505
1071
   655383
1070
     0
  0
ACAD_PROXY_OBJECT
  5
2581
102
{ACAD_REACTORS
330
257D
102
}
330
257D
100
AcDbProxyObject
 90
      499
 91
      511
 93
      508
310
4451DBDD5C985D5915DA5D1A115919D95CC010340902404333333333333E3BF0000000000000F9010740901411070040501600405405064090741402480A1B50
 94
        0
1001
ACAD
1000
AcDbSavedByObjectVersion
1070
     0
1000
AcadProxyRoundTripData
1071
      505
1071
   655383
1070
     0
  0
ACAD_PROXY_OBJECT
  5
258B
102
{ACAD_REACTORS
330
257D
102
}
330
257D
100
AcDbProxyObject
 90
      499
 91
      511
 93
      452
310
43131A5B995C185D1D195C9B8010E409028333333333333E3BF0000000000000FB010790141107004050750841D405064090741402483A0350
 94
        0
1001
ACAD
1000
AcDbSavedByObjectVersion
1070
     0
1000
AcadProxyRoundTripData
1071
      505
1071
   655383
1070
     0
  0
ACAD_PROXY_OBJECT
  5
2587
102
{ACAD_REACTORS
330
257D
102
}
330
257D
100
AcDbProxyObject
 90
      499
 91
      511
 93
      428
310
429499585B1A5CDD1A58C0108409028333333333333E3BF0000000000000FB01079019070040501508421405064090741402480A1B45
 94
        0
1001
ACAD
1000
AcDbSavedByObjectVersion
1070
     0
1000
AcadProxyRoundTripData
1071
      505
1071
   655383
1070
     0
  0
ACAD_PROXY_OBJECT
  5
258A
102
{ACAD_REACTORS
330
257D
102
}
330
257D
100
AcDbProxyObject
 90
      499
 91
      511
 93
      420
310
42151A1A58DAD95B8010D409028333333333333E3BF0000000000000FB010790141107004050150C41D405064090741402480A0352
 94
        0
1001
ACAD
1000
AcDbSavedByObjectVersion
1070
     0
1000
AcadProxyRoundTripData
1071
      505
1071
   655383
1070
     0
  0
XRECORD
  5
2B7E
102
{ACAD_REACTORS
330
2B74
102
}
330
2B74
100
AcDbXrecord
 90
        0
  0
XRECORD
  5
2B82
102
{ACAD_REACTORS
330
2B74
102
}
330
2B74
100
AcDbXrecord
1000
DSTYLE
1002
{
1070
   179
 70
     2
1070
   277
 70
     6
1002
}
  0
XRECORD
  5
2B7F
102
{ACAD_REACTORS
330
2B74
102
}
330
2B74
100
AcDbXrecord
  1
{6385560B-F4B1-4644-A7C2-A3E32AC3D232}
  0
XRECORD
  5
2B77
102
{ACAD_REACTORS
330
2B74
102
}
330
2B74
100
AcDbXrecord
  1

  0
XRECORD
  5
2B7D
102
{ACAD_REACTORS
330
2B74
102
}
330
2B74
100
AcDbXrecord
 90
        0
  0
XRECORD
  5
2B79
102
{ACAD_REACTORS
330
2B74
102
}
330
2B74
100
AcDbXrecord
340
61
  0
XRECORD
  5
2B7C
102
{ACAD_REACTORS
330
2B74
102
}
330
2B74
100
AcDbXrecord
 90
    10781
  0
XRECORD
  5
2B7A
102
{ACAD_REACTORS
330
2B74
102
}
330
2B74
100
AcDbXrecord
340
77
  0
XRECORD
  5
2B7B
102
{ACAD_REACTORS
330
2B74
102
}
330
2B74
100
AcDbXrecord
340
6
  0
XRECORD
  5
2B81
102
{ACAD_REACTORS
330
2B74
102
}
330
2B74
100
AcDbXrecord
 40
0.0
  0
XRECORD
  5
2B85
102
{ACAD_REACTORS
330
2B74
102
}
330
2B74
100
AcDbXrecord
340
0
  0
XRECORD
  5
2B8B
102
{ACAD_REACTORS
330
2B74
102
}
330
2B74
100
AcDbXrecord
 10
0.0
 20
0.0
 30
0.0
  0
XRECORD
  5
2B87
102
{ACAD_REACTORS
330
2B74
102
}
330
2B74
100
AcDbXrecord
 10
0.0
 20
0.0
 30
0.0
  0
XRECORD
  5
2B8A
102
{ACAD_REACTORS
330
2B74
102
}
330
2B74
100
AcDbXrecord
 10
0.0
 20
0.0
 30
0.0
  0
XRECORD
  5
2B88
102
{ACAD_REACTORS
330
2B74
102
}
330
2B74
100
AcDbXrecord
 10
0.0
 20
0.0
 30
0.0
  0
XRECORD
  5
2B89
102
{ACAD_REACTORS
330
2B74
102
}
330
2B74
100
AcDbXrecord
 10
0.0
 20
0.0
 30
0.0
  0
XRECORD
  5
2B86
102
{ACAD_REACTORS
330
2B74
102
}
330
2B74
100
AcDbXrecord
 10
0.0
 20
0.0
 30
0.0
  0
XRECORD
  5
2B83
102
{ACAD_REACTORS
330
2B74
102
}
330
2B74
100
AcDbXrecord
340
0
  0
XRECORD
  5
2B84
102
{ACAD_REACTORS
330
2B74
102
}
330
2B74
100
AcDbXrecord
 70
     0
  0
XRECORD
  5
2B78
102
{ACAD_REACTORS
330
2B74
102
}
330
2B74
100
AcDbXrecord
  1
Sekkei.ctb
  0
XRECORD
  5
2B75
102
{ACAD_REACTORS
330
2B74
102
}
330
2B74
100
AcDbXrecord
 90
        1
  0
XRECORD
  5
2B76
102
{ACAD_REACTORS
330
2B74
102
}
330
2B74
100
AcDbXrecord
 90
       70
  0
XRECORD
  5
2B8E
102
{ACAD_REACTORS
330
2B74
102
}
330
2B74
100
AcDbXrecord
340
0
  0
XRECORD
  5
2B94
102
{ACAD_REACTORS
330
2B74
102
}
330
2B74
100
AcDbXrecord
 10
0.0
 20
0.0
 30
0.0
  0
XRECORD
  5
2B90
102
{ACAD_REACTORS
330
2B74
102
}
330
2B74
100
AcDbXrecord
 10
0.0
 20
0.0
 30
0.0
  0
XRECORD
  5
2B93
102
{ACAD_REACTORS
330
2B74
102
}
330
2B74
100
AcDbXrecord
 10
0.0
 20
0.0
 30
0.0
  0
XRECORD
  5
2B91
102
{ACAD_REACTORS
330
2B74
102
}
330
2B74
100
AcDbXrecord
 10
0.0
 20
0.0
 30
0.0
  0
XRECORD
  5
2B92
102
{ACAD_REACTORS
330
2B74
102
}
330
2B74
100
AcDbXrecord
 10
0.0
 20
0.0
 30
0.0
  0
XRECORD
  5
2B8F
102
{ACAD_REACTORS
330
2B74
102
}
330
2B74
100
AcDbXrecord
 10
0.0
 20
0.0
 30
0.0
  0
XRECORD
  5
2B8C
102
{ACAD_REACTORS
330
2B74
102
}
330
2B74
100
AcDbXrecord
340
0
  0
XRECORD
  5
2B8D
102
{ACAD_REACTORS
330
2B74
102
}
330
2B74
100
AcDbXrecord
 70
     0
  0
XRECORD
  5
2B80
102
{ACAD_REACTORS
330
2B74
102
}
330
2B74
100
AcDbXrecord
  1
{F71990D8-3D65-4646-8959-5CF14A6ACF71}
  0
DICTIONARYVAR
  5
2B0E
102
{ACAD_REACTORS
330
102
102
}
330
102
100
DictionaryVariables
280
     0
  1
1:1
  0
DICTIONARYVAR
  5
2B0D
102
{ACAD_REACTORS
330
102
102
}
330
102
100
DictionaryVariables
280
     0
  1
STANDARD
  0
DICTIONARYVAR
  5
2B0C
102
{ACAD_REACTORS
330
102
102
}
330
102
100
DictionaryVariables
280
     0
  1
STANDARD
  0
DICTIONARYVAR
  5
103
102
{ACAD_REACTORS
330
102
102
}
330
102
100
DictionaryVariables
280
     0
  1
1
  0
DICTIONARYVAR
  5
2B10
102
{ACAD_REACTORS
330
102
102
}
330
102
100
DictionaryVariables
280
     0
  1
0
  0
DICTIONARYVAR
  5
2B0F
102
{ACAD_REACTORS
330
102
102
}
330
102
100
DictionaryVariables
280
     0
  1
127
  0
DICTIONARY
  5
256E
330
256D
100
AcDbDictionary
280
     1
  3
ACAD_XREC_ROUNDTRIP
360
2B09
  3
BUMPTILE
360
2570
  3
DIFFUSETILE
360
256F
  3
OPACITYTILE
360
2573
  3
REFLECTIONTILE
360
2572
  3
REFRACTIONTILE
360
2574
  3
SPECULARTILE
360
2571
  0
DICTIONARY
  5
2566
330
2565
100
AcDbDictionary
280
     1
  3
ACAD_XREC_ROUNDTRIP
360
2B08
  3
BUMPTILE
360
2568
  3
DIFFUSETILE
360
2567
  3
OPACITYTILE
360
256B
  3
REFLECTIONTILE
360
256A
  3
REFRACTIONTILE
360
256C
  3
SPECULARTILE
360
2569
  0
DICTIONARY
  5
2576
330
2575
100
AcDbDictionary
280
     1
  3
ACAD_XREC_ROUNDTRIP
360
2B0A
  3
BUMPTILE
360
2578
  3
DIFFUSETILE
360
2577
  3
OPACITYTILE
360
257B
  3
REFLECTIONTILE
360
257A
  3
REFRACTIONTILE
360
257C
  3
SPECULARTILE
360
2579
  0
DICTIONARY
  5
2AF0
330
2590
100
AcDbDictionary
280
     1
  3
ACAD_ROUNDTRIP_2008_TABLES
360
2AF1
  3
ACAD_XREC_ROUNDTRIP
360
2B0B
  0
XRECORD
  5
2B09
102
{ACAD_REACTORS
330
256E
102
}
330
256E
100
AcDbXrecord
102
MATERIAL
148
0.0
149
0.0
149
0.0
 93
        0
 94
      127
282
     0
 72
     0
 77
     0
171
     0
175
     0
179
     0
273
     0
  0
XRECORD
  5
2570
102
{ACAD_REACTORS
330
256E
102
}
330
256E
100
AcDbXrecord
270
     1
271
     1
  0
XRECORD
  5
256F
102
{ACAD_REACTORS
330
256E
102
}
330
256E
100
AcDbXrecord
270
     1
271
     1
  0
XRECORD
  5
2573
102
{ACAD_REACTORS
330
256E
102
}
330
256E
100
AcDbXrecord
270
     1
271
     1
  0
XRECORD
  5
2572
102
{ACAD_REACTORS
330
256E
102
}
330
256E
100
AcDbXrecord
270
     1
271
     1
  0
XRECORD
  5
2574
102
{ACAD_REACTORS
330
256E
102
}
330
256E
100
AcDbXrecord
270
     1
271
     1
  0
XRECORD
  5
2571
102
{ACAD_REACTORS
330
256E
102
}
330
256E
100
AcDbXrecord
270
     1
271
     1
  0
XRECORD
  5
2B08
102
{ACAD_REACTORS
330
2566
102
}
330
2566
100
AcDbXrecord
102
MATERIAL
148
0.0
149
0.0
149
0.0
 93
        0
 94
      127
282
     0
 72
     0
 77
     0
171
     0
175
     0
179
     0
273
     0
  0
XRECORD
  5
2568
102
{ACAD_REACTORS
330
2566
102
}
330
2566
100
AcDbXrecord
270
     1
271
     1
  0
XRECORD
  5
2567
102
{ACAD_REACTORS
330
2566
102
}
330
2566
100
AcDbXrecord
270
     1
271
     1
  0
XRECORD
  5
256B
102
{ACAD_REACTORS
330
2566
102
}
330
2566
100
AcDbXrecord
270
     1
271
     1
  0
XRECORD
  5
256A
102
{ACAD_REACTORS
330
2566
102
}
330
2566
100
AcDbXrecord
270
     1
271
     1
  0
XRECORD
  5
256C
102
{ACAD_REACTORS
330
2566
102
}
330
2566
100
AcDbXrecord
270
     1
271
     1
  0
XRECORD
  5
2569
102
{ACAD_REACTORS
330
2566
102
}
330
2566
100
AcDbXrecord
270
     1
271
     1
  0
XRECORD
  5
2B0A
102
{ACAD_REACTORS
330
2576
102
}
330
2576
100
AcDbXrecord
102
MATERIAL
148
0.0
149
0.0
149
0.0
 93
        0
 94
      127
282
     0
 72
     0
 77
     0
171
     0
175
     0
179
     0
273
     0
  0
XRECORD
  5
2578
102
{ACAD_REACTORS
330
2576
102
}
330
2576
100
AcDbXrecord
270
     1
271
     1
  0
XRECORD
  5
2577
102
{ACAD_REACTORS
330
2576
102
}
330
2576
100
AcDbXrecord
270
     1
271
     1
  0
XRECORD
  5
257B
102
{ACAD_REACTORS
330
2576
102
}
330
2576
100
AcDbXrecord
270
     1
271
     1
  0
XRECORD
  5
257A
102
{ACAD_REACTORS
330
2576
102
}
330
2576
100
AcDbXrecord
270
     1
271
     1
  0
XRECORD
  5
257C
102
{ACAD_REACTORS
330
2576
102
}
330
2576
100
AcDbXrecord
270
     1
271
     1
  0
XRECORD
  5
2579
102
{ACAD_REACTORS
330
2576
102
}
330
2576
100
AcDbXrecord
270
     1
271
     1
  0
ACAD_PROXY_OBJECT
  5
2AF1
102
{ACAD_REACTORS
330
2AF0
102
}
330
2AF0
100
AcDbProxyObject
 90
      499
 91
      511
 93
     1044
310
40D054060020000020000003200101A000080002A5058000000C100000000000000340FE901405075F5449544C450041501A8000000C800406800020000A9416000000304000AD7A3703D0AC73FA409014217D2115051115480105406A0000003200101A000080002A5028000000C10002B5E8DC0F42B1CFE903409065F444
310
15441004
340
16
340
16
340
16
 94
        0
1001
ACAD
1000
AcadProxyRoundTripData
1071
      510
1071
   655383
1070
     0
  0
XRECORD
  5
2B0B
102
{ACAD_REACTORS
330
2AF0
102
}
330
2AF0
100
AcDbXrecord
102
ACAD_ROUNDTRIP_PRE2007_TABLESTYLE
 90
      512
 91
        0
  1

 92
      512
 93
        0
  2

 94
      512
 95
        0
  3

  0
ENDSEC
  0
EOF
