  0
SECTION
  2
HEADER
  9
$ACADVER
  1
AC1014
  9
$ACADMAINTVER
 70
     9
  9
$DWGCODEPAGE
  3
ANSI_932
  9
$INSBASE
 10
0.0
 20
0.0
 30
0.0
  9
$EXTMIN
 10
26.67846657005521
 20
26.53460657403207
 30
0.0
  9
$EXTMAX
 10
554.3902815158904
 20
564.9057356136401
 30
0.0
  9
$LIMMIN
 10
0.0
 20
0.0
  9
$LIMMAX
 10
297.0
 20
210.0
  9
$ORTHOMODE
 70
     0
  9
$REGENMODE
 70
     1
  9
$FILLMODE
 70
     1
  9
$QTEXTMODE
 70
     0
  9
$MIRRTEXT
 70
     0
  9
$DRAGMODE
 70
     2
  9
$LTSCALE
 40
3.0
  9
$OSMODE
 70
    37
  9
$ATTMODE
 70
     1
  9
$TEXTSIZE
 40
9.0
  9
$TRACEWID
 40
1.0
  9
$TEXTSTYLE
  7
STANDARD
  9
$CLAYER
  8
0
  9
$CELTYPE
  6
BYLAYER
  9
$CECOLOR
 62
   256
  9
$CELTSCALE
 40
1.0
  9
$DELOBJ
 70
     1
  9
$DISPSILH
 70
     0
  9
$DIMSCALE
 40
3.0
  9
$DIMASZ
 40
1.8
  9
$DIMEXO
 40
0.625
  9
$DIMDLI
 40
3.75
  9
$DIMRND
 40
0.0
  9
$DIMDLE
 40
0.0
  9
$DIMEXE
 40
0.8
  9
$DIMTP
 40
0.0
  9
$DIMTM
 40
0.0
  9
$DIMTXT
 40
1.8
  9
$DIMCEN
 40
2.5
  9
$DIMTSZ
 40
0.0
  9
$DIMTOL
 70
     0
  9
$DIMLIM
 70
     0
  9
$DIMTIH
 70
     0
  9
$DIMTOH
 70
     0
  9
$DIMSE1
 70
     0
  9
$DIMSE2
 70
     0
  9
$DIMTAD
 70
     1
  9
$DIMZIN
 70
     8
  9
$DIMBLK
  1

  9
$DIMASO
 70
     1
  9
$DIMSHO
 70
     1
  9
$DIMPOST
  1

  9
$DIMAPOST
  1

  9
$DIMALT
 70
     0
  9
$DIMALTD
 70
     4
  9
$DIMALTF
 40
0.0394
  9
$DIMLFAC
 40
1.0
  9
$DIMTOFL
 70
     1
  9
$DIMTVP
 40
0.0
  9
$DIMTIX
 70
     0
  9
$DIMSOXD
 70
     0
  9
$DIMSAH
 70
     0
  9
$DIMBLK1
  1

  9
$DIMBLK2
  1

  9
$DIMSTYLE
  2
STANDARD
  9
$DIMCLRD
 70
     0
  9
$DIMCLRE
 70
     0
  9
$DIMCLRT
 70
     0
  9
$DIMTFAC
 40
1.0
  9
$DIMGAP
 40
0.75
  9
$DIMJUST
 70
     0
  9
$DIMSD1
 70
     0
  9
$DIMSD2
 70
     0
  9
$DIMTOLJ
 70
     1
  9
$DIMTZIN
 70
     0
  9
$DIMALTZ
 70
     0
  9
$DIMALTTZ
 70
     0
  9
$DIMFIT
 70
     3
  9
$DIMUPT
 70
     0
  9
$DIMUNIT
 70
     8
  9
$DIMDEC
 70
     2
  9
$DIMTDEC
 70
     2
  9
$DIMALTU
 70
     8
  9
$DIMALTTD
 70
     4
  9
$DIMTXSTY
  7
STANDARD
  9
$DIMAUNIT
 70
     0
  9
$LUNITS
 70
     2
  9
$LUPREC
 70
     3
  9
$SKETCHINC
 40
1.0
  9
$FILLETRAD
 40
10.0
  9
$AUNITS
 70
     0
  9
$AUPREC
 70
     2
  9
$MENU
  1
.
  9
$ELEVATION
 40
0.0
  9
$PELEVATION
 40
0.0
  9
$THICKNESS
 40
0.0
  9
$LIMCHECK
 70
     0
  9
$BLIPMODE
 70
     0
  9
$CHAMFERA
 40
0.0
  9
$CHAMFERB
 40
0.0
  9
$CHAMFERC
 40
20.0
  9
$CHAMFERD
 40
0.0
  9
$SKPOLY
 70
     0
  9
$TDCREATE
 40
2453692.576672453
  9
$TDUPDATE
 40
2454474.450781065
  9
$TDINDWG
 40
0.0728213426
  9
$TDUSRTIMER
 40
0.0728211574
  9
$USRTIMER
 70
     1
  9
$ANGBASE
 50
0.0
  9
$ANGDIR
 70
     0
  9
$PDMODE
 70
     0
  9
$PDSIZE
 40
-10.0
  9
$PLINEWID
 40
0.0
  9
$COORDS
 70
     0
  9
$SPLFRAME
 70
     0
  9
$SPLINETYPE
 70
     6
  9
$SPLINESEGS
 70
     8
  9
$ATTDIA
 70
     0
  9
$ATTREQ
 70
     1
  9
$HANDLING
 70
-16383
  9
$HANDSEED
  5
493B
  9
$SURFTAB1
 70
     6
  9
$SURFTAB2
 70
     6
  9
$SURFTYPE
 70
     6
  9
$SURFU
 70
     6
  9
$SURFV
 70
     6
  9
$UCSNAME
  2

  9
$UCSORG
 10
0.0
 20
0.0
 30
0.0
  9
$UCSXDIR
 10
1.0
 20
0.0
 30
0.0
  9
$UCSYDIR
 10
0.0
 20
1.0
 30
0.0
  9
$PUCSNAME
  2

  9
$PUCSORG
 10
0.0
 20
0.0
 30
0.0
  9
$PUCSXDIR
 10
1.0
 20
0.0
 30
0.0
  9
$PUCSYDIR
 10
0.0
 20
1.0
 30
0.0
  9
$USERI1
 70
     0
  9
$USERI2
 70
     0
  9
$USERI3
 70
     0
  9
$USERI4
 70
     0
  9
$USERI5
 70
     0
  9
$USERR1
 40
0.0
  9
$USERR2
 40
0.0
  9
$USERR3
 40
0.0
  9
$USERR4
 40
0.0
  9
$USERR5
 40
0.0
  9
$WORLDVIEW
 70
     1
  9
$SHADEDGE
 70
     3
  9
$SHADEDIF
 70
    70
  9
$TILEMODE
 70
     1
  9
$MAXACTVP
 70
    48
  9
$PINSBASE
 10
0.0
 20
0.0
 30
0.0
  9
$PLIMCHECK
 70
     0
  9
$PEXTMIN
 10
0.0
 20
0.0
 30
0.0
  9
$PEXTMAX
 10
0.0
 20
0.0
 30
0.0
  9
$PLIMMIN
 10
0.0
 20
0.0
  9
$PLIMMAX
 10
12.0
 20
9.0
  9
$UNITMODE
 70
     0
  9
$VISRETAIN
 70
     1
  9
$PLINEGEN
 70
     0
  9
$PSLTSCALE
 70
     1
  9
$TREEDEPTH
 70
  3020
  9
$PICKSTYLE
 70
     1
  9
$CMLSTYLE
  2
STANDARD
  9
$CMLJUST
 70
     0
  9
$CMLSCALE
 40
1.0
  9
$PROXYGRAPHICS
 70
     1
  9
$MEASUREMENT
 70
     0
  0
ENDSEC
  0
SECTION
  2
CLASSES
  0
CLASS
  1
DICTIONARYVAR
  2
AcDbDictionaryVar
  3
AutoCAD 2000
 90
        0
280
     0
281
     0
  0
CLASS
  1
ACDBDICTIONARYWDFLT
  2
AcDbDictionaryWithDefault
  3
AutoCAD 2000
 90
        0
280
     0
281
     0
  0
CLASS
  1
ACDBPLACEHOLDER
  2
AcDbPlaceHolder
  3
AutoCAD 2000
 90
        0
280
     0
281
     0
  0
CLASS
  1
LAYOUT
  2
AcDbLayout
  3
AutoCAD 2000
 90
        0
280
     0
281
     0
  0
CLASS
  1
MATERIAL
  2
AcDbMaterial
  3
ObjectDBX Classes
 90
     1153
280
     0
281
     0
  0
CLASS
  1
VISUALSTYLE
  2
AcDbVisualStyle
  3
ObjectDBX Classes
 90
     4095
280
     0
281
     0
  0
CLASS
  1
TABLESTYLE
  2
AcDbTableStyle
  3
ObjectDBX Classes
 90
     4095
280
     0
281
     0
  0
CLASS
  1
SCALE
  2
AcDbScale
  3
ObjectDBX Classes
 90
     1153
280
     0
281
     0
  0
CLASS
  1
MLEADERSTYLE
  2
AcDbMLeaderStyle
  3
ACDB_MLEADERSTYLE_CLASS
 90
     4095
280
     0
281
     0
  0
CLASS
  1
SORTENTSTABLE
  2
AcDbSortentsTable
  3
AutoCAD 2000
 90
        0
280
     0
281
     0
  0
CLASS
  1
CELLSTYLEMAP
  2
AcDbCellStyleMap
  3
ObjectDBX Classes
 90
     1152
280
     0
281
     0
  0
CLASS
  1
ACAD_PROXY_OBJECT_WRAPPER
  2
AcDbProxyObjectWrapper
  3
AutoCAD 2000
 90
        0
280
     0
281
     0
  0
CLASS
  1
LONG_TRANSACTION
  2
AcDbLongTransaction
  3
AutoCAD 2000
 90
        0
280
     0
281
     0
  0
CLASS
  1
LWPOLYLINE
  2
AcDbPolyline
  3
AutoCAD 2000
 90
        0
280
     0
281
     1
  0
CLASS
  1
HATCH
  2
AcDbHatch
  3
AutoCAD 2000
 90
        0
280
     0
281
     1
  0
CLASS
  1
XRECORD
  2
AcDbXrecord
  3
AutoCAD 2000
 90
        0
280
     0
281
     0
  0
ENDSEC
  0
SECTION
  2
TABLES
  0
TABLE
  2
VPORT
  5
6E
102
{ACAD_XDICTIONARY
360
489D
102
}
330
0
100
AcDbSymbolTable
 70
     2
  0
VPORT
  5
4915
330
6E
100
AcDbSymbolTableRecord
100
AcDbViewportTableRecord
  2
*ACTIVE
 70
     0
 10
0.0
 20
0.0
 11
1.0
 21
1.0
 12
312.111799643834
 22
298.5820918422212
 13
0.0
 23
0.0
 14
10.0
 24
10.0
 15
10.0
 25
10.0
 16
0.0
 26
0.0
 36
1.0
 17
0.0
 27
0.0
 37
0.0
 40
547.7275585349473
 41
1.701814058956916
 42
50.0
 43
0.0
 44
0.0
 50
0.0
 51
0.0
 71
     0
 72
   100
 73
     1
 74
     3
 75
     0
 76
     0
 77
     0
 78
     0
  0
ENDTAB
  0
TABLE
  2
LTYPE
  5
69
330
0
100
AcDbSymbolTable
 70
     3
  0
LTYPE
  5
6A
330
69
100
AcDbSymbolTableRecord
100
AcDbLinetypeTableRecord
  2
BYBLOCK
 70
     0
  3

 72
    65
 73
     0
 40
0.0
  0
LTYPE
  5
6B
330
69
100
AcDbSymbolTableRecord
100
AcDbLinetypeTableRecord
  2
BYLAYER
 70
     0
  3

 72
    65
 73
     0
 40
0.0
  0
LTYPE
  5
8
330
69
100
AcDbSymbolTableRecord
100
AcDbLinetypeTableRecord
  2
CONTINUOUS
 70
     0
  3
Solid line
 72
    65
 73
     0
 40
0.0
  0
LTYPE
  5
27C
330
69
100
AcDbSymbolTableRecord
100
AcDbLinetypeTableRecord
  2
SEKKEI_A2_
 70
     0
  3
center(A2)  ____ _ ____ _ ____ _ ____ _ ____ _ 
 72
    65
 73
     4
 40
14.28749999999999
 49
9.525
 74
     0
 49
-1.587499999999999
 74
     0
 49
1.587499999999999
 74
     0
 49
-1.587499999999999
 74
     0
  0
LTYPE
  5
2B4
330
69
100
AcDbSymbolTableRecord
100
AcDbLinetypeTableRecord
  2
HIDDEN2
 70
     0
  3
Hidden (.5x) _ _ _ _ _ _ _ _ _ _ _ _ _ _ _ _ _
 72
    65
 73
     2
 40
4.762499999999999
 49
3.174999999999999
 74
     0
 49
-1.587499999999999
 74
     0
  0
ENDTAB
  0
TABLE
  2
LAYER
  5
66
102
{ACAD_XDICTIONARY
360
435A
102
}
330
0
100
AcDbSymbolTable
 70
     9
  0
LAYER
  5
5E
102
{ACAD_XDICTIONARY
360
4882
102
}
330
66
100
AcDbSymbolTableRecord
100
AcDbLayerTableRecord
  2
0
 70
     0
 62
     7
  6
CONTINUOUS
  0
LAYER
  5
3E
102
{ACAD_XDICTIONARY
360
4884
102
}
330
66
100
AcDbSymbolTableRecord
100
AcDbLayerTableRecord
  2
CENTER
 70
     0
 62
     3
  6
SEKKEI_A2_
  0
LAYER
  5
2B5
102
{ACAD_XDICTIONARY
360
488A
102
}
330
66
100
AcDbSymbolTableRecord
100
AcDbLayerTableRecord
  2
HIDS
 70
     0
 62
     1
  6
HIDDEN2
  0
LAYER
  5
2BA
102
{ACAD_XDICTIONARY
360
488C
102
}
330
66
100
AcDbSymbolTableRecord
100
AcDbLayerTableRecord
  2
HOJO
 70
     0
 62
     4
  6
CONTINUOUS
  0
LAYER
  5
3FA
102
{ACAD_XDICTIONARY
360
4890
102
}
330
66
100
AcDbSymbolTableRecord
100
AcDbLayerTableRecord
  2
TITLE
 70
     0
 62
     4
  6
CONTINUOUS
  0
ENDTAB
  0
TABLE
  2
STYLE
  5
67
330
0
100
AcDbSymbolTable
 70
     1
  0
STYLE
  5
16
330
67
100
AcDbSymbolTableRecord
100
AcDbTextStyleTableRecord
  2
STANDARD
 70
     0
 40
0.0
 41
1.0
 50
0.0
 71
     0
 42
9.0
  3
simplex.shx
  4
extfont.shx
  0
ENDTAB
  0
TABLE
  2
VIEW
  5
6C
330
0
100
AcDbSymbolTable
 70
     0
  0
ENDTAB
  0
TABLE
  2
UCS
  5
6D
330
0
100
AcDbSymbolTable
 70
     0
  0
ENDTAB
  0
TABLE
  2
APPID
  5
70
330
0
100
AcDbSymbolTable
 70
     2
  0
APPID
  5
71
330
70
100
AcDbSymbolTableRecord
100
AcDbRegAppTableRecord
  2
ACAD
 70
     0
  0
APPID
  5
4357
330
70
100
AcDbSymbolTableRecord
100
AcDbRegAppTableRecord
  2
ACAD_MLEADERVER
 70
     0
  0
ENDTAB
  0
TABLE
  2
DIMSTYLE
  5
72
330
0
100
AcDbSymbolTable
 70
     1
  0
DIMSTYLE
105
73
102
{ACAD_REACTORS
330
3CEC
330
3CF9
330
3D8C
102
}
330
72
100
AcDbSymbolTableRecord
100
AcDbDimStyleTableRecord
  2
STANDARD
 70
     0
  3

  4

  5

  6

  7

 40
3.0
 41
1.8
 42
0.625
 43
3.75
 44
0.8
 45
0.0
 46
0.0
 47
0.0
 48
0.0
140
1.8
141
2.5
142
0.0
143
0.0394
144
1.0
145
0.0
146
1.0
147
0.75
 71
     0
 72
     0
 73
     0
 74
     0
 75
     0
 76
     0
 77
     1
 78
     8
170
     0
171
     4
172
     1
173
     0
174
     0
175
     0
176
     0
177
     0
178
     0
270
     8
271
     2
272
     2
273
     8
274
     4
340
16
275
     0
280
     0
281
     0
282
     0
283
     1
284
     0
285
     0
286
     0
287
     3
288
     0
  0
ENDTAB
  0
TABLE
  2
BLOCK_RECORD
  5
1
330
0
100
AcDbSymbolTable
 70
    39
  0
BLOCK_RECORD
  5
2
102
{ACAD_XDICTIONARY
360
4937
102
}
330
1
100
AcDbSymbolTableRecord
100
AcDbBlockTableRecord
  2
*MODEL_SPACE
  0
BLOCK_RECORD
  5
4910
102
{ACAD_XDICTIONARY
360
4939
102
}
330
1
100
AcDbSymbolTableRecord
100
AcDbBlockTableRecord
  2
*PAPER_SPACE
  0
ENDTAB
  0
ENDSEC
  0
SECTION
  2
BLOCKS
  0
BLOCK
  5
5D
330
2
100
AcDbEntity
  8
0
100
AcDbBlockBegin
  2
*MODEL_SPACE
 70
     0
 10
0.0
 20
0.0
 30
0.0
  3
*MODEL_SPACE
  1

  0
ENDBLK
  5
5F
330
2
100
AcDbEntity
  8
0
100
AcDbBlockEnd
  0
BLOCK
  5
4912
330
4910
100
AcDbEntity
 67
     1
  8
0
100
AcDbBlockBegin
  2
*PAPER_SPACE
 70
     0
 10
0.0
 20
0.0
 30
0.0
  3
*PAPER_SPACE
  1

  0
ENDBLK
  5
4913
330
4910
100
AcDbEntity
 67
     1
  8
0
100
AcDbBlockEnd
  0
ENDSEC
  0
SECTION
  2
ENTITIES
  0
LINE
  5
71D
330
2
100
AcDbEntity
  8
CENTER
100
AcDbLine
 10
171.8480451782675
 20
205.4831734587734
 30
0.0
 11
286.8902201782675
 21
205.4831734587734
 31
0.0
  0
ARC
  5
71E
330
2
100
AcDbEntity
  8
0
100
AcDbCircle
 10
140.8902431782676
 20
-388.5168855412266
 30
0.0
 40
651.0
100
AcDbArc
 50
83.95747400000024
 51
90.00012199999535
  0
LINE
  5
71F
330
2
100
AcDbEntity
  8
0
100
AcDbLine
 10
229.4426341782675
 20
95.48305345877338
 30
0.0
 11
104.3378371782675
 21
95.48305345877338
 31
0.0
  0
ARC
  5
720
330
2
100
AcDbEntity
  8
0
100
AcDbCircle
 10
345.9310221782675
 20
169.9831764587734
 30
0.0
 40
160.0
100
AcDbArc
 50
147.5621950000001
 51
200.3997040000005
  0
LINE
  5
726
330
2
100
AcDbEntity
  8
0
100
AcDbLine
 10
140.8902431782676
 20
113.6953104587734
 30
0.0
 11
140.8900221782675
 21
262.4831144587734
 31
0.0
  0
LINE
  5
727
330
2
100
AcDbEntity
  8
0
100
AcDbLine
 10
127.3902431782676
 20
245.9831144587734
 30
0.0
 11
127.3902431782676
 21
117.9831144587734
 31
0.0
  0
LINE
  5
728
330
2
100
AcDbEntity
  8
0
100
AcDbLine
 10
134.3900981782676
 20
260.3648354587733
 30
0.0
 11
134.3900981782676
 21
110.9769724587733
 31
0.0
  0
LINE
  5
759
330
2
100
AcDbEntity
  8
CENTER
100
AcDbLine
 10
26.67846657005521
 20
181.9831144587734
 30
0.0
 11
152.8190186016727
 21
181.9831144587734
 31
0.0
  0
LINE
  5
7B5
330
2
100
AcDbEntity
  8
0
100
AcDbLine
 10
142.8899381782675
 20
118.9868334587733
 30
0.0
 11
142.8899381782675
 21
183.7330534587733
 31
0.0
  0
ARC
  5
7B6
330
2
100
AcDbEntity
  8
0
100
AcDbCircle
 10
134.8902431782676
 20
118.9868334587733
 30
0.0
 40
8.0
100
AcDbArc
 50
271.0002140000012
 51
0.0
  0
LINE
  5
7B7
330
2
100
AcDbEntity
  8
CENTER
100
AcDbLine
 10
121.8904571782675
 20
118.9043754587734
 30
0.0
 11
121.8904571782675
 21
89.02089545877339
 31
0.0
  0
ARC
  5
7B8
330
2
100
AcDbEntity
  8
0
100
AcDbCircle
 10
110.5682371782675
 20
105.5602554587733
 30
0.0
 40
5.0
100
AcDbArc
 50
91.00028200000393
 51
173.2357939999997
  0
LINE
  5
7B9
330
2
100
AcDbEntity
  8
0
100
AcDbLine
 10
105.6030421782675
 20
106.1491534587734
 30
0.0
 11
104.3378371782675
 21
95.48305345877338
 31
0.0
  0
LINE
  5
7BA
330
2
100
AcDbEntity
  8
0
100
AcDbLine
 10
110.4808421782675
 20
110.5595914587734
 30
0.0
 11
135.0298381782674
 21
110.9881574587733
 31
0.0
  0
LINE
  5
7BB
330
2
100
AcDbEntity
  8
HIDS
100
AcDbLine
 10
116.3904571782675
 20
110.6626724587733
 30
0.0
 11
116.3904571782675
 21
95.48305345877338
 31
0.0
  0
LINE
  5
7BC
330
2
100
AcDbEntity
  8
HIDS
100
AcDbLine
 10
127.3904571782675
 20
110.8547724587733
 30
0.0
 11
127.3904571782675
 21
95.48305345877338
 31
0.0
  0
ARC
  5
7C4
330
2
100
AcDbEntity
  8
0
100
AcDbCircle
 10
131.3900981782676
 20
114.9831144587734
 30
0.0
 40
3.0
100
AcDbArc
 50
0.0
 51
90.0
  0
LINE
  5
7C5
330
2
100
AcDbEntity
  8
0
100
AcDbLine
 10
127.3902431782676
 20
117.9831144587734
 30
0.0
 11
131.3900981782676
 21
117.9831144587734
 31
0.0
  0
LINE
  5
7CD
330
2
100
AcDbEntity
  8
0
100
AcDbLine
 10
142.4718391782676
 20
127.4055354587733
 30
0.0
 11
141.1984401782675
 21
127.4055354587733
 31
0.0
  0
LINE
  5
7CE
330
2
100
AcDbEntity
  8
0
100
AcDbLine
 10
135.9654761782676
 20
127.4055354587733
 30
0.0
 11
140.0315011782675
 21
127.4055354587733
 31
0.0
  0
LINE
  5
7CF
330
2
100
AcDbEntity
  8
0
100
AcDbLine
 10
142.4292371782676
 20
141.0515344587734
 30
0.0
 11
141.1984401782675
 21
141.0515344587734
 31
0.0
  0
LINE
  5
7D0
330
2
100
AcDbEntity
  8
0
100
AcDbLine
 10
135.9654761782676
 20
141.0515344587734
 30
0.0
 11
140.0315011782675
 21
141.0515344587734
 31
0.0
  0
ARC
  5
7F1
330
2
100
AcDbEntity
  8
0
100
AcDbCircle
 10
137.8904571782675
 20
183.7330534587733
 30
0.0
 40
5.0
100
AcDbArc
 50
0.0
 51
53.13130999999899
  0
ARC
  5
809
330
2
100
AcDbEntity
  8
0
100
AcDbCircle
 10
136.3900371782675
 20
260.3648354587733
 30
0.0
 40
2.0
100
AcDbArc
 50
91.49841299999549
 51
180.0
  0
ARC
  5
81E
330
2
100
AcDbEntity
  8
0
100
AcDbCircle
 10
131.3900981782676
 20
248.9831144587733
 30
0.0
 40
3.0
100
AcDbArc
 50
270.0
 51
0.0
  0
LINE
  5
81F
330
2
100
AcDbEntity
  8
0
100
AcDbLine
 10
127.3902431782676
 20
245.9831144587734
 30
0.0
 11
131.3900981782676
 21
245.9831144587734
 31
0.0
  0
LINE
  5
8B3
330
2
100
AcDbEntity
  8
0
100
AcDbLine
 10
136.3377371782676
 20
262.3639964587733
 30
0.0
 11
140.8902201782675
 21
262.4831144587734
 31
0.0
  0
ARC
  5
8B4
330
2
100
AcDbEntity
  8
0
100
AcDbCircle
 10
380.5622887769502
 20
105.4831754587734
 30
0.0
 40
5.0
100
AcDbArc
 50
90.0
 51
174.6676939999998
  0
LINE
  5
8B5
330
2
100
AcDbEntity
  8
0
100
AcDbLine
 10
427.6468837769503
 20
95.4831144587734
 30
0.0
 11
374.6070887769502
 21
95.4831144587734
 31
0.0
  0
LINE
  5
8B6
330
2
100
AcDbEntity
  8
0
100
AcDbLine
 10
374.6070887769502
 20
95.4831144587734
 30
0.0
 11
383.1472807769502
 21
186.9818944587734
 31
0.0
  0
LINE
  5
8B7
330
2
100
AcDbEntity
  8
CENTER
100
AcDbLine
 10
369.9034860380102
 20
181.9831144587734
 30
0.0
 11
554.3902815158904
 21
181.9831144587734
 31
0.0
  0
ARC
  5
8B8
330
2
100
AcDbEntity
  8
0
100
AcDbCircle
 10
-572.1097798217324
 20
181.9829354587733
 30
0.0
 40
800.0
100
AcDbArc
 50
356.5822750000007
 51
4.001071000000819
  0
ARC
  5
8B9
330
2
100
AcDbEntity
  8
0
100
AcDbCircle
 10
200.6520461782676
 20
115.9557704587733
 30
0.0
 40
5.0
100
AcDbArc
 50
200.3993990000006
 51
269.0000919999966
  0
LINE
  5
8BA
330
2
100
AcDbEntity
  8
CENTER
100
AcDbLine
 10
211.8904641782675
 20
118.9043754587734
 30
0.0
 11
211.8904641782675
 21
89.02089545877339
 31
0.0
  0
ARC
  5
8BB
330
2
100
AcDbEntity
  8
0
100
AcDbCircle
 10
317.2616191782675
 20
140.5550744587733
 30
0.0
 40
100.0
100
AcDbArc
 50
182.9073030000007
 51
196.1896969999987
  0
ARC
  5
8BC
330
2
100
AcDbEntity
  8
0
100
AcDbCircle
 10
224.1082381782675
 20
113.5095354587733
 30
0.0
 40
3.0
100
AcDbArc
 50
196.189605999998
 51
263.541991999996
  0
LINE
  5
8BD
330
2
100
AcDbEntity
  8
0
100
AcDbLine
 10
223.2956461782675
 20
110.5595914587734
 30
0.0
 11
200.5648421782675
 21
110.9563734587733
 31
0.0
  0
LINE
  5
8BE
330
2
100
AcDbEntity
  8
HIDS
100
AcDbLine
 10
206.3904641782674
 20
110.8546354587733
 30
0.0
 11
206.3904641782674
 21
95.48305345877338
 31
0.0
  0
LINE
  5
8BF
330
2
100
AcDbEntity
  8
HIDS
100
AcDbLine
 10
217.3902661782675
 20
110.6626724587733
 30
0.0
 11
217.3902661782675
 21
95.48305345877338
 31
0.0
  0
LINE
  5
8C0
330
2
100
AcDbEntity
  8
0
100
AcDbLine
 10
228.1732401782675
 20
106.1511744587734
 30
0.0
 11
229.4426341782675
 21
95.48305345877338
 31
0.0
  0
ARC
  5
8C1
330
2
100
AcDbEntity
  8
0
100
AcDbCircle
 10
223.2084571782674
 20
105.5603924587734
 30
0.0
 40
5.0
100
AcDbArc
 50
6.785676000001158
 51
88.99986999999784
  0
ARC
  5
8C2
330
2
100
AcDbEntity
  8
0
100
AcDbCircle
 10
206.5030431782675
 20
135.4828134587733
 30
0.0
 40
20.0
100
AcDbArc
 50
310.013611000003
 51
356.5824890000008
  0
ARC
  5
8C3
330
2
100
AcDbEntity
  8
0
100
AcDbCircle
 10
153.7804411782675
 20
327.8747774587734
 30
0.0
 40
200.0
100
AcDbArc
 50
281.7492069999977
 51
287.5166929999985
  0
ARC
  5
8C4
330
2
100
AcDbEntity
  8
0
100
AcDbCircle
 10
220.3904641782675
 20
135.5571534587733
 30
0.0
 40
3.0
100
AcDbArc
 50
121.0963970000012
 51
182.9534000000007
  0
LINE
  5
8C5
330
2
100
AcDbEntity
  8
0
100
AcDbLine
 10
231.8902661782675
 20
219.4831754587734
 30
0.0
 11
276.8902201782675
 21
219.4831754587734
 31
0.0
  0
LINE
  5
8C6
330
2
100
AcDbEntity
  8
0
100
AcDbLine
 10
231.8902661782675
 20
191.4831764587734
 30
0.0
 11
276.8902201782675
 21
191.4831764587734
 31
0.0
  0
LINE
  5
8C7
330
2
100
AcDbEntity
  8
0
100
AcDbLine
 10
240.8902201782675
 20
209.4831734587734
 30
0.0
 11
276.8902201782675
 21
209.4831734587734
 31
0.0
  0
LINE
  5
8C8
330
2
100
AcDbEntity
  8
0
100
AcDbLine
 10
240.8902201782675
 20
201.4831774587733
 30
0.0
 11
276.8902201782675
 21
201.4831774587733
 31
0.0
  0
LINE
  5
8C9
330
2
100
AcDbEntity
  8
0
100
AcDbLine
 10
231.8902661782675
 20
220.4831754587734
 30
0.0
 11
231.8902661782675
 21
190.4831764587734
 31
0.0
  0
LINE
  5
8CA
330
2
100
AcDbEntity
  8
0
100
AcDbLine
 10
229.8902661782675
 20
178.4831744587734
 30
0.0
 11
229.8902661782675
 21
232.4831754587734
 31
0.0
  0
ARC
  5
8CB
330
2
100
AcDbEntity
  8
0
100
AcDbCircle
 10
226.8902661782675
 20
178.4831744587734
 30
0.0
 40
3.0
100
AcDbArc
 50
288.9646910000028
 51
0.0
  0
LINE
  5
8CC
330
2
100
AcDbEntity
  8
0
100
AcDbLine
 10
229.8902661782675
 20
190.4831764587734
 30
0.0
 11
231.8902661782675
 21
190.4831764587734
 31
0.0
  0
ARC
  5
8CD
330
2
100
AcDbEntity
  8
0
100
AcDbCircle
 10
240.8902201782675
 20
205.4831734587734
 30
0.0
 40
4.0
100
AcDbArc
 50
90.0
 51
270.0
  0
LINE
  5
8CE
330
2
100
AcDbEntity
  8
0
100
AcDbLine
 10
229.8902661782675
 20
220.4831754587734
 30
0.0
 11
231.8902661782675
 21
220.4831754587734
 31
0.0
  0
LINE
  5
8CF
330
2
100
AcDbEntity
  8
0
100
AcDbLine
 10
226.0992651782676
 20
235.4831754587734
 30
0.0
 11
226.8902661782675
 21
235.4831754587734
 31
0.0
  0
ARC
  5
8D0
330
2
100
AcDbEntity
  8
0
100
AcDbCircle
 10
226.8902661782675
 20
232.4831754587734
 30
0.0
 40
3.0
100
AcDbArc
 50
0.0
 51
90.0
  0
LINE
  5
8D1
330
2
100
AcDbEntity
  8
0
100
AcDbLine
 10
276.8902201782675
 20
219.4831754587734
 30
0.0
 11
276.8902201782675
 21
191.4831764587734
 31
0.0
  0
ARC
  5
8D2
330
2
100
AcDbEntity
  8
0
100
AcDbCircle
 10
205.9752421782675
 20
236.6236744587733
 30
0.0
 40
20.0
100
AcDbArc
 50
3.380760999998976
 51
73.94338200000124
  0
ARC
  5
8D3
330
2
100
AcDbEntity
  8
0
100
AcDbCircle
 10
209.2072371782675
 20
256.8773934587734
 30
0.0
 40
2.0
100
AcDbArc
 50
327.5627100000015
 51
83.9576109999988
  0
ARC
  5
8D4
330
2
100
AcDbEntity
  8
0
100
AcDbCircle
 10
211.6452551782675
 20
256.3239574587734
 30
0.0
 40
0.5
100
AcDbArc
 50
167.2102050000005
 51
253.943603999998
  0
ARC
  5
8D5
330
2
100
AcDbEntity
  8
0
100
AcDbCircle
 10
488.4064967769502
 20
213.3244134587733
 30
0.0
 40
38.5
100
AcDbArc
 50
23.82332000000045
 51
72.00289200000011
  0
ARC
  5
8D6
330
2
100
AcDbEntity
  8
0
100
AcDbCircle
 10
489.5388817769503
 20
212.9478954587734
 30
0.0
 40
45.0
100
AcDbArc
 50
21.32943899999933
 51
71.19866200000053
  0
ARC
  5
8D7
330
2
100
AcDbEntity
  8
0
100
AcDbCircle
 10
435.8872707769503
 20
213.3244134587733
 30
0.0
 40
38.5
100
AcDbArc
 50
107.9971010000024
 51
156.1766969999988
  0
ARC
  5
8D8
330
2
100
AcDbEntity
  8
0
100
AcDbCircle
 10
434.7550687769503
 20
212.9478954587734
 30
0.0
 40
45.0
100
AcDbArc
 50
108.8013000000022
 51
158.6705930000008
  0
LINE
  5
8D9
330
2
100
AcDbEntity
  8
CENTER
100
AcDbLine
 10
462.1468837769502
 20
288.0463072303605
 30
0.0
 11
462.1468837769502
 21
88.19809132915201
 31
0.0
  0
LINE
  5
8DA
330
2
100
AcDbEntity
  8
CENTER
100
AcDbLine
 10
421.3062767769502
 20
205.4831144587733
 30
0.0
 11
502.7238797769503
 21
205.4831144587733
 31
0.0
  0
ARC
  5
8DB
330
2
100
AcDbEntity
  8
0
100
AcDbCircle
 10
492.7736847769502
 20
95.23897345877339
 30
0.0
 40
4.0
100
AcDbArc
 50
10.71910999999997
 51
80.54208399999932
  0
ARC
  5
8DC
330
2
100
AcDbEntity
  8
0
100
AcDbCircle
 10
462.1468837769502
 20
265.4831144587733
 30
0.0
 40
150.0
100
AcDbArc
 50
270.0
 51
283.3619999999994
  0
ARC
  5
8DD
330
2
100
AcDbEntity
  8
0
100
AcDbCircle
 10
540.1467007769503
 20
205.4831144587733
 30
0.0
 40
150.0
100
AcDbArc
 50
190.7772979999992
 51
208.2245939999987
  0
ARC
  5
8DE
330
2
100
AcDbEntity
  8
0
100
AcDbCircle
 10
462.1468837769502
 20
265.4831144587733
 30
0.0
 40
150.0
100
AcDbArc
 50
256.6380000000005
 51
270.0
  0
ARC
  5
8DF
330
2
100
AcDbEntity
  8
0
100
AcDbCircle
 10
462.1468837769502
 20
-47.51688554122665
 30
0.0
 40
150.0
100
AcDbArc
 50
77.82055699999668
 51
102.2440029999989
  0
ARC
  5
8E0
330
2
100
AcDbEntity
  8
0
100
AcDbCircle
 10
419.4448877769502
 20
113.4831144587733
 30
0.0
 40
3.0
100
AcDbArc
 50
159.9996950000009
 51
270.0
  0
LINE
  5
8E1
330
2
100
AcDbEntity
  8
CENTER
100
AcDbLine
 10
392.1468837769502
 20
117.2183364587733
 30
0.0
 11
392.1468837769502
 21
88.78243045877344
 31
0.0
  0
LINE
  5
8E2
330
2
100
AcDbEntity
  8
0
100
AcDbLine
 10
414.9000877769502
 20
133.1590144587734
 30
0.0
 11
407.8442717769503
 21
113.7721764587733
 31
0.0
  0
ARC
  5
8E3
330
2
100
AcDbEntity
  8
0
100
AcDbCircle
 10
403.1458767769503
 20
115.4831144587733
 30
0.0
 40
5.0
100
AcDbArc
 50
270.0
 51
340.0000800000008
  0
LINE
  5
8E4
330
2
100
AcDbEntity
  8
0
100
AcDbLine
 10
421.4738797769503
 20
110.4831144587734
 30
0.0
 11
380.5622887769502
 21
110.4829924587734
 31
0.0
  0
LINE
  5
8E5
330
2
100
AcDbEntity
  8
HIDS
100
AcDbLine
 10
386.6468837769502
 20
110.4831144587734
 30
0.0
 11
386.6468837769502
 21
95.4831144587734
 31
0.0
  0
LINE
  5
8E6
330
2
100
AcDbEntity
  8
HIDS
100
AcDbLine
 10
397.6468837769502
 20
110.4831144587734
 30
0.0
 11
397.6468837769502
 21
95.4831144587734
 31
0.0
  0
ARC
  5
8E7
330
2
100
AcDbEntity
  8
0
100
AcDbCircle
 10
421.4738797769503
 20
105.4831144587734
 30
0.0
 40
5.0
100
AcDbArc
 50
6.507492000000687
 51
90.0
  0
LINE
  5
8E8
330
2
100
AcDbEntity
  8
0
100
AcDbLine
 10
427.6468837769503
 20
95.4831144587734
 30
0.0
 11
426.4416837769503
 21
106.0496964587733
 31
0.0
  0
ARC
  5
8E9
330
2
100
AcDbEntity
  8
0
100
AcDbCircle
 10
431.5224937769503
 20
95.25129545877343
 30
0.0
 40
4.0
100
AcDbArc
 50
96.95707700000003
 51
169.4584959999985
  0
ARC
  5
8EA
330
2
100
AcDbEntity
  8
0
100
AcDbCircle
 10
434.4148887769502
 20
148.7315354587734
 30
0.0
 40
30.0
100
AcDbArc
 50
208.2243960000008
 51
219.0274959999979
  0
ARC
  5
8EB
330
2
100
AcDbEntity
  8
0
100
AcDbCircle
 10
410.2020897769502
 20
134.8698334587733
 30
0.0
 40
5.0
100
AcDbArc
 50
340.0001789999997
 51
29.79060899999829
  0
ARC
  5
8EC
330
2
100
AcDbEntity
  8
0
100
AcDbCircle
 10
423.6930877769502
 20
125.1549934587733
 30
0.0
 40
3.0
100
AcDbArc
 50
65.54543299999635
 51
159.9999999999998
  0
ARC
  5
8ED
330
2
100
AcDbEntity
  8
0
100
AcDbCircle
 10
422.4330777769503
 20
115.8462734587734
 30
0.0
 40
5.0
100
AcDbArc
 50
69.98042299999996
 51
159.9996950000009
  0
ARC
  5
8EE
330
2
100
AcDbEntity
  8
0
100
AcDbCircle
 10
407.2252837769502
 20
126.6919724587734
 30
0.0
 40
5.0
100
AcDbArc
 50
339.9995989999999
 51
39.02756099999884
  0
LINE
  5
8EF
330
2
100
AcDbEntity
  8
0
100
AcDbLine
 10
420.8740867769502
 20
126.1809944587733
 30
0.0
 11
416.6256737769503
 21
114.5092374587733
 31
0.0
  0
ARC
  5
8F0
330
2
100
AcDbEntity
  8
0
100
AcDbCircle
 10
434.4148887769502
 20
148.7315354587734
 30
0.0
 40
22.9
100
AcDbArc
 50
245.545700000001
 51
247.3778990000017
  0
ARC
  5
8F1
330
2
100
AcDbEntity
  8
0
100
AcDbCircle
 10
434.4148887769502
 20
148.7315354587734
 30
0.0
 40
30.0
100
AcDbArc
 50
249.9803009999995
 51
256.6379010000008
  0
ARC
  5
8F2
330
2
100
AcDbEntity
  8
0
100
AcDbCircle
 10
434.4148887769502
 20
148.7315354587734
 30
0.0
 40
22.9
100
AcDbArc
 50
203.5780940000012
 51
209.7906039999996
  0
LINE
  5
8F3
330
2
100
AcDbEntity
  8
0
100
AcDbLine
 10
464.0668967769502
 20
141.2830944587734
 30
0.0
 11
466.1666897769503
 21
141.2830944587734
 31
0.0
  0
LINE
  5
8F4
330
2
100
AcDbEntity
  8
0
100
AcDbLine
 10
457.7668787769503
 20
145.4831144587734
 30
0.0
 11
466.1666897769503
 21
145.4831144587734
 31
0.0
  0
ARC
  5
8F5
330
2
100
AcDbEntity
  8
0
100
AcDbCircle
 10
450.8666717769503
 20
137.9987354587734
 30
0.0
 40
7.799999999999999
100
AcDbArc
 50
112.3525010000009
 51
215.3744960000012
  0
LINE
  5
8F6
330
2
100
AcDbEntity
  8
0
100
AcDbLine
 10
456.2668787769503
 20
139.4831144587733
 30
0.0
 11
456.2668787769503
 21
133.4831144587734
 31
0.0
  0
LINE
  5
8F7
330
2
100
AcDbEntity
  8
0
100
AcDbLine
 10
459.8666717769503
 20
141.2830944587734
 30
0.0
 11
459.8666717769503
 21
133.4831144587734
 31
0.0
  0
LINE
  5
8F8
330
2
100
AcDbEntity
  8
0
100
AcDbLine
 10
464.0668967769502
 20
141.2830944587734
 30
0.0
 11
464.0668967769502
 21
133.4831144587734
 31
0.0
  0
LINE
  5
8F9
330
2
100
AcDbEntity
  8
0
100
AcDbLine
 10
444.5068687769502
 20
133.4831144587734
 30
0.0
 11
456.2668787769503
 21
133.4831144587734
 31
0.0
  0
LINE
  5
8FA
330
2
100
AcDbEntity
  8
0
100
AcDbLine
 10
459.8666717769503
 20
133.4831144587734
 30
0.0
 11
464.0668967769502
 21
133.4831144587734
 31
0.0
  0
LINE
  5
8FB
330
2
100
AcDbEntity
  8
0
100
AcDbLine
 10
450.1818877769503
 20
141.2830944587734
 30
0.0
 11
456.2668787769503
 21
141.2830944587734
 31
0.0
  0
LINE
  5
8FC
330
2
100
AcDbEntity
  8
0
100
AcDbLine
 10
449.2694727769502
 20
145.4831144587734
 30
0.0
 11
456.2668787769503
 21
145.4831144587734
 31
0.0
  0
LINE
  5
8FD
330
2
100
AcDbEntity
  8
0
100
AcDbLine
 10
448.7306847769502
 20
134.6830734587734
 30
0.0
 11
452.3666717769502
 21
134.6830734587734
 31
0.0
  0
ARC
  5
8FE
330
2
100
AcDbEntity
  8
0
100
AcDbCircle
 10
449.2694727769502
 20
141.8831354587733
 30
0.0
 40
3.6
100
AcDbArc
 50
90.0
 51
112.3526990000026
  0
ARC
  5
8FF
330
2
100
AcDbEntity
  8
0
100
AcDbCircle
 10
450.1818877769503
 20
138.8831354587734
 30
0.0
 40
2.399999999999999
100
AcDbArc
 50
90.0
 51
135.5462039999984
  0
ARC
  5
900
330
2
100
AcDbEntity
  8
0
100
AcDbCircle
 10
448.7306847769502
 20
135.2830944587734
 30
0.0
 40
0.6
100
AcDbArc
 50
220.5301969999981
 51
270.0
  0
ARC
  5
901
330
2
100
AcDbEntity
  8
0
100
AcDbCircle
 10
451.4668907769503
 20
137.6225144587734
 30
0.0
 40
4.2
100
AcDbArc
 50
135.5460969999979
 51
220.5290070000021
  0
LINE
  5
902
330
2
100
AcDbEntity
  8
0
100
AcDbLine
 10
457.7668787769503
 20
141.2830944587734
 30
0.0
 11
459.8666717769503
 21
141.2830944587734
 31
0.0
  0
LINE
  5
903
330
2
100
AcDbEntity
  8
0
100
AcDbLine
 10
452.3666717769502
 20
139.4831144587733
 30
0.0
 11
456.2668787769503
 21
139.4831144587733
 31
0.0
  0
LINE
  5
904
330
2
100
AcDbEntity
  8
0
100
AcDbLine
 10
456.2668787769503
 20
141.2830944587734
 30
0.0
 11
456.2668787769503
 21
145.4831144587734
 31
0.0
  0
LINE
  5
905
330
2
100
AcDbEntity
  8
0
100
AcDbLine
 10
457.7668787769503
 20
145.4831144587734
 30
0.0
 11
457.7668787769503
 21
141.2830944587734
 31
0.0
  0
LINE
  5
906
330
2
100
AcDbEntity
  8
0
100
AcDbLine
 10
452.3666717769502
 20
139.4831144587733
 30
0.0
 11
452.3666717769502
 21
134.6830734587734
 31
0.0
  0
LINE
  5
907
330
2
100
AcDbEntity
  8
0
100
AcDbLine
 10
481.2268707769503
 20
133.4831144587734
 30
0.0
 11
479.4268827769504
 21
136.4831144587734
 31
0.0
  0
LINE
  5
908
330
2
100
AcDbEntity
  8
0
100
AcDbLine
 10
473.0668967769502
 20
139.4831144587733
 30
0.0
 11
476.6666897769503
 21
133.4831144587734
 31
0.0
  0
LINE
  5
909
330
2
100
AcDbEntity
  8
0
100
AcDbLine
 10
471.5668967769501
 20
141.2830944587734
 30
0.0
 11
471.5668967769501
 21
133.4831144587734
 31
0.0
  0
LINE
  5
90A
330
2
100
AcDbEntity
  8
0
100
AcDbLine
 10
467.6666897769503
 20
145.4831144587734
 30
0.0
 11
467.6666897769503
 21
133.4831144587734
 31
0.0
  0
LINE
  5
90B
330
2
100
AcDbEntity
  8
0
100
AcDbLine
 10
476.6666897769503
 20
133.4831144587734
 30
0.0
 11
481.2268707769503
 21
133.4831144587734
 31
0.0
  0
LINE
  5
90C
330
2
100
AcDbEntity
  8
0
100
AcDbLine
 10
467.6666897769503
 20
133.4831144587734
 30
0.0
 11
471.5668967769501
 21
133.4831144587734
 31
0.0
  0
ARC
  5
90D
330
2
100
AcDbEntity
  8
0
100
AcDbCircle
 10
475.8268767769502
 20
140.5080134587734
 30
0.0
 40
5.4
100
AcDbArc
 50
311.8104210000016
 51
59.13299199999959
  0
ARC
  5
90E
330
2
100
AcDbEntity
  8
0
100
AcDbCircle
 10
477.3658777769504
 20
143.0830934587734
 30
0.0
 40
2.399999999999999
100
AcDbArc
 50
59.13309899999717
 51
90.0
  0
LINE
  5
90F
330
2
100
AcDbEntity
  8
0
100
AcDbLine
 10
473.0668967769502
 20
139.4831144587733
 30
0.0
 11
475.7668787769502
 21
139.4831144587733
 31
0.0
  0
ARC
  5
910
330
2
100
AcDbEntity
  8
0
100
AcDbCircle
 10
475.7668787769502
 20
140.3831354587734
 30
0.0
 40
0.9
100
AcDbArc
 50
270.0
 51
90.0
  0
LINE
  5
911
330
2
100
AcDbEntity
  8
0
100
AcDbLine
 10
466.1666897769503
 20
145.4831144587734
 30
0.0
 11
466.1666897769503
 21
141.2830944587734
 31
0.0
  0
LINE
  5
912
330
2
100
AcDbEntity
  8
0
100
AcDbLine
 10
471.5668967769501
 20
141.2830944587734
 30
0.0
 11
475.7668787769502
 21
141.2830944587734
 31
0.0
  0
LINE
  5
913
330
2
100
AcDbEntity
  8
0
100
AcDbLine
 10
477.3658777769504
 20
145.4831144587734
 30
0.0
 11
467.6666897769503
 21
145.4831144587734
 31
0.0
  0
CIRCLE
  5
914
330
2
100
AcDbEntity
  8
0
100
AcDbCircle
 10
462.1468837769502
 20
205.4831144587733
 30
0.0
 40
30.0
  0
ARC
  5
915
330
2
100
AcDbEntity
  8
0
100
AcDbCircle
 10
492.1468837769502
 20
188.4831144587733
 30
0.0
 40
100.0
100
AcDbArc
 50
156.1764070000009
 51
185.853500000001
  0
ARC
  5
916
330
2
100
AcDbEntity
  8
0
100
AcDbCircle
 10
530.7000757769502
 20
175.4829924587734
 30
0.0
 40
148.0
100
AcDbArc
 50
158.6703030000002
 51
175.543701000001
  0
ARC
  5
917
330
2
100
AcDbEntity
  8
0
100
AcDbCircle
 10
402.6160917769503
 20
179.3047704587734
 30
0.0
 40
10.0
100
AcDbArc
 50
185.8531950000007
 51
190.7769929999991
  0
ARC
  5
918
330
2
100
AcDbEntity
  8
0
100
AcDbCircle
 10
462.1468837769502
 20
205.4831144587733
 30
0.0
 40
14.0
100
AcDbArc
 50
196.6013949999983
 51
163.3983000000009
  0
LINE
  5
919
330
2
100
AcDbEntity
  8
0
100
AcDbLine
 10
445.1468837769502
 20
209.4831144587733
 30
0.0
 11
452.1468837769503
 21
209.4831144587733
 31
0.0
  0
LINE
  5
91A
330
2
100
AcDbEntity
  8
0
100
AcDbLine
 10
445.1468837769502
 20
201.4831144587733
 30
0.0
 11
452.1468837769503
 21
201.4831144587733
 31
0.0
  0
LINE
  5
91B
330
2
100
AcDbEntity
  8
0
100
AcDbLine
 10
445.1468837769502
 20
209.4831144587733
 30
0.0
 11
445.1468837769502
 21
201.4831144587733
 31
0.0
  0
LINE
  5
91C
330
2
100
AcDbEntity
  8
0
100
AcDbLine
 10
452.1468837769503
 20
209.4831144587733
 30
0.0
 11
452.1468837769503
 21
201.4831144587733
 31
0.0
  0
ARC
  5
91D
330
2
100
AcDbEntity
  8
0
100
AcDbCircle
 10
384.1468837769502
 20
205.4831144587733
 30
0.0
 40
150.0
100
AcDbArc
 50
331.7753910000013
 51
349.2236020000004
  0
LINE
  5
91E
330
2
100
AcDbEntity
  8
0
100
AcDbLine
 10
549.6864957769503
 20
95.4831144587734
 30
0.0
 11
541.1467007769503
 21
186.9823824587734
 31
0.0
  0
LINE
  5
91F
330
2
100
AcDbEntity
  8
CENTER
100
AcDbLine
 10
532.1467007769503
 20
117.2183364587733
 30
0.0
 11
532.1467007769503
 21
88.78243045877344
 31
0.0
  0
ARC
  5
920
330
2
100
AcDbEntity
  8
0
100
AcDbCircle
 10
504.8490927769503
 20
113.4831144587733
 30
0.0
 40
3.0
100
AcDbArc
 50
270.0
 51
20.00031099999977
  0
LINE
  5
921
330
2
100
AcDbEntity
  8
0
100
AcDbLine
 10
509.3932827769503
 20
133.1597544587734
 30
0.0
 11
516.4494957769502
 21
113.7730314587733
 31
0.0
  0
LINE
  5
922
330
2
100
AcDbEntity
  8
0
100
AcDbLine
 10
502.8198877769503
 20
110.4831144587734
 30
0.0
 11
543.7314787769503
 21
110.4831144587734
 31
0.0
  0
LINE
  5
923
330
2
100
AcDbEntity
  8
0
100
AcDbLine
 10
496.6468837769503
 20
95.4831144587734
 30
0.0
 11
549.6864957769503
 21
95.4831144587734
 31
0.0
  0
ARC
  5
924
330
2
100
AcDbEntity
  8
0
100
AcDbCircle
 10
502.8198877769503
 20
105.4831144587734
 30
0.0
 40
5.0
100
AcDbArc
 50
90.0
 51
173.4924930000014
  0
LINE
  5
925
330
2
100
AcDbEntity
  8
0
100
AcDbLine
 10
496.6468837769503
 20
95.4831144587734
 30
0.0
 11
497.8520837769503
 21
106.0496964587733
 31
0.0
  0
ARC
  5
926
330
2
100
AcDbEntity
  8
0
100
AcDbCircle
 10
521.1478907769503
 20
115.4831144587733
 30
0.0
 40
5.0
100
AcDbArc
 50
199.9998930000002
 51
270.0
  0
LINE
  5
927
330
2
100
AcDbEntity
  8
HIDS
100
AcDbLine
 10
537.6467007769503
 20
110.4831144587734
 30
0.0
 11
537.6467007769503
 21
95.4831144587734
 31
0.0
  0
LINE
  5
928
330
2
100
AcDbEntity
  8
HIDS
100
AcDbLine
 10
526.6466697769503
 20
110.4831144587734
 30
0.0
 11
526.6466697769503
 21
95.4831144587734
 31
0.0
  0
ARC
  5
929
330
2
100
AcDbEntity
  8
0
100
AcDbCircle
 10
543.7314787769503
 20
105.4832364587733
 30
0.0
 40
5.0
100
AcDbArc
 50
5.332100000001028
 51
90.0
  0
ARC
  5
92A
330
2
100
AcDbEntity
  8
0
100
AcDbCircle
 10
489.8788787769503
 20
148.7315354587734
 30
0.0
 40
30.0
100
AcDbArc
 50
320.9725040000021
 51
331.7756039999991
  0
ARC
  5
92B
330
2
100
AcDbEntity
  8
0
100
AcDbCircle
 10
514.0920737769503
 20
134.8698334587733
 30
0.0
 40
5.0
100
AcDbArc
 50
150.2093960000003
 51
199.9998019999996
  0
ARC
  5
92C
330
2
100
AcDbEntity
  8
0
100
AcDbCircle
 10
489.8788787769503
 20
148.7315354587734
 30
0.0
 40
22.9
100
AcDbArc
 50
292.6220700000002
 51
294.4543229999992
  0
ARC
  5
92D
330
2
100
AcDbEntity
  8
0
100
AcDbCircle
 10
500.6006797769503
 20
125.1549934587733
 30
0.0
 40
3.0
100
AcDbArc
 50
19.99996899999825
 51
114.4545969999986
  0
LINE
  5
92E
330
2
100
AcDbEntity
  8
0
100
AcDbLine
 10
503.4198937769502
 20
126.1809944587733
 30
0.0
 11
507.6680937769501
 21
114.5092374587733
 31
0.0
  0
ARC
  5
92F
330
2
100
AcDbEntity
  8
0
100
AcDbCircle
 10
501.8606897769502
 20
115.8462734587734
 30
0.0
 40
5.0
100
AcDbArc
 50
20.00031099999977
 51
110.0196000000013
  0
ARC
  5
930
330
2
100
AcDbEntity
  8
0
100
AcDbCircle
 10
489.8788787769503
 20
148.7315354587734
 30
0.0
 40
30.0
100
AcDbArc
 50
283.3620910000029
 51
290.0197139999995
  0
ARC
  5
931
330
2
100
AcDbEntity
  8
0
100
AcDbCircle
 10
517.0680877769503
 20
126.6919724587734
 30
0.0
 40
5.0
100
AcDbArc
 50
140.9723969999989
 51
200.0003969999994
  0
ARC
  5
932
330
2
100
AcDbEntity
  8
0
100
AcDbCircle
 10
489.8788787769503
 20
148.7315354587734
 30
0.0
 40
22.9
100
AcDbArc
 50
330.2093790000006
 51
336.4218600000018
  0
ARC
  5
933
330
2
100
AcDbEntity
  8
0
100
AcDbCircle
 10
432.1468837769502
 20
188.4831144587733
 30
0.0
 40
100.0
100
AcDbArc
 50
354.1475519999992
 51
23.82356099999916
  0
ARC
  5
934
330
2
100
AcDbEntity
  8
0
100
AcDbCircle
 10
393.5942717769503
 20
175.4829924587734
 30
0.0
 40
148.0
100
AcDbArc
 50
4.456283999999884
 51
21.32965100000029
  0
ARC
  5
935
330
2
100
AcDbEntity
  8
0
100
AcDbCircle
 10
521.6776757769503
 20
179.3055024587733
 30
0.0
 40
10.0
100
AcDbArc
 50
349.2235110000001
 51
354.1473079999999
  0
ARC
  5
936
330
2
100
AcDbEntity
  8
0
100
AcDbCircle
 10
462.1448697769503
 20
132.4831144587734
 30
0.0
 40
123.5
100
AcDbArc
 50
72.00316599999744
 51
90.0
  0
ARC
  5
937
330
2
100
AcDbEntity
  8
0
100
AcDbCircle
 10
462.1472807769503
 20
132.4831144587734
 30
0.0
 40
130.0
100
AcDbArc
 50
71.19985999999883
 51
89.60891699999582
  0
ARC
  5
938
330
2
100
AcDbEntity
  8
0
100
AcDbCircle
 10
462.1486847769502
 20
132.4831144587734
 30
0.0
 40
123.5
100
AcDbArc
 50
90.0
 51
107.9968030000009
  0
ARC
  5
939
330
2
100
AcDbEntity
  8
0
100
AcDbCircle
 10
462.1488977769502
 20
132.4831144587734
 30
0.0
 40
130.0
100
AcDbArc
 50
89.56043999999641
 51
108.8012009999985
  0
LINE
  5
93A
330
2
100
AcDbEntity
  8
0
100
AcDbLine
 10
469.6468015066398
 20
280.4543099673484
 30
0.0
 11
469.6468015066398
 21
262.2666156784005
 31
0.0
  0
LINE
  5
93B
330
2
100
AcDbEntity
  8
0
100
AcDbLine
 10
456.6469660472607
 20
280.8753173558283
 30
0.0
 11
456.6469660472607
 21
262.3667364892038
 31
0.0
  0
LINE
  5
93C
330
2
100
AcDbEntity
  8
0
100
AcDbLine
 10
458.6469660472608
 20
280.0331775426905
 30
0.0
 11
458.6469660472608
 21
262.4360034403673
 31
0.0
  0
LINE
  5
93D
330
2
100
AcDbEntity
  8
0
100
AcDbLine
 10
463.6468015066397
 20
280.4543099673484
 30
0.0
 11
463.6468015066397
 21
262.4744658540921
 31
0.0
  0
LINE
  5
93E
330
2
100
AcDbEntity
  8
0
100
AcDbLine
 10
460.6468015066398
 20
280.4542639673483
 30
0.0
 11
460.6468015066398
 21
262.4744361183161
 31
0.0
  0
LINE
  5
93F
330
2
100
AcDbEntity
  8
0
100
AcDbLine
 10
454.6468015066397
 20
280.4542639673483
 30
0.0
 11
454.6468015066397
 21
262.2664668255195
 31
0.0
  0
ARC
  5
940
330
2
100
AcDbEntity
  8
HOJO
100
AcDbCircle
 10
465.3968015066397
 20
281.4542639673483
 30
0.0
 40
1.600781
100
AcDbArc
 50
247.1647030000001
 51
321.3401790000018
  0
LINE
  5
941
330
2
100
AcDbEntity
  8
HOJO
100
AcDbLine
 10
463.6468015066397
 20
280.4543099673484
 30
0.0
 11
464.7757085066398
 21
279.9789679673483
 31
0.0
  0
LINE
  5
942
330
2
100
AcDbEntity
  8
HOJO
100
AcDbLine
 10
456.5181095066398
 20
280.9295749673483
 30
0.0
 11
458.7757085066398
 21
279.9789679673483
 31
0.0
  0
ARC
  5
943
330
2
100
AcDbEntity
  8
HOJO
100
AcDbCircle
 10
459.3968015066398
 20
281.4542639673483
 30
0.0
 40
1.600781
100
AcDbArc
 50
247.1647030000001
 51
321.3401790000018
  0
ARC
  5
944
330
2
100
AcDbEntity
  8
HOJO
100
AcDbCircle
 10
455.8968015066398
 20
279.4542639673483
 30
0.0
 40
1.600781999999999
100
AcDbArc
 50
67.16467299999876
 51
141.340195000003
  0
LINE
  5
945
330
2
100
AcDbEntity
  8
HOJO
100
AcDbLine
 10
468.5181095066398
 20
280.9295749673483
 30
0.0
 11
469.6468015066398
 21
280.4543099673484
 31
0.0
  0
ARC
  5
946
330
2
100
AcDbEntity
  8
HOJO
100
AcDbCircle
 10
467.8968015066398
 20
279.4542639673483
 30
0.0
 40
1.600781999999999
100
AcDbArc
 50
67.16467299999876
 51
141.340195000003
  0
TEXT
  5
947
330
2
100
AcDbEntity
  8
TITLE
100
AcDbText
 10
42.33106008603408
 20
27.94768490024086
 30
0.0
 40
9.0
  1
VGLC28-40～100N400
100
AcDbText
  0
LINE
  5
C1E
330
2
100
AcDbEntity
  8
CENTER
100
AcDbLine
 10
26.67846657005521
 20
474.5489694117101
 30
0.0
 11
286.8902201782675
 21
474.5489694117101
 31
0.0
  0
ARC
  5
E24
330
2
100
AcDbEntity
  8
0
100
AcDbCircle
 10
-89.65817982173257
 20
474.5489694117101
 30
0.0
 40
300.0
100
AcDbArc
 50
352.4928580000009
 51
0.0
  0
LINE
  5
E28
330
2
100
AcDbEntity
  8
0
100
AcDbLine
 10
127.3902201782675
 20
538.5486644117102
 30
0.0
 11
127.3902201782675
 21
410.54866441171
 31
0.0
  0
LINE
  5
E29
330
2
100
AcDbEntity
  8
0
100
AcDbLine
 10
140.8902201782675
 20
553.3989754117101
 30
0.0
 11
140.8902201782675
 21
395.6989634117102
 31
0.0
  0
LINE
  5
E2A
330
2
100
AcDbEntity
  8
0
100
AcDbLine
 10
134.3901131782674
 20
397.6665391548774
 30
0.0
 11
134.3901131782677
 21
551.4300724107123
 31
0.0
  0
ARC
  5
E2B
330
2
100
AcDbEntity
  8
0
100
AcDbCircle
 10
926.6868211782673
 20
474.55357741171
 30
0.0
 40
700.0
100
AcDbArc
 50
177.5465999999999
 51
182.4541020000027
  0
LINE
  5
E2C
330
2
100
AcDbEntity
  8
0
100
AcDbLine
 10
229.8902201782675
 20
447.5489694117101
 30
0.0
 11
229.8902201782675
 21
501.5489694117101
 31
0.0
  0
ARC
  5
E3E
330
2
100
AcDbEntity
  8
0
100
AcDbCircle
 10
122.3901291782676
 20
405.7493474117101
 30
0.0
 40
18.0
100
AcDbArc
 50
179.8178109561815
 51
268.4999999999972
  0
ARC
  5
E3F
330
2
100
AcDbEntity
  8
0
100
AcDbCircle
 10
140.8902201782675
 20
1287.04875541171
 30
0.0
 40
900.0
100
AcDbArc
 50
270.5093989999987
 51
274.7640079999964
  0
ARC
  5
E40
330
2
100
AcDbEntity
  8
0
100
AcDbCircle
 10
191.0300211782675
 20
397.5851634117101
 30
0.0
 40
4.5
100
AcDbArc
 50
132.5661010000007
 51
245.919899000003
  0
LINE
  5
E41
330
2
100
AcDbEntity
  8
0
100
AcDbLine
 10
121.9189381782675
 20
387.7553594117101
 30
0.0
 11
148.8902201782675
 21
387.0489694117101
 31
0.0
  0
ARC
  5
E42
330
2
100
AcDbEntity
  8
0
100
AcDbCircle
 10
140.8902201782675
 20
393.5489694117101
 30
0.0
 40
2.0
100
AcDbArc
 50
0.0
 51
90.0
  0
LINE
  5
E43
330
2
100
AcDbEntity
  8
CENTER
100
AcDbLine
 10
121.8902201782675
 20
414.8885084117101
 30
0.0
 11
121.8902201782675
 21
394.20943041171
 31
0.0
  0
CIRCLE
  5
E44
330
2
100
AcDbEntity
  8
0
100
AcDbCircle
 10
121.8902201782675
 20
404.5489694117101
 30
0.0
 40
5.5
  0
LINE
  5
E45
330
2
100
AcDbEntity
  8
0
100
AcDbLine
 10
136.3377141782675
 20
395.6673401548775
 30
0.0
 11
140.8902201782675
 21
395.5480349397854
 31
0.0
  0
ARC
  5
E46
330
2
100
AcDbEntity
  8
0
100
AcDbCircle
 10
136.3901131782674
 20
397.6665391548774
 30
0.0
 40
2.0
100
AcDbArc
 50
180.0
 51
268.4993900000025
  0
LINE
  5
E47
330
2
100
AcDbEntity
  8
CENTER
100
AcDbLine
 10
111.5506811782674
 20
404.5489694117101
 30
0.0
 11
132.2297591782676
 21
404.5489694117101
 31
0.0
  0
LINE
  5
E48
330
2
100
AcDbEntity
  8
0
100
AcDbLine
 10
131.4948191782675
 20
410.4052774117101
 30
0.0
 11
127.3902201782675
 21
410.54866441171
 31
0.0
  0
ARC
  5
E49
330
2
100
AcDbEntity
  8
0
100
AcDbCircle
 10
131.3901131782674
 20
407.4071694117102
 30
0.0
 40
3.0
100
AcDbArc
 50
0.0
 51
87.99967199999965
  0
LINE
  5
E4A
330
2
100
AcDbEntity
  8
0
100
AcDbLine
 10
142.8902201782675
 20
387.2061354117101
 30
0.0
 11
142.8902201782675
 21
393.5489694117101
 31
0.0
  0
ARC
  5
E4B
330
2
100
AcDbEntity
  8
0
100
AcDbCircle
 10
206.5403361782675
 20
428.6789434117102
 30
0.0
 40
20.0
100
AcDbArc
 50
293.4508209999955
 51
356.6283809999983
  0
ARC
  5
E4C
330
2
100
AcDbEntity
  8
0
100
AcDbCircle
 10
158.1987231782675
 20
441.88655441171
 30
0.0
 40
50.0
100
AcDbArc
 50
319.212799000002
 51
352.4926749999992
  0
LINE
  5
E4D
330
2
100
AcDbEntity
  8
0
100
AcDbLine
 10
229.3902201782675
 20
422.0489694117101
 30
0.0
 11
229.3902201782675
 21
405.10625141171
 31
0.0
  0
ARC
  5
E4E
330
2
100
AcDbEntity
  8
0
100
AcDbCircle
 10
214.3904341782674
 20
405.10625141171
 30
0.0
 40
15.0
100
AcDbArc
 50
274.7638469999972
 51
0.0
  0
LINE
  5
E4F
330
2
100
AcDbEntity
  8
CENTER
100
AcDbLine
 10
211.8902201782675
 20
414.8885084117101
 30
0.0
 11
211.8902201782675
 21
394.20943041171
 31
0.0
  0
ARC
  5
E50
330
2
100
AcDbEntity
  8
0
100
AcDbCircle
 10
211.8902201782675
 20
404.5489694117101
 30
0.0
 40
5.5
100
AcDbArc
 50
145.174606000001
 51
74.49257700000149
  0
ARC
  5
E51
330
2
100
AcDbEntity
  8
0
100
AcDbCircle
 10
120.3417131782675
 20
474.5489694117101
 30
0.0
 40
100.0
100
AcDbArc
 50
312.566280000003
 51
319.2129900000015
  0
LINE
  5
E52
330
2
100
AcDbEntity
  8
0
100
AcDbLine
 10
189.1938091782674
 20
393.4767644117101
 30
0.0
 11
199.7610091782676
 21
388.9763684117101
 31
0.0
  0
LINE
  5
E53
330
2
100
AcDbEntity
  8
CENTER
100
AcDbLine
 10
201.5506811782675
 20
404.5489694117101
 30
0.0
 11
222.2297591782676
 21
404.5489694117101
 31
0.0
  0
ARC
  5
E54
330
2
100
AcDbEntity
  8
0
100
AcDbCircle
 10
186.6420211782674
 20
474.5489694117101
 30
0.0
 40
70.0
100
AcDbArc
 50
274.3514710000035
 51
293.4509579999982
  0
ARC
  5
E55
330
2
100
AcDbEntity
  8
0
100
AcDbCircle
 10
-572.1097798217324
 20
474.5489694117101
 30
0.0
 40
800.0
100
AcDbArc
 50
356.628600999999
 51
357.8528140000008
  0
ARC
  5
E56
330
2
100
AcDbEntity
  8
0
100
AcDbCircle
 10
211.3902201782675
 20
422.0489694117101
 30
0.0
 40
18.0
100
AcDbArc
 50
0.0
 51
31.550600000001
  0
ARC
  5
E57
330
2
100
AcDbEntity
  8
0
100
AcDbCircle
 10
226.8902201782675
 20
447.5489694117101
 30
0.0
 40
3.0
100
AcDbArc
 50
278.3679429999982
 51
0.0
  0
LINE
  5
E6B
330
2
100
AcDbEntity
  8
0
100
AcDbLine
 10
231.8901591782673
 20
488.5489694117101
 30
0.0
 11
276.8902201782675
 21
488.5489694117101
 31
0.0
  0
LINE
  5
E6C
330
2
100
AcDbEntity
  8
0
100
AcDbLine
 10
236.8901901782674
 20
461.1329844117102
 30
0.0
 11
276.8902201782675
 21
461.1329844117102
 31
0.0
  0
LINE
  5
E6D
330
2
100
AcDbEntity
  8
0
100
AcDbLine
 10
236.8901901782674
 20
457.5489694117101
 30
0.0
 11
276.8902201782675
 21
457.5489694117101
 31
0.0
  0
ARC
  5
E6E
330
2
100
AcDbEntity
  8
0
100
AcDbCircle
 10
211.3902201782675
 20
527.0489694117101
 30
0.0
 40
18.0
100
AcDbArc
 50
328.449399999999
 51
0.0
  0
ARC
  5
E6F
330
2
100
AcDbEntity
  8
0
100
AcDbCircle
 10
206.5403361782675
 20
520.4190254117101
 30
0.0
 40
20.0
100
AcDbArc
 50
3.371619000001595
 51
66.54917900000441
  0
ARC
  5
E70
330
2
100
AcDbEntity
  8
0
100
AcDbCircle
 10
158.1987231782675
 20
507.2113844117101
 30
0.0
 40
50.0
100
AcDbArc
 50
7.507325000000811
 51
40.78720099999793
  0
ARC
  5
E71
330
2
100
AcDbEntity
  8
0
100
AcDbCircle
 10
-89.65817982173257
 20
474.5489694117101
 30
0.0
 40
300.0
100
AcDbArc
 50
0.0
 51
7.507141999999033
  0
LINE
  5
E72
330
2
100
AcDbEntity
  8
0
100
AcDbLine
 10
231.8901901782674
 20
489.5489084117101
 30
0.0
 11
231.8902201782675
 21
459.5489694117101
 31
0.0
  0
LINE
  5
E73
330
2
100
AcDbEntity
  8
0
100
AcDbLine
 10
229.8901901782674
 20
459.5489694117101
 30
0.0
 11
231.8902201782675
 21
459.5489694117101
 31
0.0
  0
LINE
  5
E74
330
2
100
AcDbEntity
  8
0
100
AcDbLine
 10
231.8901901782674
 20
460.5489694117101
 30
0.0
 11
236.8901901782674
 21
460.5489694117101
 31
0.0
  0
LINE
  5
E75
330
2
100
AcDbEntity
  8
0
100
AcDbLine
 10
236.8901901782674
 20
461.1329844117102
 30
0.0
 11
236.8901901782674
 21
457.5489694117101
 31
0.0
  0
LINE
  5
E76
330
2
100
AcDbEntity
  8
0
100
AcDbLine
 10
229.8902201782675
 20
489.5489694117101
 30
0.0
 11
231.8901901782674
 21
489.5489084117101
 31
0.0
  0
ARC
  5
E77
330
2
100
AcDbEntity
  8
0
100
AcDbCircle
 10
226.8902201782675
 20
501.5489694117101
 30
0.0
 40
3.0
100
AcDbArc
 50
0.0
 51
81.63205700000174
  0
ARC
  5
E78
330
2
100
AcDbEntity
  8
0
100
AcDbCircle
 10
-572.1097798217324
 20
474.5489694117101
 30
0.0
 40
800.0
100
AcDbArc
 50
2.147614000000579
 51
3.371399000000995
  0
ARC
  5
E79
330
2
100
AcDbEntity
  8
0
100
AcDbCircle
 10
140.8902201782675
 20
-337.9508165882897
 30
0.0
 40
900.0
100
AcDbArc
 50
85.23599200000358
 51
89.49060099999474
  0
ARC
  5
E7A
330
2
100
AcDbEntity
  8
0
100
AcDbCircle
 10
191.0300211782675
 20
551.5128064117102
 30
0.0
 40
4.5
100
AcDbArc
 50
114.0801009999969
 51
227.4338989999992
  0
LINE
  5
E7B
330
2
100
AcDbEntity
  8
0
100
AcDbLine
 10
142.8902201782675
 20
561.8917734117101
 30
0.0
 11
142.8902201782675
 21
555.5489694117102
 31
0.0
  0
ARC
  5
E7C
330
2
100
AcDbEntity
  8
0
100
AcDbCircle
 10
122.3901291782676
 20
543.3485914117101
 30
0.0
 40
18.0
100
AcDbArc
 50
91.50000000000273
 51
180.0
  0
ARC
  5
E7D
330
2
100
AcDbEntity
  8
0
100
AcDbCircle
 10
140.8902201782675
 20
555.5489694117102
 30
0.0
 40
2.0
100
AcDbArc
 50
270.0
 51
0.0
  0
ARC
  5
E7E
330
2
100
AcDbEntity
  8
0
100
AcDbCircle
 10
131.3901131782674
 20
541.6901744117102
 30
0.0
 40
3.0
100
AcDbArc
 50
272.0003430000037
 51
0.0
  0
LINE
  5
E7F
330
2
100
AcDbEntity
  8
0
100
AcDbLine
 10
104.3902201782675
 20
534.9280584117102
 30
0.0
 11
104.3902201782675
 21
543.3487134117101
 31
0.0
  0
LINE
  5
E80
330
2
100
AcDbEntity
  8
CENTER
100
AcDbLine
 10
121.8902201782675
 20
554.8885084117102
 30
0.0
 11
121.8902201782675
 21
534.2094304117101
 31
0.0
  0
ARC
  5
E81
330
2
100
AcDbEntity
  8
0
100
AcDbCircle
 10
109.3903271782673
 20
534.9280584117102
 30
0.0
 40
5.0
100
AcDbArc
 50
180.0
 51
249.3079368381881
  0
LINE
  5
E82
330
2
100
AcDbEntity
  8
0
100
AcDbLine
 10
131.4948191782675
 20
538.6920664117102
 30
0.0
 11
127.3902201782675
 21
538.5486644117102
 31
0.0
  0
LINE
  5
E83
330
2
100
AcDbEntity
  8
CENTER
100
AcDbLine
 10
111.5506811782674
 20
544.5489694117102
 30
0.0
 11
132.2297591782676
 21
544.5489694117102
 31
0.0
  0
CIRCLE
  5
E84
330
2
100
AcDbEntity
  8
0
100
AcDbCircle
 10
121.8902201782675
 20
544.5489694117102
 30
0.0
 40
5.5
  0
LINE
  5
E85
330
2
100
AcDbEntity
  8
0
100
AcDbLine
 10
136.3379121782677
 20
553.4298894107122
 30
0.0
 11
140.8902201782675
 21
553.5489694107122
 31
0.0
  0
ARC
  5
E86
330
2
100
AcDbEntity
  8
0
100
AcDbCircle
 10
136.3902201782675
 20
551.4300724107123
 30
0.0
 40
2.0
100
AcDbArc
 50
91.4983520000001
 51
180.0
  0
LINE
  5
E87
330
2
100
AcDbEntity
  8
0
100
AcDbLine
 10
121.9189381782675
 20
561.3426094117102
 30
0.0
 11
148.8902201782675
 21
562.0489694117102
 31
0.0
  0
LINE
  5
E88
330
2
100
AcDbEntity
  8
0
100
AcDbLine
 10
189.1938091782674
 20
555.6211434117101
 30
0.0
 11
199.7610091782676
 21
560.1215404117101
 31
0.0
  0
ARC
  5
E89
330
2
100
AcDbEntity
  8
0
100
AcDbCircle
 10
214.3904341782674
 20
543.99165741171
 30
0.0
 40
15.0
100
AcDbArc
 50
0.0
 51
85.23615299999624
  0
ARC
  5
E8A
330
2
100
AcDbEntity
  8
0
100
AcDbCircle
 10
186.6420211782674
 20
474.5489694117101
 30
0.0
 40
70.0
100
AcDbArc
 50
66.54904200000174
 51
85.64852899999641
  0
LINE
  5
E8B
330
2
100
AcDbEntity
  8
0
100
AcDbLine
 10
229.3902201782675
 20
527.0489694117101
 30
0.0
 11
229.3902201782675
 21
543.99165741171
 31
0.0
  0
LINE
  5
E8C
330
2
100
AcDbEntity
  8
CENTER
100
AcDbLine
 10
211.8902201782675
 20
554.8885084117102
 30
0.0
 11
211.8902201782675
 21
534.2094304117101
 31
0.0
  0
LINE
  5
E8D
330
2
100
AcDbEntity
  8
CENTER
100
AcDbLine
 10
201.5506811782675
 20
544.5489694117102
 30
0.0
 11
222.2297591782676
 21
544.5489694117102
 31
0.0
  0
ARC
  5
E8E
330
2
100
AcDbEntity
  8
0
100
AcDbCircle
 10
211.8902201782675
 20
544.5489694117102
 30
0.0
 40
5.5
100
AcDbArc
 50
285.5074229999985
 51
214.8253939999989
  0
ARC
  5
E8F
330
2
100
AcDbEntity
  8
0
100
AcDbCircle
 10
120.3417131782675
 20
474.5489694117101
 30
0.0
 40
100.0
100
AcDbArc
 50
40.78700999999848
 51
47.43371999999694
  0
LINE
  5
E90
330
2
100
AcDbEntity
  8
0
100
AcDbLine
 10
276.8902201782675
 20
488.5489694117101
 30
0.0
 11
276.8902201782675
 21
457.5489694117101
 31
0.0
  0
ARC
  5
3895
330
2
100
AcDbEntity
  8
0
100
AcDbCircle
 10
109.3903271782673
 20
414.1698804117099
 30
0.0
 40
5.0
100
AcDbArc
 50
110.6920631618119
 51
180.0
  0
LINE
  5
3896
330
2
100
AcDbEntity
  8
0
100
AcDbLine
 10
104.3902201782675
 20
414.1698804117099
 30
0.0
 11
104.3902201782675
 21
405.74922541171
 31
0.0
  0
MTEXT
  5
42FD
330
2
100
AcDbEntity
  8
TITLE
100
AcDbMText
 10
192.6779888321677
 20
41.61940657403206
 30
0.0
 40
5.6568
 41
23.355513
 71
     1
 72
     5
  1
L2\PL4
1001
ACAD
1000
MTEXTBEGIN
1070
    73
1070
     1
1070
    44
1040
1.0
1070
    74
1070
     0
1000
MTEXTEND
1000
MTEXTBEGIN
1070
    73
1070
     1
1070
    44
1040
1.0
1070
    74
1070
     0
1000
MTEXTEND
  0
LINE
  5
4457
330
2
100
AcDbEntity
  8
0
100
AcDbLine
 10
38.89012817826778
 20
424.5489694117101
 30
0.0
 11
40.39022017826755
 21
424.5489694117101
 31
0.0
  0
LINE
  5
4458
330
2
100
AcDbEntity
  8
0
100
AcDbLine
 10
38.88982359177771
 20
524.5664191600613
 30
0.0
 11
40.39022017826755
 21
524.6188141634043
 31
0.0
  0
LINE
  5
4459
330
2
100
AcDbEntity
  8
0
100
AcDbLine
 10
127.3902201782675
 20
538.0490074117098
 30
0.0
 11
118.3727411782674
 21
537.8913694117101
 31
0.0
  0
LINE
  5
445A
330
2
100
AcDbEntity
  8
CENTER
100
AcDbLine
 10
107.3283381782675
 20
515.5590094117098
 30
0.0
 11
131.5877981782673
 21
515.5590094117098
 31
0.0
  0
LINE
  5
445B
330
2
100
AcDbEntity
  8
0
100
AcDbLine
 10
127.3902201782675
 20
411.0488704117098
 30
0.0
 11
118.3727411782674
 21
411.20624941171
 31
0.0
  0
LINE
  5
445C
330
2
100
AcDbEntity
  8
CENTER
100
AcDbLine
 10
108.0070411782676
 20
433.5388684117098
 30
0.0
 11
131.5877981782673
 21
433.5388684117098
 31
0.0
  0
LINE
  5
445D
330
2
100
AcDbEntity
  8
0
100
AcDbLine
 10
117.3902201782675
 20
536.8915904117098
 30
0.0
 11
117.3902201782675
 21
412.20610841171
 31
0.0
  0
LINE
  5
445E
330
2
100
AcDbEntity
  8
0
100
AcDbLine
 10
37.89022017826755
 20
492.5489694117101
 30
0.0
 11
37.89022017826755
 21
456.5489694117101
 31
0.0
  0
ARC
  5
445F
330
2
100
AcDbEntity
  8
0
100
AcDbCircle
 10
47.89022017827256
 20
484.391225290287
 30
0.0
 40
1.0
100
AcDbArc
 50
0.0
 51
87.9999999999964
  0
LINE
  5
4460
330
2
100
AcDbEntity
  8
0
100
AcDbLine
 10
43.39022017827256
 20
485.5489694117101
 30
0.0
 11
43.39022017827256
 21
481.9989694117099
 31
0.0
  0
LINE
  5
4461
330
2
100
AcDbEntity
  8
0
100
AcDbLine
 10
116.3989401782678
 20
471.2847474117103
 30
0.0
 11
53.8216572595229
 21
470.7386604816711
 31
0.0
  0
LINE
  5
4462
330
2
100
AcDbEntity
  8
0
100
AcDbLine
 10
116.3989401782678
 20
468.3133594117103
 30
0.0
 11
53.98660332702411
 21
468.8580193789149
 31
0.0
  0
LINE
  5
4463
330
2
100
AcDbEntity
  8
0
100
AcDbLine
 10
116.3989401782678
 20
467.4989514117101
 30
0.0
 11
54.77169590881294
 21
468.0367784862069
 31
0.0
  0
LINE
  5
4464
330
2
100
AcDbEntity
  8
0
100
AcDbLine
 10
116.3989401782678
 20
472.3705634117101
 30
0.0
 11
54.77169518683513
 21
471.8327128864189
 31
0.0
  0
LINE
  5
4465
330
2
100
AcDbEntity
  8
0
100
AcDbLine
 10
116.3989401782673
 20
481.59898741171
 30
0.0
 11
54.77169590881249
 21
481.0611603372132
 31
0.0
  0
LINE
  5
4466
330
2
100
AcDbEntity
  8
0
100
AcDbLine
 10
116.3989401782673
 20
476.7273754117101
 30
0.0
 11
54.77169518683513
 21
477.2652259370012
 31
0.0
  0
LINE
  5
4467
330
2
100
AcDbEntity
  8
0
100
AcDbLine
 10
116.3989401782673
 20
477.8131914117099
 30
0.0
 11
54.36030320891632
 21
478.3545777938958
 31
0.0
  0
LINE
  5
4468
330
2
100
AcDbEntity
  8
0
100
AcDbLine
 10
116.3989401782673
 20
480.7845794117103
 30
0.0
 11
55.01614374129667
 21
480.2489040375613
 31
0.0
  0
LINE
  5
4469
330
2
100
AcDbEntity
  8
0
100
AcDbLine
 10
116.3989401782673
 20
458.4847754117101
 30
0.0
 11
46.71852017826767
 21
459.0927774117099
 31
0.0
  0
LINE
  5
446A
330
2
100
AcDbEntity
  8
0
100
AcDbLine
 10
116.3989401782673
 20
463.2075694117098
 30
0.0
 11
47.51152017826735
 21
462.6063734117098
 31
0.0
  0
LINE
  5
446B
330
2
100
AcDbEntity
  8
0
100
AcDbLine
 10
116.3989401782673
 20
459.00297941171
 30
0.0
 11
46.2030641782676
 21
459.6155894117097
 31
0.0
  0
LINE
  5
446C
330
2
100
AcDbEntity
  8
0
100
AcDbLine
 10
116.3989401782673
 20
461.8833814117098
 30
0.0
 11
46.2030641782676
 21
461.2709854117098
 31
0.0
  0
LINE
  5
446D
330
2
100
AcDbEntity
  8
0
100
AcDbLine
 10
116.3989401782673
 20
418.7706114117101
 30
0.0
 11
45.57360017826749
 21
419.3886684117098
 31
0.0
  0
LINE
  5
446E
330
2
100
AcDbEntity
  8
0
100
AcDbLine
 10
116.6922221782674
 20
420.38089041171
 30
0.0
 11
45.57360017826749
 21
419.7602504117099
 31
0.0
  0
LINE
  5
446F
330
2
100
AcDbEntity
  8
0
100
AcDbLine
 10
116.3989401782673
 20
422.2854694117101
 30
0.0
 11
45.69750217826731
 21
421.66846841171
 31
0.0
  0
LINE
  5
4470
330
2
100
AcDbEntity
  8
0
100
AcDbLine
 10
116.3989401782673
 20
420.4275474117099
 30
0.0
 11
45.69750217826731
 21
421.04454841171
 31
0.0
  0
LINE
  5
4471
330
2
100
AcDbEntity
  8
0
100
AcDbLine
 10
116.3989401782673
 20
423.7192304117098
 30
0.0
 11
45.79663817826758
 21
424.3353504117099
 31
0.0
  0
LINE
  5
4472
330
2
100
AcDbEntity
  8
0
100
AcDbLine
 10
116.3989401782673
 20
425.7803494117098
 30
0.0
 11
45.79663817826758
 21
425.1642074117099
 31
0.0
  0
LINE
  5
4473
330
2
100
AcDbEntity
  8
0
100
AcDbLine
 10
98.24404117826771
 20
423.8776474117099
 30
0.0
 11
47.43222017826747
 21
423.4342314117099
 31
0.0
  0
LINE
  5
4474
330
2
100
AcDbEntity
  8
0
100
AcDbLine
 10
116.3989401782673
 20
428.41374941171
 30
0.0
 11
45.93541617826758
 21
429.0286674117097
 31
0.0
  0
LINE
  5
4475
330
2
100
AcDbEntity
  8
0
100
AcDbLine
 10
112.9001381782672
 20
430.7262494117099
 30
0.0
 11
45.93541617826758
 21
430.1418684117098
 31
0.0
  0
LINE
  5
4476
330
2
100
AcDbEntity
  8
0
100
AcDbLine
 10
116.3989401782673
 20
441.80696841171
 30
0.0
 11
46.11382217826758
 21
442.4203684117097
 31
0.0
  0
LINE
  5
4477
330
2
100
AcDbEntity
  8
0
100
AcDbLine
 10
116.3989401782673
 20
444.5089494117097
 30
0.0
 11
46.11382217826758
 21
443.8955504117099
 31
0.0
  0
LINE
  5
4478
330
2
100
AcDbEntity
  8
0
100
AcDbLine
 10
116.3989401782673
 20
450.0249504117097
 30
0.0
 11
46.18322017826767
 21
450.6377484117098
 31
0.0
  0
LINE
  5
4479
330
2
100
AcDbEntity
  8
0
100
AcDbLine
 10
116.3989401782673
 20
452.8669704117097
 30
0.0
 11
46.18322017826767
 21
452.25416941171
 31
0.0
  0
LINE
  5
447A
330
2
100
AcDbEntity
  8
0
100
AcDbLine
 10
116.3989401782673
 20
427.5943684117097
 30
0.0
 11
47.59082017826767
 21
426.99388941171
 31
0.0
  0
LINE
  5
447B
330
2
100
AcDbEntity
  8
0
100
AcDbLine
 10
112.4514381782673
 20
432.5446284117098
 30
0.0
 11
47.73954017826736
 21
431.9799084117099
 31
0.0
  0
LINE
  5
447C
330
2
100
AcDbEntity
  8
0
100
AcDbLine
 10
116.3989401782673
 20
446.1831494117096
 30
0.0
 11
47.76927817826754
 21
445.5843694117098
 31
0.0
  0
LINE
  5
447D
330
2
100
AcDbEntity
  8
0
100
AcDbLine
 10
116.3989401782673
 20
454.38937041171
 30
0.0
 11
47.68997817826766
 21
453.7895494117098
 31
0.0
  0
LINE
  5
447E
330
2
100
AcDbEntity
  8
0
100
AcDbLine
 10
40.39022017826755
 20
455.5489694117101
 30
0.0
 11
40.39022017826755
 21
424.2034304117097
 31
0.0
  0
LINE
  5
447F
330
2
100
AcDbEntity
  8
0
100
AcDbLine
 10
45.55252017826751
 20
422.17575041171
 30
0.0
 11
42.37274217826734
 21
422.2035104117099
 31
0.0
  0
ARC
  5
4480
330
2
100
AcDbEntity
  8
0
100
AcDbCircle
 10
42.39022017826755
 20
424.2034304117097
 30
0.0
 40
2.0
100
AcDbArc
 50
180.0
 51
269.5000000000084
  0
ARC
  5
4481
330
2
100
AcDbEntity
  8
0
100
AcDbCircle
 10
45.94020017826733
 20
429.59186941171
 30
0.0
 40
0.55
100
AcDbArc
 50
90.49999999999155
 51
180.0
  0
ARC
  5
4482
330
2
100
AcDbEntity
  8
0
100
AcDbCircle
 10
47.76022217826766
 20
429.6099704117096
 30
0.0
 40
2.37
100
AcDbArc
 50
90.49999999999155
 51
180.0
  0
ARC
  5
4483
330
2
100
AcDbEntity
  8
0
100
AcDbCircle
 10
45.80020017826746
 20
424.7542304117096
 30
0.0
 40
0.41
100
AcDbArc
 50
90.49999999999155
 51
180.0
  0
ARC
  5
4484
330
2
100
AcDbEntity
  8
0
100
AcDbCircle
 10
47.61022217826758
 20
424.7739674117098
 30
0.0
 40
2.22
100
AcDbArc
 50
90.49999999999155
 51
180.0
  0
ARC
  5
4485
330
2
100
AcDbEntity
  8
0
100
AcDbCircle
 10
47.45020217826732
 20
421.3743094117099
 30
0.0
 40
2.06
100
AcDbArc
 50
90.49999999999155
 51
180.0
  0
ARC
  5
4486
330
2
100
AcDbEntity
  8
0
100
AcDbCircle
 10
45.70020217826732
 20
421.3545494117098
 30
0.0
 40
0.31
100
AcDbArc
 50
180.0
 51
269.5000000000084
  0
ARC
  5
4487
330
2
100
AcDbEntity
  8
0
100
AcDbCircle
 10
45.70020217826732
 20
421.3584904117097
 30
0.0
 40
0.31
100
AcDbArc
 50
90.49999999999155
 51
180.0
  0
LINE
  5
4488
330
2
100
AcDbEntity
  8
0
100
AcDbLine
 10
45.39022017826755
 20
421.3743094117099
 30
0.0
 11
45.39022017826755
 21
421.3545494117098
 31
0.0
  0
LINE
  5
4489
330
2
100
AcDbEntity
  8
0
100
AcDbLine
 10
45.39022017826755
 20
421.3584904117097
 30
0.0
 11
45.39022017826755
 21
421.3545494117098
 31
0.0
  0
ARC
  5
448A
330
2
100
AcDbEntity
  8
0
100
AcDbCircle
 10
45.80020017826746
 20
424.7453314117097
 30
0.0
 40
0.41
100
AcDbArc
 50
180.0
 51
269.5000000000084
  0
LINE
  5
448B
330
2
100
AcDbEntity
  8
0
100
AcDbLine
 10
45.39022017826755
 20
424.7739674117098
 30
0.0
 11
45.39022017826755
 21
424.7453314117097
 31
0.0
  0
LINE
  5
448C
330
2
100
AcDbEntity
  8
0
100
AcDbLine
 10
45.39022017826755
 20
424.7542304117096
 30
0.0
 11
45.39022017826755
 21
424.7453314117097
 31
0.0
  0
ARC
  5
448D
330
2
100
AcDbEntity
  8
0
100
AcDbCircle
 10
45.94020017826733
 20
429.57867041171
 30
0.0
 40
0.55
100
AcDbArc
 50
180.0
 51
269.5000000000084
  0
LINE
  5
448E
330
2
100
AcDbEntity
  8
0
100
AcDbLine
 10
45.39022017826755
 20
429.6099704117096
 30
0.0
 11
45.39022017826755
 21
429.57867041171
 31
0.0
  0
LINE
  5
448F
330
2
100
AcDbEntity
  8
0
100
AcDbLine
 10
45.39022017826755
 20
429.59186941171
 30
0.0
 11
45.39022017826755
 21
429.57867041171
 31
0.0
  0
ARC
  5
4490
330
2
100
AcDbEntity
  8
0
100
AcDbCircle
 10
45.57520217826732
 20
419.5736884117101
 30
0.0
 40
0.185
100
AcDbArc
 50
180.0
 51
269.5000000000084
  0
ARC
  5
4491
330
2
100
AcDbEntity
  8
0
100
AcDbCircle
 10
45.57520217826732
 20
419.5752484117098
 30
0.0
 40
0.185
100
AcDbArc
 50
90.49999999999155
 51
180.0
  0
LINE
  5
4492
330
2
100
AcDbEntity
  8
0
100
AcDbLine
 10
45.39022017826755
 20
419.5934294117097
 30
0.0
 11
45.39022017826755
 21
419.5736884117101
 31
0.0
  0
ARC
  5
4493
330
2
100
AcDbEntity
  8
0
100
AcDbCircle
 10
47.20520017826766
 20
419.5934294117097
 30
0.0
 40
1.814999999999999
100
AcDbArc
 50
127.1051030000114
 51
180.0
  0
ARC
  5
4494
330
2
100
AcDbEntity
  8
0
100
AcDbCircle
 10
47.53022017826743
 20
460.4665714117101
 30
0.0
 40
2.14
100
AcDbArc
 50
90.49999999999155
 51
180.0
  0
LINE
  5
4495
330
2
100
AcDbEntity
  8
0
100
AcDbLine
 10
41.89022017826755
 20
463.5227868143175
 30
0.0
 11
41.89022017826755
 21
455.5489694117101
 31
0.0
  0
LINE
  5
4496
330
2
100
AcDbEntity
  8
0
100
AcDbLine
 10
41.89022017826755
 20
455.5489694117101
 30
0.0
 11
38.89022017826801
 21
455.5489694117101
 31
0.0
  0
ARC
  5
4497
330
2
100
AcDbEntity
  8
0
100
AcDbCircle
 10
38.89022017826755
 20
456.5489694117101
 30
0.0
 40
1.0
100
AcDbArc
 50
180.0
 51
270.0
  0
ARC
  5
4498
330
2
100
AcDbEntity
  8
0
100
AcDbCircle
 10
47.71022017826726
 20
451.46974941171
 30
0.0
 40
2.319999999999999
100
AcDbArc
 50
90.49999999999155
 51
180.0
  0
ARC
  5
4499
330
2
100
AcDbEntity
  8
0
100
AcDbCircle
 10
46.19020017826733
 20
451.4541494117098
 30
0.0
 40
0.8
100
AcDbArc
 50
90.49999999999155
 51
180.0
  0
ARC
  5
449A
330
2
100
AcDbEntity
  8
0
100
AcDbCircle
 10
46.19020017826733
 20
451.4377694117098
 30
0.0
 40
0.8
100
AcDbArc
 50
180.0
 51
269.5000000000084
  0
LINE
  5
449B
330
2
100
AcDbEntity
  8
0
100
AcDbLine
 10
45.39022017826755
 20
451.46974941171
 30
0.0
 11
45.39022017826755
 21
451.4541494117098
 31
0.0
  0
LINE
  5
449C
330
2
100
AcDbEntity
  8
0
100
AcDbLine
 10
45.39022017826755
 20
451.4541494117098
 30
0.0
 11
45.39022017826755
 21
451.4377694117098
 31
0.0
  0
ARC
  5
449D
330
2
100
AcDbEntity
  8
0
100
AcDbCircle
 10
46.12022417826756
 20
443.1503694117101
 30
0.0
 40
0.73
100
AcDbArc
 50
180.0
 51
269.5000000000084
  0
LINE
  5
449E
330
2
100
AcDbEntity
  8
0
100
AcDbLine
 10
45.39022017826755
 20
443.1843494117098
 30
0.0
 11
45.39022017826755
 21
443.16574841171
 31
0.0
  0
LINE
  5
449F
330
2
100
AcDbEntity
  8
0
100
AcDbLine
 10
45.39022017826755
 20
443.16574841171
 30
0.0
 11
45.39022017826755
 21
443.1503694117101
 31
0.0
  0
ARC
  5
44A0
330
2
100
AcDbEntity
  8
0
100
AcDbCircle
 10
47.79019817826747
 20
443.1843494117098
 30
0.0
 40
2.399999999999999
100
AcDbArc
 50
90.49999999999155
 51
180.0
  0
ARC
  5
44A1
330
2
100
AcDbEntity
  8
0
100
AcDbCircle
 10
46.12022417826756
 20
443.16574841171
 30
0.0
 40
0.73
100
AcDbArc
 50
90.49999999999155
 51
180.0
  0
ARC
  5
44A2
330
2
100
AcDbEntity
  8
0
100
AcDbCircle
 10
46.21022017826726
 20
460.4355814117099
 30
0.0
 40
0.8199999999999999
100
AcDbArc
 50
180.0
 51
269.5000000000084
  0
ARC
  5
44A3
330
2
100
AcDbEntity
  8
0
100
AcDbCircle
 10
46.21022017826726
 20
460.4509774117096
 30
0.0
 40
0.8199999999999999
100
AcDbArc
 50
90.49999999999155
 51
180.0
  0
ARC
  5
44A4
330
2
100
AcDbEntity
  8
0
100
AcDbCircle
 10
46.73021617826771
 20
460.4327894117101
 30
0.0
 40
1.34
100
AcDbArc
 50
180.0
 51
269.5000000000084
  0
LINE
  5
44A5
330
2
100
AcDbEntity
  8
0
100
AcDbLine
 10
45.39022017826755
 20
460.4665714117101
 30
0.0
 11
45.39022017826755
 21
460.4327894117101
 31
0.0
  0
LINE
  5
44A6
330
2
100
AcDbEntity
  8
0
100
AcDbLine
 10
45.39022017826755
 20
460.4509774117096
 30
0.0
 11
45.39022017826755
 21
460.4355814117099
 31
0.0
  0
ARC
  5
44A7
330
2
100
AcDbEntity
  8
0
100
AcDbCircle
 10
43.39022017827256
 20
478.9989694117099
 30
0.0
 40
3.0
100
AcDbArc
 50
90.0
 51
270.0
  0
ARC
  5
44A8
330
2
100
AcDbEntity
  8
0
100
AcDbCircle
 10
43.39022017827301
 20
468.64896941171
 30
0.0
 40
1.0
100
AcDbArc
 50
90.0
 51
270.0
  0
LINE
  5
44A9
330
2
100
AcDbEntity
  8
0
100
AcDbLine
 10
43.39022017827301
 20
463.5489694117101
 30
0.0
 11
38.89022017827301
 21
463.4704216195329
 31
0.0
  0
LINE
  5
44AA
330
2
100
AcDbEntity
  8
0
100
AcDbLine
 10
41.59022017827374
 20
473.7489694117099
 30
0.0
 11
45.19022017827182
 21
473.7489694117099
 31
0.0
  0
ARC
  5
44AB
330
2
100
AcDbEntity
  8
0
100
AcDbCircle
 10
43.39022017827301
 20
468.64896941171
 30
0.0
 40
2.0
100
AcDbArc
 50
235.272931295441
 51
304.7270687045571
  0
LINE
  5
44AC
330
2
100
AcDbEntity
  8
0
100
AcDbLine
 10
41.59022017827282
 20
470.7489694117099
 30
0.0
 11
52.41317618946595
 21
470.7489694117099
 31
0.0
  0
LINE
  5
44AD
330
2
100
AcDbEntity
  8
0
100
AcDbLine
 10
41.59022017827282
 20
472.7489694117099
 30
0.0
 11
52.31891659600615
 21
472.7489694117099
 31
0.0
  0
ARC
  5
44AE
330
2
100
AcDbEntity
  8
0
100
AcDbCircle
 10
41.59022017827282
 20
471.7489694117099
 30
0.0
 40
2.0
100
AcDbArc
 50
89.99999999997395
 51
204.6092450239375
  0
LINE
  5
44AF
330
2
100
AcDbEntity
  8
0
100
AcDbLine
 10
39.77188232274693
 20
470.9161144164305
 30
0.0
 11
40.14744896229877
 21
470.2656139150991
 31
0.0
  0
ARC
  5
44B0
330
2
100
AcDbEntity
  8
0
100
AcDbCircle
 10
43.39022017827301
 20
470.0489694117101
 30
0.0
 40
3.25
100
AcDbArc
 50
176.177837868673
 51
249.4781325999777
  0
ARC
  5
44B1
330
2
100
AcDbEntity
  8
0
100
AcDbCircle
 10
41.59022017827282
 20
471.7489694117099
 30
0.0
 40
1.0
100
AcDbArc
 50
90.0
 51
270.0
  0
LINE
  5
44B2
330
2
100
AcDbEntity
  8
0
100
AcDbLine
 10
43.39022017827256
 20
475.9989694117099
 30
0.0
 11
43.39022017827301
 21
473.7489694117099
 31
0.0
  0
LINE
  5
44B3
330
2
100
AcDbEntity
  8
0
100
AcDbLine
 10
48.8902201782721
 20
475.9989694117099
 30
0.0
 11
48.89022017827301
 21
472.7489694117099
 31
0.0
  0
ARC
  5
44B4
330
2
100
AcDbEntity
  8
0
100
AcDbCircle
 10
45.19022017827274
 20
471.7489694117099
 30
0.0
 40
2.0
100
AcDbArc
 50
29.99999999999609
 51
90.00000000002605
  0
ARC
  5
44B5
330
2
100
AcDbEntity
  8
0
100
AcDbCircle
 10
47.89022017827301
 20
464.7067224187217
 30
0.0
 40
1.0
100
AcDbArc
 50
272.0000000000035
 51
0.0
  0
LINE
  5
44B6
330
2
100
AcDbEntity
  8
0
100
AcDbLine
 10
43.39022017827301
 20
469.64896941171
 30
0.0
 11
54.11891659600633
 21
469.64896941171
 31
0.0
  0
LINE
  5
44B7
330
2
100
AcDbEntity
  8
0
100
AcDbLine
 10
43.39022017827301
 20
467.64896941171
 30
0.0
 11
54.21317618946614
 21
467.64896941171
 31
0.0
  0
LINE
  5
44B8
330
2
100
AcDbEntity
  8
0
100
AcDbLine
 10
43.39022017827301
 20
466.64896941171
 30
0.0
 11
43.39022017827301
 21
463.5489694117101
 31
0.0
  0
LINE
  5
44B9
330
2
100
AcDbEntity
  8
0
100
AcDbLine
 10
43.39022017827301
 20
463.5489694117101
 30
0.0
 11
47.92511967497557
 21
463.7073315917024
 31
0.0
  0
ARC
  5
44BA
330
2
100
AcDbEntity
  8
0
100
AcDbCircle
 10
43.39022017827301
 20
470.0489694117101
 30
0.0
 40
3.25
100
AcDbArc
 50
352.930285957695
 51
3.822162131326958
  0
LINE
  5
44BB
330
2
100
AcDbEntity
  8
0
100
AcDbLine
 10
46.91205682032932
 20
470.7489694117099
 30
0.0
 11
46.63299139424725
 21
470.2656139150991
 31
0.0
  0
LINE
  5
44BC
330
2
100
AcDbEntity
  8
0
100
AcDbLine
 10
46.91205682032932
 20
470.7489694117099
 30
0.0
 11
46.63299139424725
 21
470.2656139150991
 31
0.0
  0
ARC
  5
44BD
330
2
100
AcDbEntity
  8
0
100
AcDbCircle
 10
43.39022017827301
 20
470.0489694117101
 30
0.0
 40
3.25
100
AcDbArc
 50
290.5218674000222
 51
312.3994733644338
  0
ARC
  5
44BE
330
2
100
AcDbEntity
  8
0
100
AcDbCircle
 10
54.78825965688429
 20
469.9347456894635
 30
0.0
 40
1.898039478616692
100
AcDbArc
 50
260.5613775252245
 51
269.4999867419111
  0
ARC
  5
44BF
330
2
100
AcDbEntity
  8
0
100
AcDbCircle
 10
53.82985678028262
 20
469.7990596559454
 30
0.0
 40
0.9396366020142174
100
AcDbArc
 50
90.49998466970505
 51
189.1913538948804
  0
ARC
  5
44C0
330
2
100
AcDbEntity
  8
0
100
AcDbCircle
 10
54.78825965688429
 20
469.9347456894635
 30
0.0
 40
1.898039478616692
100
AcDbArc
 50
90.50003505310135
 51
188.6596083652989
  0
SPLINE
  5
44C1
330
2
100
AcDbEntity
  8
HOJO
100
AcDbSpline
210
0.0
220
0.0
230
1.0
 70
     8
 71
     3
 72
    10
 73
     6
 74
     4
 42
0.0000000001
 43
0.0000000001
 44
0.0000000001
 40
0.0
 40
0.0
 40
0.0
 40
0.0
 40
0.6971907634055975
 40
1.694952319108457
 40
2.335350738679081
 40
2.335350738679081
 40
2.335350738679081
 40
2.335350738679081
 10
54.21317618946614
 20
467.64896941171
 30
0.0
 10
54.38039033157433
 20
467.8699544238337
 30
0.0
 10
54.78690747556171
 20
468.407194844171
 30
0.0
 10
53.6105983647785
 20
468.9176418898439
 30
0.0
 10
53.97605161933782
 20
469.4434267360202
 30
0.0
 10
54.11891659600633
 20
469.64896941171
 30
0.0
 11
54.21317618946614
 21
467.64896941171
 31
0.0
 11
54.50158863859542
 21
468.2837081136695
 31
0.0
 11
53.87227077110265
 21
469.0579736648166
 31
0.0
 11
54.11891659600633
 21
469.64896941171
 31
0.0
  0
SPLINE
  5
44C2
330
2
100
AcDbEntity
  8
HOJO
100
AcDbSpline
210
0.0
220
0.0
230
1.0
 70
     8
 71
     3
 72
    10
 73
     6
 74
     4
 42
0.0000000001
 43
0.0000000001
 44
0.0000000001
 40
0.0
 40
0.0
 40
0.0
 40
0.0
 40
0.6971907634055975
 40
1.694952319108457
 40
2.335350738679081
 40
2.335350738679081
 40
2.335350738679081
 40
2.335350738679081
 10
52.41317618946595
 20
470.7489694117099
 30
0.0
 10
52.58039033157415
 20
470.9699544238335
 30
0.0
 10
52.98690747556154
 20
471.5071948441707
 30
0.0
 10
51.81059836477832
 20
472.0176418898438
 30
0.0
 10
52.17605161933764
 20
472.5434267360202
 30
0.0
 10
52.31891659600615
 20
472.7489694117099
 30
0.0
 11
52.41317618946595
 21
470.7489694117099
 31
0.0
 11
52.70158863859524
 21
471.3837081136695
 31
0.0
 11
52.07227077110246
 21
472.1579736648164
 31
0.0
 11
52.31891659600615
 21
472.7489694117099
 31
0.0
  0
LINE
  5
44C3
330
2
100
AcDbEntity
  8
0
100
AcDbLine
 10
48.89022017827301
 20
470.7489694117099
 30
0.0
 11
48.89022017827301
 21
469.64896941171
 31
0.0
  0
LINE
  5
44C4
330
2
100
AcDbEntity
  8
0
100
AcDbLine
 10
48.89022017827301
 20
467.64896941171
 30
0.0
 11
48.89022017827301
 21
464.7067224187217
 31
0.0
  0
LINE
  5
44C5
330
2
100
AcDbEntity
  8
0
100
AcDbLine
 10
43.39022017827256
 20
481.9989694117099
 30
0.0
 11
54.43780927364923
 21
481.9989694117099
 31
0.0
  0
LINE
  5
44C6
330
2
100
AcDbEntity
  8
0
100
AcDbLine
 10
43.39022017827256
 20
475.9989694117099
 30
0.0
 11
54.51559961750991
 21
475.9989694117099
 31
0.0
  0
ARC
  5
44C7
330
2
100
AcDbEntity
  8
0
100
AcDbCircle
 10
54.78825965688429
 20
479.1631931339566
 30
0.0
 40
1.898039478616692
100
AcDbArc
 50
246.5592971331421
 51
269.4999649468986
  0
SPLINE
  5
44C8
330
2
100
AcDbEntity
  8
HOJO
100
AcDbSpline
210
0.0
220
0.0
230
1.0
 70
     8
 71
     3
 72
    12
 73
     8
 74
     6
 42
0.0000000001
 43
0.0000000001
 44
0.0000000001
 40
0.0
 40
0.0
 40
0.0
 40
0.0
 40
1.684659730310068
 40
2.786160565551293
 40
4.550934817628394
 40
5.718899366606923
 40
6.335570522766976
 40
6.335570522766976
 40
6.335570522766976
 40
6.335570522766976
 10
54.51559961750991
 20
475.9989694117099
 30
0.0
 10
54.23868800923631
 20
476.5499292253933
 30
0.0
 10
53.78072003550593
 20
477.4611295577035
 30
0.0
 10
54.66334465344347
 20
478.798130789726
 30
0.0
 10
55.22542249129083
 20
480.1239502561957
 30
0.0
 10
54.72801299981253
 20
481.258143464805
 30
0.0
 10
54.51233547028798
 20
481.8087205099331
 30
0.0
 10
54.43780927364923
 20
481.9989694117099
 30
0.0
 11
54.51559961750991
 21
475.9989694117099
 31
0.0
 11
54.04985773362842
 21
477.6179699998898
 31
0.0
 11
54.51158756999484
 21
478.6180248225101
 31
0.0
 11
55.01179514528349
 21
480.3104256445432
 31
0.0
 11
54.66549751545063
 21
481.4258713578088
 31
0.0
 11
54.43780927364923
 21
481.9989694117099
 31
0.0
  0
LINE
  5
44C9
330
2
100
AcDbEntity
  8
0
100
AcDbLine
 10
48.89022017827255
 20
484.391225290287
 30
0.0
 11
48.89022017827301
 21
481.9989694117099
 31
0.0
  0
ARC
  5
44CA
330
2
100
AcDbEntity
  8
0
100
AcDbCircle
 10
116.3902201782675
 20
440.8070494117096
 30
0.0
 40
1.0
100
AcDbArc
 50
0.0
 51
89.49999999998238
  0
ARC
  5
44CB
330
2
100
AcDbEntity
  8
0
100
AcDbCircle
 10
118.3902201782675
 20
412.20610841171
 30
0.0
 40
1.0
100
AcDbArc
 50
180.0
 51
268.9999999999982
  0
ARC
  5
44CC
330
2
100
AcDbEntity
  8
0
100
AcDbCircle
 10
116.3902201782675
 20
417.7706304117097
 30
0.0
 40
1.0
100
AcDbArc
 50
0.0
 51
89.49999999998238
  0
LINE
  5
44CD
330
2
100
AcDbEntity
  8
0
100
AcDbLine
 10
116.0894391782676
 20
428.7888684117098
 30
0.0
 11
114.4786221782674
 21
428.7888684117098
 31
0.0
  0
LINE
  5
44CE
330
2
100
AcDbEntity
  8
0
100
AcDbLine
 10
116.0894391782676
 20
438.2888684117098
 30
0.0
 11
114.4786221782674
 21
438.2888684117098
 31
0.0
  0
ARC
  5
44CF
330
2
100
AcDbEntity
  8
0
100
AcDbCircle
 10
120.3894191782674
 20
433.5388684117098
 30
0.0
 40
8.0
100
AcDbArc
 50
147.6076050000078
 51
212.3923949999916
  0
ARC
  5
44D0
330
2
100
AcDbEntity
  8
0
100
AcDbCircle
 10
114.4786221782674
 20
429.7888684117098
 30
0.0
 40
1.0
100
AcDbArc
 50
212.3923949999916
 51
270.0
  0
ARC
  5
44D1
330
2
100
AcDbEntity
  8
0
100
AcDbCircle
 10
114.4786221782674
 20
437.2888684117098
 30
0.0
 40
1.0
100
AcDbArc
 50
90.0
 51
147.6076050000078
  0
LINE
  5
44D2
330
2
100
AcDbEntity
  8
0
100
AcDbLine
 10
116.0894391782676
 20
438.2888684117098
 30
0.0
 11
116.0894391782676
 21
428.7888684117098
 31
0.0
  0
LINE
  5
44D3
330
2
100
AcDbEntity
  8
0
100
AcDbLine
 10
117.3894191782674
 20
428.9388694117097
 30
0.0
 11
117.3894191782674
 21
433.5388684117098
 31
0.0
  0
ARC
  5
44D4
330
2
100
AcDbEntity
  8
0
100
AcDbCircle
 10
116.3902201782675
 20
423.28543141171
 30
0.0
 40
1.0
100
AcDbArc
 50
270.4999999999915
 51
343.5553890000034
  0
ARC
  5
44D5
330
2
100
AcDbEntity
  8
0
100
AcDbCircle
 10
116.3902201782675
 20
422.7192494117099
 30
0.0
 40
1.0
100
AcDbArc
 50
0.0
 51
89.49999999998238
  0
ARC
  5
44D6
330
2
100
AcDbEntity
  8
0
100
AcDbCircle
 10
116.3902201782675
 20
426.7803304117097
 30
0.0
 40
1.0
100
AcDbArc
 50
270.4999999999915
 51
0.0
  0
ARC
  5
44D7
330
2
100
AcDbEntity
  8
0
100
AcDbCircle
 10
116.3902201782675
 20
428.59433041171
 30
0.0
 40
1.0
100
AcDbArc
 50
270.4999999999915
 51
323.8237000000115
  0
ARC
  5
44D8
330
2
100
AcDbEntity
  8
0
100
AcDbCircle
 10
116.3902201782675
 20
427.41376841171
 30
0.0
 40
1.0
100
AcDbArc
 50
0.0
 51
89.49999999998238
  0
LINE
  5
44D9
330
2
100
AcDbEntity
  8
0
100
AcDbLine
 10
116.0894391782676
 20
428.9388694117097
 30
0.0
 11
117.3894191782674
 21
428.9388694117097
 31
0.0
  0
ARC
  5
44DA
330
2
100
AcDbEntity
  8
0
100
AcDbCircle
 10
116.3902201782675
 20
419.42758941171
 30
0.0
 40
1.0
100
AcDbArc
 50
0.0
 51
89.49999999998238
  0
LINE
  5
44DB
330
2
100
AcDbEntity
  8
0
100
AcDbLine
 10
116.0894391782676
 20
438.1388514117098
 30
0.0
 11
117.3894191782674
 21
438.1388514117098
 31
0.0
  0
ARC
  5
44DC
330
2
100
AcDbEntity
  8
0
100
AcDbCircle
 10
116.3902201782675
 20
445.5089494117097
 30
0.0
 40
1.0
100
AcDbArc
 50
270.4999999999915
 51
0.0
  0
ARC
  5
44DD
330
2
100
AcDbEntity
  8
0
100
AcDbCircle
 10
116.3902201782675
 20
447.1831494117096
 30
0.0
 40
1.0
100
AcDbArc
 50
270.4999999999915
 51
0.0
  0
ARC
  5
44DE
330
2
100
AcDbEntity
  8
0
100
AcDbCircle
 10
116.3902201782675
 20
449.0249504117096
 30
0.0
 40
1.0
100
AcDbArc
 50
0.0
 51
89.49999999998238
  0
ARC
  5
44DF
330
2
100
AcDbEntity
  8
0
100
AcDbCircle
 10
116.3902201782675
 20
462.8833814117098
 30
0.0
 40
1.0
100
AcDbArc
 50
270.4999999999915
 51
0.0
  0
ARC
  5
44E0
330
2
100
AcDbEntity
  8
0
100
AcDbCircle
 10
116.3902201782675
 20
457.48477541171
 30
0.0
 40
1.0
100
AcDbArc
 50
0.0
 51
89.49999999998238
  0
ARC
  5
44E1
330
2
100
AcDbEntity
  8
0
100
AcDbCircle
 10
116.3902201782675
 20
458.00297941171
 30
0.0
 40
1.0
100
AcDbArc
 50
0.0
 51
89.49999999998238
  0
ARC
  5
44E2
330
2
100
AcDbEntity
  8
0
100
AcDbCircle
 10
116.3902201782675
 20
453.8669704117097
 30
0.0
 40
1.0
100
AcDbArc
 50
270.4999999999915
 51
0.0
  0
ARC
  5
44E3
330
2
100
AcDbEntity
  8
0
100
AcDbCircle
 10
116.3902201782675
 20
455.3891794117099
 30
0.0
 40
1.0
100
AcDbArc
 50
270.4999999999915
 51
0.0
  0
ARC
  5
44E4
330
2
100
AcDbEntity
  8
0
100
AcDbCircle
 10
116.3902201782675
 20
473.3703504117102
 30
0.0
 40
1.0
100
AcDbArc
 50
270.4999999999915
 51
0.0
  0
ARC
  5
44E5
330
2
100
AcDbEntity
  8
0
100
AcDbCircle
 10
116.3902201782675
 20
472.2847474117103
 30
0.0
 40
1.0
100
AcDbArc
 50
270.4999999999915
 51
0.0
  0
ARC
  5
44E6
330
2
100
AcDbEntity
  8
0
100
AcDbCircle
 10
116.3902201782675
 20
467.3135574117101
 30
0.0
 40
1.0
100
AcDbArc
 50
0.0
 51
89.49999999998238
  0
ARC
  5
44E7
330
2
100
AcDbEntity
  8
0
100
AcDbCircle
 10
116.3902201782675
 20
464.2075694117099
 30
0.0
 40
1.0
100
AcDbArc
 50
270.4999999999915
 51
0.0
  0
ARC
  5
44E8
330
2
100
AcDbEntity
  8
0
100
AcDbCircle
 10
116.3902201782675
 20
466.4991654117098
 30
0.0
 40
1.0
100
AcDbArc
 50
0.0
 51
89.49999999998238
  0
ARC
  5
44E9
330
2
100
AcDbEntity
  8
0
100
AcDbCircle
 10
116.3902201782675
 20
481.7843814117101
 30
0.0
 40
1.0
100
AcDbArc
 50
270.4999999999915
 51
0.0
  0
ARC
  5
44EA
330
2
100
AcDbEntity
  8
0
100
AcDbCircle
 10
116.3902201782675
 20
482.5987734117099
 30
0.0
 40
1.0
100
AcDbArc
 50
270.4999999999915
 51
0.0
  0
ARC
  5
44EB
330
2
100
AcDbEntity
  8
0
100
AcDbCircle
 10
116.3902201782675
 20
476.8131914117098
 30
0.0
 40
1.0
100
AcDbArc
 50
0.0
 51
89.49999999998238
  0
ARC
  5
44EC
330
2
100
AcDbEntity
  8
0
100
AcDbCircle
 10
116.3902201782675
 20
475.7275884117099
 30
0.0
 40
1.0
100
AcDbArc
 50
0.0
 51
89.49999999998238
  0
LINE
  5
44ED
330
2
100
AcDbEntity
  8
0
100
AcDbLine
 10
54.87275617826753
 20
529.7901494117101
 30
0.0
 11
116.3989401782673
 21
530.3271904117097
 31
0.0
  0
LINE
  5
44EE
330
2
100
AcDbEntity
  8
0
100
AcDbLine
 10
116.3989401782673
 20
528.67015041171
 30
0.0
 11
45.69750217826731
 21
528.0531504117099
 31
0.0
  0
LINE
  5
44EF
330
2
100
AcDbEntity
  8
0
100
AcDbLine
 10
116.3989401782673
 20
526.8121914117097
 30
0.0
 11
45.69750217826731
 21
527.4291884117097
 31
0.0
  0
LINE
  5
44F0
330
2
100
AcDbEntity
  8
0
100
AcDbLine
 10
116.3989401782673
 20
525.37858941171
 30
0.0
 11
45.79663817826758
 21
524.7623714117099
 31
0.0
  0
LINE
  5
44F1
330
2
100
AcDbEntity
  8
0
100
AcDbLine
 10
98.24404117826771
 20
525.22021141171
 30
0.0
 11
47.43222017826747
 21
525.6635894117099
 31
0.0
  0
LINE
  5
44F2
330
2
100
AcDbEntity
  8
0
100
AcDbLine
 10
116.3989401782673
 20
487.2141754117097
 30
0.0
 11
46.2030641782676
 21
487.8267714117097
 31
0.0
  0
LINE
  5
44F3
330
2
100
AcDbEntity
  8
0
100
AcDbLine
 10
116.3989401782673
 20
485.8901874117097
 30
0.0
 11
47.51152017826735
 21
486.4913834117097
 31
0.0
  0
LINE
  5
44F4
330
2
100
AcDbEntity
  8
0
100
AcDbLine
 10
112.9001381782672
 20
518.37157041171
 30
0.0
 11
45.93541617826758
 21
518.95578741171
 31
0.0
  0
LINE
  5
44F5
330
2
100
AcDbEntity
  8
0
100
AcDbLine
 10
116.3989401782673
 20
520.6840094117097
 30
0.0
 11
45.93541617826758
 21
520.06895041171
 31
0.0
  0
LINE
  5
44F6
330
2
100
AcDbEntity
  8
0
100
AcDbLine
 10
116.3989401782673
 20
504.58877041171
 30
0.0
 11
46.11382217826758
 21
505.2019904117097
 31
0.0
  0
LINE
  5
44F7
330
2
100
AcDbEntity
  8
0
100
AcDbLine
 10
116.3989401782673
 20
507.2907674117101
 30
0.0
 11
46.11382217826758
 21
506.6773684117098
 31
0.0
  0
LINE
  5
44F8
330
2
100
AcDbEntity
  8
0
100
AcDbLine
 10
116.3989401782673
 20
496.2307894117099
 30
0.0
 11
46.18322017826767
 21
496.8435694117098
 31
0.0
  0
LINE
  5
44F9
330
2
100
AcDbEntity
  8
0
100
AcDbLine
 10
116.3989401782673
 20
499.07276941171
 30
0.0
 11
46.18322017826767
 21
498.4599684117098
 31
0.0
  0
LINE
  5
44FA
330
2
100
AcDbEntity
  8
0
100
AcDbLine
 10
112.4514381782673
 20
516.5531504117098
 30
0.0
 11
47.73954017826736
 21
517.1177904117099
 31
0.0
  0
LINE
  5
44FB
330
2
100
AcDbEntity
  8
0
100
AcDbLine
 10
116.3989401782673
 20
502.9145894117097
 30
0.0
 11
47.76927817826754
 21
503.5133894117099
 31
0.0
  0
LINE
  5
44FC
330
2
100
AcDbEntity
  8
0
100
AcDbLine
 10
116.3989401782673
 20
494.70838941171
 30
0.0
 11
47.68997817826766
 21
495.30818941171
 31
0.0
  0
LINE
  5
44FD
330
2
100
AcDbEntity
  8
0
100
AcDbLine
 10
116.3989401782673
 20
490.0947754117097
 30
0.0
 11
46.2030641782676
 21
489.4821674117098
 31
0.0
  0
LINE
  5
44FE
330
2
100
AcDbEntity
  8
0
100
AcDbLine
 10
116.3989401782673
 20
490.61296441171
 30
0.0
 11
46.71852017826767
 21
490.0049934117097
 31
0.0
  0
LINE
  5
44FF
330
2
100
AcDbEntity
  8
0
100
AcDbLine
 10
116.3989401782673
 20
521.5033684117098
 30
0.0
 11
47.59082017826767
 21
522.1038094117099
 31
0.0
  0
LINE
  5
4500
330
2
100
AcDbEntity
  8
0
100
AcDbLine
 10
116.3989401782673
 20
523.3173674117097
 30
0.0
 11
45.79663817826758
 21
523.9335904117098
 31
0.0
  0
LINE
  5
4501
330
2
100
AcDbEntity
  8
0
100
AcDbLine
 10
116.3989401782673
 20
530.3273274117101
 30
0.0
 11
45.57360017826749
 21
529.7092704117099
 31
0.0
  0
ARC
  5
4502
330
2
100
AcDbEntity
  8
0
100
AcDbCircle
 10
47.20520017826766
 20
529.50450941171
 30
0.0
 40
1.814999999999999
100
AcDbArc
 50
180.0
 51
232.8948969999884
  0
ARC
  5
4503
330
2
100
AcDbEntity
  8
0
100
AcDbCircle
 10
46.12022417826756
 20
505.9473684117098
 30
0.0
 40
0.73
100
AcDbArc
 50
90.49999999999155
 51
180.0
  0
LINE
  5
4504
330
2
100
AcDbEntity
  8
0
100
AcDbLine
 10
40.39022017826755
 20
524.8941884117099
 30
0.0
 11
40.39022017826755
 21
493.5489694117101
 31
0.0
  0
LINE
  5
4505
330
2
100
AcDbEntity
  8
0
100
AcDbLine
 10
43.39022017827256
 20
485.5489694117101
 30
0.0
 11
38.89022017827255
 21
485.6275172038869
 31
0.0
  0
LINE
  5
4506
330
2
100
AcDbEntity
  8
0
100
AcDbLine
 10
41.89022017826755
 20
493.5489694117101
 30
0.0
 11
38.89022017826755
 21
493.5489694117101
 31
0.0
  0
ARC
  5
4507
330
2
100
AcDbEntity
  8
0
100
AcDbCircle
 10
38.89022017826755
 20
492.5489694117101
 30
0.0
 40
1.0
100
AcDbArc
 50
90.0
 51
180.0
  0
LINE
  5
4508
330
2
100
AcDbEntity
  8
0
100
AcDbLine
 10
41.89022017826755
 20
485.5751520091022
 30
0.0
 11
41.89022017826755
 21
493.5489694117101
 31
0.0
  0
ARC
  5
4509
330
2
100
AcDbEntity
  8
0
100
AcDbCircle
 10
47.71022017826726
 20
497.6279694117098
 30
0.0
 40
2.319999999999999
100
AcDbArc
 50
180.0
 51
269.5000000000084
  0
ARC
  5
450A
330
2
100
AcDbEntity
  8
0
100
AcDbCircle
 10
46.21022017826726
 20
488.6621894117098
 30
0.0
 40
0.8199999999999999
100
AcDbArc
 50
90.49999999999155
 51
180.0
  0
ARC
  5
450B
330
2
100
AcDbEntity
  8
0
100
AcDbCircle
 10
46.73021617826771
 20
488.6649674117099
 30
0.0
 40
1.34
100
AcDbArc
 50
90.49999999999155
 51
180.0
  0
ARC
  5
450C
330
2
100
AcDbEntity
  8
0
100
AcDbCircle
 10
46.21022017826726
 20
488.64679341171
 30
0.0
 40
0.8199999999999999
100
AcDbArc
 50
180.0
 51
269.5000000000084
  0
ARC
  5
450D
330
2
100
AcDbEntity
  8
0
100
AcDbCircle
 10
47.53022017826743
 20
488.6311834117097
 30
0.0
 40
2.14
100
AcDbArc
 50
180.0
 51
269.5000000000084
  0
LINE
  5
450E
330
2
100
AcDbEntity
  8
0
100
AcDbLine
 10
45.39022017826755
 20
488.64679341171
 30
0.0
 11
45.39022017826755
 21
488.6621894117098
 31
0.0
  0
LINE
  5
450F
330
2
100
AcDbEntity
  8
0
100
AcDbLine
 10
45.39022017826755
 20
488.6311834117097
 30
0.0
 11
45.39022017826755
 21
488.6649674117099
 31
0.0
  0
LINE
  5
4510
330
2
100
AcDbEntity
  8
0
100
AcDbLine
 10
43.39072892320564
 20
485.5489605315344
 30
0.0
 11
47.92511967497512
 21
485.390616117306
 31
0.0
  0
ARC
  5
4511
330
2
100
AcDbEntity
  8
0
100
AcDbCircle
 10
47.79019817826747
 20
505.9133704117099
 30
0.0
 40
2.399999999999999
100
AcDbArc
 50
180.0
 51
269.5000000000084
  0
ARC
  5
4512
330
2
100
AcDbEntity
  8
0
100
AcDbCircle
 10
46.12022417826756
 20
505.93196841171
 30
0.0
 40
0.73
100
AcDbArc
 50
180.0
 51
269.5000000000084
  0
LINE
  5
4513
330
2
100
AcDbEntity
  8
0
100
AcDbLine
 10
45.39022017826755
 20
505.93196841171
 30
0.0
 11
45.39022017826755
 21
505.9473684117098
 31
0.0
  0
LINE
  5
4514
330
2
100
AcDbEntity
  8
0
100
AcDbLine
 10
45.39022017826755
 20
505.9133704117099
 30
0.0
 11
45.39022017826755
 21
505.93196841171
 31
0.0
  0
ARC
  5
4515
330
2
100
AcDbEntity
  8
0
100
AcDbCircle
 10
46.19020017826733
 20
497.6435704117099
 30
0.0
 40
0.8
100
AcDbArc
 50
180.0
 51
269.5000000000084
  0
LINE
  5
4516
330
2
100
AcDbEntity
  8
0
100
AcDbLine
 10
45.39022017826755
 20
497.6435704117099
 30
0.0
 11
45.39022017826755
 21
497.65998841171
 31
0.0
  0
LINE
  5
4517
330
2
100
AcDbEntity
  8
0
100
AcDbLine
 10
45.39022017826755
 20
497.6279694117098
 30
0.0
 11
45.39022017826755
 21
497.6435704117099
 31
0.0
  0
ARC
  5
4518
330
2
100
AcDbEntity
  8
0
100
AcDbCircle
 10
46.19020017826733
 20
497.65998841171
 30
0.0
 40
0.8
100
AcDbArc
 50
90.49999999999155
 51
180.0
  0
LINE
  5
4519
330
2
100
AcDbEntity
  8
0
100
AcDbLine
 10
45.55252017826751
 20
526.92198941171
 30
0.0
 11
42.37274217826734
 21
526.8941884117099
 31
0.0
  0
ARC
  5
451A
330
2
100
AcDbEntity
  8
0
100
AcDbCircle
 10
42.39022017826755
 20
524.8941884117099
 30
0.0
 40
2.0
100
AcDbArc
 50
90.49999999999155
 51
180.0
  0
ARC
  5
451B
330
2
100
AcDbEntity
  8
0
100
AcDbCircle
 10
47.76022217826766
 20
519.4877894117099
 30
0.0
 40
2.37
100
AcDbArc
 50
180.0
 51
269.5000000000084
  0
ARC
  5
451C
330
2
100
AcDbEntity
  8
0
100
AcDbCircle
 10
45.70020217826732
 20
527.73918941171
 30
0.0
 40
0.31
100
AcDbArc
 50
180.0
 51
269.5000000000084
  0
ARC
  5
451D
330
2
100
AcDbEntity
  8
0
100
AcDbCircle
 10
45.70020217826732
 20
527.7431904117098
 30
0.0
 40
0.31
100
AcDbArc
 50
90.49999999999155
 51
180.0
  0
ARC
  5
451E
330
2
100
AcDbEntity
  8
0
100
AcDbCircle
 10
45.94020017826733
 20
519.5057904117098
 30
0.0
 40
0.55
100
AcDbArc
 50
180.0
 51
269.5000000000084
  0
ARC
  5
451F
330
2
100
AcDbEntity
  8
0
100
AcDbCircle
 10
45.94020017826733
 20
519.5189704117098
 30
0.0
 40
0.55
100
AcDbArc
 50
90.49999999999155
 51
180.0
  0
LINE
  5
4520
330
2
100
AcDbEntity
  8
0
100
AcDbLine
 10
45.39022017826755
 20
519.5057904117098
 30
0.0
 11
45.39022017826755
 21
519.5189704117098
 31
0.0
  0
LINE
  5
4521
330
2
100
AcDbEntity
  8
0
100
AcDbLine
 10
45.39022017826755
 20
519.4877894117099
 30
0.0
 11
45.39022017826755
 21
519.5189704117098
 31
0.0
  0
ARC
  5
4522
330
2
100
AcDbEntity
  8
0
100
AcDbCircle
 10
45.80020017826746
 20
524.34354841171
 30
0.0
 40
0.41
100
AcDbArc
 50
180.0
 51
269.5000000000084
  0
LINE
  5
4523
330
2
100
AcDbEntity
  8
0
100
AcDbLine
 10
45.39022017826755
 20
524.32378741171
 30
0.0
 11
45.39022017826755
 21
524.3523674117101
 31
0.0
  0
ARC
  5
4524
330
2
100
AcDbEntity
  8
0
100
AcDbCircle
 10
45.80020017826746
 20
524.3523674117101
 30
0.0
 40
0.41
100
AcDbArc
 50
90.49999999999155
 51
180.0
  0
LINE
  5
4525
330
2
100
AcDbEntity
  8
0
100
AcDbLine
 10
45.39022017826755
 20
524.34354841171
 30
0.0
 11
45.39022017826755
 21
524.3523674117101
 31
0.0
  0
ARC
  5
4526
330
2
100
AcDbEntity
  8
0
100
AcDbCircle
 10
47.61022217826758
 20
524.32378741171
 30
0.0
 40
2.22
100
AcDbArc
 50
180.0
 51
269.5000000000084
  0
ARC
  5
4527
330
2
100
AcDbEntity
  8
0
100
AcDbCircle
 10
47.45020217826732
 20
527.7233694117099
 30
0.0
 40
2.06
100
AcDbArc
 50
180.0
 51
269.5000000000084
  0
ARC
  5
4528
330
2
100
AcDbEntity
  8
0
100
AcDbCircle
 10
47.89024217826727
 20
528.0490074117097
 30
0.0
 40
1.0
100
AcDbArc
 50
0.0
 51
1.824028999993621
  0
LINE
  5
4529
330
2
100
AcDbEntity
  8
0
100
AcDbLine
 10
48.89024217826727
 20
524.7893484117099
 30
0.0
 11
48.89024217826727
 21
524.7721714117098
 31
0.0
  0
ARC
  5
452A
330
2
100
AcDbEntity
  8
0
100
AcDbCircle
 10
45.57520217826732
 20
529.52425041171
 30
0.0
 40
0.185
100
AcDbArc
 50
90.49999999999155
 51
180.0
  0
ARC
  5
452B
330
2
100
AcDbEntity
  8
0
100
AcDbCircle
 10
45.57520217826732
 20
529.5226904117099
 30
0.0
 40
0.185
100
AcDbArc
 50
180.0
 51
269.5000000000084
  0
LINE
  5
452C
330
2
100
AcDbEntity
  8
0
100
AcDbLine
 10
45.39022017826755
 20
529.50450941171
 30
0.0
 11
45.39022017826755
 21
529.52425041171
 31
0.0
  0
ARC
  5
452D
330
2
100
AcDbEntity
  8
0
100
AcDbCircle
 10
116.3902201782675
 20
529.6701504117101
 30
0.0
 40
1.0
100
AcDbArc
 50
270.4999999999915
 51
0.0
  0
ARC
  5
452E
330
2
100
AcDbEntity
  8
0
100
AcDbCircle
 10
116.3902201782675
 20
495.2307894117098
 30
0.0
 40
1.0
100
AcDbArc
 50
0.0
 51
89.49999999998238
  0
ARC
  5
452F
330
2
100
AcDbEntity
  8
0
100
AcDbCircle
 10
116.3902201782675
 20
493.7085764117097
 30
0.0
 40
1.0
100
AcDbArc
 50
0.0
 51
89.49999999998238
  0
ARC
  5
4530
330
2
100
AcDbEntity
  8
0
100
AcDbCircle
 10
116.3902201782675
 20
484.8901874117096
 30
0.0
 40
1.0
100
AcDbArc
 50
0.0
 51
89.49999999998238
  0
ARC
  5
4531
330
2
100
AcDbEntity
  8
0
100
AcDbCircle
 10
116.3902201782675
 20
486.2143754117097
 30
0.0
 40
1.0
100
AcDbArc
 50
0.0
 51
89.49999999998238
  0
ARC
  5
4532
330
2
100
AcDbEntity
  8
0
100
AcDbCircle
 10
116.3902201782675
 20
491.61296441171
 30
0.0
 40
1.0
100
AcDbArc
 50
270.4999999999915
 51
0.0
  0
ARC
  5
4533
330
2
100
AcDbEntity
  8
0
100
AcDbCircle
 10
116.3902201782675
 20
491.0947764117101
 30
0.0
 40
1.0
100
AcDbArc
 50
270.4999999999915
 51
0.0
  0
ARC
  5
4534
330
2
100
AcDbEntity
  8
0
100
AcDbCircle
 10
116.3902201782675
 20
503.58877041171
 30
0.0
 40
1.0
100
AcDbArc
 50
0.0
 51
89.49999999998238
  0
ARC
  5
4535
330
2
100
AcDbEntity
  8
0
100
AcDbCircle
 10
116.3902201782675
 20
500.0727694117101
 30
0.0
 40
1.0
100
AcDbArc
 50
270.4999999999915
 51
0.0
  0
ARC
  5
4536
330
2
100
AcDbEntity
  8
0
100
AcDbCircle
 10
116.3902201782675
 20
501.9145894117096
 30
0.0
 40
1.0
100
AcDbArc
 50
0.0
 51
89.49999999998238
  0
LINE
  5
4537
330
2
100
AcDbEntity
  8
0
100
AcDbLine
 10
116.0894391782676
 20
510.8089904117097
 30
0.0
 11
114.4786221782674
 21
510.8089904117097
 31
0.0
  0
LINE
  5
4538
330
2
100
AcDbEntity
  8
0
100
AcDbLine
 10
116.0894391782676
 20
520.3090094117097
 30
0.0
 11
114.4786221782674
 21
520.3090094117097
 31
0.0
  0
ARC
  5
4539
330
2
100
AcDbEntity
  8
0
100
AcDbCircle
 10
120.3894191782674
 20
515.5590094117098
 30
0.0
 40
8.0
100
AcDbArc
 50
147.6076050000078
 51
212.3923949999916
  0
ARC
  5
453A
330
2
100
AcDbEntity
  8
0
100
AcDbCircle
 10
114.4786221782674
 20
511.8089904117097
 30
0.0
 40
1.0
100
AcDbArc
 50
212.3923949999916
 51
270.0
  0
ARC
  5
453B
330
2
100
AcDbEntity
  8
0
100
AcDbCircle
 10
114.4786221782674
 20
519.3090094117097
 30
0.0
 40
1.0
100
AcDbArc
 50
90.0
 51
147.6076050000078
  0
LINE
  5
453C
330
2
100
AcDbEntity
  8
0
100
AcDbLine
 10
117.3894191782674
 20
520.1588094117097
 30
0.0
 11
117.3894191782674
 21
515.5590094117098
 31
0.0
  0
LINE
  5
453D
330
2
100
AcDbEntity
  8
0
100
AcDbLine
 10
116.0894391782676
 20
520.3090094117097
 30
0.0
 11
116.0894391782676
 21
510.8089904117097
 31
0.0
  0
LINE
  5
453E
330
2
100
AcDbEntity
  8
0
100
AcDbLine
 10
116.0894391782676
 20
510.95898841171
 30
0.0
 11
117.3894191782674
 21
510.95898841171
 31
0.0
  0
ARC
  5
453F
330
2
100
AcDbEntity
  8
0
100
AcDbCircle
 10
116.3902201782675
 20
508.29058841171
 30
0.0
 40
1.0
100
AcDbArc
 50
270.4999999999915
 51
0.0
  0
ARC
  5
4540
330
2
100
AcDbEntity
  8
0
100
AcDbCircle
 10
116.3902201782675
 20
525.8123704117098
 30
0.0
 40
1.0
100
AcDbArc
 50
16.44459900000745
 51
89.49999999998238
  0
ARC
  5
4541
330
2
100
AcDbEntity
  8
0
100
AcDbCircle
 10
116.3902201782675
 20
520.5033684117098
 30
0.0
 40
1.0
100
AcDbArc
 50
36.17633799998822
 51
89.49999999998238
  0
ARC
  5
4542
330
2
100
AcDbEntity
  8
0
100
AcDbCircle
 10
116.3902201782675
 20
521.6840094117097
 30
0.0
 40
1.0
100
AcDbArc
 50
270.4999999999915
 51
0.0
  0
LINE
  5
4543
330
2
100
AcDbEntity
  8
0
100
AcDbLine
 10
116.0894391782676
 20
520.1588094117097
 30
0.0
 11
117.3894191782674
 21
520.1588094117097
 31
0.0
  0
ARC
  5
4544
330
2
100
AcDbEntity
  8
0
100
AcDbCircle
 10
116.3902201782675
 20
522.3173674117098
 30
0.0
 40
1.0
100
AcDbArc
 50
0.0
 51
89.49999999998238
  0
ARC
  5
4545
330
2
100
AcDbEntity
  8
0
100
AcDbCircle
 10
116.3902201782675
 20
526.3783684117099
 30
0.0
 40
1.0
100
AcDbArc
 50
270.4999999999915
 51
0.0
  0
ARC
  5
4546
330
2
100
AcDbEntity
  8
0
100
AcDbCircle
 10
116.3902201782675
 20
531.3269884117099
 30
0.0
 40
1.0
100
AcDbArc
 50
270.4999999999915
 51
0.0
  0
ARC
  5
4547
330
2
100
AcDbEntity
  8
0
100
AcDbCircle
 10
118.3902201782675
 20
536.8915904117098
 30
0.0
 40
1.0
100
AcDbArc
 50
91.00000000000177
 51
180.0
  0
LINE
  5
4548
330
2
100
AcDbEntity
  8
0
100
AcDbLine
 10
38.39012817826824
 20
524.04896941171
 30
0.0
 11
38.39012817826824
 21
493.4149416927541
 31
0.0
  0
LINE
  5
4549
330
2
100
AcDbEntity
  8
0
100
AcDbLine
 10
38.88982359177771
 20
524.5664191600613
 30
0.0
 11
38.39012817826824
 21
524.04896941171
 31
0.0
  0
LINE
  5
454A
330
2
100
AcDbEntity
  8
0
100
AcDbLine
 10
38.39012817826779
 20
455.6829971306663
 30
0.0
 11
38.39012817826779
 21
425.0489694117101
 31
0.0
  0
LINE
  5
454B
330
2
100
AcDbEntity
  8
0
100
AcDbLine
 10
38.89012817826778
 20
424.5489694117101
 30
0.0
 11
38.39012817826779
 21
425.0489694117101
 31
0.0
  0
LINE
  5
46EA
330
2
100
AcDbEntity
  8
0
100
AcDbLine
 10
38.88993859177708
 20
228.3805642071245
 30
0.0
 11
40.39024317826807
 21
228.432955997757
 31
0.0
  0
LINE
  5
46EB
330
2
100
AcDbEntity
  8
0
100
AcDbLine
 10
38.88993859177708
 20
131.9656647104221
 30
0.0
 11
40.39024317826807
 21
131.9132729197899
 31
0.0
  0
LINE
  5
46EC
330
2
100
AcDbEntity
  8
0
100
AcDbLine
 10
117.3902431782676
 20
244.3257354587732
 30
0.0
 11
117.3902431782676
 21
119.6402534587733
 31
0.0
  0
LINE
  5
46ED
330
2
100
AcDbEntity
  8
0
100
AcDbLine
 10
40.3902431782676
 20
232.3283334587732
 30
0.0
 11
40.3902431782676
 21
131.6375754587734
 31
0.0
  0
LINE
  5
46EE
330
2
100
AcDbEntity
  8
CENTER
100
AcDbLine
 10
108.0070641782672
 20
140.973013458773
 30
0.0
 11
131.5878211782669
 21
140.973013458773
 31
0.0
  0
LINE
  5
46EF
330
2
100
AcDbEntity
  8
0
100
AcDbLine
 10
127.3902431782676
 20
118.4830154587735
 30
0.0
 11
118.3727907718298
 21
118.6404057636169
 31
0.0
  0
LINE
  5
46F0
330
2
100
AcDbEntity
  8
0
100
AcDbLine
 10
116.3989631782674
 20
194.648320458773
 30
0.0
 11
46.20308717826765
 21
195.260916458773
 31
0.0
  0
LINE
  5
46F1
330
2
100
AcDbEntity
  8
0
100
AcDbLine
 10
116.3989631782674
 20
193.3243324587734
 30
0.0
 11
47.5115431782674
 21
193.9255284587735
 31
0.0
  0
LINE
  5
46F2
330
2
100
AcDbEntity
  8
0
100
AcDbLine
 10
116.3989631782674
 20
185.2473364587732
 30
0.0
 11
46.24770317826732
 21
185.859518458773
 31
0.0
  0
LINE
  5
46F3
330
2
100
AcDbEntity
  8
0
100
AcDbLine
 10
116.3989631782674
 20
188.2187244587731
 30
0.0
 11
46.24770317826732
 21
187.606528458773
 31
0.0
  0
LINE
  5
46F4
330
2
100
AcDbEntity
  8
0
100
AcDbLine
 10
116.3989631782674
 20
189.0331324587733
 30
0.0
 11
47.05060517826723
 21
188.4279224587731
 31
0.0
  0
LINE
  5
46F5
330
2
100
AcDbEntity
  8
0
100
AcDbLine
 10
116.3989631782674
 20
184.1615204587734
 30
0.0
 11
47.32816317826745
 21
184.7643344587732
 31
0.0
  0
LINE
  5
46F6
330
2
100
AcDbEntity
  8
0
100
AcDbLine
 10
116.3989631782674
 20
179.8045264587731
 30
0.0
 11
47.32816317826745
 21
179.201726458773
 31
0.0
  0
LINE
  5
46F7
330
2
100
AcDbEntity
  8
0
100
AcDbLine
 10
116.3989631782674
 20
174.932912458773
 30
0.0
 11
47.05060517826723
 21
175.5381224587732
 31
0.0
  0
LINE
  5
46F8
330
2
100
AcDbEntity
  8
0
100
AcDbLine
 10
116.3989631782674
 20
175.7473364587731
 30
0.0
 11
46.24770317826732
 21
176.359518458773
 31
0.0
  0
LINE
  5
46F9
330
2
100
AcDbEntity
  8
0
100
AcDbLine
 10
116.3989631782674
 20
178.7187244587731
 30
0.0
 11
46.24770317826732
 21
178.106528458773
 31
0.0
  0
LINE
  5
46FA
330
2
100
AcDbEntity
  8
0
100
AcDbLine
 10
116.3989631782674
 20
126.2047564587733
 30
0.0
 11
45.5736231782671
 21
126.8228134587735
 31
0.0
  0
LINE
  5
46FB
330
2
100
AcDbEntity
  8
0
100
AcDbLine
 10
116.692245178267
 20
127.8150354587733
 30
0.0
 11
45.5736231782671
 21
127.1943954587732
 31
0.0
  0
LINE
  5
46FC
330
2
100
AcDbEntity
  8
0
100
AcDbLine
 10
116.3989631782674
 20
129.7196144587733
 30
0.0
 11
45.69752517826737
 21
129.1026134587733
 31
0.0
  0
LINE
  5
46FD
330
2
100
AcDbEntity
  8
0
100
AcDbLine
 10
116.3989631782674
 20
127.8616924587732
 30
0.0
 11
45.69752517826737
 21
128.4786934587733
 31
0.0
  0
LINE
  5
46FE
330
2
100
AcDbEntity
  8
0
100
AcDbLine
 10
116.3989631782674
 20
131.1533754587731
 30
0.0
 11
45.79666117826718
 21
131.7694954587733
 31
0.0
  0
LINE
  5
46FF
330
2
100
AcDbEntity
  8
0
100
AcDbLine
 10
116.3989631782674
 20
133.2144944587735
 30
0.0
 11
45.79666117826718
 21
132.5983524587732
 31
0.0
  0
LINE
  5
4700
330
2
100
AcDbEntity
  8
0
100
AcDbLine
 10
116.3989631782674
 20
135.8478944587732
 30
0.0
 11
45.93543917826764
 21
136.4628124587734
 31
0.0
  0
LINE
  5
4701
330
2
100
AcDbEntity
  8
0
100
AcDbLine
 10
116.3989631782674
 20
135.028513458773
 30
0.0
 11
47.59084317826728
 21
134.4280344587733
 31
0.0
  0
LINE
  5
4702
330
2
100
AcDbEntity
  8
0
100
AcDbLine
 10
112.4514646724392
 20
139.9787734892657
 30
0.0
 11
47.73956317826741
 21
139.4140534587732
 31
0.0
  0
LINE
  5
4703
330
2
100
AcDbEntity
  8
0
100
AcDbLine
 10
112.9001715282693
 20
138.1603945490947
 30
0.0
 11
45.93543917826764
 21
137.5760134587731
 31
0.0
  0
LINE
  5
4704
330
2
100
AcDbEntity
  8
0
100
AcDbLine
 10
116.3989631782674
 20
149.2411134587733
 30
0.0
 11
46.11384517826763
 21
149.854513458773
 31
0.0
  0
LINE
  5
4705
330
2
100
AcDbEntity
  8
0
100
AcDbLine
 10
116.3989631782674
 20
151.943094458773
 30
0.0
 11
46.11384517826763
 21
151.3296954587731
 31
0.0
  0
LINE
  5
4706
330
2
100
AcDbEntity
  8
0
100
AcDbLine
 10
116.3989631782674
 20
157.4590954587729
 30
0.0
 11
46.18324317826727
 21
158.0718934587731
 31
0.0
  0
LINE
  5
4707
330
2
100
AcDbEntity
  8
0
100
AcDbLine
 10
116.3989631782674
 20
160.301115458773
 30
0.0
 11
46.18324317826727
 21
159.6883144587732
 31
0.0
  0
LINE
  5
4708
330
2
100
AcDbEntity
  8
0
100
AcDbLine
 10
116.3989631782674
 20
153.6172944587734
 30
0.0
 11
47.76930117826714
 21
153.0185144587731
 31
0.0
  0
LINE
  5
4709
330
2
100
AcDbEntity
  8
0
100
AcDbLine
 10
116.3989631782674
 20
161.8235154587733
 30
0.0
 11
47.69000117826727
 21
161.223694458773
 31
0.0
  0
LINE
  5
470A
330
2
100
AcDbEntity
  8
0
100
AcDbLine
 10
116.3989631782674
 20
165.9189204587733
 30
0.0
 11
46.71854317826728
 21
166.5269224587732
 31
0.0
  0
LINE
  5
470B
330
2
100
AcDbEntity
  8
0
100
AcDbLine
 10
116.3989631782674
 20
170.6417144587731
 30
0.0
 11
47.5115431782674
 21
170.0405184587735
 31
0.0
  0
LINE
  5
470C
330
2
100
AcDbEntity
  8
0
100
AcDbLine
 10
116.3989631782674
 20
166.4371244587733
 30
0.0
 11
46.20308717826765
 21
167.049734458773
 31
0.0
  0
LINE
  5
470D
330
2
100
AcDbEntity
  8
0
100
AcDbLine
 10
116.3989631782674
 20
169.3175264587735
 30
0.0
 11
46.20308717826765
 21
168.7051304587731
 31
0.0
  0
LINE
  5
470E
330
2
100
AcDbEntity
  8
0
100
AcDbLine
 10
98.24406417826731
 20
131.3117924587732
 30
0.0
 11
47.43224317826753
 21
130.8683764587731
 31
0.0
  0
LINE
  5
470F
330
2
100
AcDbEntity
  8
0
100
AcDbLine
 10
116.3989631782674
 20
197.5289204587734
 30
0.0
 11
46.20308717826765
 21
196.9163124587731
 31
0.0
  0
LINE
  5
4710
330
2
100
AcDbEntity
  8
0
100
AcDbLine
 10
116.3989631782674
 20
198.0471094587733
 30
0.0
 11
46.71854317826728
 21
197.4391384587734
 31
0.0
  0
ARC
  5
4711
330
2
100
AcDbEntity
  8
0
100
AcDbCircle
 10
47.61024517826763
 20
132.208112458773
 30
0.0
 40
2.22
100
AcDbArc
 50
90.49999999999155
 51
180.0
  0
LINE
  5
4712
330
2
100
AcDbEntity
  8
0
100
AcDbLine
 10
45.55254317826757
 20
129.6098954587733
 30
0.0
 11
42.3727651782674
 21
129.6376554587732
 31
0.0
  0
ARC
  5
4713
330
2
100
AcDbEntity
  8
0
100
AcDbCircle
 10
42.39024317826761
 20
131.6375754587734
 30
0.0
 40
2.0
100
AcDbArc
 50
180.0
 51
269.5000000000084
  0
ARC
  5
4714
330
2
100
AcDbEntity
  8
0
100
AcDbCircle
 10
47.45022517826737
 20
128.8084544587732
 30
0.0
 40
2.06
100
AcDbArc
 50
90.49999999999155
 51
180.0
  0
LINE
  5
4715
330
2
100
AcDbEntity
  8
0
100
AcDbLine
 10
45.3902431782676
 20
127.0275744587734
 30
0.0
 11
45.3902431782676
 21
127.0078334587734
 31
0.0
  0
LINE
  5
4716
330
2
100
AcDbEntity
  8
0
100
AcDbLine
 10
45.3902431782676
 20
128.8084544587732
 30
0.0
 11
45.3902431782676
 21
128.7886944587735
 31
0.0
  0
LINE
  5
4717
330
2
100
AcDbEntity
  8
0
100
AcDbLine
 10
45.3902431782676
 20
128.7926354587735
 30
0.0
 11
45.3902431782676
 21
128.7886944587735
 31
0.0
  0
ARC
  5
4718
330
2
100
AcDbEntity
  8
0
100
AcDbCircle
 10
47.20522317826726
 20
127.0275744587734
 30
0.0
 40
1.814999999999999
100
AcDbArc
 50
127.1051030000105
 51
180.0
  0
ARC
  5
4719
330
2
100
AcDbEntity
  8
0
100
AcDbCircle
 10
45.57522517826737
 20
127.0078334587734
 30
0.0
 40
0.185
100
AcDbArc
 50
180.0
 51
269.5000000000084
  0
ARC
  5
471A
330
2
100
AcDbEntity
  8
0
100
AcDbCircle
 10
45.57522517826737
 20
127.0093934587731
 30
0.0
 40
0.185
100
AcDbArc
 50
90.49999999999155
 51
180.0
  0
ARC
  5
471B
330
2
100
AcDbEntity
  8
0
100
AcDbCircle
 10
45.70022517826737
 20
128.7886944587735
 30
0.0
 40
0.31
100
AcDbArc
 50
180.0
 51
269.5000000000084
  0
ARC
  5
471C
330
2
100
AcDbEntity
  8
0
100
AcDbCircle
 10
45.70022517826737
 20
128.7926354587735
 30
0.0
 40
0.31
100
AcDbArc
 50
90.49999999999155
 51
180.0
  0
LINE
  5
471D
330
2
100
AcDbEntity
  8
0
100
AcDbLine
 10
45.3902431782676
 20
132.208112458773
 30
0.0
 11
45.3902431782676
 21
132.179476458773
 31
0.0
  0
LINE
  5
471E
330
2
100
AcDbEntity
  8
0
100
AcDbLine
 10
45.3902431782676
 20
132.1883754587734
 30
0.0
 11
45.3902431782676
 21
132.179476458773
 31
0.0
  0
ARC
  5
471F
330
2
100
AcDbEntity
  8
0
100
AcDbCircle
 10
45.80022317826752
 20
132.179476458773
 30
0.0
 40
0.41
100
AcDbArc
 50
180.0
 51
269.5000000000084
  0
ARC
  5
4720
330
2
100
AcDbEntity
  8
0
100
AcDbCircle
 10
45.80022317826752
 20
132.1883754587734
 30
0.0
 40
0.41
100
AcDbArc
 50
90.49999999999155
 51
180.0
  0
ARC
  5
4721
330
2
100
AcDbEntity
  8
0
100
AcDbCircle
 10
47.76024517826726
 20
137.0441154587734
 30
0.0
 40
2.37
100
AcDbArc
 50
90.49999999999155
 51
180.0
  0
LINE
  5
4722
330
2
100
AcDbEntity
  8
0
100
AcDbLine
 10
45.3902431782676
 20
137.0441154587734
 30
0.0
 11
45.3902431782676
 21
137.0128154587733
 31
0.0
  0
LINE
  5
4723
330
2
100
AcDbEntity
  8
0
100
AcDbLine
 10
45.3902431782676
 20
137.0260144587733
 30
0.0
 11
45.3902431782676
 21
137.0128154587733
 31
0.0
  0
ARC
  5
4724
330
2
100
AcDbEntity
  8
0
100
AcDbCircle
 10
45.94022317826738
 20
137.0260144587733
 30
0.0
 40
0.55
100
AcDbArc
 50
90.49999999999155
 51
180.0
  0
ARC
  5
4725
330
2
100
AcDbEntity
  8
0
100
AcDbCircle
 10
45.94022317826738
 20
137.0128154587733
 30
0.0
 40
0.55
100
AcDbArc
 50
180.0
 51
269.5000000000084
  0
ARC
  5
4726
330
2
100
AcDbEntity
  8
0
100
AcDbCircle
 10
47.79022117826753
 20
150.6184944587731
 30
0.0
 40
2.399999999999999
100
AcDbArc
 50
90.49999999999155
 51
180.0
  0
ARC
  5
4727
330
2
100
AcDbEntity
  8
0
100
AcDbCircle
 10
46.12024717826762
 20
150.5998934587733
 30
0.0
 40
0.73
100
AcDbArc
 50
90.49999999999155
 51
180.0
  0
LINE
  5
4728
330
2
100
AcDbEntity
  8
0
100
AcDbLine
 10
45.3902431782676
 20
150.6184944587731
 30
0.0
 11
45.3902431782676
 21
150.5998934587733
 31
0.0
  0
LINE
  5
4729
330
2
100
AcDbEntity
  8
0
100
AcDbLine
 10
45.3902431782676
 20
150.5998934587733
 30
0.0
 11
45.3902431782676
 21
150.5845144587734
 31
0.0
  0
ARC
  5
472A
330
2
100
AcDbEntity
  8
0
100
AcDbCircle
 10
46.12024717826762
 20
150.5845144587734
 30
0.0
 40
0.73
100
AcDbArc
 50
180.0
 51
269.5000000000084
  0
ARC
  5
472B
330
2
100
AcDbEntity
  8
0
100
AcDbCircle
 10
47.34522117826736
 20
177.2467244587733
 30
0.0
 40
1.955
100
AcDbArc
 50
90.49999999999155
 51
180.0
  0
ARC
  5
472C
330
2
100
AcDbEntity
  8
0
100
AcDbCircle
 10
46.25524117826762
 20
177.241522458773
 30
0.0
 40
0.865
100
AcDbArc
 50
90.49999999999155
 51
180.0
  0
ARC
  5
472D
330
2
100
AcDbEntity
  8
0
100
AcDbCircle
 10
46.73023917826731
 20
167.8669344587734
 30
0.0
 40
1.34
100
AcDbArc
 50
180.0
 51
269.5000000000084
  0
ARC
  5
472E
330
2
100
AcDbEntity
  8
0
100
AcDbCircle
 10
47.71024317826731
 20
158.9038944587733
 30
0.0
 40
2.319999999999999
100
AcDbArc
 50
90.49999999999155
 51
180.0
  0
LINE
  5
472F
330
2
100
AcDbEntity
  8
0
100
AcDbLine
 10
45.3902431782676
 20
158.9038944587733
 30
0.0
 11
45.3902431782676
 21
158.8882944587731
 31
0.0
  0
LINE
  5
4730
330
2
100
AcDbEntity
  8
0
100
AcDbLine
 10
45.3902431782676
 20
158.8882944587731
 30
0.0
 11
45.3902431782676
 21
158.8719144587731
 31
0.0
  0
ARC
  5
4731
330
2
100
AcDbEntity
  8
0
100
AcDbCircle
 10
46.19022317826739
 20
158.8719144587731
 30
0.0
 40
0.8
100
AcDbArc
 50
180.0
 51
269.5000000000084
  0
ARC
  5
4732
330
2
100
AcDbEntity
  8
0
100
AcDbCircle
 10
46.19022317826739
 20
158.8882944587731
 30
0.0
 40
0.8
100
AcDbArc
 50
90.49999999999155
 51
180.0
  0
ARC
  5
4733
330
2
100
AcDbEntity
  8
0
100
AcDbCircle
 10
47.53024317826748
 20
167.9007164587734
 30
0.0
 40
2.14
100
AcDbArc
 50
90.49999999999155
 51
180.0
  0
LINE
  5
4734
330
2
100
AcDbEntity
  8
0
100
AcDbLine
 10
45.3902431782676
 20
167.9007164587734
 30
0.0
 11
45.3902431782676
 21
167.8669344587734
 31
0.0
  0
LINE
  5
4735
330
2
100
AcDbEntity
  8
0
100
AcDbLine
 10
45.3902431782676
 20
167.8851224587734
 30
0.0
 11
45.3902431782676
 21
167.8697264587731
 31
0.0
  0
ARC
  5
4736
330
2
100
AcDbEntity
  8
0
100
AcDbCircle
 10
46.21024317826732
 20
167.8851224587734
 30
0.0
 40
0.8199999999999999
100
AcDbArc
 50
90.49999999999155
 51
180.0
  0
ARC
  5
4737
330
2
100
AcDbEntity
  8
0
100
AcDbCircle
 10
47.06522317826738
 20
177.2131244587731
 30
0.0
 40
1.675
100
AcDbArc
 50
180.0
 51
269.5000000000084
  0
LINE
  5
4738
330
2
100
AcDbEntity
  8
0
100
AcDbLine
 10
45.3902431782676
 20
177.2467244587733
 30
0.0
 11
45.3902431782676
 21
177.2131244587731
 31
0.0
  0
LINE
  5
4739
330
2
100
AcDbEntity
  8
0
100
AcDbLine
 10
45.3902431782676
 20
177.241522458773
 30
0.0
 11
45.3902431782676
 21
177.224524458773
 31
0.0
  0
ARC
  5
473A
330
2
100
AcDbEntity
  8
0
100
AcDbCircle
 10
46.25524117826762
 20
177.224524458773
 30
0.0
 40
0.865
100
AcDbArc
 50
180.0
 51
269.5000000000084
  0
ARC
  5
473B
330
2
100
AcDbEntity
  8
0
100
AcDbCircle
 10
46.21024317826732
 20
167.8697264587731
 30
0.0
 40
0.8199999999999999
100
AcDbArc
 50
180.0
 51
269.5000000000084
  0
ARC
  5
473C
330
2
100
AcDbEntity
  8
0
100
AcDbCircle
 10
47.06522317826738
 20
186.7529204587731
 30
0.0
 40
1.675
100
AcDbArc
 50
90.49999999999155
 51
180.0
  0
ARC
  5
473D
330
2
100
AcDbEntity
  8
0
100
AcDbCircle
 10
47.34522117826736
 20
186.719320458773
 30
0.0
 40
1.955
100
AcDbArc
 50
180.0
 51
269.5000000000084
  0
LINE
  5
473E
330
2
100
AcDbEntity
  8
0
100
AcDbLine
 10
45.3902431782676
 20
186.724524458773
 30
0.0
 11
45.3902431782676
 21
186.741522458773
 31
0.0
  0
LINE
  5
473F
330
2
100
AcDbEntity
  8
0
100
AcDbLine
 10
45.3902431782676
 20
186.719320458773
 30
0.0
 11
45.3902431782676
 21
186.7529204587731
 31
0.0
  0
ARC
  5
4740
330
2
100
AcDbEntity
  8
0
100
AcDbCircle
 10
46.25524117826762
 20
186.724524458773
 30
0.0
 40
0.865
100
AcDbArc
 50
180.0
 51
269.5000000000084
  0
ARC
  5
4741
330
2
100
AcDbEntity
  8
0
100
AcDbCircle
 10
46.25524117826762
 20
186.741522458773
 30
0.0
 40
0.865
100
AcDbArc
 50
90.49999999999155
 51
180.0
  0
ARC
  5
4742
330
2
100
AcDbEntity
  8
0
100
AcDbCircle
 10
47.53024317826748
 20
196.0653284587734
 30
0.0
 40
2.14
100
AcDbArc
 50
180.0
 51
269.5000000000084
  0
LINE
  5
4743
330
2
100
AcDbEntity
  8
0
100
AcDbLine
 10
45.3902431782676
 20
196.0809384587733
 30
0.0
 11
45.3902431782676
 21
196.0963344587735
 31
0.0
  0
LINE
  5
4744
330
2
100
AcDbEntity
  8
0
100
AcDbLine
 10
45.3902431782676
 20
196.0653284587734
 30
0.0
 11
45.3902431782676
 21
196.0991124587731
 31
0.0
  0
ARC
  5
4745
330
2
100
AcDbEntity
  8
0
100
AcDbCircle
 10
46.21024317826732
 20
196.0809384587733
 30
0.0
 40
0.8199999999999999
100
AcDbArc
 50
180.0
 51
269.5000000000084
  0
ARC
  5
4746
330
2
100
AcDbEntity
  8
0
100
AcDbCircle
 10
46.73023917826731
 20
196.0991124587731
 30
0.0
 40
1.34
100
AcDbArc
 50
90.49999999999155
 51
180.0
  0
ARC
  5
4747
330
2
100
AcDbEntity
  8
0
100
AcDbCircle
 10
46.21024317826732
 20
196.0963344587735
 30
0.0
 40
0.8199999999999999
100
AcDbArc
 50
90.49999999999155
 51
180.0
  0
ARC
  5
4748
330
2
100
AcDbEntity
  8
0
100
AcDbCircle
 10
116.3902431782676
 20
134.2144754587735
 30
0.0
 40
1.0
100
AcDbArc
 50
270.4999999999915
 51
0.0
  0
ARC
  5
4749
330
2
100
AcDbEntity
  8
0
100
AcDbCircle
 10
118.3902431782676
 20
119.6402534587733
 30
0.0
 40
1.0
100
AcDbArc
 50
180.0
 51
268.9999999999982
  0
ARC
  5
474A
330
2
100
AcDbEntity
  8
0
100
AcDbCircle
 10
116.3902431782676
 20
130.1533944587732
 30
0.0
 40
1.0
100
AcDbArc
 50
0.0
 51
89.50000000000846
  0
ARC
  5
474B
330
2
100
AcDbEntity
  8
0
100
AcDbCircle
 10
116.3902431782676
 20
130.7195764587732
 30
0.0
 40
1.0
100
AcDbArc
 50
270.4999999999915
 51
343.5553890000034
  0
ARC
  5
474C
330
2
100
AcDbEntity
  8
0
100
AcDbCircle
 10
116.3902431782676
 20
126.8617344587733
 30
0.0
 40
1.0
100
AcDbArc
 50
0.0
 51
89.50000000000846
  0
ARC
  5
474D
330
2
100
AcDbEntity
  8
0
100
AcDbCircle
 10
116.3902431782676
 20
125.2047754587729
 30
0.0
 40
1.0
100
AcDbArc
 50
0.0
 51
89.50000000000846
  0
LINE
  5
474E
330
2
100
AcDbEntity
  8
0
100
AcDbLine
 10
116.0894621782676
 20
136.2230134587731
 30
0.0
 11
114.478645178267
 21
136.2230134587731
 31
0.0
  0
LINE
  5
474F
330
2
100
AcDbEntity
  8
0
100
AcDbLine
 10
116.0894621782676
 20
145.7230134587731
 30
0.0
 11
114.478645178267
 21
145.7230134587731
 31
0.0
  0
ARC
  5
4750
330
2
100
AcDbEntity
  8
0
100
AcDbCircle
 10
120.3894421782674
 20
140.973013458773
 30
0.0
 40
8.0
100
AcDbArc
 50
147.6076050000065
 51
212.392394999993
  0
ARC
  5
4751
330
2
100
AcDbEntity
  8
0
100
AcDbCircle
 10
114.478645178267
 20
137.2230134587731
 30
0.0
 40
1.0
100
AcDbArc
 50
212.392394999993
 51
270.0
  0
ARC
  5
4752
330
2
100
AcDbEntity
  8
0
100
AcDbCircle
 10
114.478645178267
 20
144.723013458773
 30
0.0
 40
1.0
100
AcDbArc
 50
90.0
 51
147.6076050000065
  0
LINE
  5
4753
330
2
100
AcDbEntity
  8
0
100
AcDbLine
 10
116.0894621782676
 20
145.7230134587731
 30
0.0
 11
116.0894621782676
 21
136.2230134587731
 31
0.0
  0
LINE
  5
4754
330
2
100
AcDbEntity
  8
0
100
AcDbLine
 10
116.0894621782676
 20
136.373014458773
 30
0.0
 11
117.3894421782674
 21
136.373014458773
 31
0.0
  0
ARC
  5
4755
330
2
100
AcDbEntity
  8
0
100
AcDbCircle
 10
116.3902431782676
 20
136.0284754587733
 30
0.0
 40
1.0
100
AcDbArc
 50
270.4999999999915
 51
323.8237000000101
  0
ARC
  5
4756
330
2
100
AcDbEntity
  8
0
100
AcDbCircle
 10
116.3902431782676
 20
134.8479134587733
 30
0.0
 40
1.0
100
AcDbArc
 50
0.0
 51
89.50000000000846
  0
LINE
  5
4757
330
2
100
AcDbEntity
  8
0
100
AcDbLine
 10
116.0894621782676
 20
145.5729964587731
 30
0.0
 11
117.3894421782674
 21
145.5729964587731
 31
0.0
  0
ARC
  5
4758
330
2
100
AcDbEntity
  8
0
100
AcDbCircle
 10
116.3902431782676
 20
148.241194458773
 30
0.0
 40
1.0
100
AcDbArc
 50
0.0
 51
89.50000000000846
  0
ARC
  5
4759
330
2
100
AcDbEntity
  8
0
100
AcDbCircle
 10
116.3902431782676
 20
152.943094458773
 30
0.0
 40
1.0
100
AcDbArc
 50
270.4999999999915
 51
0.0
  0
ARC
  5
475A
330
2
100
AcDbEntity
  8
0
100
AcDbCircle
 10
116.3902431782676
 20
154.6172944587734
 30
0.0
 40
1.0
100
AcDbArc
 50
270.4999999999915
 51
0.0
  0
ARC
  5
475B
330
2
100
AcDbEntity
  8
0
100
AcDbCircle
 10
116.3902431782676
 20
165.4371244587733
 30
0.0
 40
1.0
100
AcDbArc
 50
0.0
 51
89.50000000000846
  0
ARC
  5
475C
330
2
100
AcDbEntity
  8
0
100
AcDbCircle
 10
116.3902431782676
 20
164.9189204587733
 30
0.0
 40
1.0
100
AcDbArc
 50
0.0
 51
89.50000000000846
  0
ARC
  5
475D
330
2
100
AcDbEntity
  8
0
100
AcDbCircle
 10
116.3902431782676
 20
161.301115458773
 30
0.0
 40
1.0
100
AcDbArc
 50
270.4999999999915
 51
0.0
  0
ARC
  5
475E
330
2
100
AcDbEntity
  8
0
100
AcDbCircle
 10
116.3902431782676
 20
162.8233244587732
 30
0.0
 40
1.0
100
AcDbArc
 50
270.4999999999915
 51
0.0
  0
ARC
  5
475F
330
2
100
AcDbEntity
  8
0
100
AcDbCircle
 10
116.3902431782676
 20
156.4590954587729
 30
0.0
 40
1.0
100
AcDbArc
 50
0.0
 51
89.50000000000846
  0
ARC
  5
4760
330
2
100
AcDbEntity
  8
0
100
AcDbCircle
 10
116.3902431782676
 20
171.6417144587731
 30
0.0
 40
1.0
100
AcDbArc
 50
270.4999999999915
 51
0.0
  0
ARC
  5
4761
330
2
100
AcDbEntity
  8
0
100
AcDbCircle
 10
116.3902431782676
 20
170.3175264587735
 30
0.0
 40
1.0
100
AcDbArc
 50
270.4999999999915
 51
0.0
  0
ARC
  5
4762
330
2
100
AcDbEntity
  8
0
100
AcDbCircle
 10
116.3902431782676
 20
173.9331264587731
 30
0.0
 40
1.0
100
AcDbArc
 50
0.0
 51
89.50000000000846
  0
ARC
  5
4763
330
2
100
AcDbEntity
  8
0
100
AcDbCircle
 10
116.3902431782676
 20
174.7475184587734
 30
0.0
 40
1.0
100
AcDbArc
 50
0.0
 51
89.50000000000846
  0
ARC
  5
4764
330
2
100
AcDbEntity
  8
0
100
AcDbCircle
 10
116.3902431782676
 20
189.2185264587734
 30
0.0
 40
1.0
100
AcDbArc
 50
270.4999999999915
 51
0.0
  0
ARC
  5
4765
330
2
100
AcDbEntity
  8
0
100
AcDbCircle
 10
116.3902431782676
 20
184.2473364587732
 30
0.0
 40
1.0
100
AcDbArc
 50
0.0
 51
89.50000000000846
  0
ARC
  5
4766
330
2
100
AcDbEntity
  8
0
100
AcDbCircle
 10
116.3902431782676
 20
180.8043274587735
 30
0.0
 40
1.0
100
AcDbArc
 50
270.4999999999915
 51
0.0
  0
ARC
  5
4767
330
2
100
AcDbEntity
  8
0
100
AcDbCircle
 10
116.3902431782676
 20
179.7187244587731
 30
0.0
 40
1.0
100
AcDbArc
 50
270.4999999999915
 51
0.0
  0
ARC
  5
4768
330
2
100
AcDbEntity
  8
0
100
AcDbCircle
 10
116.3902431782676
 20
183.1617334587732
 30
0.0
 40
1.0
100
AcDbArc
 50
0.0
 51
89.50000000000846
  0
ARC
  5
4769
330
2
100
AcDbEntity
  8
0
100
AcDbCircle
 10
116.3902431782676
 20
190.0329184587731
 30
0.0
 40
1.0
100
AcDbArc
 50
270.4999999999915
 51
0.0
  0
ARC
  5
476A
330
2
100
AcDbEntity
  8
0
100
AcDbCircle
 10
116.3902431782676
 20
193.6485204587734
 30
0.0
 40
1.0
100
AcDbArc
 50
0.0
 51
89.50000000000846
  0
ARC
  5
476B
330
2
100
AcDbEntity
  8
0
100
AcDbCircle
 10
116.3902431782676
 20
192.3243324587734
 30
0.0
 40
1.0
100
AcDbArc
 50
0.0
 51
89.50000000000846
  0
ARC
  5
476C
330
2
100
AcDbEntity
  8
0
100
AcDbCircle
 10
116.3902431782676
 20
198.5289214587733
 30
0.0
 40
1.0
100
AcDbArc
 50
270.4999999999915
 51
0.0
  0
ARC
  5
476D
330
2
100
AcDbEntity
  8
0
100
AcDbCircle
 10
116.3902431782676
 20
199.0471094587733
 30
0.0
 40
1.0
100
AcDbArc
 50
270.4999999999915
 51
0.0
  0
LINE
  5
476E
330
2
100
AcDbEntity
  8
CENTER
100
AcDbLine
 10
107.3283611782676
 20
222.993154458773
 30
0.0
 11
131.5878211782669
 21
222.993154458773
 31
0.0
  0
LINE
  5
476F
330
2
100
AcDbEntity
  8
0
100
AcDbLine
 10
127.3902431782676
 20
245.4831524587735
 30
0.0
 11
118.3727641782675
 21
245.3255144587734
 31
0.0
  0
LINE
  5
4770
330
2
100
AcDbEntity
  8
0
100
AcDbLine
 10
116.3989631782674
 20
228.1181544587735
 30
0.0
 11
45.93543917826764
 21
227.5030954587733
 31
0.0
  0
LINE
  5
4771
330
2
100
AcDbEntity
  8
0
100
AcDbLine
 10
116.3989631782674
 20
228.9375134587731
 30
0.0
 11
47.59084317826728
 21
229.5379544587731
 31
0.0
  0
LINE
  5
4772
330
2
100
AcDbEntity
  8
0
100
AcDbLine
 10
116.3989631782674
 20
212.0229154587732
 30
0.0
 11
46.11384517826763
 21
212.6361354587734
 31
0.0
  0
LINE
  5
4773
330
2
100
AcDbEntity
  8
0
100
AcDbLine
 10
116.3989631782674
 20
214.7249124587734
 30
0.0
 11
46.11384517826763
 21
214.1115134587735
 31
0.0
  0
LINE
  5
4774
330
2
100
AcDbEntity
  8
0
100
AcDbLine
 10
116.3989631782674
 20
203.6649344587731
 30
0.0
 11
46.18324317826727
 21
204.2777144587735
 31
0.0
  0
LINE
  5
4775
330
2
100
AcDbEntity
  8
0
100
AcDbLine
 10
116.3989631782674
 20
206.5069144587733
 30
0.0
 11
46.18324317826727
 21
205.8941134587731
 31
0.0
  0
LINE
  5
4776
330
2
100
AcDbEntity
  8
0
100
AcDbLine
 10
116.3989631782674
 20
210.3487344587734
 30
0.0
 11
47.76930117826714
 21
210.9475344587731
 31
0.0
  0
LINE
  5
4777
330
2
100
AcDbEntity
  8
0
100
AcDbLine
 10
116.3989631782674
 20
202.1425344587733
 30
0.0
 11
47.69000117826727
 21
202.7423344587733
 31
0.0
  0
LINE
  5
4778
330
2
100
AcDbEntity
  8
0
100
AcDbLine
 10
112.451452286748
 20
223.9872955363558
 30
0.0
 11
47.73956317826741
 21
224.5519354587732
 31
0.0
  0
LINE
  5
4779
330
2
100
AcDbEntity
  8
0
100
AcDbLine
 10
112.9001498175862
 20
225.8057155578867
 30
0.0
 11
45.93543917826764
 21
226.3899324587733
 31
0.0
  0
LINE
  5
477A
330
2
100
AcDbEntity
  8
0
100
AcDbLine
 10
116.3989631782674
 20
236.1042954587734
 30
0.0
 11
45.69752517826737
 21
235.4872954587731
 31
0.0
  0
LINE
  5
477B
330
2
100
AcDbEntity
  8
0
100
AcDbLine
 10
116.3989631782674
 20
234.2463364587729
 30
0.0
 11
45.69752517826737
 21
234.863333458773
 31
0.0
  0
LINE
  5
477C
330
2
100
AcDbEntity
  8
0
100
AcDbLine
 10
116.3989631782674
 20
232.8127344587733
 30
0.0
 11
45.79666117826718
 21
232.1965164587732
 31
0.0
  0
LINE
  5
477D
330
2
100
AcDbEntity
  8
0
100
AcDbLine
 10
54.87277917826713
 20
237.2242944587733
 30
0.0
 11
116.3989631782674
 21
237.7613354587734
 31
0.0
  0
LINE
  5
477E
330
2
100
AcDbEntity
  8
0
100
AcDbLine
 10
116.3989631782674
 20
230.7515124587735
 30
0.0
 11
45.79666117826718
 21
231.3677354587735
 31
0.0
  0
LINE
  5
477F
330
2
100
AcDbEntity
  8
0
100
AcDbLine
 10
98.24406417826731
 20
232.6543564587733
 30
0.0
 11
47.43224317826753
 21
233.0977344587732
 31
0.0
  0
ARC
  5
4780
330
2
100
AcDbEntity
  8
0
100
AcDbCircle
 10
91.69595795747046
 20
305.433768926192
 30
0.0
 40
46.0
100
AcDbArc
 50
250.5608481874146
 51
270.0
  0
ARC
  5
4781
330
2
100
AcDbEntity
  8
0
100
AcDbCircle
 10
91.69595795747046
 20
305.433768926192
 30
0.0
 40
44.0
100
AcDbArc
 50
250.5608481874146
 51
270.0
  0
ARC
  5
4782
330
2
100
AcDbEntity
  8
0
100
AcDbCircle
 10
91.69595795747046
 20
305.433768926192
 30
0.0
 40
42.0
100
AcDbArc
 50
250.5608481874146
 51
270.0
  0
ARC
  5
4783
330
2
100
AcDbEntity
  8
0
100
AcDbCircle
 10
91.69595795747046
 20
305.433768926192
 30
0.0
 40
40.0
100
AcDbArc
 50
250.5608481874146
 51
270.0
  0
LINE
  5
4784
330
2
100
AcDbEntity
  8
0
100
AcDbLine
 10
51.39029317826725
 20
281.0695560778927
 30
0.0
 11
89.81091890880543
 21
281.0695560778927
 31
0.0
  0
LINE
  5
4785
330
2
100
AcDbEntity
  8
0
100
AcDbLine
 10
51.39027317826776
 20
275.0695560778927
 30
0.0
 11
89.81039550540755
 21
275.0695560778927
 31
0.0
  0
LINE
  5
4786
330
2
100
AcDbEntity
  8
0
100
AcDbLine
 10
42.39024317826715
 20
261.7285074280794
 30
0.0
 11
42.39024317826761
 21
236.4831524587735
 31
0.0
  0
LINE
  5
4787
330
2
100
AcDbEntity
  8
0
100
AcDbLine
 10
44.39024317826715
 20
260.8931803336413
 30
0.0
 11
44.39024317826761
 21
236.4831524587735
 31
0.0
  0
LINE
  5
4788
330
2
100
AcDbEntity
  8
0
100
AcDbLine
 10
40.3902431782676
 20
261.3073419231787
 30
0.0
 11
40.3902431782676
 21
236.4831524587735
 31
0.0
  0
LINE
  5
4789
330
2
100
AcDbEntity
  8
0
100
AcDbLine
 10
46.39024317826761
 20
261.3073405146834
 30
0.0
 11
46.39024317826761
 21
236.4831524587735
 31
0.0
  0
ARC
  5
478A
330
2
100
AcDbEntity
  8
0
100
AcDbCircle
 10
54.89024317826761
 20
235.2244134587731
 30
0.0
 40
2.0
100
AcDbArc
 50
90.50070200000861
 51
170.6273039999844
  0
LINE
  5
478B
330
2
100
AcDbEntity
  8
0
100
AcDbLine
 10
37.89024317826761
 20
235.4831524587735
 30
0.0
 11
37.89018217826742
 21
203.9831334587734
 31
0.0
  0
ARC
  5
478C
330
2
100
AcDbEntity
  8
0
100
AcDbCircle
 10
38.89026617826721
 20
203.9831334587734
 30
0.0
 40
1.0
100
AcDbArc
 50
180.0
 51
239.9984783206095
  0
ARC
  5
478D
330
2
100
AcDbEntity
  8
0
100
AcDbCircle
 10
47.71024317826731
 20
205.0621144587731
 30
0.0
 40
2.319999999999999
100
AcDbArc
 50
180.0
 51
269.5000000000084
  0
LINE
  5
478E
330
2
100
AcDbEntity
  8
0
100
AcDbLine
 10
45.3902431782676
 20
205.0777154587732
 30
0.0
 11
45.3902431782676
 21
205.0941334587733
 31
0.0
  0
LINE
  5
478F
330
2
100
AcDbEntity
  8
0
100
AcDbLine
 10
45.3902431782676
 20
205.0621144587731
 30
0.0
 11
45.3902431782676
 21
205.0777154587732
 31
0.0
  0
ARC
  5
4790
330
2
100
AcDbEntity
  8
0
100
AcDbCircle
 10
46.19022317826739
 20
205.0777154587732
 30
0.0
 40
0.8
100
AcDbArc
 50
180.0
 51
269.5000000000084
  0
ARC
  5
4791
330
2
100
AcDbEntity
  8
0
100
AcDbCircle
 10
46.19022317826739
 20
205.0941334587733
 30
0.0
 40
0.8
100
AcDbArc
 50
90.49999999999155
 51
180.0
  0
ARC
  5
4792
330
2
100
AcDbEntity
  8
0
100
AcDbCircle
 10
47.79022117826753
 20
213.3475154587732
 30
0.0
 40
2.399999999999999
100
AcDbArc
 50
180.0
 51
269.5000000000084
  0
ARC
  5
4793
330
2
100
AcDbEntity
  8
0
100
AcDbCircle
 10
46.12024717826762
 20
213.3661134587733
 30
0.0
 40
0.73
100
AcDbArc
 50
180.0
 51
269.5000000000084
  0
LINE
  5
4794
330
2
100
AcDbEntity
  8
0
100
AcDbLine
 10
45.3902431782676
 20
213.3661134587733
 30
0.0
 11
45.3902431782676
 21
213.381513458773
 31
0.0
  0
LINE
  5
4795
330
2
100
AcDbEntity
  8
0
100
AcDbLine
 10
45.3902431782676
 20
213.3475154587732
 30
0.0
 11
45.3902431782676
 21
213.3661134587733
 31
0.0
  0
ARC
  5
4796
330
2
100
AcDbEntity
  8
0
100
AcDbCircle
 10
46.12024717826762
 20
213.381513458773
 30
0.0
 40
0.73
100
AcDbArc
 50
90.49999999999155
 51
180.0
  0
LINE
  5
4797
330
2
100
AcDbEntity
  8
0
100
AcDbLine
 10
45.55254317826757
 20
234.3561344587734
 30
0.0
 11
42.3727651782674
 21
234.3283334587732
 31
0.0
  0
LINE
  5
4798
330
2
100
AcDbEntity
  8
0
100
AcDbLine
 10
47.8902431782676
 20
236.4830764587732
 30
0.0
 11
38.89024317826761
 21
236.4831524587735
 31
0.0
  0
ARC
  5
4799
330
2
100
AcDbEntity
  8
0
100
AcDbCircle
 10
38.89026617826721
 20
235.4831524587735
 30
0.0
 40
1.0
100
AcDbArc
 50
90.0
 51
180.0
  0
ARC
  5
479A
330
2
100
AcDbEntity
  8
0
100
AcDbCircle
 10
42.39024317826761
 20
232.3283334587732
 30
0.0
 40
2.0
100
AcDbArc
 50
90.49999999999155
 51
180.0
  0
LINE
  5
479B
330
2
100
AcDbEntity
  8
0
100
AcDbLine
 10
48.89026517826732
 20
232.2234934587732
 30
0.0
 11
48.89026517826732
 21
232.2063164587735
 31
0.0
  0
ARC
  5
479C
330
2
100
AcDbEntity
  8
0
100
AcDbCircle
 10
45.80022317826752
 20
231.7865124587734
 30
0.0
 40
0.41
100
AcDbArc
 50
90.49999999999155
 51
180.0
  0
ARC
  5
479D
330
2
100
AcDbEntity
  8
0
100
AcDbCircle
 10
47.61024517826763
 20
231.7579324587732
 30
0.0
 40
2.22
100
AcDbArc
 50
180.0
 51
269.5000000000084
  0
LINE
  5
479E
330
2
100
AcDbEntity
  8
0
100
AcDbLine
 10
45.3902431782676
 20
231.7579324587732
 30
0.0
 11
45.3902431782676
 21
231.7865124587734
 31
0.0
  0
LINE
  5
479F
330
2
100
AcDbEntity
  8
0
100
AcDbLine
 10
45.3902431782676
 20
231.7776934587732
 30
0.0
 11
45.3902431782676
 21
231.7865124587734
 31
0.0
  0
ARC
  5
47A0
330
2
100
AcDbEntity
  8
0
100
AcDbCircle
 10
45.80022317826752
 20
231.7776934587732
 30
0.0
 40
0.41
100
AcDbArc
 50
180.0
 51
269.5000000000084
  0
ARC
  5
47A1
330
2
100
AcDbEntity
  8
0
100
AcDbCircle
 10
47.76024517826726
 20
226.9219344587732
 30
0.0
 40
2.37
100
AcDbArc
 50
180.0
 51
269.5000000000084
  0
LINE
  5
47A2
330
2
100
AcDbEntity
  8
0
100
AcDbLine
 10
45.3902431782676
 20
226.9399354587731
 30
0.0
 11
45.3902431782676
 21
226.953115458773
 31
0.0
  0
LINE
  5
47A3
330
2
100
AcDbEntity
  8
0
100
AcDbLine
 10
45.3902431782676
 20
226.9219344587732
 30
0.0
 11
45.3902431782676
 21
226.953115458773
 31
0.0
  0
ARC
  5
47A4
330
2
100
AcDbEntity
  8
0
100
AcDbCircle
 10
45.94022317826738
 20
226.9399354587731
 30
0.0
 40
0.55
100
AcDbArc
 50
180.0
 51
269.5000000000084
  0
ARC
  5
47A5
330
2
100
AcDbEntity
  8
0
100
AcDbCircle
 10
45.94022317826738
 20
226.953115458773
 30
0.0
 40
0.55
100
AcDbArc
 50
90.49999999999155
 51
180.0
  0
ARC
  5
47A6
330
2
100
AcDbEntity
  8
0
100
AcDbCircle
 10
47.8902431782676
 20
235.4831524587735
 30
0.0
 40
1.0
100
AcDbArc
 50
0.0
 51
90.0
  0
ARC
  5
47A7
330
2
100
AcDbEntity
  8
0
100
AcDbCircle
 10
47.45022517826737
 20
235.1575144587732
 30
0.0
 40
2.06
100
AcDbArc
 50
180.0
 51
269.5000000000084
  0
ARC
  5
47A8
330
2
100
AcDbEntity
  8
0
100
AcDbCircle
 10
45.70022517826737
 20
235.1733344587733
 30
0.0
 40
0.31
100
AcDbArc
 50
180.0
 51
269.5000000000084
  0
ARC
  5
47A9
330
2
100
AcDbEntity
  8
0
100
AcDbCircle
 10
45.70022517826737
 20
235.1773354587731
 30
0.0
 40
0.31
100
AcDbArc
 50
90.49999999999155
 51
180.0
  0
ARC
  5
47AA
330
2
100
AcDbEntity
  8
0
100
AcDbCircle
 10
47.89026517826733
 20
235.4831524587735
 30
0.0
 40
1.0
100
AcDbArc
 50
0.0
 51
1.824028999993621
  0
ARC
  5
47AB
330
2
100
AcDbEntity
  8
0
100
AcDbCircle
 10
51.82264997166157
 20
228.3072680119608
 30
0.0
 40
40.0
100
AcDbArc
 50
70.56084818741466
 51
90.0
  0
ARC
  5
47AC
330
2
100
AcDbEntity
  8
0
100
AcDbCircle
 10
51.82264997166157
 20
228.3072680119608
 30
0.0
 40
42.0
100
AcDbArc
 50
70.56084818741466
 51
90.0
  0
ARC
  5
47AD
330
2
100
AcDbEntity
  8
0
100
AcDbCircle
 10
51.82264997166157
 20
228.3072680119608
 30
0.0
 40
46.0
100
AcDbArc
 50
70.56084818741466
 51
90.0
  0
ARC
  5
47AE
330
2
100
AcDbEntity
  8
0
100
AcDbCircle
 10
51.82264997166157
 20
228.3072680119608
 30
0.0
 40
44.0
100
AcDbArc
 50
70.56084818741466
 51
90.0
  0
ARC
  5
47AF
330
2
100
AcDbEntity
  8
0
100
AcDbCircle
 10
51.39029439145224
 20
263.307326800375
 30
0.0
 40
9.000051213203853
100
AcDbArc
 50
90.00024308268166
 51
177.3436678381762
  0
ARC
  5
47B0
330
2
100
AcDbEntity
  8
0
100
AcDbCircle
 10
51.39029439145224
 20
263.307326800375
 30
0.0
 40
11.00005121320385
100
AcDbArc
 50
90.00024308268166
 51
179.9998428472075
  0
ARC
  5
47B1
330
2
100
AcDbEntity
  8
0
100
AcDbCircle
 10
51.39029439145224
 20
263.307326800375
 30
0.0
 40
7.000051213203854
100
AcDbArc
 50
90.00024308268166
 51
179.9998428472075
  0
ARC
  5
47B2
330
2
100
AcDbEntity
  8
0
100
AcDbCircle
 10
51.39029439145224
 20
263.307326800375
 30
0.0
 40
5.000051213203854
100
AcDbArc
 50
90.00024308268166
 51
179.9998428472075
  0
LINE
  5
47B3
330
2
100
AcDbEntity
  8
0
100
AcDbLine
 10
40.39029317826726
 20
270.0695560778927
 30
0.0
 11
40.3902431782676
 21
263.3073419231787
 31
0.0
  0
LINE
  5
47B4
330
2
100
AcDbEntity
  8
HOJO
100
AcDbLine
 10
42.26156517826757
 20
263.7826899185143
 30
0.0
 11
44.5191641782676
 21
262.8320819185146
 31
0.0
  0
LINE
  5
47B5
330
2
100
AcDbEntity
  8
HOJO
100
AcDbLine
 10
42.26156517826757
 20
261.7826899185143
 30
0.0
 11
44.5191641782676
 21
260.8320819185146
 31
0.0
  0
ARC
  5
47B6
330
2
100
AcDbEntity
  8
HOJO
100
AcDbCircle
 10
41.64027317826776
 20
262.3073779185143
 30
0.0
 40
1.600781999999999
100
AcDbArc
 50
67.16467300002067
 51
141.3418685642233
  0
ARC
  5
47B7
330
2
100
AcDbEntity
  8
HOJO
100
AcDbCircle
 10
41.64027317826776
 20
260.3073779185143
 30
0.0
 40
1.600781999999999
100
AcDbArc
 50
67.16467300002067
 51
141.3418685641862
  0
LINE
  5
47B8
330
2
100
AcDbEntity
  8
HOJO
100
AcDbLine
 10
40.3902431782676
 20
261.3074139138503
 30
0.0
 11
40.3902431782676
 21
261.068581594514
 31
0.0
  0
LINE
  5
47B9
330
2
100
AcDbEntity
  8
0
100
AcDbLine
 10
44.39024317826761
 20
263.307326800375
 30
0.0
 11
44.39024317826715
 21
262.8863667290448
 31
0.0
  0
ARC
  5
47BA
330
2
100
AcDbEntity
  8
HOJO
100
AcDbCircle
 10
45.14027317826776
 20
264.3073779185143
 30
0.0
 40
1.600781
100
AcDbArc
 50
247.1647030000082
 51
321.3401944016112
  0
ARC
  5
47BB
330
2
100
AcDbEntity
  8
HOJO
100
AcDbCircle
 10
45.14027317826776
 20
262.3073779185143
 30
0.0
 40
1.600781
100
AcDbArc
 50
247.1647030000082
 51
321.3401944016112
  0
ARC
  5
47BC
330
2
100
AcDbEntity
  8
0
100
AcDbCircle
 10
51.39029317826725
 20
270.0695560778927
 30
0.0
 40
11.0
100
AcDbArc
 50
90.0
 51
180.0
  0
ARC
  5
47BD
330
2
100
AcDbEntity
  8
0
100
AcDbCircle
 10
51.39027317826776
 20
270.0695560778927
 30
0.0
 40
5.0
100
AcDbArc
 50
90.0
 51
131.9745634210986
  0
ARC
  5
47BE
330
2
100
AcDbEntity
  8
0
100
AcDbCircle
 10
51.39027317826776
 20
263.3073780135337
 30
0.0
 40
9.0
100
AcDbArc
 50
90.0
 51
123.3057915968492
  0
LINE
  5
47BF
330
2
100
AcDbEntity
  8
0
100
AcDbLine
 10
51.39010714362257
 20
268.3072680119608
 30
0.0
 11
51.82264997166157
 21
268.3072680119608
 31
0.0
  0
LINE
  5
47C0
330
2
100
AcDbEntity
  8
0
100
AcDbLine
 10
51.39010714362257
 20
274.3072680119608
 30
0.0
 11
51.82264997166157
 21
274.3072680119608
 31
0.0
  0
LINE
  5
47C1
330
2
100
AcDbEntity
  8
0
100
AcDbLine
 10
51.39010714362257
 20
272.3072680119608
 30
0.0
 11
51.82264997166157
 21
272.3072680119608
 31
0.0
  0
LINE
  5
47C2
330
2
100
AcDbEntity
  8
0
100
AcDbLine
 10
51.39010714362257
 20
270.3072680119608
 30
0.0
 11
51.82264997166157
 21
270.3072680119608
 31
0.0
  0
LINE
  5
47C3
330
2
100
AcDbEntity
  8
0
100
AcDbLine
 10
65.13487336255957
 20
266.0270865214766
 30
0.0
 11
76.38690105793784
 21
262.0559776402488
 31
0.0
  0
LINE
  5
47C4
330
2
100
AcDbEntity
  8
0
100
AcDbLine
 10
65.80048453210384
 20
267.9130774469522
 30
0.0
 11
77.05251222748256
 21
263.9419685657244
 31
0.0
  0
LINE
  5
47C5
330
2
100
AcDbEntity
  8
0
100
AcDbLine
 10
66.46609570164901
 20
269.7990683724284
 30
0.0
 11
77.71812339702728
 21
265.8279594912001
 31
0.0
  0
LINE
  5
47C6
330
2
100
AcDbEntity
  8
0
100
AcDbLine
 10
67.13170687119372
 20
271.685059297904
 30
0.0
 11
78.38373456657246
 21
267.7139504166762
 31
0.0
  0
LINE
  5
47C7
330
2
100
AcDbEntity
  8
0
100
AcDbLine
 10
116.0894621782676
 20
227.743154458773
 30
0.0
 11
116.0894621782676
 21
218.243135458773
 31
0.0
  0
ARC
  5
47C8
330
2
100
AcDbEntity
  8
0
100
AcDbCircle
 10
120.3894421782674
 20
222.993154458773
 30
0.0
 40
8.0
100
AcDbArc
 50
147.6076050000065
 51
212.392394999993
  0
LINE
  5
47C9
330
2
100
AcDbEntity
  8
0
100
AcDbLine
 10
116.0894621782676
 20
218.243135458773
 30
0.0
 11
114.478645178267
 21
218.243135458773
 31
0.0
  0
ARC
  5
47CA
330
2
100
AcDbEntity
  8
0
100
AcDbCircle
 10
114.478645178267
 20
219.2431354587729
 30
0.0
 40
1.0
100
AcDbArc
 50
212.392394999993
 51
270.0
  0
ARC
  5
47CB
330
2
100
AcDbEntity
  8
0
100
AcDbCircle
 10
116.3902431782676
 20
209.3487344587734
 30
0.0
 40
1.0
100
AcDbArc
 50
0.0
 51
89.50000000000846
  0
ARC
  5
47CC
330
2
100
AcDbEntity
  8
0
100
AcDbCircle
 10
116.3902431782676
 20
207.5069144587733
 30
0.0
 40
1.0
100
AcDbArc
 50
270.4999999999915
 51
0.0
  0
ARC
  5
47CD
330
2
100
AcDbEntity
  8
0
100
AcDbCircle
 10
116.3902431782676
 20
202.6649344587732
 30
0.0
 40
1.0
100
AcDbArc
 50
0.0
 51
89.50000000000846
  0
ARC
  5
47CE
330
2
100
AcDbEntity
  8
0
100
AcDbCircle
 10
116.3902431782676
 20
201.142721458773
 30
0.0
 40
1.0
100
AcDbArc
 50
0.0
 51
89.50000000000846
  0
LINE
  5
47CF
330
2
100
AcDbEntity
  8
0
100
AcDbLine
 10
116.0894621782676
 20
218.3931334587733
 30
0.0
 11
117.3894421782674
 21
218.3931334587733
 31
0.0
  0
ARC
  5
47D0
330
2
100
AcDbEntity
  8
0
100
AcDbCircle
 10
116.3902431782676
 20
211.0229154587733
 30
0.0
 40
1.0
100
AcDbArc
 50
0.0
 51
89.50000000000846
  0
ARC
  5
47D1
330
2
100
AcDbEntity
  8
0
100
AcDbCircle
 10
116.3902431782676
 20
215.7247334587732
 30
0.0
 40
1.0
100
AcDbArc
 50
270.4999999999915
 51
0.0
  0
LINE
  5
47D2
330
2
100
AcDbEntity
  8
0
100
AcDbLine
 10
116.0894621782676
 20
227.743154458773
 30
0.0
 11
114.478645178267
 21
227.743154458773
 31
0.0
  0
ARC
  5
47D3
330
2
100
AcDbEntity
  8
0
100
AcDbCircle
 10
114.478645178267
 20
226.743154458773
 30
0.0
 40
1.0
100
AcDbArc
 50
90.0
 51
147.6076050000065
  0
LINE
  5
47D4
330
2
100
AcDbEntity
  8
0
100
AcDbLine
 10
116.0894621782676
 20
227.592954458773
 30
0.0
 11
117.3894421782674
 21
227.592954458773
 31
0.0
  0
ARC
  5
47D5
330
2
100
AcDbEntity
  8
0
100
AcDbCircle
 10
116.3902431782676
 20
229.7515124587735
 30
0.0
 40
1.0
100
AcDbArc
 50
0.0
 51
89.50000000000846
  0
ARC
  5
47D6
330
2
100
AcDbEntity
  8
0
100
AcDbCircle
 10
116.3902431782676
 20
227.9375134587731
 30
0.0
 40
1.0
100
AcDbArc
 50
36.17633799998952
 51
89.50000000000846
  0
ARC
  5
47D7
330
2
100
AcDbEntity
  8
0
100
AcDbCircle
 10
116.3902431782676
 20
229.1181544587735
 30
0.0
 40
1.0
100
AcDbArc
 50
270.4999999999915
 51
0.0
  0
ARC
  5
47D8
330
2
100
AcDbEntity
  8
0
100
AcDbCircle
 10
116.3902431782676
 20
233.8125134587731
 30
0.0
 40
1.0
100
AcDbArc
 50
270.4999999999915
 51
0.0
  0
ARC
  5
47D9
330
2
100
AcDbEntity
  8
0
100
AcDbCircle
 10
116.3902431782676
 20
237.1042954587733
 30
0.0
 40
1.0
100
AcDbArc
 50
270.4999999999915
 51
0.0
  0
ARC
  5
47DA
330
2
100
AcDbEntity
  8
0
100
AcDbCircle
 10
116.3902431782676
 20
238.7611334587732
 30
0.0
 40
1.0
100
AcDbArc
 50
270.4999999999915
 51
0.0
  0
ARC
  5
47DB
330
2
100
AcDbEntity
  8
0
100
AcDbCircle
 10
116.3902431782676
 20
233.2465154587735
 30
0.0
 40
1.0
100
AcDbArc
 50
16.44459900000745
 51
89.50000000000846
  0
LINE
  5
47DC
330
2
100
AcDbEntity
  8
0
100
AcDbLine
 10
99.56815028252595
 20
282.2996611607441
 30
0.0
 11
105.6102746152823
 21
283.3650507014045
 31
0.0
  0
LINE
  5
47DD
330
2
100
AcDbEntity
  8
0
100
AcDbLine
 10
105.8513457781277
 20
275.0450016793252
 30
0.0
 11
99.57118873192349
 21
275.5944442260306
 31
0.0
  0
LINE
  5
47DE
330
2
100
AcDbEntity
  8
0
100
AcDbLine
 10
99.57118873192349
 20
275.0561062952306
 30
0.0
 11
105.715261011514
 21
273.9727405809158
 31
0.0
  0
LINE
  5
47DF
330
2
100
AcDbEntity
  8
0
100
AcDbLine
 10
105.9037389096188
 20
276.245001679325
 30
0.0
 11
99.57118873192349
 21
276.7990280310824
 31
0.0
  0
LINE
  5
47E0
330
2
100
AcDbEntity
  8
0
100
AcDbLine
 10
105.851345778125
 20
281.0927896029953
 30
0.0
 11
99.57118873192349
 21
280.5433470562898
 31
0.0
  0
LINE
  5
47E1
330
2
100
AcDbEntity
  8
0
100
AcDbLine
 10
99.57118873192349
 20
281.0816849870898
 30
0.0
 11
105.7152610115131
 21
282.1650507014042
 31
0.0
  0
LINE
  5
47E2
330
2
100
AcDbEntity
  8
0
100
AcDbLine
 10
105.9037389096147
 20
279.892789602995
 30
0.0
 11
99.57118873192349
 21
279.3387632512381
 31
0.0
  0
LINE
  5
47E3
330
2
100
AcDbEntity
  8
0
100
AcDbLine
 10
99.56815028252595
 20
273.8381301215759
 30
0.0
 11
105.6102746152823
 21
272.772740580916
 31
0.0
  0
LINE
  5
47E4
330
2
100
AcDbEntity
  8
0
100
AcDbLine
 10
115.4494557202751
 20
277.4688956411601
 30
0.0
 11
99.57118873192349
 21
277.4688956411601
 31
0.0
  0
LINE
  5
47E5
330
2
100
AcDbEntity
  8
0
100
AcDbLine
 10
115.4494557202751
 20
278.6688956411599
 30
0.0
 11
99.57118873192349
 21
278.6688956411599
 31
0.0
  0
LINE
  5
47E6
330
2
100
AcDbEntity
  8
0
100
AcDbLine
 10
92.17392428053699
 20
263.433768926192
 30
0.0
 11
121.6486574739215
 21
266.0124739410644
 31
0.0
  0
LINE
  5
47E7
330
2
100
AcDbEntity
  8
0
100
AcDbLine
 10
92.17392428053699
 20
261.433768926192
 30
0.0
 11
121.6419288886604
 21
258.8556525862514
 31
0.0
  0
LINE
  5
47E8
330
2
100
AcDbEntity
  8
0
100
AcDbLine
 10
92.08660239471965
 20
265.433768926192
 30
0.0
 11
121.4743459884261
 21
268.004863337248
 31
0.0
  0
LINE
  5
47E9
330
2
100
AcDbEntity
  8
0
100
AcDbLine
 10
92.08660239471965
 20
259.433768926192
 30
0.0
 11
121.4676174031651
 21
256.8632631900678
 31
0.0
  0
LINE
  5
47EA
330
2
100
AcDbEntity
  8
0
100
AcDbLine
 10
121.5866023947196
 20
263.433768926192
 30
0.0
 11
91.69595795746181
 21
263.433768926192
 31
0.0
  0
LINE
  5
47EB
330
2
100
AcDbEntity
  8
0
100
AcDbLine
 10
121.5866023947196
 20
261.433768926192
 30
0.0
 11
91.69595795746136
 21
261.433768926192
 31
0.0
  0
LINE
  5
47EC
330
2
100
AcDbEntity
  8
0
100
AcDbLine
 10
92.08660239471965
 20
259.433768926192
 30
0.0
 11
91.6959579574609
 21
259.433768926192
 31
0.0
  0
LINE
  5
47ED
330
2
100
AcDbEntity
  8
0
100
AcDbLine
 10
90.00456807611545
 20
274.8195560778927
 30
0.0
 11
92.71459797202851
 21
274.8195560778927
 31
0.0
  0
LINE
  5
47EE
330
2
100
AcDbEntity
  8
0
100
AcDbLine
 10
90.00456807611545
 20
281.3195560778932
 30
0.0
 11
92.73961770930418
 21
281.3195560778932
 31
0.0
  0
LINE
  5
47EF
330
2
100
AcDbEntity
  8
0
100
AcDbLine
 10
89.80456807611563
 20
275.019556077893
 30
0.0
 11
89.80456807611563
 21
281.1195560778929
 31
0.0
  0
ARC
  5
47F0
330
2
100
AcDbEntity
  8
0
100
AcDbCircle
 10
90.00456807611545
 20
275.019556077893
 30
0.0
 40
0.2
100
AcDbArc
 50
180.0
 51
270.0
  0
ARC
  5
47F1
330
2
100
AcDbEntity
  8
0
100
AcDbCircle
 10
90.00456807611545
 20
281.1195560778929
 30
0.0
 40
0.2
100
AcDbArc
 50
90.0
 51
180.0
  0
LINE
  5
47F2
330
2
100
AcDbEntity
  8
0
100
AcDbLine
 10
99.57118873192349
 20
273.8728597571094
 30
0.0
 11
99.57118873192349
 21
282.2649315252111
 31
0.0
  0
ARC
  5
47F3
330
2
100
AcDbEntity
  8
0
100
AcDbCircle
 10
96.87118873192368
 20
274.2756751910024
 30
0.0
 40
0.4
100
AcDbArc
 50
257.0698677002812
 51
326.0187104207559
  0
LINE
  5
47F4
330
2
100
AcDbEntity
  8
0
100
AcDbLine
 10
96.78168364405564
 20
273.885817730838
 30
0.0
 11
92.71459797202897
 21
274.8195560778927
 31
0.0
  0
LINE
  5
47F5
330
2
100
AcDbEntity
  8
0
100
AcDbLine
 10
92.08660239471965
 20
265.433768926192
 30
0.0
 11
91.69595795747046
 21
265.433768926192
 31
0.0
  0
LINE
  5
47F6
330
2
100
AcDbEntity
  8
0
100
AcDbLine
 10
97.20287678692921
 20
274.0521063332272
 30
0.0
 11
99.33645909639063
 21
273.6758982065071
 31
0.0
  0
ARC
  5
47F7
330
2
100
AcDbEntity
  8
0
100
AcDbCircle
 10
99.37118873192368
 20
273.8728597571094
 30
0.0
 40
0.2
100
AcDbArc
 50
259.9999999999949
 51
0.0
  0
LINE
  5
47F8
330
2
100
AcDbEntity
  8
0
100
AcDbLine
 10
97.78511409325666
 20
282.4313247319969
 30
0.0
 11
92.73961770930418
 21
281.3195560778927
 31
0.0
  0
LINE
  5
47F9
330
2
100
AcDbEntity
  8
0
100
AcDbLine
 10
98.20422583700883
 20
282.262249803729
 30
0.0
 11
99.33645909639063
 21
282.4618930758134
 31
0.0
  0
ARC
  5
47FA
330
2
100
AcDbEntity
  8
0
100
AcDbCircle
 10
97.87118873192367
 20
282.0406955515991
 30
0.0
 40
0.4
100
AcDbArc
 50
33.6339940220023
 51
102.4264747477467
  0
ARC
  5
47FB
330
2
100
AcDbEntity
  8
0
100
AcDbCircle
 10
99.37118873192368
 20
282.2649315252111
 30
0.0
 40
0.2
100
AcDbArc
 50
0.0
 51
100.000000000005
  0
ARC
  5
47FC
330
2
100
AcDbEntity
  8
0
100
AcDbCircle
 10
118.3902431782676
 20
244.3257354587732
 30
0.0
 40
1.0
100
AcDbArc
 50
91.00000000000177
 51
180.0
  0
LINE
  5
47FD
330
2
100
AcDbEntity
  8
0
100
AcDbLine
 10
126.5424752216326
 20
257.4230904994893
 30
0.0
 11
121.5615017311743
 21
257.8588692132275
 31
0.0
  0
LINE
  5
47FE
330
2
100
AcDbEntity
  8
0
100
AcDbLine
 10
126.5119707116714
 20
257.0744223551574
 30
0.0
 11
121.5309972212121
 21
257.5102010688957
 31
0.0
  0
LINE
  5
47FF
330
2
100
AcDbEntity
  8
0
100
AcDbLine
 10
126.4814662017092
 20
256.725754210825
 30
0.0
 11
121.5004927112508
 21
257.1615329245633
 31
0.0
  0
LINE
  5
4800
330
2
100
AcDbEntity
  8
0
100
AcDbLine
 10
126.6203660883925
 20
258.1189498179361
 30
0.0
 11
121.6225107510977
 21
258.5562055018918
 31
0.0
  0
LINE
  5
4801
330
2
100
AcDbEntity
  8
0
100
AcDbLine
 10
126.5729797315943
 20
257.7717586438216
 30
0.0
 11
121.5920062411355
 21
258.2075373575599
 31
0.0
  0
LINE
  5
4802
330
2
100
AcDbEntity
  8
0
100
AcDbLine
 10
121.4676174031651
 20
256.8632631900678
 30
0.0
 11
121.6419288886604
 21
258.8556525862514
 31
0.0
  0
LINE
  5
4803
330
2
100
AcDbEntity
  8
0
100
AcDbLine
 10
126.5866023947196
 20
263.1337689261918
 30
0.0
 11
121.5866023947196
 21
263.1337689261918
 31
0.0
  0
LINE
  5
4804
330
2
100
AcDbEntity
  8
0
100
AcDbLine
 10
126.5866023947196
 20
262.7837689261919
 30
0.0
 11
121.5866023947196
 21
262.7837689261919
 31
0.0
  0
LINE
  5
4805
330
2
100
AcDbEntity
  8
0
100
AcDbLine
 10
126.5866023947196
 20
262.433768926192
 30
0.0
 11
121.5866023947196
 21
262.433768926192
 31
0.0
  0
LINE
  5
4806
330
2
100
AcDbEntity
  8
0
100
AcDbLine
 10
126.5866023947196
 20
261.7337689261917
 30
0.0
 11
121.5866023947196
 21
261.7337689261917
 31
0.0
  0
LINE
  5
4807
330
2
100
AcDbEntity
  8
0
100
AcDbLine
 10
126.5866023947196
 20
262.0837689261916
 30
0.0
 11
121.5866023947196
 21
262.0837689261916
 31
0.0
  0
LINE
  5
4808
330
2
100
AcDbEntity
  8
0
100
AcDbLine
 10
121.5866023947196
 20
261.433768926192
 30
0.0
 11
121.5866023947196
 21
263.433768926192
 31
0.0
  0
LINE
  5
4809
330
2
100
AcDbEntity
  8
0
100
AcDbLine
 10
115.4494557202751
 20
276.1688956411599
 30
0.0
 11
107.6468537645719
 21
276.1688956411599
 31
0.0
  0
LINE
  5
480A
330
2
100
AcDbEntity
  8
0
100
AcDbLine
 10
115.4494557202751
 20
274.9688956411601
 30
0.0
 11
107.5944606330808
 21
274.9688956411601
 31
0.0
  0
LINE
  5
480B
330
2
100
AcDbEntity
  8
0
100
AcDbLine
 10
115.4494557202751
 20
273.6688956411599
 30
0.0
 11
109.188224564853
 21
273.6688956411599
 31
0.0
  0
LINE
  5
480C
330
2
100
AcDbEntity
  8
0
100
AcDbLine
 10
115.4494557202751
 20
272.4688956411601
 30
0.0
 11
109.0832381686209
 21
272.4688956411601
 31
0.0
  0
LINE
  5
480D
330
2
100
AcDbEntity
  8
0
100
AcDbLine
 10
115.4494557202751
 20
283.6688956411599
 30
0.0
 11
109.0832381686209
 21
283.6688956411599
 31
0.0
  0
LINE
  5
480E
330
2
100
AcDbEntity
  8
0
100
AcDbLine
 10
115.4494557202751
 20
282.4688956411601
 30
0.0
 11
109.1882245648516
 21
282.4688956411601
 31
0.0
  0
LINE
  5
480F
330
2
100
AcDbEntity
  8
0
100
AcDbLine
 10
115.4494557202751
 20
281.1688956411599
 30
0.0
 11
107.5944606330776
 21
281.1688956411599
 31
0.0
  0
LINE
  5
4810
330
2
100
AcDbEntity
  8
0
100
AcDbLine
 10
115.4494557202751
 20
279.9688956411601
 30
0.0
 11
107.6468537645678
 21
279.9688956411601
 31
0.0
  0
ARC
  5
4811
330
2
100
AcDbEntity
  8
0
100
AcDbCircle
 10
109.1882245648525
 20
293.6688956411599
 30
0.0
 40
20.0
100
AcDbArc
 50
259.9999999999949
 51
270.0
  0
ARC
  5
4812
330
2
100
AcDbEntity
  8
0
100
AcDbCircle
 10
107.5944606330808
 20
294.9688956411601
 30
0.0
 40
20.0
100
AcDbArc
 50
265.0000000000003
 51
270.0
  0
ARC
  5
4813
330
2
100
AcDbEntity
  8
0
100
AcDbCircle
 10
109.0832381686209
 20
292.4688956411601
 30
0.0
 40
20.0
100
AcDbArc
 50
259.9999999999949
 51
270.0
  0
ARC
  5
4814
330
2
100
AcDbEntity
  8
0
100
AcDbCircle
 10
109.1882245648516
 20
262.4688956411601
 30
0.0
 40
20.0
100
AcDbArc
 50
90.0
 51
100.000000000005
  0
ARC
  5
4815
330
2
100
AcDbEntity
  8
0
100
AcDbCircle
 10
107.6468537645719
 20
296.1688956411599
 30
0.0
 40
20.0
100
AcDbArc
 50
265.0000000000003
 51
270.0
  0
ARC
  5
4816
330
2
100
AcDbEntity
  8
0
100
AcDbCircle
 10
107.6468537645682
 20
259.9688956411601
 30
0.0
 40
20.0
100
AcDbArc
 50
90.0
 51
94.99999999999975
  0
ARC
  5
4817
330
2
100
AcDbEntity
  8
0
100
AcDbCircle
 10
107.5944606330781
 20
261.1688956411599
 30
0.0
 40
20.0
100
AcDbArc
 50
90.0
 51
94.99999999999975
  0
ARC
  5
4818
330
2
100
AcDbEntity
  8
0
100
AcDbCircle
 10
109.0832381686209
 20
263.6688956411599
 30
0.0
 40
20.0
100
AcDbArc
 50
90.0
 51
100.000000000005
  0
LINE
  5
4819
330
2
100
AcDbEntity
  8
0
100
AcDbLine
 10
125.9494557202751
 20
274.8688956411602
 30
0.0
 11
125.9494557202751
 21
276.2688956411603
 31
0.0
  0
LINE
  5
481A
330
2
100
AcDbEntity
  8
0
100
AcDbLine
 10
123.4494557202751
 20
274.6688956411599
 30
0.0
 11
123.4494557202751
 21
276.4688956411601
 31
0.0
  0
LINE
  5
481B
330
2
100
AcDbEntity
  8
0
100
AcDbLine
 10
117.4494557202751
 20
284.31889564116
 30
0.0
 11
117.4494557202751
 21
271.81889564116
 31
0.0
  0
LINE
  5
481C
330
2
100
AcDbEntity
  8
0
100
AcDbLine
 10
115.4494557202751
 20
284.31889564116
 30
0.0
 11
115.4494557202751
 21
271.81889564116
 31
0.0
  0
LINE
  5
481D
330
2
100
AcDbEntity
  8
0
100
AcDbLine
 10
126.9494557202751
 20
284.31889564116
 30
0.0
 11
126.9494557202751
 21
271.81889564116
 31
0.0
  0
LINE
  5
481E
330
2
100
AcDbEntity
  8
0
100
AcDbLine
 10
126.9494557202751
 20
284.31889564116
 30
0.0
 11
126.9494557202751
 21
271.81889564116
 31
0.0
  0
LINE
  5
481F
330
2
100
AcDbEntity
  8
0
100
AcDbLine
 10
126.9494557202751
 20
271.81889564116
 30
0.0
 11
115.4494557202751
 21
271.81889564116
 31
0.0
  0
LINE
  5
4820
330
2
100
AcDbEntity
  8
0
100
AcDbLine
 10
123.3494557202752
 20
274.56889564116
 30
0.0
 11
120.0494557202751
 21
274.56889564116
 31
0.0
  0
LINE
  5
4821
330
2
100
AcDbEntity
  8
0
100
AcDbLine
 10
123.3494557202752
 20
274.06889564116
 30
0.0
 11
120.0494557202751
 21
274.06889564116
 31
0.0
  0
LINE
  5
4822
330
2
100
AcDbEntity
  8
0
100
AcDbLine
 10
123.3494557202752
 20
272.06889564116
 30
0.0
 11
120.0494557202751
 21
272.06889564116
 31
0.0
  0
ARC
  5
4823
330
2
100
AcDbEntity
  8
0
100
AcDbCircle
 10
120.0494557202751
 20
274.4688956411601
 30
0.0
 40
0.1
100
AcDbArc
 50
90.0
 51
180.0
  0
LINE
  5
4824
330
2
100
AcDbEntity
  8
0
100
AcDbLine
 10
119.9494557202751
 20
274.31889564116
 30
0.0
 11
119.9494557202751
 21
274.4688956411601
 31
0.0
  0
ARC
  5
4825
330
2
100
AcDbEntity
  8
0
100
AcDbCircle
 10
120.0494557202751
 20
274.1688956411599
 30
0.0
 40
0.1
100
AcDbArc
 50
180.0
 51
270.0
  0
LINE
  5
4826
330
2
100
AcDbEntity
  8
0
100
AcDbLine
 10
119.9494557202751
 20
274.31889564116
 30
0.0
 11
119.9494557202751
 21
274.1688956411599
 31
0.0
  0
ARC
  5
4827
330
2
100
AcDbEntity
  8
0
100
AcDbCircle
 10
120.0494557202751
 20
271.9688956411601
 30
0.0
 40
0.1
100
AcDbArc
 50
90.0
 51
180.0
  0
LINE
  5
4828
330
2
100
AcDbEntity
  8
0
100
AcDbLine
 10
119.9494557202751
 20
271.9688956411601
 30
0.0
 11
119.9494557202751
 21
271.81889564116
 31
0.0
  0
LINE
  5
4829
330
2
100
AcDbEntity
  8
0
100
AcDbLine
 10
126.5119707116714
 20
267.7931154972266
 30
0.0
 11
121.5309972212121
 21
267.3573367834879
 31
0.0
  0
LINE
  5
482A
330
2
100
AcDbEntity
  8
0
100
AcDbLine
 10
126.5424752216326
 20
267.4444473528942
 30
0.0
 11
121.5615017311743
 21
267.008668639156
 31
0.0
  0
LINE
  5
482B
330
2
100
AcDbEntity
  8
0
100
AcDbLine
 10
126.6203660883925
 20
266.7485880344475
 30
0.0
 11
121.6225107510977
 21
266.3113323504918
 31
0.0
  0
LINE
  5
482C
330
2
100
AcDbEntity
  8
0
100
AcDbLine
 10
126.5729797315943
 20
267.0957792085619
 30
0.0
 11
121.5920062411355
 21
266.6600004948241
 31
0.0
  0
LINE
  5
482D
330
2
100
AcDbEntity
  8
0
100
AcDbLine
 10
126.4814662017092
 20
268.1417836415585
 30
0.0
 11
121.5004927112508
 21
267.7060049278202
 31
0.0
  0
LINE
  5
482E
330
2
100
AcDbEntity
  8
0
100
AcDbLine
 10
125.8494557202752
 20
274.7688956411603
 30
0.0
 11
125.0494557202751
 21
274.7688956411603
 31
0.0
  0
LINE
  5
482F
330
2
100
AcDbEntity
  8
0
100
AcDbLine
 10
124.9494557202751
 20
274.31889564116
 30
0.0
 11
124.9494557202751
 21
274.6688956411599
 31
0.0
  0
ARC
  5
4830
330
2
100
AcDbEntity
  8
0
100
AcDbCircle
 10
125.0494557202751
 20
274.6688956411599
 30
0.0
 40
0.1
100
AcDbArc
 50
90.0
 51
180.0
  0
ARC
  5
4831
330
2
100
AcDbEntity
  8
0
100
AcDbCircle
 10
125.8494557202752
 20
274.8688956411602
 30
0.0
 40
0.1
100
AcDbArc
 50
270.0
 51
0.0
  0
LINE
  5
4832
330
2
100
AcDbEntity
  8
0
100
AcDbLine
 10
125.8494557202752
 20
273.8688956411602
 30
0.0
 11
125.0494557202751
 21
273.8688956411602
 31
0.0
  0
ARC
  5
4833
330
2
100
AcDbEntity
  8
0
100
AcDbCircle
 10
125.0494557202751
 20
273.9688956411601
 30
0.0
 40
0.1
100
AcDbArc
 50
180.0
 51
270.0
  0
ARC
  5
4834
330
2
100
AcDbEntity
  8
0
100
AcDbCircle
 10
125.8494557202752
 20
273.7688956411603
 30
0.0
 40
0.1
100
AcDbArc
 50
0.0
 51
90.0
  0
LINE
  5
4835
330
2
100
AcDbEntity
  8
0
100
AcDbLine
 10
124.9494557202751
 20
274.31889564116
 30
0.0
 11
124.9494557202751
 21
273.9688956411601
 31
0.0
  0
ARC
  5
4836
330
2
100
AcDbEntity
  8
0
100
AcDbCircle
 10
123.3494557202752
 20
274.6688956411599
 30
0.0
 40
0.1
100
AcDbArc
 50
270.0
 51
0.0
  0
ARC
  5
4837
330
2
100
AcDbEntity
  8
0
100
AcDbCircle
 10
123.3494557202752
 20
273.9688956411601
 30
0.0
 40
0.1
100
AcDbArc
 50
0.0
 51
90.0
  0
LINE
  5
4838
330
2
100
AcDbEntity
  8
0
100
AcDbLine
 10
125.8494557202752
 20
272.2688956411603
 30
0.0
 11
125.0494557202751
 21
272.2688956411603
 31
0.0
  0
LINE
  5
4839
330
2
100
AcDbEntity
  8
0
100
AcDbLine
 10
124.9494557202751
 20
271.81889564116
 30
0.0
 11
124.9494557202751
 21
272.1688956411599
 31
0.0
  0
ARC
  5
483A
330
2
100
AcDbEntity
  8
0
100
AcDbCircle
 10
125.0494557202751
 20
272.1688956411599
 30
0.0
 40
0.1
100
AcDbArc
 50
90.0
 51
180.0
  0
ARC
  5
483B
330
2
100
AcDbEntity
  8
0
100
AcDbCircle
 10
125.8494557202752
 20
272.3688956411602
 30
0.0
 40
0.1
100
AcDbArc
 50
270.0
 51
0.0
  0
ARC
  5
483C
330
2
100
AcDbEntity
  8
0
100
AcDbCircle
 10
123.3494557202752
 20
272.1688956411599
 30
0.0
 40
0.1
100
AcDbArc
 50
270.0
 51
0.0
  0
LINE
  5
483D
330
2
100
AcDbEntity
  8
0
100
AcDbLine
 10
125.9494557202751
 20
273.7688956411603
 30
0.0
 11
125.9494557202751
 21
272.3688956411602
 31
0.0
  0
LINE
  5
483E
330
2
100
AcDbEntity
  8
0
100
AcDbLine
 10
123.4494557202751
 20
273.9688956411601
 30
0.0
 11
123.4494557202751
 21
272.1688956411599
 31
0.0
  0
LINE
  5
483F
330
2
100
AcDbEntity
  8
0
100
AcDbLine
 10
121.4743459884261
 20
268.004863337248
 30
0.0
 11
121.6486574739215
 21
266.0124739410644
 31
0.0
  0
LINE
  5
4840
330
2
100
AcDbEntity
  8
0
100
AcDbLine
 10
126.9494557202751
 20
284.31889564116
 30
0.0
 11
115.4494557202751
 21
284.31889564116
 31
0.0
  0
LINE
  5
4841
330
2
100
AcDbEntity
  8
0
100
AcDbLine
 10
123.3494557202752
 20
277.06889564116
 30
0.0
 11
120.0494557202751
 21
277.06889564116
 31
0.0
  0
LINE
  5
4842
330
2
100
AcDbEntity
  8
0
100
AcDbLine
 10
123.3494557202752
 20
276.56889564116
 30
0.0
 11
120.0494557202751
 21
276.56889564116
 31
0.0
  0
LINE
  5
4843
330
2
100
AcDbEntity
  8
0
100
AcDbLine
 10
123.3494557202752
 20
282.06889564116
 30
0.0
 11
120.0494557202751
 21
282.06889564116
 31
0.0
  0
LINE
  5
4844
330
2
100
AcDbEntity
  8
0
100
AcDbLine
 10
123.3494557202752
 20
281.56889564116
 30
0.0
 11
120.0494557202751
 21
281.56889564116
 31
0.0
  0
LINE
  5
4845
330
2
100
AcDbEntity
  8
0
100
AcDbLine
 10
123.3494557202752
 20
279.56889564116
 30
0.0
 11
120.0494557202751
 21
279.56889564116
 31
0.0
  0
LINE
  5
4846
330
2
100
AcDbEntity
  8
0
100
AcDbLine
 10
123.3494557202752
 20
279.06889564116
 30
0.0
 11
120.0494557202751
 21
279.06889564116
 31
0.0
  0
LINE
  5
4847
330
2
100
AcDbEntity
  8
0
100
AcDbLine
 10
123.3494557202752
 20
284.06889564116
 30
0.0
 11
120.0494557202751
 21
284.06889564116
 31
0.0
  0
ARC
  5
4848
330
2
100
AcDbEntity
  8
0
100
AcDbCircle
 10
120.0494557202751
 20
276.9688956411601
 30
0.0
 40
0.1
100
AcDbArc
 50
90.0
 51
180.0
  0
LINE
  5
4849
330
2
100
AcDbEntity
  8
0
100
AcDbLine
 10
119.9494557202751
 20
276.6688956411599
 30
0.0
 11
119.9494557202751
 21
276.9688956411601
 31
0.0
  0
ARC
  5
484A
330
2
100
AcDbEntity
  8
0
100
AcDbCircle
 10
120.0494557202751
 20
276.6688956411599
 30
0.0
 40
0.1
100
AcDbArc
 50
180.0
 51
270.0
  0
ARC
  5
484B
330
2
100
AcDbEntity
  8
0
100
AcDbCircle
 10
120.0494557202751
 20
281.6688956411599
 30
0.0
 40
0.1
100
AcDbArc
 50
180.0
 51
270.0
  0
LINE
  5
484C
330
2
100
AcDbEntity
  8
0
100
AcDbLine
 10
119.9494557202751
 20
279.4688956411601
 30
0.0
 11
119.9494557202751
 21
279.1688956411599
 31
0.0
  0
ARC
  5
484D
330
2
100
AcDbEntity
  8
0
100
AcDbCircle
 10
120.0494557202751
 20
279.4688956411601
 30
0.0
 40
0.1
100
AcDbArc
 50
90.0
 51
180.0
  0
ARC
  5
484E
330
2
100
AcDbEntity
  8
0
100
AcDbCircle
 10
120.0494557202751
 20
279.1688956411599
 30
0.0
 40
0.1
100
AcDbArc
 50
180.0
 51
270.0
  0
LINE
  5
484F
330
2
100
AcDbEntity
  8
0
100
AcDbLine
 10
119.9494557202751
 20
281.81889564116
 30
0.0
 11
119.9494557202751
 21
281.9688956411601
 31
0.0
  0
ARC
  5
4850
330
2
100
AcDbEntity
  8
0
100
AcDbCircle
 10
120.0494557202751
 20
281.9688956411601
 30
0.0
 40
0.1
100
AcDbArc
 50
90.0
 51
180.0
  0
LINE
  5
4851
330
2
100
AcDbEntity
  8
0
100
AcDbLine
 10
119.9494557202751
 20
281.81889564116
 30
0.0
 11
119.9494557202751
 21
281.6688956411599
 31
0.0
  0
ARC
  5
4852
330
2
100
AcDbEntity
  8
0
100
AcDbCircle
 10
120.0494557202751
 20
284.1688956411599
 30
0.0
 40
0.1
100
AcDbArc
 50
180.0
 51
270.0
  0
LINE
  5
4853
330
2
100
AcDbEntity
  8
0
100
AcDbLine
 10
119.9494557202751
 20
284.1688956411599
 30
0.0
 11
119.9494557202751
 21
284.31889564116
 31
0.0
  0
LINE
  5
4854
330
2
100
AcDbEntity
  8
0
100
AcDbLine
 10
124.9494557202751
 20
276.81889564116
 30
0.0
 11
124.9494557202751
 21
276.4688956411601
 31
0.0
  0
ARC
  5
4855
330
2
100
AcDbEntity
  8
0
100
AcDbCircle
 10
123.3494557202752
 20
276.4688956411601
 30
0.0
 40
0.1
100
AcDbArc
 50
0.0
 51
90.0
  0
LINE
  5
4856
330
2
100
AcDbEntity
  8
0
100
AcDbLine
 10
125.8494557202752
 20
276.3688956411602
 30
0.0
 11
125.0494557202751
 21
276.3688956411602
 31
0.0
  0
ARC
  5
4857
330
2
100
AcDbEntity
  8
0
100
AcDbCircle
 10
125.0494557202751
 20
276.4688956411601
 30
0.0
 40
0.1
100
AcDbArc
 50
180.0
 51
270.0
  0
ARC
  5
4858
330
2
100
AcDbEntity
  8
0
100
AcDbCircle
 10
125.8494557202752
 20
276.2688956411603
 30
0.0
 40
0.1
100
AcDbArc
 50
0.0
 51
90.0
  0
LINE
  5
4859
330
2
100
AcDbEntity
  8
0
100
AcDbLine
 10
125.9494557202751
 20
282.3688956411602
 30
0.0
 11
125.9494557202751
 21
283.7688956411603
 31
0.0
  0
LINE
  5
485A
330
2
100
AcDbEntity
  8
0
100
AcDbLine
 10
123.4494557202751
 20
282.1688956411599
 30
0.0
 11
123.4494557202751
 21
283.9688956411601
 31
0.0
  0
ARC
  5
485B
330
2
100
AcDbEntity
  8
0
100
AcDbCircle
 10
125.8494557202752
 20
277.3688956411602
 30
0.0
 40
0.1
100
AcDbArc
 50
270.0
 51
0.0
  0
LINE
  5
485C
330
2
100
AcDbEntity
  8
0
100
AcDbLine
 10
125.8494557202752
 20
277.2688956411603
 30
0.0
 11
125.0494557202751
 21
277.2688956411603
 31
0.0
  0
ARC
  5
485D
330
2
100
AcDbEntity
  8
0
100
AcDbCircle
 10
125.0494557202751
 20
277.1688956411599
 30
0.0
 40
0.1
100
AcDbArc
 50
90.0
 51
180.0
  0
LINE
  5
485E
330
2
100
AcDbEntity
  8
0
100
AcDbLine
 10
124.9494557202751
 20
276.81889564116
 30
0.0
 11
124.9494557202751
 21
277.1688956411599
 31
0.0
  0
ARC
  5
485F
330
2
100
AcDbEntity
  8
0
100
AcDbCircle
 10
123.3494557202752
 20
277.1688956411599
 30
0.0
 40
0.1
100
AcDbArc
 50
270.0
 51
0.0
  0
ARC
  5
4860
330
2
100
AcDbEntity
  8
0
100
AcDbCircle
 10
125.0494557202751
 20
281.4688956411601
 30
0.0
 40
0.1
100
AcDbArc
 50
180.0
 51
270.0
  0
LINE
  5
4861
330
2
100
AcDbEntity
  8
0
100
AcDbLine
 10
123.4494557202751
 20
281.4688956411601
 30
0.0
 11
123.4494557202751
 21
279.6688956411599
 31
0.0
  0
ARC
  5
4862
330
2
100
AcDbEntity
  8
0
100
AcDbCircle
 10
123.3494557202752
 20
281.4688956411601
 30
0.0
 40
0.1
100
AcDbArc
 50
0.0
 51
90.0
  0
LINE
  5
4863
330
2
100
AcDbEntity
  8
0
100
AcDbLine
 10
125.8494557202752
 20
278.8688956411602
 30
0.0
 11
125.0494557202751
 21
278.8688956411602
 31
0.0
  0
LINE
  5
4864
330
2
100
AcDbEntity
  8
0
100
AcDbLine
 10
125.8494557202752
 20
279.7688956411603
 30
0.0
 11
125.0494557202751
 21
279.7688956411603
 31
0.0
  0
LINE
  5
4865
330
2
100
AcDbEntity
  8
0
100
AcDbLine
 10
125.8494557202752
 20
281.3688956411602
 30
0.0
 11
125.0494557202751
 21
281.3688956411602
 31
0.0
  0
LINE
  5
4866
330
2
100
AcDbEntity
  8
0
100
AcDbLine
 10
124.9494557202751
 20
279.31889564116
 30
0.0
 11
124.9494557202751
 21
278.9688956411601
 31
0.0
  0
LINE
  5
4867
330
2
100
AcDbEntity
  8
0
100
AcDbLine
 10
124.9494557202751
 20
279.31889564116
 30
0.0
 11
124.9494557202751
 21
279.6688956411599
 31
0.0
  0
ARC
  5
4868
330
2
100
AcDbEntity
  8
0
100
AcDbCircle
 10
125.0494557202751
 20
279.6688956411599
 30
0.0
 40
0.1
100
AcDbArc
 50
90.0
 51
180.0
  0
ARC
  5
4869
330
2
100
AcDbEntity
  8
0
100
AcDbCircle
 10
125.0494557202751
 20
278.9688956411601
 30
0.0
 40
0.1
100
AcDbArc
 50
180.0
 51
270.0
  0
ARC
  5
486A
330
2
100
AcDbEntity
  8
0
100
AcDbCircle
 10
125.8494557202752
 20
279.8688956411602
 30
0.0
 40
0.1
100
AcDbArc
 50
270.0
 51
0.0
  0
LINE
  5
486B
330
2
100
AcDbEntity
  8
0
100
AcDbLine
 10
125.9494557202751
 20
281.2688956411603
 30
0.0
 11
125.9494557202751
 21
279.8688956411602
 31
0.0
  0
ARC
  5
486C
330
2
100
AcDbEntity
  8
0
100
AcDbCircle
 10
125.8494557202752
 20
281.2688956411603
 30
0.0
 40
0.1
100
AcDbArc
 50
0.0
 51
90.0
  0
ARC
  5
486D
330
2
100
AcDbEntity
  8
0
100
AcDbCircle
 10
125.8494557202752
 20
278.7688956411603
 30
0.0
 40
0.1
100
AcDbArc
 50
0.0
 51
90.0
  0
LINE
  5
486E
330
2
100
AcDbEntity
  8
0
100
AcDbLine
 10
125.9494557202751
 20
278.06889564116
 30
0.0
 11
125.9494557202751
 21
278.7688956411603
 31
0.0
  0
ARC
  5
486F
330
2
100
AcDbEntity
  8
0
100
AcDbCircle
 10
123.3494557202752
 20
279.6688956411599
 30
0.0
 40
0.1
100
AcDbArc
 50
270.0
 51
0.0
  0
ARC
  5
4870
330
2
100
AcDbEntity
  8
0
100
AcDbCircle
 10
123.3494557202752
 20
278.9688956411601
 30
0.0
 40
0.1
100
AcDbArc
 50
0.0
 51
90.0
  0
LINE
  5
4871
330
2
100
AcDbEntity
  8
0
100
AcDbLine
 10
123.4494557202751
 20
278.9688956411601
 30
0.0
 11
123.4494557202751
 21
278.06889564116
 31
0.0
  0
LINE
  5
4872
330
2
100
AcDbEntity
  8
0
100
AcDbLine
 10
125.8494557202752
 20
282.2688956411603
 30
0.0
 11
125.0494557202751
 21
282.2688956411603
 31
0.0
  0
LINE
  5
4873
330
2
100
AcDbEntity
  8
0
100
AcDbLine
 10
124.9494557202751
 20
281.81889564116
 30
0.0
 11
124.9494557202751
 21
282.1688956411599
 31
0.0
  0
ARC
  5
4874
330
2
100
AcDbEntity
  8
0
100
AcDbCircle
 10
125.0494557202751
 20
282.1688956411599
 30
0.0
 40
0.1
100
AcDbArc
 50
90.0
 51
180.0
  0
ARC
  5
4875
330
2
100
AcDbEntity
  8
0
100
AcDbCircle
 10
125.8494557202752
 20
282.3688956411602
 30
0.0
 40
0.1
100
AcDbArc
 50
270.0
 51
0.0
  0
ARC
  5
4876
330
2
100
AcDbEntity
  8
0
100
AcDbCircle
 10
123.3494557202752
 20
282.1688956411599
 30
0.0
 40
0.1
100
AcDbArc
 50
270.0
 51
0.0
  0
LINE
  5
4877
330
2
100
AcDbEntity
  8
0
100
AcDbLine
 10
124.9494557202751
 20
281.81889564116
 30
0.0
 11
124.9494557202751
 21
281.4688956411601
 31
0.0
  0
LINE
  5
4878
330
2
100
AcDbEntity
  8
0
100
AcDbLine
 10
125.9494557202751
 20
278.06889564116
 30
0.0
 11
125.9494557202751
 21
277.3688956411602
 31
0.0
  0
LINE
  5
4879
330
2
100
AcDbEntity
  8
0
100
AcDbLine
 10
123.4494557202751
 20
277.1688956411599
 30
0.0
 11
123.4494557202751
 21
278.06889564116
 31
0.0
  0
LINE
  5
487A
330
2
100
AcDbEntity
  8
0
100
AcDbLine
 10
125.8494557202752
 20
283.8688956411602
 30
0.0
 11
125.0494557202751
 21
283.8688956411602
 31
0.0
  0
ARC
  5
487B
330
2
100
AcDbEntity
  8
0
100
AcDbCircle
 10
125.0494557202751
 20
283.9688956411601
 30
0.0
 40
0.1
100
AcDbArc
 50
180.0
 51
270.0
  0
ARC
  5
487C
330
2
100
AcDbEntity
  8
0
100
AcDbCircle
 10
125.8494557202752
 20
283.7688956411603
 30
0.0
 40
0.1
100
AcDbArc
 50
0.0
 51
90.0
  0
ARC
  5
487D
330
2
100
AcDbEntity
  8
0
100
AcDbCircle
 10
123.3494557202752
 20
283.9688956411601
 30
0.0
 40
0.1
100
AcDbArc
 50
0.0
 51
90.0
  0
LINE
  5
487E
330
2
100
AcDbEntity
  8
0
100
AcDbLine
 10
124.9494557202751
 20
284.31889564116
 30
0.0
 11
124.9494557202751
 21
283.9688956411601
 31
0.0
  0
LINE
  5
487F
330
2
100
AcDbEntity
  8
0
100
AcDbLine
 10
38.39024317826761
 20
132.4831144587734
 30
0.0
 11
38.39024317826761
 21
227.8631144587732
 31
0.0
  0
LINE
  5
4880
330
2
100
AcDbEntity
  8
0
100
AcDbLine
 10
38.88993859177708
 20
131.9656647104221
 30
0.0
 11
38.39024317826761
 21
132.4831144587734
 31
0.0
  0
LINE
  5
4881
330
2
100
AcDbEntity
  8
0
100
AcDbLine
 10
38.88993859177708
 20
228.3805642071245
 30
0.0
 11
38.39024317826761
 21
227.8631144587732
 31
0.0
  0
ENDSEC
  0
SECTION
  2
OBJECTS
  0
DICTIONARY
  5
7
330
0
100
AcDbDictionary
  3
ACAD_COLOR
350
4330
  3
ACAD_GROUP
350
75
  3
ACAD_LAYOUT
350
61
  3
ACAD_MATERIAL
350
4306
  3
ACAD_MLEADERSTYLE
350
4355
  3
ACAD_MLINESTYLE
350
76
  3
ACAD_PLOTSETTINGS
350
77
  3
ACAD_PLOTSTYLENAME
350
6
  3
ACAD_SCALELIST
350
4333
  3
ACAD_TABLESTYLE
350
4331
  3
ACAD_VISUALSTYLE
350
431F
  3
ACADDIM
350
480
  3
ACDB_RECOMPOSE_DATA
350
4894
  3
ACDBHEADERROUNDTRIPXREC
350
4916
  3
ACDBVARIABLEDICTIONARY
350
102
  3
DWGPROPS
350
4895
  0
DICTIONARY
  5
489D
330
6E
100
AcDbDictionary
280
     1
  3
ACAD_XREC_ROUNDTRIP
360
489E
  0
DICTIONARY
  5
435A
330
66
100
AcDbDictionary
280
     1
  3
ACAD_LAYERSTATES
360
435B
  0
DICTIONARY
  5
4882
330
5E
100
AcDbDictionary
280
     1
  3
ACAD_XREC_ROUNDTRIP
360
4898
  3
ADSK_XREC_LAYER_RECONCILED
360
4883
  0
DICTIONARY
  5
4884
330
3E
100
AcDbDictionary
280
     1
  3
ACAD_XREC_ROUNDTRIP
360
4897
  3
ADSK_XREC_LAYER_RECONCILED
360
4885
  0
DICTIONARY
  5
488A
330
2B5
100
AcDbDictionary
280
     1
  3
ACAD_XREC_ROUNDTRIP
360
48A4
  3
ADSK_XREC_LAYER_RECONCILED
360
488B
  0
DICTIONARY
  5
488C
330
2BA
100
AcDbDictionary
280
     1
  3
ACAD_XREC_ROUNDTRIP
360
48A5
  3
ADSK_XREC_LAYER_RECONCILED
360
488D
  0
DICTIONARY
  5
4890
330
3FA
100
AcDbDictionary
280
     1
  3
ACAD_XREC_ROUNDTRIP
360
48A7
  3
ADSK_XREC_LAYER_RECONCILED
360
4891
  0
DICTIONARY
  5
4937
330
2
100
AcDbDictionary
280
     1
  3
ACAD_LAYOUTSELFREF
360
4938
  0
DICTIONARY
  5
4939
330
4910
100
AcDbDictionary
280
     1
  3
ACAD_LAYOUTSELFREF
360
493A
  0
DICTIONARY
  5
4330
102
{ACAD_REACTORS
330
7
102
}
330
7
100
AcDbDictionary
  0
DICTIONARY
  5
75
102
{ACAD_REACTORS
330
7
102
}
330
7
100
AcDbDictionary
  0
DICTIONARY
  5
61
102
{ACAD_REACTORS
330
7
102
}
330
7
100
AcDbDictionary
  0
DICTIONARY
  5
4306
102
{ACAD_REACTORS
330
7
102
}
330
7
100
AcDbDictionary
  3
BYBLOCK
350
430F
  3
BYLAYER
350
4307
  3
GLOBAL
350
4317
  0
DICTIONARY
  5
4355
102
{ACAD_REACTORS
330
7
102
}
330
7
100
AcDbDictionary
  3
STANDARD
350
4356
  0
DICTIONARY
  5
76
102
{ACAD_REACTORS
330
7
102
}
330
7
100
AcDbDictionary
  3
STANDARD
350
78
  0
DICTIONARY
  5
77
102
{ACAD_REACTORS
330
7
102
}
330
7
100
AcDbDictionary
  0
ACDBDICTIONARYWDFLT
  5
6
102
{ACAD_REACTORS
330
7
102
}
330
7
100
AcDbDictionary
281
     1
  3
Normal
350
5
100
AcDbDictionaryWithDefault
340
5
  0
DICTIONARY
  5
4333
102
{ACAD_REACTORS
330
7
102
}
330
7
100
AcDbDictionary
  3
A0
350
4334
  3
A1
350
4335
  3
A2
350
4336
  3
A3
350
4337
  3
A4
350
4338
  3
A5
350
4339
  3
A6
350
433A
  3
A7
350
433B
  3
A8
350
433C
  3
A9
350
433D
  3
B0
350
433E
  3
B1
350
433F
  3
B2
350
4340
  3
B3
350
4341
  3
B4
350
4342
  3
B5
350
4343
  3
B6
350
4344
  3
B7
350
4345
  3
B8
350
4346
  3
B9
350
4347
  3
C0
350
4348
  3
C1
350
4349
  3
C2
350
434A
  3
C3
350
434B
  3
C4
350
434C
  3
C5
350
434D
  3
C6
350
434E
  3
C7
350
434F
  3
C8
350
4350
  3
C9
350
4351
  3
D0
350
4352
  3
D1
350
4353
  3
D2
350
4354
  0
DICTIONARY
  5
4331
102
{ACAD_REACTORS
330
7
102
}
330
7
100
AcDbDictionary
  3
STANDARD
350
4332
  0
DICTIONARY
  5
431F
102
{ACAD_REACTORS
330
7
102
}
330
7
100
AcDbDictionary
  3
2DWIREFRAME
350
4325
  3
3D_HIDDEN
350
4327
  3
3DWIREFRAME
350
4326
  3
BASIC
350
4324
  3
BRIGHTEN
350
432B
  3
COLORCHANGE
350
432F
  3
CONCEPTUAL
350
4328
  3
DIM
350
432A
  3
FACEPATTERN
350
432E
  3
FLAT
350
4320
  3
FLATWITHEDGES
350
4321
  3
GOURAUD
350
4322
  3
GOURAUDWITHEDGES
350
4323
  3
LINEPATTERN
350
432D
  3
REALISTIC
350
4329
  3
THICKEN
350
432C
  0
XRECORD
  5
480
102
{ACAD_REACTORS
330
7
102
}
330
7
100
AcDbXrecord
 90
   990106
  3

 60
     0
 61
     0
 62
     1
 63
     3
 64
     1
 65
     0
 66
     0
 67
     3
 68
     1
 69
     0
 70
     0
 71
     0
 72
     0
 40
0.0
170
     2
340
0
  0
XRECORD
  5
4894
102
{ACAD_REACTORS
330
7
102
}
330
7
100
AcDbXrecord
 90
        1
330
4332
  0
DICTIONARY
  5
4916
102
{ACAD_REACTORS
330
7
102
}
330
7
100
AcDbDictionary
  3
CEPSNTYPE
350
4920
  3
DIMSTYLEDATA
350
4924
  3
FINGERPRINTGUID
350
4921
  3
HYPERLINKBASE
350
4919
  3
INSUNITS
350
491F
  3
LAYOUTDICT
350
491B
  3
LWETCUNION
350
491E
  3
PLOTSETDICT
350
491C
  3
PLOTSTYLNAMDICT
350
491D
  3
PSVPSCALE
350
4923
  3
PUCSBASE
350
4927
  3
PUCSORGBACK
350
492D
  3
PUCSORGBOTTOM
350
4929
  3
PUCSORGFRONT
350
492C
  3
PUCSORGLEFT
350
492A
  3
PUCSORGRIGHT
350
492B
  3
PUCSORGTOP
350
4928
  3
PUCSORTHOREF
350
4925
  3
PUCSORTHOVIEW
350
4926
  3
STYLESHEET
350
491A
  3
TSTACKALIGN
350
4917
  3
TSTACKSIZE
350
4918
  3
UCSBASE
350
4930
  3
UCSORGBACK
350
4936
  3
UCSORGBOTTOM
350
4932
  3
UCSORGFRONT
350
4935
  3
UCSORGLEFT
350
4933
  3
UCSORGRIGHT
350
4934
  3
UCSORGTOP
350
4931
  3
UCSORTHOREF
350
492E
  3
UCSORTHOVIEW
350
492F
  3
VERSIONGUID
350
4922
  0
DICTIONARY
  5
102
102
{ACAD_REACTORS
330
7
102
}
330
7
100
AcDbDictionary
  3
CANNOSCALE
350
48B0
  3
CMLEADERSTYLE
350
48AF
  3
CTABLESTYLE
350
48AE
  3
DIMASSOC
350
103
  3
INDEXCTL
350
48B2
  3
SORTENTS
350
48B1
  0
XRECORD
  5
4895
102
{ACAD_REACTORS
330
7
102
}
330
7
100
AcDbXrecord
  1
DWGPROPS COOKIE
  2

  3

  4

  6

  7

  8
ymorima
  9

300
=
301
=
302
=
303
=
304
=
305
=
306
=
307
=
308
=
309
=
 40
0.0725129976851852
 41
2453692.576672453
 42
2454474.412019305
  1

 90
        0
  0
XRECORD
  5
489E
102
{ACAD_REACTORS
330
489D
102
}
330
489D
100
AcDbXrecord
102
VTR_0.000_0.000_1.000_1.000_VISUALSTYLE
340
4325
102
VTR_0.000_0.000_1.000_1.000_GRIDDISPLAY
 70
     3
102
VTR_0.000_0.000_1.000_1.000_GRIDMAJOR
 70
     5
102
VTR_0.000_0.000_1.000_1.000_DEFAULTLIGHTING
280
     1
102
VTR_0.000_0.000_1.000_1.000_DEFAULTLIGHTINGTYPE
 70
     1
102
VTR_0.000_0.000_1.000_1.000_BRIGHTNESS
141
0.0
102
VTR_0.000_0.000_1.000_1.000_CONTRAST
142
0.0
  0
DICTIONARY
  5
435B
102
{ACAD_REACTORS
330
435A
102
}
330
435A
100
AcDbDictionary
  0
XRECORD
  5
4898
102
{ACAD_REACTORS
330
4882
102
}
330
4882
100
AcDbXrecord
102
MATERIAL
340
4317
  0
XRECORD
  5
4883
102
{ACAD_REACTORS
330
4882
102
}
330
4882
100
AcDbXrecord
290
     1
  0
XRECORD
  5
4897
102
{ACAD_REACTORS
330
4884
102
}
330
4884
100
AcDbXrecord
102
MATERIAL
340
4317
  0
XRECORD
  5
4885
102
{ACAD_REACTORS
330
4884
102
}
330
4884
100
AcDbXrecord
290
     1
  0
XRECORD
  5
48A4
102
{ACAD_REACTORS
330
488A
102
}
330
488A
100
AcDbXrecord
102
MATERIAL
340
4317
  0
XRECORD
  5
488B
102
{ACAD_REACTORS
330
488A
102
}
330
488A
100
AcDbXrecord
290
     1
  0
XRECORD
  5
48A5
102
{ACAD_REACTORS
330
488C
102
}
330
488C
100
AcDbXrecord
102
MATERIAL
340
4317
  0
XRECORD
  5
488D
102
{ACAD_REACTORS
330
488C
102
}
330
488C
100
AcDbXrecord
290
     1
  0
XRECORD
  5
48A7
102
{ACAD_REACTORS
330
4890
102
}
330
4890
100
AcDbXrecord
102
MATERIAL
340
4317
  0
XRECORD
  5
4891
102
{ACAD_REACTORS
330
4890
102
}
330
4890
100
AcDbXrecord
290
     1
  0
XRECORD
  5
4938
102
{ACAD_REACTORS
330
4937
102
}
330
4937
100
AcDbXrecord
340
2
  0
XRECORD
  5
493A
102
{ACAD_REACTORS
330
4939
102
}
330
4939
100
AcDbXrecord
340
4910
  0
ACAD_PROXY_OBJECT
  5
430F
102
{ACAD_XDICTIONARY
360
4310
102
}
102
{ACAD_REACTORS
330
4306
102
}
330
4306
100
AcDbProxyObject
 90
      499
 91
      511
 93
     1340
310
42109E509B1BD8DAC02004014080404555555555555953FAA155555555555654FEA9AA400014080404555555555555953FAA155555555555654FEA9AA400000000000000E03F4080404555555555555953FAA155555555555654FEA9AA4014080404555555555555953FAA155555555555654FEA9AA4010201011555555555
310
55654FEA8555555555555953FAA6A9005020101155555555555654FEA8555555555555953FAA6A9000
 94
        0
1001
ACAD
1000
AcadProxyRoundTripData
1071
      504
1071
   655383
1070
     0
  0
ACAD_PROXY_OBJECT
  5
4307
102
{ACAD_XDICTIONARY
360
4308
102
}
102
{ACAD_REACTORS
330
4306
102
}
330
4306
100
AcDbProxyObject
 90
      499
 91
      511
 93
     1340
310
42109E53185E595C802004014080404555555555555953FAA155555555555654FEA9AA400014080404555555555555953FAA155555555555654FEA9AA400000000000000E03F4080404555555555555953FAA155555555555654FEA9AA4014080404555555555555953FAA155555555555654FEA9AA4010201011555555555
310
55654FEA8555555555555953FAA6A9005020101155555555555654FEA8555555555555953FAA6A9000
 94
        0
1001
ACAD
1000
AcadProxyRoundTripData
1071
      504
1071
   655383
1070
     0
  0
ACAD_PROXY_OBJECT
  5
4317
102
{ACAD_XDICTIONARY
360
4318
102
}
102
{ACAD_REACTORS
330
4306
102
}
330
4306
100
AcDbProxyObject
 90
      499
 91
      511
 93
     1332
310
41D1DB1BD8985B002004014080404555555555555953FAA155555555555654FEA9AA400014080404555555555555953FAA155555555555654FEA9AA400000000000000E03F4080404555555555555953FAA155555555555654FEA9AA4014080404555555555555953FAA155555555555654FEA9AA401020101155555555555
310
654FEA8555555555555953FAA6A9005020101155555555555654FEA8555555555555953FAA6A9000
 94
        0
1001
ACAD
1000
AcadProxyRoundTripData
1071
      504
1071
   655383
1070
     0
  0
ACAD_PROXY_OBJECT
  5
4356
102
{ACAD_REACTORS
330
4355
102
}
330
4355
100
AcDbProxyObject
 90
      499
 91
      511
 93
      618
310
40901902A4063FBFFFFFE056BD1B81E855B9FC0AD7A3703D0AD73F4254DD185B99185C990000AD7A3703D0AC73F90141901A02B5E8DC0F42B1CFC02B5E8DC0F42B1CFE5764000000000000300FC6
340
6A
340
0
340
16
340
0
 94
        0
1001
ACAD_MLEADERVER
1070
     2
1001
ACAD
1000
AcadProxyRoundTripData
1071
      508
1071
   655383
1070
     0
  0
MLINESTYLE
  5
78
102
{ACAD_REACTORS
330
76
102
}
330
76
100
AcDbMlineStyle
  2
STANDARD
 70
     0
  3

 62
     0
 51
90.0
 52
90.0
 71
     2
 49
0.5
 62
   256
  6
BYLAYER
 49
-0.5
 62
   256
  6
BYLAYER
  0
ACDBPLACEHOLDER
  5
5
102
{ACAD_REACTORS
330
6
102
}
330
6
100
AcDbPlaceHolder
280
     0
  0
ACAD_PROXY_OBJECT
  5
4334
102
{ACAD_REACTORS
330
4333
102
}
330
4333
100
AcDbProxyObject
 90
      499
 91
      511
 93
       49
310
904313A3100598
 94
        0
1001
ACAD
1000
AcadProxyRoundTripData
1071
      507
1071
   655383
1070
     0
  0
ACAD_PROXY_OBJECT
  5
4335
102
{ACAD_REACTORS
330
4333
102
}
330
4333
100
AcDbProxyObject
 90
      499
 91
      511
 93
      113
310
904313A3200400000000000000406B
 94
        0
1001
ACAD
1000
AcadProxyRoundTripData
1071
      507
1071
   655383
1070
     0
  0
ACAD_PROXY_OBJECT
  5
4336
102
{ACAD_REACTORS
330
4333
102
}
330
4333
100
AcDbProxyObject
 90
      499
 91
      511
 93
      113
310
904313A3400400000000000010406B
 94
        0
1001
ACAD
1000
AcadProxyRoundTripData
1071
      507
1071
   655383
1070
     0
  0
ACAD_PROXY_OBJECT
  5
4337
102
{ACAD_REACTORS
330
4333
102
}
330
4333
100
AcDbProxyObject
 90
      499
 91
      511
 93
      113
310
904313A3500400000000000014406B
 94
        0
1001
ACAD
1000
AcadProxyRoundTripData
1071
      507
1071
   655383
1070
     0
  0
ACAD_PROXY_OBJECT
  5
4338
102
{ACAD_REACTORS
330
4333
102
}
330
4333
100
AcDbProxyObject
 90
      499
 91
      511
 93
      113
310
904313A3800400000000000020406B
 94
        0
1001
ACAD
1000
AcadProxyRoundTripData
1071
      507
1071
   655383
1070
     0
  0
ACAD_PROXY_OBJECT
  5
4339
102
{ACAD_REACTORS
330
4333
102
}
330
4333
100
AcDbProxyObject
 90
      499
 91
      511
 93
      121
310
905313A3130004000000000000244051
 94
        0
1001
ACAD
1000
AcadProxyRoundTripData
1071
      507
1071
   655383
1070
     0
  0
ACAD_PROXY_OBJECT
  5
433A
102
{ACAD_REACTORS
330
4333
102
}
330
4333
100
AcDbProxyObject
 90
      499
 91
      511
 93
      121
310
905313A3136004000000000000304051
 94
        0
1001
ACAD
1000
AcadProxyRoundTripData
1071
      507
1071
   655383
1070
     0
  0
ACAD_PROXY_OBJECT
  5
433B
102
{ACAD_REACTORS
330
4333
102
}
330
4333
100
AcDbProxyObject
 90
      499
 91
      511
 93
      121
310
905313A3230004000000000000344051
 94
        0
1001
ACAD
1000
AcadProxyRoundTripData
1071
      507
1071
   655383
1070
     0
  0
ACAD_PROXY_OBJECT
  5
433C
102
{ACAD_REACTORS
330
4333
102
}
330
4333
100
AcDbProxyObject
 90
      499
 91
      511
 93
      121
310
905313A33300040000000000003E4051
 94
        0
1001
ACAD
1000
AcadProxyRoundTripData
1071
      507
1071
   655383
1070
     0
  0
ACAD_PROXY_OBJECT
  5
433D
102
{ACAD_REACTORS
330
4333
102
}
330
4333
100
AcDbProxyObject
 90
      499
 91
      511
 93
      121
310
905313A3430004000000000000444051
 94
        0
1001
ACAD
1000
AcadProxyRoundTripData
1071
      507
1071
   655383
1070
     0
  0
ACAD_PROXY_OBJECT
  5
433E
102
{ACAD_REACTORS
330
4333
102
}
330
4333
100
AcDbProxyObject
 90
      499
 91
      511
 93
      121
310
905313A3530004000000000000494051
 94
        0
1001
ACAD
1000
AcadProxyRoundTripData
1071
      507
1071
   655383
1070
     0
  0
ACAD_PROXY_OBJECT
  5
433F
102
{ACAD_REACTORS
330
4333
102
}
330
4333
100
AcDbProxyObject
 90
      499
 91
      511
 93
      129
310
906313A313030004000000000000594038
 94
        0
1001
ACAD
1000
AcadProxyRoundTripData
1071
      507
1071
   655383
1070
     0
  0
ACAD_PROXY_OBJECT
  5
4340
102
{ACAD_REACTORS
330
4333
102
}
330
4333
100
AcDbProxyObject
 90
      499
 91
      511
 93
      113
310
904323A31000000000000000010159
 94
        0
1001
ACAD
1000
AcadProxyRoundTripData
1071
      507
1071
   655383
1070
     0
  0
ACAD_PROXY_OBJECT
  5
4341
102
{ACAD_REACTORS
330
4333
102
}
330
4333
100
AcDbProxyObject
 90
      499
 91
      511
 93
      113
310
904343A31000000000000000410159
 94
        0
1001
ACAD
1000
AcadProxyRoundTripData
1071
      507
1071
   655383
1070
     0
  0
ACAD_PROXY_OBJECT
  5
4342
102
{ACAD_REACTORS
330
4333
102
}
330
4333
100
AcDbProxyObject
 90
      499
 91
      511
 93
      113
310
904383A31000000000000000810159
 94
        0
1001
ACAD
1000
AcadProxyRoundTripData
1071
      507
1071
   655383
1070
     0
  0
ACAD_PROXY_OBJECT
  5
4343
102
{ACAD_REACTORS
330
4333
102
}
330
4333
100
AcDbProxyObject
 90
      499
 91
      511
 93
      121
310
90531303A31000000000000000910140
 94
        0
1001
ACAD
1000
AcadProxyRoundTripData
1071
      507
1071
   655383
1070
     0
  0
ACAD_PROXY_OBJECT
  5
4344
102
{ACAD_REACTORS
330
4333
102
}
330
4333
100
AcDbProxyObject
 90
      499
 91
      511
 93
      129
310
9063130303A31000000000000001650138
 94
        0
1001
ACAD
1000
AcadProxyRoundTripData
1071
      507
1071
   655383
1070
     0
  0
ACAD_PROXY_OBJECT
  5
4345
102
{ACAD_REACTORS
330
4333
102
}
330
4333
100
AcDbProxyObject
 90
      499
 91
      511
 93
      265
310
90F312F31323822203D2031272D302200000000000000200FC00000000000028402B
 94
        0
1001
ACAD
1000
AcadProxyRoundTripData
1071
      507
1071
   655383
1070
     0
  0
ACAD_PROXY_OBJECT
  5
4346
102
{ACAD_REACTORS
330
4333
102
}
330
4333
100
AcDbProxyObject
 90
      499
 91
      511
 93
      257
310
90E312F363422203D2031272D302200000000000000240FC000000000000284040
 94
        0
1001
ACAD
1000
AcadProxyRoundTripData
1071
      507
1071
   655383
1070
     0
  0
ACAD_PROXY_OBJECT
  5
4347
102
{ACAD_REACTORS
330
4333
102
}
330
4333
100
AcDbProxyObject
 90
      499
 91
      511
 93
      257
310
90E312F333222203D2031272D302200000000000000280FC000000000000284040
 94
        0
1001
ACAD
1000
AcadProxyRoundTripData
1071
      507
1071
   655383
1070
     0
  0
ACAD_PROXY_OBJECT
  5
4348
102
{ACAD_REACTORS
330
4333
102
}
330
4333
100
AcDbProxyObject
 90
      499
 91
      511
 93
      257
310
90E312F313622203D2031272D3022000000000000002C0FC000000000000284040
 94
        0
1001
ACAD
1000
AcadProxyRoundTripData
1071
      507
1071
   655383
1070
     0
  0
ACAD_PROXY_OBJECT
  5
4349
102
{ACAD_REACTORS
330
4333
102
}
330
4333
100
AcDbProxyObject
 90
      499
 91
      511
 93
      257
310
90E332F333222203D2031272D3022000000000000002E0FC000000000000284040
 94
        0
1001
ACAD
1000
AcadProxyRoundTripData
1071
      507
1071
   655383
1070
     0
  0
ACAD_PROXY_OBJECT
  5
434A
102
{ACAD_REACTORS
330
4333
102
}
330
4333
100
AcDbProxyObject
 90
      499
 91
      511
 93
      249
310
90D312F3822203D2031272D302200000000000000300FC000000000000284040
 94
        0
1001
ACAD
1000
AcadProxyRoundTripData
1071
      507
1071
   655383
1070
     0
  0
ACAD_PROXY_OBJECT
  5
434B
102
{ACAD_REACTORS
330
4333
102
}
330
4333
100
AcDbProxyObject
 90
      499
 91
      511
 93
      257
310
90E332F313622203D2031272D302200000000000000320FC000000000000284040
 94
        0
1001
ACAD
1000
AcadProxyRoundTripData
1071
      507
1071
   655383
1070
     0
  0
ACAD_PROXY_OBJECT
  5
434C
102
{ACAD_REACTORS
330
4333
102
}
330
4333
100
AcDbProxyObject
 90
      499
 91
      511
 93
      249
310
90D312F3422203D2031272D302200000000000000340FC000000000000284040
 94
        0
1001
ACAD
1000
AcadProxyRoundTripData
1071
      507
1071
   655383
1070
     0
  0
ACAD_PROXY_OBJECT
  5
434D
102
{ACAD_REACTORS
330
4333
102
}
330
4333
100
AcDbProxyObject
 90
      499
 91
      511
 93
      249
310
90D332F3822203D2031272D302200000000000000360FC000000000000284040
 94
        0
1001
ACAD
1000
AcadProxyRoundTripData
1071
      507
1071
   655383
1070
     0
  0
ACAD_PROXY_OBJECT
  5
434E
102
{ACAD_REACTORS
330
4333
102
}
330
4333
100
AcDbProxyObject
 90
      499
 91
      511
 93
      249
310
90D312F3222203D2031272D302200000000000000380FC000000000000284040
 94
        0
1001
ACAD
1000
AcadProxyRoundTripData
1071
      507
1071
   655383
1070
     0
  0
ACAD_PROXY_OBJECT
  5
434F
102
{ACAD_REACTORS
330
4333
102
}
330
4333
100
AcDbProxyObject
 90
      499
 91
      511
 93
      249
310
90D332F3422203D2031272D3022000000000000003A0FC000000000000284040
 94
        0
1001
ACAD
1000
AcadProxyRoundTripData
1071
      507
1071
   655383
1070
     0
  0
ACAD_PROXY_OBJECT
  5
4350
102
{ACAD_REACTORS
330
4333
102
}
330
4333
100
AcDbProxyObject
 90
      499
 91
      511
 93
      169
310
90B3122203D2031272D3022004000000000000284020
 94
        0
1001
ACAD
1000
AcadProxyRoundTripData
1071
      507
1071
   655383
1070
     0
  0
ACAD_PROXY_OBJECT
  5
4351
102
{ACAD_REACTORS
330
4333
102
}
330
4333
100
AcDbProxyObject
 90
      499
 91
      511
 93
      265
310
90F312D312F3222203D2031272D3022000000000000003E0FC00000000000028402B
 94
        0
1001
ACAD
1000
AcadProxyRoundTripData
1071
      507
1071
   655383
1070
     0
  0
ACAD_PROXY_OBJECT
  5
4352
102
{ACAD_REACTORS
330
4333
102
}
330
4333
100
AcDbProxyObject
 90
      499
 91
      511
 93
      233
310
90B3322203D2031272D30220000000000000002100000000000000284000
 94
        0
1001
ACAD
1000
AcadProxyRoundTripData
1071
      507
1071
   655383
1070
     0
  0
ACAD_PROXY_OBJECT
  5
4353
102
{ACAD_REACTORS
330
4333
102
}
330
4333
100
AcDbProxyObject
 90
      499
 91
      511
 93
      233
310
90B3622203D2031272D30220000000000000006100000000000000284000
 94
        0
1001
ACAD
1000
AcadProxyRoundTripData
1071
      507
1071
   655383
1070
     0
  0
ACAD_PROXY_OBJECT
  5
4354
102
{ACAD_REACTORS
330
4333
102
}
330
4333
100
AcDbProxyObject
 90
      499
 91
      511
 93
      257
310
90E31272D3022203D2031272D3022000000000000000A100000000000000284040
 94
        0
1001
ACAD
1000
AcadProxyRoundTripData
1071
      507
1071
   655383
1070
     0
  0
ACAD_PROXY_OBJECT
  5
4332
102
{ACAD_XDICTIONARY
360
4892
102
}
102
{ACAD_REACTORS
330
4331
102
}
330
4331
100
AcDbProxyObject
 90
      499
 91
      511
 93
     1849
310
4254DD185B99185C990028B81E85EB51B8AE3F2E07A17AD46E2B8FC02B5E8DC0F42B1CFD028000000C1008070000C3001FDFF8000000C1003FBFF000000182007F7FE00000030400FEFFC00000060801FDFF8000000C1003FBFF00000018200000000000000681FA0B0000001820100E000186003FBFF000000182007F7FE0
310
0000030400FEFFC00000060801FDFF8000000C1003FBFF000000182007F7FE000000304000AD7A3703D0AC73F4160000003040201C00030C007F7FE00000030400FEFFC00000060801FDFF8000000C1003FBFF000000182007F7FE00000030400FEFFC00000060805E
340
16
340
16
340
16
 94
        0
1001
ACAD
1000
AcadProxyRoundTripData
1071
      506
1071
   655383
1070
     0
  0
ACAD_PROXY_OBJECT
  5
4325
102
{ACAD_REACTORS
330
431F
102
}
330
431F
100
AcDbProxyObject
 90
      499
 91
      511
 93
      444
310
430C9915DA5C99599C985B59401049028333333333333E3BF0000000000000FB0107901411070040501600405405064090741402480A0340
 94
        0
1001
ACAD
1000
AcDbSavedByObjectVersion
1070
     0
1000
AcadProxyRoundTripData
1071
      505
1071
   655383
1070
     0
  0
ACAD_PROXY_OBJECT
  5
4327
102
{ACAD_REACTORS
330
431F
102
}
330
431F
100
AcDbProxyObject
 90
      499
 91
      511
 93
      508
310
428CD108121A5919195B8010640502408333333333333E3BF0000000000000FB01079024090700405020000000000001110200405405064090740C02480A0340
 94
        0
1001
ACAD
1000
AcDbSavedByObjectVersion
1070
     0
1000
AcadProxyRoundTripData
1071
      505
1071
   655383
1070
     0
  0
ACAD_PROXY_OBJECT
  5
4326
102
{ACAD_REACTORS
330
431F
102
}
330
431F
100
AcDbProxyObject
 90
      499
 91
      511
 93
      444
310
430CD915DA5C99599C985B59401059028333333333333E3BF0000000000000FB0107901411070040501600405405064090741402480A0340
 94
        0
1001
ACAD
1000
AcDbSavedByObjectVersion
1070
     0
1000
AcadProxyRoundTripData
1071
      505
1071
   655383
1070
     0
  0
ACAD_PROXY_OBJECT
  5
4324
102
{ACAD_REACTORS
330
431F
102
}
330
431F
100
AcDbProxyObject
 90
      499
 91
      511
 93
      396
310
4190985CDA58C0107406404333333333333E3BF0000000000000FB0107A41107004050150841D405064090741402480A0356
 94
        0
1001
ACAD
1000
AcDbSavedByObjectVersion
1070
     0
1000
AcadProxyRoundTripData
1071
      505
1071
   655383
1070
     0
  0
ACAD_PROXY_OBJECT
  5
432B
102
{ACAD_REACTORS
330
431F
102
}
330
431F
100
AcDbProxyObject
 90
      499
 91
      511
 93
      436
310
42509C9A59DA1D195B8010C409028333333333333E3BF0000000000000FB010790141107004050150841D405064090741402480A029956
 94
        0
1001
ACAD
1000
AcDbSavedByObjectVersion
1070
     0
1000
AcadProxyRoundTripData
1071
      505
1071
   655383
1070
     0
  0
ACAD_PROXY_OBJECT
  5
432F
102
{ACAD_REACTORS
330
431F
102
}
330
431F
100
AcDbProxyObject
 90
      499
 91
      511
 93
      460
310
4310DBDB1BDC90DA185B99D9401104090240C333333333333E3BF0000000000000FB0108901411070040501508421405064090741402480A0354
 94
        0
1001
ACAD
1000
AcDbSavedByObjectVersion
1070
     0
1000
AcadProxyRoundTripData
1071
      505
1071
   655383
1070
     0
  0
ACAD_PROXY_OBJECT
  5
4328
102
{ACAD_REACTORS
330
431F
102
}
330
431F
100
AcDbProxyObject
 90
      499
 91
      511
 93
      508
310
42D0DBDB98D95C1D1D585B0010940D028333333333333E3BF0000000000000FB0107902409070040501000000000000111010841D405064090740C02480A0340
 94
        0
1001
ACAD
1000
AcDbSavedByObjectVersion
1070
     0
1000
AcadProxyRoundTripData
1071
      505
1071
   655383
1070
     0
  0
ACAD_PROXY_OBJECT
  5
432A
102
{ACAD_REACTORS
330
431F
102
}
330
431F
100
AcDbProxyObject
 90
      499
 91
      511
 93
      420
310
41111A5B4010B409028333333333333E3BF0000000000000FB010790141107004050150841D405064090741402480A02677FFFFFDB
 94
        0
1001
ACAD
1000
AcDbSavedByObjectVersion
1070
     0
1000
AcadProxyRoundTripData
1071
      505
1071
   655383
1070
     0
  0
ACAD_PROXY_OBJECT
  5
432E
102
{ACAD_REACTORS
330
431F
102
}
330
431F
100
AcDbProxyObject
 90
      499
 91
      511
 93
      452
310
43119858D95C185D1D195C9B8010F409028333333333333E3BF0000000000000FB010790141107004050150841D405064090741402480A0350
 94
        0
1001
ACAD
1000
AcDbSavedByObjectVersion
1070
     0
1000
AcadProxyRoundTripData
1071
      505
1071
   655383
1070
     0
  0
ACAD_PROXY_OBJECT
  5
4320
102
{ACAD_REACTORS
330
431F
102
}
330
431F
100
AcDbProxyObject
 90
      499
 91
      511
 93
      396
310
41519B185D00240901404333333333333E3BF0000000000000F9010740A41107004050150841D405064090741402480A1B55
 94
        0
1001
ACAD
1000
AcDbSavedByObjectVersion
1070
     0
1000
AcadProxyRoundTripData
1071
      505
1071
   655383
1070
     0
  0
ACAD_PROXY_OBJECT
  5
4321
102
{ACAD_REACTORS
330
431F
102
}
330
431F
100
AcDbProxyObject
 90
      499
 91
      511
 93
      484
310
43919B185D15DA5D1A115919D95CC010140901404333333333333E3BF0000000000000F9010740901411070040501600405405064090741402480A1B50
 94
        0
1001
ACAD
1000
AcDbSavedByObjectVersion
1070
     0
1000
AcadProxyRoundTripData
1071
      505
1071
   655383
1070
     0
  0
ACAD_PROXY_OBJECT
  5
4322
102
{ACAD_REACTORS
330
431F
102
}
330
431F
100
AcDbProxyObject
 90
      499
 91
      511
 93
      420
310
4211DBDD5C985D590010240902404333333333333E3BF0000000000000F9010740A411070040501641D405064090741402480A1B50
 94
        0
1001
ACAD
1000
AcDbSavedByObjectVersion
1070
     0
1000
AcadProxyRoundTripData
1071
      505
1071
   655383
1070
     0
  0
ACAD_PROXY_OBJECT
  5
4323
102
{ACAD_REACTORS
330
431F
102
}
330
431F
100
AcDbProxyObject
 90
      499
 91
      511
 93
      508
310
4451DBDD5C985D5915DA5D1A115919D95CC010340902404333333333333E3BF0000000000000F9010740901411070040501600405405064090741402480A1B50
 94
        0
1001
ACAD
1000
AcDbSavedByObjectVersion
1070
     0
1000
AcadProxyRoundTripData
1071
      505
1071
   655383
1070
     0
  0
ACAD_PROXY_OBJECT
  5
432D
102
{ACAD_REACTORS
330
431F
102
}
330
431F
100
AcDbProxyObject
 90
      499
 91
      511
 93
      452
310
43131A5B995C185D1D195C9B8010E409028333333333333E3BF0000000000000FB010790141107004050750841D405064090741402483A0350
 94
        0
1001
ACAD
1000
AcDbSavedByObjectVersion
1070
     0
1000
AcadProxyRoundTripData
1071
      505
1071
   655383
1070
     0
  0
ACAD_PROXY_OBJECT
  5
4329
102
{ACAD_REACTORS
330
431F
102
}
330
431F
100
AcDbProxyObject
 90
      499
 91
      511
 93
      428
310
429499585B1A5CDD1A58C0108409028333333333333E3BF0000000000000FB01079019070040501508421405064090741402480A1B45
 94
        0
1001
ACAD
1000
AcDbSavedByObjectVersion
1070
     0
1000
AcadProxyRoundTripData
1071
      505
1071
   655383
1070
     0
  0
ACAD_PROXY_OBJECT
  5
432C
102
{ACAD_REACTORS
330
431F
102
}
330
431F
100
AcDbProxyObject
 90
      499
 91
      511
 93
      420
310
42151A1A58DAD95B8010D409028333333333333E3BF0000000000000FB010790141107004050150C41D405064090741402480A0352
 94
        0
1001
ACAD
1000
AcDbSavedByObjectVersion
1070
     0
1000
AcadProxyRoundTripData
1071
      505
1071
   655383
1070
     0
  0
XRECORD
  5
4920
102
{ACAD_REACTORS
330
4916
102
}
330
4916
100
AcDbXrecord
 90
        0
  0
XRECORD
  5
4924
102
{ACAD_REACTORS
330
4916
102
}
330
4916
100
AcDbXrecord
1000
DSTYLE
1002
{
1070
   179
 70
     2
1070
   277
 70
     6
1002
}
  0
XRECORD
  5
4921
102
{ACAD_REACTORS
330
4916
102
}
330
4916
100
AcDbXrecord
  1
{6385560B-F4B1-4644-A7C2-A3E32AC3D232}
  0
XRECORD
  5
4919
102
{ACAD_REACTORS
330
4916
102
}
330
4916
100
AcDbXrecord
  1

  0
XRECORD
  5
491F
102
{ACAD_REACTORS
330
4916
102
}
330
4916
100
AcDbXrecord
 90
        0
  0
XRECORD
  5
491B
102
{ACAD_REACTORS
330
4916
102
}
330
4916
100
AcDbXrecord
340
61
  0
XRECORD
  5
491E
102
{ACAD_REACTORS
330
4916
102
}
330
4916
100
AcDbXrecord
 90
    10781
  0
XRECORD
  5
491C
102
{ACAD_REACTORS
330
4916
102
}
330
4916
100
AcDbXrecord
340
77
  0
XRECORD
  5
491D
102
{ACAD_REACTORS
330
4916
102
}
330
4916
100
AcDbXrecord
340
6
  0
XRECORD
  5
4923
102
{ACAD_REACTORS
330
4916
102
}
330
4916
100
AcDbXrecord
 40
0.0
  0
XRECORD
  5
4927
102
{ACAD_REACTORS
330
4916
102
}
330
4916
100
AcDbXrecord
340
0
  0
XRECORD
  5
492D
102
{ACAD_REACTORS
330
4916
102
}
330
4916
100
AcDbXrecord
 10
0.0
 20
0.0
 30
0.0
  0
XRECORD
  5
4929
102
{ACAD_REACTORS
330
4916
102
}
330
4916
100
AcDbXrecord
 10
0.0
 20
0.0
 30
0.0
  0
XRECORD
  5
492C
102
{ACAD_REACTORS
330
4916
102
}
330
4916
100
AcDbXrecord
 10
0.0
 20
0.0
 30
0.0
  0
XRECORD
  5
492A
102
{ACAD_REACTORS
330
4916
102
}
330
4916
100
AcDbXrecord
 10
0.0
 20
0.0
 30
0.0
  0
XRECORD
  5
492B
102
{ACAD_REACTORS
330
4916
102
}
330
4916
100
AcDbXrecord
 10
0.0
 20
0.0
 30
0.0
  0
XRECORD
  5
4928
102
{ACAD_REACTORS
330
4916
102
}
330
4916
100
AcDbXrecord
 10
0.0
 20
0.0
 30
0.0
  0
XRECORD
  5
4925
102
{ACAD_REACTORS
330
4916
102
}
330
4916
100
AcDbXrecord
340
0
  0
XRECORD
  5
4926
102
{ACAD_REACTORS
330
4916
102
}
330
4916
100
AcDbXrecord
 70
     0
  0
XRECORD
  5
491A
102
{ACAD_REACTORS
330
4916
102
}
330
4916
100
AcDbXrecord
  1
Sekkei.ctb
  0
XRECORD
  5
4917
102
{ACAD_REACTORS
330
4916
102
}
330
4916
100
AcDbXrecord
 90
        1
  0
XRECORD
  5
4918
102
{ACAD_REACTORS
330
4916
102
}
330
4916
100
AcDbXrecord
 90
       70
  0
XRECORD
  5
4930
102
{ACAD_REACTORS
330
4916
102
}
330
4916
100
AcDbXrecord
340
0
  0
XRECORD
  5
4936
102
{ACAD_REACTORS
330
4916
102
}
330
4916
100
AcDbXrecord
 10
0.0
 20
0.0
 30
0.0
  0
XRECORD
  5
4932
102
{ACAD_REACTORS
330
4916
102
}
330
4916
100
AcDbXrecord
 10
0.0
 20
0.0
 30
0.0
  0
XRECORD
  5
4935
102
{ACAD_REACTORS
330
4916
102
}
330
4916
100
AcDbXrecord
 10
0.0
 20
0.0
 30
0.0
  0
XRECORD
  5
4933
102
{ACAD_REACTORS
330
4916
102
}
330
4916
100
AcDbXrecord
 10
0.0
 20
0.0
 30
0.0
  0
XRECORD
  5
4934
102
{ACAD_REACTORS
330
4916
102
}
330
4916
100
AcDbXrecord
 10
0.0
 20
0.0
 30
0.0
  0
XRECORD
  5
4931
102
{ACAD_REACTORS
330
4916
102
}
330
4916
100
AcDbXrecord
 10
0.0
 20
0.0
 30
0.0
  0
XRECORD
  5
492E
102
{ACAD_REACTORS
330
4916
102
}
330
4916
100
AcDbXrecord
340
0
  0
XRECORD
  5
492F
102
{ACAD_REACTORS
330
4916
102
}
330
4916
100
AcDbXrecord
 70
     0
  0
XRECORD
  5
4922
102
{ACAD_REACTORS
330
4916
102
}
330
4916
100
AcDbXrecord
  1
{6DF206E8-4CCC-4B19-A188-5E902EBA42FE}
  0
DICTIONARYVAR
  5
48B0
102
{ACAD_REACTORS
330
102
102
}
330
102
100
DictionaryVariables
280
     0
  1
1:1
  0
DICTIONARYVAR
  5
48AF
102
{ACAD_REACTORS
330
102
102
}
330
102
100
DictionaryVariables
280
     0
  1
STANDARD
  0
DICTIONARYVAR
  5
48AE
102
{ACAD_REACTORS
330
102
102
}
330
102
100
DictionaryVariables
280
     0
  1
STANDARD
  0
DICTIONARYVAR
  5
103
102
{ACAD_REACTORS
330
102
102
}
330
102
100
DictionaryVariables
280
     0
  1
1
  0
DICTIONARYVAR
  5
48B2
102
{ACAD_REACTORS
330
102
102
}
330
102
100
DictionaryVariables
280
     0
  1
0
  0
DICTIONARYVAR
  5
48B1
102
{ACAD_REACTORS
330
102
102
}
330
102
100
DictionaryVariables
280
     0
  1
127
  0
DICTIONARY
  5
4310
330
430F
100
AcDbDictionary
280
     1
  3
ACAD_XREC_ROUNDTRIP
360
48AB
  3
BUMPTILE
360
4312
  3
DIFFUSETILE
360
4311
  3
OPACITYTILE
360
4315
  3
REFLECTIONTILE
360
4314
  3
REFRACTIONTILE
360
4316
  3
SPECULARTILE
360
4313
  0
DICTIONARY
  5
4308
330
4307
100
AcDbDictionary
280
     1
  3
ACAD_XREC_ROUNDTRIP
360
48AA
  3
BUMPTILE
360
430A
  3
DIFFUSETILE
360
4309
  3
OPACITYTILE
360
430D
  3
REFLECTIONTILE
360
430C
  3
REFRACTIONTILE
360
430E
  3
SPECULARTILE
360
430B
  0
DICTIONARY
  5
4318
330
4317
100
AcDbDictionary
280
     1
  3
ACAD_XREC_ROUNDTRIP
360
48AC
  3
BUMPTILE
360
431A
  3
DIFFUSETILE
360
4319
  3
OPACITYTILE
360
431D
  3
REFLECTIONTILE
360
431C
  3
REFRACTIONTILE
360
431E
  3
SPECULARTILE
360
431B
  0
DICTIONARY
  5
4892
330
4332
100
AcDbDictionary
280
     1
  3
ACAD_ROUNDTRIP_2008_TABLES
360
4893
  3
ACAD_XREC_ROUNDTRIP
360
48AD
  0
XRECORD
  5
48AB
102
{ACAD_REACTORS
330
4310
102
}
330
4310
100
AcDbXrecord
102
MATERIAL
148
0.0
149
0.0
149
0.0
 93
        0
 94
      127
282
     0
 72
     0
 77
     0
171
     0
175
     0
179
     0
273
     0
  0
XRECORD
  5
4312
102
{ACAD_REACTORS
330
4310
102
}
330
4310
100
AcDbXrecord
270
     1
271
     1
  0
XRECORD
  5
4311
102
{ACAD_REACTORS
330
4310
102
}
330
4310
100
AcDbXrecord
270
     1
271
     1
  0
XRECORD
  5
4315
102
{ACAD_REACTORS
330
4310
102
}
330
4310
100
AcDbXrecord
270
     1
271
     1
  0
XRECORD
  5
4314
102
{ACAD_REACTORS
330
4310
102
}
330
4310
100
AcDbXrecord
270
     1
271
     1
  0
XRECORD
  5
4316
102
{ACAD_REACTORS
330
4310
102
}
330
4310
100
AcDbXrecord
270
     1
271
     1
  0
XRECORD
  5
4313
102
{ACAD_REACTORS
330
4310
102
}
330
4310
100
AcDbXrecord
270
     1
271
     1
  0
XRECORD
  5
48AA
102
{ACAD_REACTORS
330
4308
102
}
330
4308
100
AcDbXrecord
102
MATERIAL
148
0.0
149
0.0
149
0.0
 93
        0
 94
      127
282
     0
 72
     0
 77
     0
171
     0
175
     0
179
     0
273
     0
  0
XRECORD
  5
430A
102
{ACAD_REACTORS
330
4308
102
}
330
4308
100
AcDbXrecord
270
     1
271
     1
  0
XRECORD
  5
4309
102
{ACAD_REACTORS
330
4308
102
}
330
4308
100
AcDbXrecord
270
     1
271
     1
  0
XRECORD
  5
430D
102
{ACAD_REACTORS
330
4308
102
}
330
4308
100
AcDbXrecord
270
     1
271
     1
  0
XRECORD
  5
430C
102
{ACAD_REACTORS
330
4308
102
}
330
4308
100
AcDbXrecord
270
     1
271
     1
  0
XRECORD
  5
430E
102
{ACAD_REACTORS
330
4308
102
}
330
4308
100
AcDbXrecord
270
     1
271
     1
  0
XRECORD
  5
430B
102
{ACAD_REACTORS
330
4308
102
}
330
4308
100
AcDbXrecord
270
     1
271
     1
  0
XRECORD
  5
48AC
102
{ACAD_REACTORS
330
4318
102
}
330
4318
100
AcDbXrecord
102
MATERIAL
148
0.0
149
0.0
149
0.0
 93
        0
 94
      127
282
     0
 72
     0
 77
     0
171
     0
175
     0
179
     0
273
     0
  0
XRECORD
  5
431A
102
{ACAD_REACTORS
330
4318
102
}
330
4318
100
AcDbXrecord
270
     1
271
     1
  0
XRECORD
  5
4319
102
{ACAD_REACTORS
330
4318
102
}
330
4318
100
AcDbXrecord
270
     1
271
     1
  0
XRECORD
  5
431D
102
{ACAD_REACTORS
330
4318
102
}
330
4318
100
AcDbXrecord
270
     1
271
     1
  0
XRECORD
  5
431C
102
{ACAD_REACTORS
330
4318
102
}
330
4318
100
AcDbXrecord
270
     1
271
     1
  0
XRECORD
  5
431E
102
{ACAD_REACTORS
330
4318
102
}
330
4318
100
AcDbXrecord
270
     1
271
     1
  0
XRECORD
  5
431B
102
{ACAD_REACTORS
330
4318
102
}
330
4318
100
AcDbXrecord
270
     1
271
     1
  0
ACAD_PROXY_OBJECT
  5
4893
102
{ACAD_REACTORS
330
4892
102
}
330
4892
100
AcDbProxyObject
 90
      499
 91
      511
 93
     1044
310
40D054060020000020000003200101A000080002A5058000000C100000000000000340FE901405075F5449544C450041501A8000000C800406800020000A9416000000304000AD7A3703D0AC73FA409014217D2115051115480105406A0000003200101A000080002A5028000000C10002B5E8DC0F42B1CFE903409065F444
310
15441004
340
16
340
16
340
16
 94
        0
1001
ACAD
1000
AcadProxyRoundTripData
1071
      510
1071
   655383
1070
     0
  0
XRECORD
  5
48AD
102
{ACAD_REACTORS
330
4892
102
}
330
4892
100
AcDbXrecord
102
ACAD_ROUNDTRIP_PRE2007_TABLESTYLE
 90
      512
 91
        0
  1

 92
      512
 93
        0
  2

 94
      512
 95
        0
  3

  0
ENDSEC
  0
EOF
