  0
SECTION
  2
HEADER
  9
$ACADVER
  1
AC1015
  9
$ACADMAINTVER
 70
    20
  9
$DWGCODEPAGE
  3
ANSI_932
  9
$INSBASE
 10
0.0
 20
0.0
 30
0.0
  9
$EXTMIN
 10
23.62483797005655
 20
16.88439186969476
 30
0.0
  9
$EXTMAX
 10
339.9216992038692
 20
334.3431648588166
 30
0.0
  9
$LIMMIN
 10
0.0
 20
0.0
  9
$LIMMAX
 10
297.0
 20
210.0
  9
$ORTHOMODE
 70
     0
  9
$REGENMODE
 70
     1
  9
$FILLMODE
 70
     1
  9
$QTEXTMODE
 70
     0
  9
$MIRRTEXT
 70
     0
  9
$LTSCALE
 40
2.0
  9
$ATTMODE
 70
     1
  9
$TEXTSIZE
 40
6.0
  9
$TRACEWID
 40
1.0
  9
$TEXTSTYLE
  7
STANDARD
  9
$CLAYER
  8
0
  9
$CELTYPE
  6
BYLAYER
  9
$CECOLOR
 62
   256
  9
$CELTSCALE
 40
1.0
  9
$DISPSILH
 70
     0
  9
$DIMSCALE
 40
2.0
  9
$DIMASZ
 40
1.8
  9
$DIMEXO
 40
0.625
  9
$DIMDLI
 40
3.75
  9
$DIMRND
 40
0.0
  9
$DIMDLE
 40
0.0
  9
$DIMEXE
 40
0.8
  9
$DIMTP
 40
0.0
  9
$DIMTM
 40
0.0
  9
$DIMTXT
 40
1.8
  9
$DIMCEN
 40
2.5
  9
$DIMTSZ
 40
0.0
  9
$DIMTOL
 70
     0
  9
$DIMLIM
 70
     0
  9
$DIMTIH
 70
     0
  9
$DIMTOH
 70
     0
  9
$DIMSE1
 70
     0
  9
$DIMSE2
 70
     0
  9
$DIMTAD
 70
     1
  9
$DIMZIN
 70
     8
  9
$DIMBLK
  1

  9
$DIMASO
 70
     1
  9
$DIMSHO
 70
     1
  9
$DIMPOST
  1

  9
$DIMAPOST
  1

  9
$DIMALT
 70
     0
  9
$DIMALTD
 70
     4
  9
$DIMALTF
 40
0.0394
  9
$DIMLFAC
 40
1.0
  9
$DIMTOFL
 70
     1
  9
$DIMTVP
 40
0.0
  9
$DIMTIX
 70
     0
  9
$DIMSOXD
 70
     0
  9
$DIMSAH
 70
     0
  9
$DIMBLK1
  1

  9
$DIMBLK2
  1

  9
$DIMSTYLE
  2
STANDARD
  9
$DIMCLRD
 70
     0
  9
$DIMCLRE
 70
     0
  9
$DIMCLRT
 70
     0
  9
$DIMTFAC
 40
1.0
  9
$DIMGAP
 40
0.75
  9
$DIMJUST
 70
     0
  9
$DIMSD1
 70
     0
  9
$DIMSD2
 70
     0
  9
$DIMTOLJ
 70
     1
  9
$DIMTZIN
 70
     0
  9
$DIMALTZ
 70
     0
  9
$DIMALTTZ
 70
     0
  9
$DIMUPT
 70
     0
  9
$DIMDEC
 70
     2
  9
$DIMTDEC
 70
     2
  9
$DIMALTU
 70
     8
  9
$DIMALTTD
 70
     4
  9
$DIMTXSTY
  7
STANDARD
  9
$DIMAUNIT
 70
     0
  9
$DIMADEC
 70
     2
  9
$DIMALTRND
 40
0.0
  9
$DIMAZIN
 70
     0
  9
$DIMDSEP
 70
    46
  9
$DIMATFIT
 70
     3
  9
$DIMFRAC
 70
     0
  9
$DIMLDRBLK
  1

  9
$DIMLUNIT
 70
     6
  9
$DIMLWD
 70
    -2
  9
$DIMLWE
 70
    -2
  9
$DIMTMOVE
 70
     0
  9
$LUNITS
 70
     2
  9
$LUPREC
 70
     3
  9
$SKETCHINC
 40
1.0
  9
$FILLETRAD
 40
10.0
  9
$AUNITS
 70
     0
  9
$AUPREC
 70
     2
  9
$MENU
  1
.
  9
$ELEVATION
 40
0.0
  9
$PELEVATION
 40
0.0
  9
$THICKNESS
 40
0.0
  9
$LIMCHECK
 70
     0
  9
$CHAMFERA
 40
0.0
  9
$CHAMFERB
 40
0.0
  9
$CHAMFERC
 40
20.0
  9
$CHAMFERD
 40
0.0
  9
$SKPOLY
 70
     0
  9
$TDCREATE
 40
2453692.620047014
  9
$TDUCREATE
 40
2453692.245047014
  9
$TDUPDATE
 40
2458037.528949074
  9
$TDUUPDATE
 40
2458037.153949074
  9
$TDINDWG
 40
0.0879554861
  9
$TDUSRTIMER
 40
0.0879554861
  9
$USRTIMER
 70
     1
  9
$ANGBASE
 50
0.0
  9
$ANGDIR
 70
     0
  9
$PDMODE
 70
     0
  9
$PDSIZE
 40
-10.0
  9
$PLINEWID
 40
0.0
  9
$SPLFRAME
 70
     0
  9
$SPLINETYPE
 70
     6
  9
$SPLINESEGS
 70
     8
  9
$HANDSEED
  5
3504
  9
$SURFTAB1
 70
     6
  9
$SURFTAB2
 70
     6
  9
$SURFTYPE
 70
     6
  9
$SURFU
 70
     6
  9
$SURFV
 70
     6
  9
$UCSBASE
  2

  9
$UCSNAME
  2

  9
$UCSORG
 10
0.0
 20
0.0
 30
0.0
  9
$UCSXDIR
 10
1.0
 20
0.0
 30
0.0
  9
$UCSYDIR
 10
0.0
 20
1.0
 30
0.0
  9
$UCSORTHOREF
  2

  9
$UCSORTHOVIEW
 70
     0
  9
$UCSORGTOP
 10
0.0
 20
0.0
 30
0.0
  9
$UCSORGBOTTOM
 10
0.0
 20
0.0
 30
0.0
  9
$UCSORGLEFT
 10
0.0
 20
0.0
 30
0.0
  9
$UCSORGRIGHT
 10
0.0
 20
0.0
 30
0.0
  9
$UCSORGFRONT
 10
0.0
 20
0.0
 30
0.0
  9
$UCSORGBACK
 10
0.0
 20
0.0
 30
0.0
  9
$PUCSBASE
  2

  9
$PUCSNAME
  2

  9
$PUCSORG
 10
0.0
 20
0.0
 30
0.0
  9
$PUCSXDIR
 10
1.0
 20
0.0
 30
0.0
  9
$PUCSYDIR
 10
0.0
 20
1.0
 30
0.0
  9
$PUCSORTHOREF
  2

  9
$PUCSORTHOVIEW
 70
     0
  9
$PUCSORGTOP
 10
0.0
 20
0.0
 30
0.0
  9
$PUCSORGBOTTOM
 10
0.0
 20
0.0
 30
0.0
  9
$PUCSORGLEFT
 10
0.0
 20
0.0
 30
0.0
  9
$PUCSORGRIGHT
 10
0.0
 20
0.0
 30
0.0
  9
$PUCSORGFRONT
 10
0.0
 20
0.0
 30
0.0
  9
$PUCSORGBACK
 10
0.0
 20
0.0
 30
0.0
  9
$USERI1
 70
     0
  9
$USERI2
 70
     0
  9
$USERI3
 70
     0
  9
$USERI4
 70
     0
  9
$USERI5
 70
     0
  9
$USERR1
 40
0.0
  9
$USERR2
 40
0.0
  9
$USERR3
 40
0.0
  9
$USERR4
 40
0.0
  9
$USERR5
 40
0.0
  9
$WORLDVIEW
 70
     1
  9
$SHADEDGE
 70
     3
  9
$SHADEDIF
 70
    70
  9
$TILEMODE
 70
     1
  9
$MAXACTVP
 70
    48
  9
$PINSBASE
 10
0.0
 20
0.0
 30
0.0
  9
$PLIMCHECK
 70
     0
  9
$PEXTMIN
 10
0.0
 20
0.0
 30
0.0
  9
$PEXTMAX
 10
0.0
 20
0.0
 30
0.0
  9
$PLIMMIN
 10
0.0
 20
0.0
  9
$PLIMMAX
 10
12.0
 20
9.0
  9
$UNITMODE
 70
     0
  9
$VISRETAIN
 70
     1
  9
$PLINEGEN
 70
     0
  9
$PSLTSCALE
 70
     1
  9
$TREEDEPTH
 70
  3020
  9
$CMLSTYLE
  2
STANDARD
  9
$CMLJUST
 70
     0
  9
$CMLSCALE
 40
1.0
  9
$PROXYGRAPHICS
 70
     1
  9
$MEASUREMENT
 70
     0
  9
$CELWEIGHT
370
    -1
  9
$ENDCAPS
280
     0
  9
$JOINSTYLE
280
     0
  9
$LWDISPLAY
290
     0
  9
$INSUNITS
 70
     0
  9
$HYPERLINKBASE
  1

  9
$STYLESHEET
  1
Sekkei.ctb
  9
$XEDIT
290
     1
  9
$CEPSNTYPE
380
     0
  9
$PSTYLEMODE
290
     1
  9
$FINGERPRINTGUID
  2
{6385560B-F4B1-4644-A7C2-A3E32AC3D232}
  9
$VERSIONGUID
  2
{C21BCAE4-66BA-483A-BAA1-D4A420D8EFF9}
  9
$EXTNAMES
290
     1
  9
$PSVPSCALE
 40
0.0
  9
$OLESTARTUP
290
     0
  0
ENDSEC
  0
SECTION
  2
CLASSES
  0
CLASS
  1
DICTIONARYVAR
  2
AcDbDictionaryVar
  3
ObjectDBX Classes
 90
        0
280
     0
281
     0
  0
CLASS
  1
ACDBDICTIONARYWDFLT
  2
AcDbDictionaryWithDefault
  3
ObjectDBX Classes
 90
        0
280
     0
281
     0
  0
CLASS
  1
ACDBPLACEHOLDER
  2
AcDbPlaceHolder
  3
ObjectDBX Classes
 90
        0
280
     0
281
     0
  0
CLASS
  1
LAYOUT
  2
AcDbLayout
  3
ObjectDBX Classes
 90
        0
280
     0
281
     0
  0
CLASS
  1
MATERIAL
  2
AcDbMaterial
  3
ObjectDBX Classes
 90
     1153
280
     0
281
     0
  0
CLASS
  1
VISUALSTYLE
  2
AcDbVisualStyle
  3
ObjectDBX Classes
 90
     4095
280
     0
281
     0
  0
CLASS
  1
TABLESTYLE
  2
AcDbTableStyle
  3
ObjectDBX Classes
 90
     4095
280
     0
281
     0
  0
CLASS
  1
SCALE
  2
AcDbScale
  3
ObjectDBX Classes
 90
     1153
280
     0
281
     0
  0
CLASS
  1
MLEADERSTYLE
  2
AcDbMLeaderStyle
  3
ACDB_MLEADERSTYLE_CLASS
 90
     4095
280
     0
281
     0
  0
CLASS
  1
CELLSTYLEMAP
  2
AcDbCellStyleMap
  3
ObjectDBX Classes
 90
     1152
280
     0
281
     0
  0
CLASS
  1
ACDBSECTIONVIEWSTYLE
  2
AcDbSectionViewStyle
  3
ObjectDBX Classes
 90
     1025
280
     0
281
     0
  0
CLASS
  1
ACDBDETAILVIEWSTYLE
  2
AcDbDetailViewStyle
  3
ObjectDBX Classes
 90
     1025
280
     0
281
     0
  0
CLASS
  1
ACAD_EVALUATION_GRAPH
  2
AcDbEvalGraph
  3
ObjectDBX Classes
 90
     1153
280
     0
281
     0
  0
CLASS
  1
ACAECUSTOBJ
  2
AcAeEditorObj
  3
AcAeEditorObj
 90
    33792
280
     0
281
     0
  0
CLASS
  1
ACDB_DYNAMICBLOCKPURGEPREVENTER_VERSION
  2
AcDbDynamicBlockPurgePreventer
  3
ObjectDBX Classes
 90
     1153
280
     0
281
     0
  0
CLASS
  1
BLOCKLINEARPARAMETER
  2
AcDbBlockLinearParameter
  3
ObjectDBX Classes
 90
     1153
280
     0
281
     0
  0
CLASS
  1
BLOCKLINEARGRIP
  2
AcDbBlockLinearGrip
  3
ObjectDBX Classes
 90
     1153
280
     0
281
     0
  0
CLASS
  1
BLOCKGRIPLOCATIONCOMPONENT
  2
AcDbBlockGripExpr
  3
ObjectDBX Classes
 90
     1153
280
     0
281
     0
  0
CLASS
  1
BLOCKSTRETCHACTION
  2
AcDbBlockStretchAction
  3
ObjectDBX Classes
 90
     1153
280
     0
281
     0
  0
CLASS
  1
ACDB_BLOCKREPRESENTATION_DATA
  2
AcDbBlockRepresentationData
  3
ObjectDBX Classes
 90
     1153
280
     0
281
     0
  0
CLASS
  1
SORTENTSTABLE
  2
AcDbSortentsTable
  3
ObjectDBX Classes
 90
        0
280
     0
281
     0
  0
CLASS
  1
FIELD
  2
AcDbField
  3
ObjectDBX Classes
 90
     1152
280
     0
281
     0
  0
CLASS
  1
FIELDLIST
  2
AcDbFieldList
  3
ObjectDBX Classes
 90
     1152
280
     0
281
     0
  0
ENDSEC
  0
SECTION
  2
TABLES
  0
TABLE
  2
VPORT
  5
6E
102
{ACAD_XDICTIONARY
360
2B01
102
}
330
0
100
AcDbSymbolTable
 70
     1
  0
VPORT
  5
2A62
330
6E
100
AcDbSymbolTableRecord
100
AcDbViewportTableRecord
  2
*Active
 70
     0
 10
0.0
 20
0.0
 11
1.0
 21
1.0
 12
297.4656983186422
 22
170.7728564720054
 13
0.0
 23
0.0
 14
10.0
 24
10.0
 15
10.0
 25
10.0
 16
0.0
 26
0.0
 36
1.0
 17
0.0
 27
0.0
 37
0.0
 40
338.4605703114155
 41
2.102715466351829
 42
50.0
 43
0.0
 44
0.0
 50
0.0
 51
0.0
 71
     0
 72
   100
 73
     1
 74
     3
 75
     0
 76
     0
 77
     0
 78
     0
281
     0
 65
     1
110
0.0
120
0.0
130
0.0
111
1.0
121
0.0
131
0.0
112
0.0
122
1.0
132
0.0
 79
     0
146
0.0
1001
ACAD_NAV_VCDISPLAY
1070
     3
  0
ENDTAB
  0
TABLE
  2
LTYPE
  5
69
330
0
100
AcDbSymbolTable
 70
     5
  0
LTYPE
  5
6A
330
69
100
AcDbSymbolTableRecord
100
AcDbLinetypeTableRecord
  2
BYBLOCK
 70
     0
  3

 72
    65
 73
     0
 40
0.0
  0
LTYPE
  5
6B
330
69
100
AcDbSymbolTableRecord
100
AcDbLinetypeTableRecord
  2
BYLAYER
 70
     0
  3

 72
    65
 73
     0
 40
0.0
  0
LTYPE
  5
8
330
69
100
AcDbSymbolTableRecord
100
AcDbLinetypeTableRecord
  2
CONTINUOUS
 70
     0
  3
Solid line
 72
    65
 73
     0
 40
0.0
  0
LTYPE
  5
27C
330
69
100
AcDbSymbolTableRecord
100
AcDbLinetypeTableRecord
  2
sekkei(A2)
 70
     0
  3
center(A2)  ____ _ ____ _ ____ _ ____ _ ____ _ 
 72
    65
 73
     4
 40
14.2875
 49
9.525
 74
     0
 49
-1.587499999999999
 74
     0
 49
1.587499999999999
 74
     0
 49
-1.587499999999999
 74
     0
  0
LTYPE
  5
2B4
330
69
100
AcDbSymbolTableRecord
100
AcDbLinetypeTableRecord
  2
HIDDEN2
 70
     0
  3
Hidden (.5x) _ _ _ _ _ _ _ _ _ _ _ _ _ _ _ _ _
 72
    65
 73
     2
 40
4.762499999999999
 49
3.174999999999999
 74
     0
 49
-1.587499999999999
 74
     0
  0
LTYPE
  5
48F
330
69
100
AcDbSymbolTableRecord
100
AcDbLinetypeTableRecord
  2
sekkei_H
 70
     0
  3
Hidden-S _ _ _ _ _ _ _ _ _ _ _ _ _ _ _ _ _
 72
    65
 73
     2
 40
2.381249999999999
 49
1.587499999999999
 74
     0
 49
-0.79375
 74
     0
  0
ENDTAB
  0
TABLE
  2
LAYER
  5
66
102
{ACAD_XDICTIONARY
360
2AE2
102
}
330
0
100
AcDbSymbolTable
 70
    10
  0
LAYER
  5
5E
102
{ACAD_XDICTIONARY
360
2AEA
102
}
330
66
100
AcDbSymbolTableRecord
100
AcDbLayerTableRecord
  2
0
 70
     0
 62
     7
  6
CONTINUOUS
370
    -3
390
5
  0
LAYER
  5
3E
102
{ACAD_XDICTIONARY
360
2AEC
102
}
330
66
100
AcDbSymbolTableRecord
100
AcDbLayerTableRecord
  2
CENTER
 70
     0
 62
     3
  6
sekkei(A2)
370
    -3
390
5
  0
LAYER
  5
2B5
102
{ACAD_XDICTIONARY
360
2AF2
102
}
330
66
100
AcDbSymbolTableRecord
100
AcDbLayerTableRecord
  2
HIDS
 70
     0
 62
     1
  6
HIDDEN2
370
    -3
390
5
  0
LAYER
  5
2BA
102
{ACAD_XDICTIONARY
360
2AF4
102
}
330
66
100
AcDbSymbolTableRecord
100
AcDbLayerTableRecord
  2
HOJO
 70
     0
 62
     4
  6
CONTINUOUS
370
    -3
390
5
  0
LAYER
  5
3FA
102
{ACAD_XDICTIONARY
360
2AF8
102
}
330
66
100
AcDbSymbolTableRecord
100
AcDbLayerTableRecord
  2
TITLE
 70
     0
 62
     4
  6
CONTINUOUS
290
     0
370
    -3
390
5
  0
ENDTAB
  0
TABLE
  2
STYLE
  5
67
330
0
100
AcDbSymbolTable
 70
     3
  0
STYLE
  5
16
330
67
100
AcDbSymbolTableRecord
100
AcDbTextStyleTableRecord
  2
STANDARD
 70
     0
 40
0.0
 41
1.0
 50
0.0
 71
     0
 42
6.0
  3
simplex.shx
  4
extfont.shx
  0
ENDTAB
  0
TABLE
  2
VIEW
  5
6C
330
0
100
AcDbSymbolTable
 70
     0
  0
ENDTAB
  0
TABLE
  2
UCS
  5
6D
330
0
100
AcDbSymbolTable
 70
     0
  0
ENDTAB
  0
TABLE
  2
APPID
  5
70
330
0
100
AcDbSymbolTable
 70
    16
  0
APPID
  5
71
330
70
100
AcDbSymbolTableRecord
100
AcDbRegAppTableRecord
  2
ACAD
 70
     0
  0
APPID
  5
2AB5
330
70
100
AcDbSymbolTableRecord
100
AcDbRegAppTableRecord
  2
ACAD_MLEADERVER
 70
     0
  0
APPID
  5
2B29
330
70
100
AcDbSymbolTableRecord
100
AcDbRegAppTableRecord
  2
ACAD_NAV_VCDISPLAY
 70
     0
  0
APPID
  5
2B2A
330
70
100
AcDbSymbolTableRecord
100
AcDbRegAppTableRecord
  2
AcadAnnoAV
 70
     0
  0
APPID
  5
2B53
330
70
100
AcDbSymbolTableRecord
100
AcDbRegAppTableRecord
  2
ACAUTHENVIRON
 70
     0
  0
APPID
  5
2B57
330
70
100
AcDbSymbolTableRecord
100
AcDbRegAppTableRecord
  2
ACAD_EXEMPT_FROM_CAD_STANDARDS
 70
     0
  0
APPID
  5
2B59
330
70
100
AcDbSymbolTableRecord
100
AcDbRegAppTableRecord
  2
AcDbDynamicBlockTrueName
 70
     0
  0
APPID
  5
2B5A
330
70
100
AcDbSymbolTableRecord
100
AcDbRegAppTableRecord
  2
AcDbDynamicBlockGUID
 70
     0
  0
APPID
  5
2D31
330
70
100
AcDbSymbolTableRecord
100
AcDbRegAppTableRecord
  2
AcDbBlockRepETag
 70
     0
  0
APPID
  5
2D32
330
70
100
AcDbSymbolTableRecord
100
AcDbRegAppTableRecord
  2
AcDbBlockRepBTag
 70
     0
  0
APPID
  5
2DC2
330
70
100
AcDbSymbolTableRecord
100
AcDbRegAppTableRecord
  2
ACAD_PSEXT
 70
     0
  0
APPID
  5
2DC3
330
70
100
AcDbSymbolTableRecord
100
AcDbRegAppTableRecord
  2
ACAD_DSTYLE_DIMJAG
 70
     0
  0
APPID
  5
2DC4
330
70
100
AcDbSymbolTableRecord
100
AcDbRegAppTableRecord
  2
ACAD_DSTYLE_DIMTALN
 70
     0
  0
APPID
  5
2DC5
330
70
100
AcDbSymbolTableRecord
100
AcDbRegAppTableRecord
  2
AcAecLayerStandard
 70
     0
  0
APPID
  5
2DC6
330
70
100
AcDbSymbolTableRecord
100
AcDbRegAppTableRecord
  2
AcCmTransparency
 70
     0
  0
APPID
  5
2F03
330
70
100
AcDbSymbolTableRecord
100
AcDbRegAppTableRecord
  2
AcDbAttr
 70
     0
  0
ENDTAB
  0
TABLE
  2
DIMSTYLE
  5
72
330
0
100
AcDbSymbolTable
 70
     2
100
AcDbDimStyleTable
 71
     1
340
73
  0
DIMSTYLE
105
73
102
{ACAD_REACTORS
330
2836
102
}
330
72
100
AcDbSymbolTableRecord
100
AcDbDimStyleTableRecord
  2
STANDARD
 70
     0
 40
2.0
 41
1.8
 42
0.625
 43
3.75
 44
0.8
 73
     0
 74
     0
 77
     1
 78
     8
140
1.8
141
2.5
143
0.0394
147
0.75
171
     4
172
     1
179
     2
271
     2
272
     2
273
     8
274
     4
277
     6
340
16
  0
ENDTAB
  0
TABLE
  2
BLOCK_RECORD
  5
1
330
0
100
AcDbSymbolTable
 70
    42
  0
BLOCK_RECORD
  5
2
330
1
100
AcDbSymbolTableRecord
100
AcDbBlockTableRecord
  2
*MODEL_SPACE
340
60
  0
BLOCK_RECORD
  5
34F0
330
1
100
AcDbSymbolTableRecord
100
AcDbBlockTableRecord
  2
*Paper_Space
340
34F1
  0
BLOCK_RECORD
  5
3129
330
1
100
AcDbSymbolTableRecord
100
AcDbBlockTableRecord
  2
ケーブル AWG18
340
0
310
28000000200000002000000001002000000000000010000001000000010000000000000000000000302821FF302821FF302821FF302821FF302821FF302821FF302821FF302821FF302821FF302821FF302821FF302821FF302821FF302821FF302821FF302821FF302821FF302821FF302821FF302821FF302821FF302821
310
FF302821FF302821FF302821FF302821FF302821FF302821FF302821FF302821FF302821FF302821FF302821FF302821FF302821FF302821FF302821FF302821FF302821FF302821FF302821FF302821FF302821FF302821FF302821FF302821FF302821FF302821FF302821FF302821FF302821FF302821FF302821FF3028
310
21FF302821FF302821FF302821FF302821FF302821FF302821FF302821FF302821FF302821FF302821FF302821FFFFFFFFFFFFFFFFFFFFFFFFFFFFFFFFFFFFFFFFFFFFFFFFFFFFFFFFFFFFFFFFFFFFFFFFFFFFFFFFFF302821FF302821FF302821FF302821FF302821FF302821FF302821FF302821FF302821FF302821FF30
310
2821FF302821FF302821FF302821FF302821FF302821FF302821FF302821FF302821FF302821FF302821FF302821FFFFFFFFFF302821FF302821FF302821FF302821FF302821FF302821FF302821FFFFFFFFFFFFFFFFFF302821FF302821FF302821FF302821FF302821FF302821FF302821FF302821FF302821FF302821FF
310
302821FF302821FF302821FF302821FF302821FF302821FF302821FF302821FF302821FF302821FF302821FF302821FFFFFFFFFF302821FF302821FF302821FF302821FF302821FF302821FF302821FFFFFFFFFFFFFFFFFF302821FF302821FF302821FF302821FF302821FF302821FF302821FF302821FF302821FF302821
310
FF302821FF302821FF302821FF302821FF302821FF302821FF302821FF302821FF302821FF302821FF302821FF302821FFFFFFFFFF302821FF302821FF302821FF302821FF302821FF302821FF302821FFFFFFFFFFFFFFFFFF302821FF302821FF302821FF302821FF302821FF302821FF302821FF302821FF302821FF3028
310
21FF302821FF302821FF302821FF302821FF302821FF302821FF302821FF302821FF302821FF302821FF302821FF302821FFFFFFFFFF302821FF302821FF302821FF302821FF302821FF302821FF302821FFFFFFFFFFFFFFFFFF302821FF302821FF302821FF302821FF302821FF302821FF302821FF302821FF302821FF30
310
2821FF302821FF302821FF302821FF302821FF302821FF302821FF302821FF302821FF302821FF302821FF302821FF302821FFFFFFFFFF302821FF302821FF302821FF302821FF302821FF302821FF302821FFFFFFFFFFFFFFFFFF302821FF302821FF302821FF302821FF302821FF302821FF302821FF302821FF302821FF
310
302821FF302821FF302821FF302821FF302821FF302821FF302821FF302821FF302821FF302821FF302821FF302821FF302821FFFFFFFFFF302821FF302821FF302821FF302821FF302821FF302821FF302821FFFFFFFFFFFFFFFFFF302821FF302821FF302821FF302821FF302821FF302821FF302821FF302821FF302821
310
FF302821FF302821FF302821FF302821FF302821FF302821FF302821FF302821FF302821FF302821FF302821FF302821FF302821FFFFFFFFFF302821FF302821FF302821FF302821FF302821FF302821FF302821FFFFFFFFFFFFFFFFFF302821FF302821FF302821FF302821FF302821FF302821FF302821FF302821FF3028
310
21FF302821FF302821FF302821FF302821FF302821FF302821FF302821FF302821FF302821FF302821FF302821FF302821FF302821FFFFFFFFFF302821FF302821FF302821FF302821FF302821FF302821FF302821FFFFFFFFFFFFFFFFFF302821FF302821FF302821FF302821FF302821FF302821FF302821FF302821FF30
310
2821FF302821FF302821FF302821FF302821FF302821FF302821FF302821FF302821FF302821FF302821FF302821FF302821FF302821FFFFFFFFFF302821FF302821FF302821FF302821FF302821FF302821FF302821FFFFFFFFFFFFFFFFFF302821FF302821FF302821FF302821FF302821FF302821FF302821FF302821FF
310
302821FF302821FF302821FF302821FF302821FF302821FF302821FF302821FF302821FF302821FF302821FF302821FF302821FF302821FFFFFFFFFF302821FF302821FF302821FF302821FF302821FF302821FF302821FFFFFFFFFFFFFFFFFF302821FF302821FF302821FF302821FF302821FF302821FF302821FF302821
310
FF302821FF302821FF302821FF302821FF302821FF302821FF302821FF302821FF302821FF302821FF302821FF302821FF302821FF302821FFFFFFFFFF302821FF302821FF302821FF302821FF302821FF302821FF302821FFFFFFFFFFFFFFFFFF302821FF302821FF302821FF302821FF302821FF302821FF302821FF3028
310
21FF302821FF302821FF302821FF302821FF302821FF302821FF302821FF302821FF302821FF302821FF302821FF302821FF302821FF302821FFFFFFFFFF302821FF302821FF302821FF302821FF302821FF302821FF302821FFFFFFFFFFFFFFFFFF302821FF302821FF302821FF302821FF302821FF302821FF302821FF30
310
2821FF302821FF302821FF302821FF302821FF302821FF302821FF302821FF302821FF302821FF302821FF302821FF302821FF302821FF302821FFFFFFFFFF302821FF302821FF302821FF302821FF302821FF302821FF302821FFFFFFFFFFFFFFFFFF302821FF302821FF302821FF302821FF302821FF302821FF302821FF
310
302821FF302821FF302821FF302821FF302821FF302821FF302821FF302821FF302821FF302821FF302821FF302821FF302821FF302821FF302821FFFFFFFFFF302821FF302821FF302821FF302821FF302821FF302821FF302821FFFFFFFFFF302821FF302821FF302821FF302821FF302821FF302821FF302821FF302821
310
FF302821FF302821FF302821FF302821FF302821FF302821FF302821FF302821FF302821FF302821FF302821FF302821FF302821FF302821FF302821FFFFFFFFFFFFFFFFFFFFFFFFFFFFFFFFFFFFFFFFFFFFFFFFFFFFFFFFFFFFFFFFFFFFFFFFFF302821FF302821FFFFFFFFFF302821FF302821FF302821FF302821FF3028
310
21FF302821FF302821FF302821FF302821FF302821FF302821FF302821FF302821FF302821FF302821FF302821FF302821FF302821FF302821FF302821FF302821FF302821FF302821FF302821FF302821FF302821FFFFFFFFFFFFFFFFFFFFFFFFFFFFFFFFFFFFFFFFFFFFFFFFFF302821FF302821FF302821FF302821FF30
310
2821FF302821FF302821FF302821FF302821FF302821FF302821FF302821FF302821FF302821FF302821FF302821FF302821FF302821FF302821FF302821FF302821FF302821FF302821FF302821FF302821FF302821FFFFFFFFFFFFFFFFFF302821FFFFFFFFFFFFFFFFFF302821FF302821FF302821FF302821FF302821FF
310
302821FF302821FF302821FF302821FF302821FF302821FF302821FF302821FF302821FF302821FF302821FF302821FF302821FF302821FF302821FF302821FF302821FF302821FF302821FF302821FF302821FF302821FFFFFFFFFFFFFFFFFF302821FFFFFFFFFFFFFFFFFF302821FF302821FF302821FF302821FF302821
310
FF302821FF302821FF302821FF302821FF302821FF302821FF302821FF302821FF302821FF302821FF302821FF302821FF302821FF302821FF302821FF302821FF302821FF302821FF302821FF302821FF302821FF302821FFFFFFFFFFFFFFFFFF302821FFFFFFFFFFFFFFFFFF302821FF302821FF302821FF302821FF3028
310
21FF302821FF302821FF302821FF302821FF302821FF302821FF302821FF302821FF302821FF302821FF302821FF302821FF302821FF302821FF302821FF302821FF302821FF302821FF302821FF302821FF302821FF302821FFFFFFFFFFFFFFFFFF302821FFFFFFFFFFFFFFFFFF302821FF302821FF302821FF302821FF30
310
2821FF302821FF302821FF302821FF302821FF302821FF302821FF302821FF302821FFFFFFFFFFFFFFFFFFFFFFFFFFFFFFFFFFFFFFFFFFFFFFFFFF302821FF302821FF302821FF302821FF302821FF302821FF302821FF302821FFFFFF00FFFFFFFFFF302821FFFFFFFFFFFFFFFFFF302821FF302821FF302821FF302821FF
310
302821FF302821FF302821FFFFFFFFFFFFFFFFFFFFFFFFFFFFFFFFFFFFFFFFFFFFFFFFFFFFFFFFFFFFFFFFFFFFFFFFFFFFFFFFFFFFFFFFFFFFFFFFFF302821FF302821FF302821FF302821FF302821FF302821FF302821FF302821FFFFFF00FFFFFF00FF302821FFFFFF00FFFFFF00FF302821FF302821FF302821FF302821
310
FF302821FFFFFFFFFFFFFFFFFFFFFFFFFFFFFFFFFFFFFFFFFFFFFFFFFFFFFFFFFFFFFFFFFFFFFFFFFFFFFFFFFFFFFFFFFFFFFFFFFFFFFFFFFFFFFFFFFF302821FF302821FF302821FF302821FF302821FF302821FF302821FF302821FFFFFFFFFFFFFFFFFF302821FFFFFFFFFFFFFFFFFFFFFFFFFFFFFFFFFFFFFFFFFFFFFF
310
FFFFFFFFFFFFFFFFFFFFFFFFFFFFFFFFFFFFFFFFFFFF302821FF302821FF302821FF302821FF302821FFFFFFFFFFFFFFFFFFFFFFFFFFFFFFFFFFFFFFFFFF302821FF302821FF302821FF302821FF302821FF302821FF302821FF302821FFFFFFFFFFFFFFFFFF302821FFFFFFFFFFFFFFFFFFFFFFFFFFFFFFFFFFFFFFFFFFFF
310
FFFFFFFFFFFFFFFFFFFFFF302821FF302821FF302821FF302821FF302821FFFFFFFFFFFFFFFFFFFFFFFFFFFFFFFFFFFFFFFFFFFFFFFFFFFFFFFFFF302821FF302821FF302821FF302821FF302821FF302821FF302821FF302821FF302821FFFFFFFFFFFFFFFFFF302821FFFFFFFFFFFFFFFFFFFFFFFFFFFFFFFFFFFFFFFFFF
310
FFFFFFFFFFFFFFFFFFFFFFFFFFFFFFFFFFFFFFFFFFFFFFFFFFFFFFFFFFFFFFFFFFFFFFFFFFFFFFFFFFFFFFFFFFFFFFFFFFFFFFFFFFFFFFFFFFFFFFFF302821FF302821FF302821FF302821FFFFFFFFFFFFFFFFFFFFFFFFFFFFFFFFFFFFFFFFFFFFFFFFFF302821FF302821FF302821FFFFFFFFFFFFFFFFFFFFFFFFFFFFFFFF
310
FFFFFFFFFFFFFFFFFFFFFFFFFFFFFFFFFFFFFFFFFFFFFFFFFFFFFFFFFFFFFFFFFFFFFFFFFFFFFFFFFFFFFFFFFFFFFFFFFFFFFFFFFFFFFFFFFFFFFFFFFF302821FF302821FF302821FF302821FF302821FF302821FF302821FF302821FF302821FF302821FF302821FF302821FF302821FF302821FF302821FF302821FF3028
310
21FF302821FF302821FF302821FF302821FF302821FF302821FF302821FF302821FF302821FF302821FFFFFFFFFFFFFFFFFFFFFFFFFFFFFFFFFFFFFFFFFF302821FF302821FF302821FF302821FF302821FF302821FF302821FF302821FF302821FF302821FF302821FF302821FF302821FF302821FF302821FF302821FF30
310
2821FF302821FF302821FF302821FF302821FF302821FF302821FF302821FF302821FF302821FF302821FF302821FF302821FF302821FF302821FF302821FF302821FF302821FF302821FF302821FF302821FF302821FF302821FF302821FF302821FF302821FF302821FF302821FF302821FF302821FF302821FF302821FF
310
302821FF302821FF302821FF302821FF302821FF302821FF302821FF302821FF302821FF302821FF302821FF302821FF302821FF302821FF302821FF302821FF302821FF302821FF
102
{BLKREFS
331
31FF
102
}
  0
ENDTAB
  0
ENDSEC
  0
SECTION
  2
BLOCKS
  0
BLOCK
  5
5D
330
2
100
AcDbEntity
  8
0
100
AcDbBlockBegin
  2
*MODEL_SPACE
 70
     0
 10
0.0
 20
0.0
 30
0.0
  3
*MODEL_SPACE
  1

  0
ENDBLK
  5
5F
330
2
100
AcDbEntity
  8
0
100
AcDbBlockEnd
  0
BLOCK
  5
34F2
330
34F0
100
AcDbEntity
 67
     1
  8
0
100
AcDbBlockBegin
  2
*Paper_Space
 70
     0
 10
0.0
 20
0.0
 30
0.0
  3
*Paper_Space
  1

  0
ENDBLK
  5
34F3
330
34F0
100
AcDbEntity
 67
     1
  8
0
100
AcDbBlockEnd
  0
BLOCK
  5
312A
330
3129
100
AcDbEntity
  8
0
100
AcDbBlockBegin
  2
ケーブル AWG18
 70
     0
 10
0.0
 20
0.0
 30
0.0
  3
ケーブル AWG18
  1

  0
LINE
  5
312B
330
3129
100
AcDbEntity
  8
0
100
AcDbLine
 10
-36.00011799999993
 20
-31.0638849828332
 30
0.0
 11
-36.00011800000016
 21
31.06388498283298
 31
0.0
  0
LINE
  5
312C
330
3129
100
AcDbEntity
  8
0
100
AcDbLine
 10
0.0
 20
-32.58118800000011
 30
0.0
 11
0.0
 21
24.03160099999991
 31
0.0
  0
LINE
  5
312D
330
3129
100
AcDbEntity
  8
0
100
AcDbLine
 10
-1.000118000000156
 20
36.0
 30
0.0
 11
-1.000117999999929
 21
-32.36063656610475
 31
0.0
  0
LINE
  5
312E
330
3129
100
AcDbEntity
  8
0
100
AcDbLine
 10
-1.000118000000156
 20
-32.36063656610475
 30
0.0
 11
-35.00884453549839
 21
-32.06384690589732
 31
0.0
  0
ARC
  5
312F
330
3129
100
AcDbEntity
  8
0
100
AcDbCircle
 10
-35.00011799999993
 20
-31.06388498283309
 30
0.0
 40
1.0
100
AcDbArc
 50
180.0
 51
269.500000000002
  0
LINE
  5
3130
330
3129
100
AcDbEntity
  8
0
100
AcDbLine
 10
0.0
 20
-32.28110100000004
 30
0.0
 11
-1.0
 21
-32.2724753792993
 31
0.0
  0
ARC
  5
3131
330
3129
100
AcDbEntity
  8
0
100
AcDbCircle
 10
12.93240679339396
 20
28.82411555318743
 30
0.0
 40
44.0
100
AcDbArc
 50
70.56084818740771
 51
90.0
  0
ARC
  5
3132
330
3129
100
AcDbEntity
  8
0
100
AcDbCircle
 10
12.93240679339396
 20
28.82411555318743
 30
0.0
 40
46.0
100
AcDbArc
 50
70.56084818740771
 51
90.0
  0
LINE
  5
3133
330
3129
100
AcDbEntity
  8
0
100
AcDbLine
 10
12.50003000000015
 20
75.58640361911955
 30
0.0
 11
50.92015232714016
 21
75.58640361911955
 31
0.0
  0
LINE
  5
3134
330
3129
100
AcDbEntity
  8
0
100
AcDbLine
 10
12.5000500000001
 20
81.58640361911954
 30
0.0
 11
50.92067573053805
 21
81.58640361911954
 31
0.0
  0
ARC
  5
3135
330
3129
100
AcDbEntity
  8
0
100
AcDbCircle
 10
12.93240679339396
 20
28.82411555318743
 30
0.0
 40
42.0
100
AcDbArc
 50
70.56084818740771
 51
90.0
  0
ARC
  5
3136
330
3129
100
AcDbEntity
  8
0
100
AcDbCircle
 10
12.93240679339396
 20
28.82411555318743
 30
0.0
 40
40.0
100
AcDbArc
 50
70.56084818740771
 51
90.0
  0
ARC
  5
3137
330
3129
100
AcDbEntity
  8
HOJO
100
AcDbCircle
 10
6.250030000000151
 20
64.82422545974111
 30
0.0
 40
1.600781
100
AcDbArc
 50
247.1647029999995
 51
321.3401944016193
  0
LINE
  5
3138
330
3129
100
AcDbEntity
  8
HOJO
100
AcDbLine
 10
3.371322000000191
 20
64.29953745974114
 30
0.0
 11
5.628921000000218
 21
63.34892945974115
 31
0.0
  0
LINE
  5
3139
330
3129
100
AcDbEntity
  8
0
100
AcDbLine
 10
5.5
 20
63.82417434160174
 30
0.0
 11
5.499999999999886
 21
63.40321427027141
 31
0.0
  0
LINE
  5
313A
330
3129
100
AcDbEntity
  8
0
100
AcDbLine
 10
-1.000118000000156
 20
32.36063656610463
 30
0.0
 11
-35.00884453549839
 21
32.06384690589732
 31
0.0
  0
ARC
  5
313B
330
3129
100
AcDbEntity
  8
HOJO
100
AcDbCircle
 10
-8.750088000000005
 20
60.82422545974111
 30
0.0
 40
1.600781999999999
100
AcDbArc
 50
67.16467299999877
 51
141.3418685641827
  0
LINE
  5
313C
330
3129
100
AcDbEntity
  8
0
100
AcDbLine
 10
-10.00011800000015
 20
32.28209475598783
 30
0.0
 11
-10.00011800000015
 21
61.8241894644052
 31
0.0
  0
ARC
  5
313D
330
3129
100
AcDbEntity
  8
0
100
AcDbCircle
 10
-35.00011800000016
 20
31.06388498283309
 30
0.0
 40
1.0
100
AcDbArc
 50
90.49999999999805
 51
180.0
  0
POINT
  5
313E
330
3129
100
AcDbEntity
  8
0
100
AcDbPoint
 10
-36.00011800000016
 20
31.06388498283298
 30
0.0
  0
POINT
  5
313F
330
3129
100
AcDbEntity
  8
0
100
AcDbPoint
 10
-12.55011800000011
 20
32.2598412431214
 30
0.0
  0
LINE
  5
3140
330
3129
100
AcDbEntity
  8
0
100
AcDbLine
 10
1.5
 20
61.82418946440532
 30
0.0
 11
1.5
 21
37.0
 31
0.0
  0
LINE
  5
3141
330
3129
100
AcDbEntity
  8
0
100
AcDbLine
 10
7.499999999999886
 20
61.82418805590987
 30
0.0
 11
7.5
 21
37.0
 31
0.0
  0
LINE
  5
3142
330
3129
100
AcDbEntity
  8
0
100
AcDbLine
 10
5.499999999999886
 20
61.41002787486809
 30
0.0
 11
5.5
 21
37.0
 31
0.0
  0
LINE
  5
3143
330
3129
100
AcDbEntity
  8
0
100
AcDbLine
 10
3.499999999999886
 20
62.24535496930617
 30
0.0
 11
3.5
 21
37.0
 31
0.0
  0
LINE
  5
3144
330
3129
100
AcDbEntity
  8
0
100
AcDbLine
 10
-9.000118000000156
 20
32.29082162377859
 30
0.0
 11
-9.000118000000156
 21
62.40536049844718
 31
0.0
  0
LINE
  5
3145
330
3129
100
AcDbEntity
  8
0
100
AcDbLine
 10
-8.000118000000156
 20
32.29954849156934
 30
0.0
 11
-8.000118000000156
 21
62.24535496930593
 31
0.0
  0
LINE
  5
3146
330
3129
100
AcDbEntity
  8
0
100
AcDbLine
 10
8.999997000000121
 20
37.0
 30
0.0
 11
-0.0001180000001568
 21
37.0
 31
0.0
  0
ARC
  5
3147
330
3129
100
AcDbEntity
  8
0
100
AcDbCircle
 10
-0.0001180000001568
 20
36.0
 30
0.0
 40
1.0
100
AcDbArc
 50
90.0
 51
180.0
  0
POINT
  5
3148
330
3129
100
AcDbEntity
  8
0
100
AcDbPoint
 10
-3.450217000000066
 20
32.32180200443577
 30
0.0
  0
LINE
  5
3149
330
3129
100
AcDbEntity
  8
0
100
AcDbLine
 10
9.999999000000116
 20
36.0
 30
0.0
 11
9.999999000000116
 21
32.66825801312234
 31
0.0
  0
ARC
  5
314A
330
3129
100
AcDbEntity
  8
0
100
AcDbCircle
 10
8.999997000000121
 20
36.0
 30
0.0
 40
1.0
100
AcDbArc
 50
0.0
 51
90.0
  0
ARC
  5
314B
330
3129
100
AcDbEntity
  8
HOJO
100
AcDbCircle
 10
6.250030000000151
 20
62.82422545974111
 30
0.0
 40
1.600781
100
AcDbArc
 50
247.1647029999995
 51
321.3401944016193
  0
LINE
  5
314C
330
3129
100
AcDbEntity
  8
HOJO
100
AcDbLine
 10
-8.128795999999965
 20
62.29953745974114
 30
0.0
 11
-8.000118000000156
 21
62.24535496930593
 31
0.0
  0
ARC
  5
314D
330
3129
100
AcDbEntity
  8
HOJO
100
AcDbCircle
 10
2.750030000000151
 20
60.82422545974111
 30
0.0
 40
1.600781999999999
100
AcDbArc
 50
67.16467299999877
 51
141.3418685641827
  0
LINE
  5
314E
330
3129
100
AcDbEntity
  8
HOJO
100
AcDbLine
 10
1.5
 20
61.82426145507702
 30
0.0
 11
1.5
 21
61.58542913574058
 31
0.0
  0
LINE
  5
314F
330
3129
100
AcDbEntity
  8
HOJO
100
AcDbLine
 10
3.371322000000191
 20
62.29953745974114
 30
0.0
 11
5.628921000000218
 21
61.34892945974115
 31
0.0
  0
ARC
  5
3150
330
3129
100
AcDbEntity
  8
0
100
AcDbCircle
 10
-15.00011800000016
 20
74.58640361911943
 30
0.0
 40
5.0
100
AcDbArc
 50
0.0
 51
90.0
  0
ARC
  5
3151
330
3129
100
AcDbEntity
  8
0
100
AcDbCircle
 10
-15.00011800000016
 20
74.58640361911943
 30
0.0
 40
6.0
100
AcDbArc
 50
0.0
 51
90.0
  0
ARC
  5
3152
330
3129
100
AcDbEntity
  8
0
100
AcDbCircle
 10
-15.00011800000016
 20
74.58640361911943
 30
0.0
 40
7.0
100
AcDbArc
 50
0.0
 51
89.62889052766097
  0
ARC
  5
3153
330
3129
100
AcDbEntity
  8
HOJO
100
AcDbCircle
 10
-8.750088000000005
 20
62.82422545974111
 30
0.0
 40
1.600781999999999
100
AcDbArc
 50
67.16467299999877
 51
141.3418685642119
  0
LINE
  5
3154
330
3129
100
AcDbEntity
  8
0
100
AcDbLine
 10
-32.98728034528426
 20
82.36084038084095
 30
0.0
 11
-23.02533336436659
 21
81.48928295336441
 31
0.0
  0
LINE
  5
3155
330
3129
100
AcDbEntity
  8
0
100
AcDbLine
 10
-23.07348611601424
 20
80.08640361911943
 30
0.0
 11
-33.07348611601424
 21
80.08640361911943
 31
0.0
  0
LINE
  5
3156
330
3129
100
AcDbEntity
  8
0
100
AcDbLine
 10
-23.07348611601424
 20
80.38640361911939
 30
0.0
 11
-33.07348611601424
 21
80.38640361911939
 31
0.0
  0
LINE
  5
3157
330
3129
100
AcDbEntity
  8
0
100
AcDbLine
 10
-23.07348611601424
 20
79.78640361911937
 30
0.0
 11
-33.07348611601424
 21
79.78640361911937
 31
0.0
  0
LINE
  5
3158
330
3129
100
AcDbEntity
  8
0
100
AcDbLine
 10
-32.96113362245979
 20
82.6596987902683
 30
0.0
 11
-22.99918664154234
 21
81.78814136279175
 31
0.0
  0
LINE
  5
3159
330
3129
100
AcDbEntity
  8
0
100
AcDbLine
 10
-32.93498689963553
 20
82.95855719969608
 30
0.0
 11
-22.97303991871809
 21
82.08699977221931
 31
0.0
  0
LINE
  5
315A
330
3129
100
AcDbEntity
  8
0
100
AcDbLine
 10
-10.00011800000015
 20
63.8241894644052
 30
0.0
 11
-10.00011800000015
 21
74.58640361911943
 31
0.0
  0
LINE
  5
315B
330
3129
100
AcDbEntity
  8
0
100
AcDbLine
 10
-14.95477874177481
 20
81.58625678555541
 30
0.0
 11
-22.95560877016851
 21
82.28623871183776
 31
0.0
  0
LINE
  5
315C
330
3129
100
AcDbEntity
  8
0
100
AcDbLine
 10
-15.00011800000016
 20
80.58640361911944
 30
0.0
 11
-23.04276451291617
 21
81.29004401374595
 31
0.0
  0
LINE
  5
315D
330
3129
100
AcDbEntity
  8
0
100
AcDbLine
 10
-15.00011800000016
 20
79.58640361911943
 30
0.0
 11
-23.07348611601424
 21
79.58640361911943
 31
0.0
  0
LINE
  5
315E
330
3129
100
AcDbEntity
  8
0
100
AcDbLine
 10
-15.00011800000016
 20
80.58640361911944
 30
0.0
 11
-23.07348611601424
 21
80.58640361911944
 31
0.0
  0
LINE
  5
315F
330
3129
100
AcDbEntity
  8
0
100
AcDbLine
 10
-23.07348611601424
 20
79.58640361911943
 30
0.0
 11
-23.07348611601424
 21
80.58640361911944
 31
0.0
  0
LINE
  5
3160
330
3129
100
AcDbEntity
  8
0
100
AcDbLine
 10
-23.04276451291617
 20
81.29004401374595
 30
0.0
 11
-22.95560877016851
 21
82.28623871183776
 31
0.0
  0
ARC
  5
3161
330
3129
100
AcDbEntity
  8
0
100
AcDbCircle
 10
12.5000500000001
 20
70.58640361911955
 30
0.0
 40
11.0
100
AcDbArc
 50
90.0
 51
180.0
  0
ARC
  5
3162
330
3129
100
AcDbEntity
  8
0
100
AcDbCircle
 10
12.50005121318509
 20
63.82417434160174
 30
0.0
 40
5.000051213203854
100
AcDbArc
 50
90.0002430827012
 51
179.9998428472107
  0
ARC
  5
3163
330
3129
100
AcDbEntity
  8
0
100
AcDbCircle
 10
12.50005121318509
 20
63.82417434160174
 30
0.0
 40
7.000051213203854
100
AcDbArc
 50
90.0002430827012
 51
179.9998428472107
  0
ARC
  5
3164
330
3129
100
AcDbEntity
  8
0
100
AcDbCircle
 10
12.50005121318509
 20
63.82417434160174
 30
0.0
 40
11.00005121320385
100
AcDbArc
 50
90.0002430827012
 51
179.9998428472107
  0
ARC
  5
3165
330
3129
100
AcDbEntity
  8
0
100
AcDbCircle
 10
12.50005121318509
 20
63.82417434160174
 30
0.0
 40
9.000051213203853
100
AcDbArc
 50
90.0002430827012
 51
177.3436678381892
  0
LINE
  5
3166
330
3129
100
AcDbEntity
  8
0
100
AcDbLine
 10
-8.000118000000156
 20
64.24535496930594
 30
0.0
 11
-8.000118000000156
 21
74.58640361911943
 31
0.0
  0
LINE
  5
3167
330
3129
100
AcDbEntity
  8
0
100
AcDbLine
 10
-9.000118000000156
 20
64.40536049844706
 30
0.0
 11
-9.000118000000156
 21
74.58640361911943
 31
0.0
  0
LINE
  5
3168
330
3129
100
AcDbEntity
  8
HOJO
100
AcDbLine
 10
-8.128795999999965
 20
64.29953745974114
 30
0.0
 11
-8.000118000000156
 21
64.24535496930594
 31
0.0
  0
LINE
  5
3169
330
3129
100
AcDbEntity
  8
0
100
AcDbLine
 10
1.500050000000101
 20
70.58640361911955
 30
0.0
 11
1.500000000000113
 21
63.8241894644052
 31
0.0
  0
ARC
  5
316A
330
3129
100
AcDbEntity
  8
HOJO
100
AcDbCircle
 10
2.750030000000151
 20
62.82422545974111
 30
0.0
 40
1.600781999999999
100
AcDbArc
 50
67.16467299999877
 51
141.3418685642152
  0
ARC
  5
316B
330
3129
100
AcDbEntity
  8
0
100
AcDbCircle
 10
12.50003000000015
 20
70.58640361911955
 30
0.0
 40
5.0
100
AcDbArc
 50
90.0
 51
131.9745634210935
  0
LINE
  5
316C
330
3129
100
AcDbEntity
  8
0
100
AcDbLine
 10
12.49986396535519
 20
68.82411555318743
 30
0.0
 11
12.93240679339396
 21
68.82411555318743
 31
0.0
  0
ARC
  5
316D
330
3129
100
AcDbEntity
  8
0
100
AcDbCircle
 10
12.50003000000015
 20
63.82422555476058
 30
0.0
 40
9.0
100
AcDbArc
 50
90.0
 51
123.3057915968515
  0
LINE
  5
316E
330
3129
100
AcDbEntity
  8
0
100
AcDbLine
 10
12.49986396535519
 20
70.82411555318742
 30
0.0
 11
12.93240679339396
 21
70.82411555318742
 31
0.0
  0
LINE
  5
316F
330
3129
100
AcDbEntity
  8
0
100
AcDbLine
 10
12.49986396535519
 20
72.82411555318742
 30
0.0
 11
12.93240679339396
 21
72.82411555318742
 31
0.0
  0
LINE
  5
3170
330
3129
100
AcDbEntity
  8
0
100
AcDbLine
 10
12.49986396535519
 20
74.82411555318742
 30
0.0
 11
12.93240679339396
 21
74.82411555318742
 31
0.0
  0
LINE
  5
3171
330
3129
100
AcDbEntity
  8
0
100
AcDbLine
 10
82.69635921645249
 20
61.95061646741862
 30
0.0
 11
82.69635921645249
 21
63.95061646741862
 31
0.0
  0
LINE
  5
3172
330
3129
100
AcDbEntity
  8
0
100
AcDbLine
 10
26.24463018429196
 20
66.54393406270344
 30
0.0
 11
37.49665787967024
 21
62.57282518147542
 31
0.0
  0
ARC
  5
3173
330
3129
100
AcDbEntity
  8
0
100
AcDbCircle
 10
52.80571477920307
 20
105.9506164674186
 30
0.0
 40
42.0
100
AcDbArc
 50
250.5608481874077
 51
270.0
  0
ARC
  5
3174
330
3129
100
AcDbEntity
  8
0
100
AcDbCircle
 10
52.80571477920307
 20
105.9506164674186
 30
0.0
 40
44.0
100
AcDbArc
 50
250.5608481874077
 51
270.0
  0
LINE
  5
3175
330
3129
100
AcDbEntity
  8
0
100
AcDbLine
 10
82.69635921645249
 20
61.95061646741862
 30
0.0
 11
52.80571477919398
 21
61.95061646741862
 31
0.0
  0
LINE
  5
3176
330
3129
100
AcDbEntity
  8
0
100
AcDbLine
 10
53.19635921645249
 20
59.95061646741863
 30
0.0
 11
82.57737422489753
 21
57.38011073129462
 31
0.0
  0
LINE
  5
3177
330
3129
100
AcDbEntity
  8
0
100
AcDbLine
 10
53.28368110226961
 20
61.95061646741862
 30
0.0
 11
82.75168571039285
 21
59.37250012747814
 31
0.0
  0
ARC
  5
3178
330
3129
100
AcDbEntity
  8
0
100
AcDbCircle
 10
52.80571477920307
 20
105.9506164674186
 30
0.0
 40
46.0
100
AcDbArc
 50
250.5608481874077
 51
270.0
  0
LINE
  5
3179
330
3129
100
AcDbEntity
  8
0
100
AcDbLine
 10
53.19635921645249
 20
59.95061646741863
 30
0.0
 11
52.80571477919352
 21
59.95061646741863
 31
0.0
  0
LINE
  5
317A
330
3129
100
AcDbEntity
  8
0
100
AcDbLine
 10
87.69635921645249
 20
62.6006164674186
 30
0.0
 11
82.69635921645249
 21
62.6006164674186
 31
0.0
  0
LINE
  5
317B
330
3129
100
AcDbEntity
  8
0
100
AcDbLine
 10
87.69635921645249
 20
62.25061646741858
 30
0.0
 11
82.69635921645249
 21
62.25061646741858
 31
0.0
  0
LINE
  5
317C
330
3129
100
AcDbEntity
  8
0
100
AcDbLine
 10
87.69635921645249
 20
62.95061646741863
 30
0.0
 11
82.69635921645249
 21
62.95061646741863
 31
0.0
  0
LINE
  5
317D
330
3129
100
AcDbEntity
  8
0
100
AcDbLine
 10
87.69635921645249
 20
63.30061646741853
 30
0.0
 11
82.69635921645249
 21
63.30061646741853
 31
0.0
  0
LINE
  5
317E
330
3129
100
AcDbEntity
  8
0
100
AcDbLine
 10
87.682736553327
 20
58.28860618504825
 30
0.0
 11
82.7017630628684
 21
58.72438489878641
 31
0.0
  0
LINE
  5
317F
330
3129
100
AcDbEntity
  8
0
100
AcDbLine
 10
87.73012291012491
 20
58.63579735916278
 30
0.0
 11
82.7322675728301
 21
59.07305304311853
 31
0.0
  0
LINE
  5
3180
330
3129
100
AcDbEntity
  8
0
100
AcDbLine
 10
87.59122302344213
 20
57.24260175205188
 30
0.0
 11
82.61024953298329
 21
57.67838046579015
 31
0.0
  0
LINE
  5
3181
330
3129
100
AcDbEntity
  8
0
100
AcDbLine
 10
87.62172753340383
 20
57.591269896384
 30
0.0
 11
82.640754042945
 21
58.02704861012228
 31
0.0
  0
LINE
  5
3182
330
3129
100
AcDbEntity
  8
0
100
AcDbLine
 10
87.6522320433653
 20
57.93993804071613
 30
0.0
 11
82.6712585529067
 21
58.3757167544544
 31
0.0
  0
LINE
  5
3183
330
3129
100
AcDbEntity
  8
0
100
AcDbLine
 10
82.57737422489753
 20
57.38011073129462
 30
0.0
 11
82.75168571039285
 21
59.37250012747802
 31
0.0
  0
LINE
  5
3184
330
3129
100
AcDbEntity
  8
0
100
AcDbLine
 10
58.89487091498927
 20
82.94817227322381
 30
0.0
 11
53.8493745310368
 21
81.83640361911955
 31
0.0
  0
LINE
  5
3185
330
3129
100
AcDbEntity
  8
0
100
AcDbLine
 10
58.31263360866183
 20
74.56895387445411
 30
0.0
 11
60.44621591812301
 21
74.19274574773374
 31
0.0
  0
LINE
  5
3186
330
3129
100
AcDbEntity
  8
0
100
AcDbLine
 10
82.69635921645249
 20
63.95061646741862
 30
0.0
 11
52.80571477919443
 21
63.95061646741862
 31
0.0
  0
LINE
  5
3187
330
3129
100
AcDbEntity
  8
0
100
AcDbLine
 10
53.28368110226961
 20
63.95061646741862
 30
0.0
 11
82.75841429565435
 21
66.52932148229104
 31
0.0
  0
LINE
  5
3188
330
3129
100
AcDbEntity
  8
0
100
AcDbLine
 10
53.19635921645249
 20
65.95061646741863
 30
0.0
 11
82.58410281015903
 21
68.52171087847455
 31
0.0
  0
ARC
  5
3189
330
3129
100
AcDbEntity
  8
0
100
AcDbCircle
 10
52.80571477920307
 20
105.9506164674186
 30
0.0
 40
40.0
100
AcDbArc
 50
250.5608481874077
 51
270.0
  0
LINE
  5
318A
330
3129
100
AcDbEntity
  8
0
100
AcDbLine
 10
26.91024135383646
 20
68.4299249881792
 30
0.0
 11
38.16226904921519
 21
64.45881610695119
 31
0.0
  0
LINE
  5
318B
330
3129
100
AcDbEntity
  8
0
100
AcDbLine
 10
28.24146369292634
 20
72.20190683913085
 30
0.0
 11
39.49349138830508
 21
68.23079795790284
 31
0.0
  0
LINE
  5
318C
330
3129
100
AcDbEntity
  8
0
100
AcDbLine
 10
27.57585252338163
 20
70.31591591365497
 30
0.0
 11
38.8278802187599
 21
66.34480703242696
 31
0.0
  0
LINE
  5
318D
330
3129
100
AcDbEntity
  8
0
100
AcDbLine
 10
57.89144046578849
 20
74.40266527206472
 30
0.0
 11
53.82435479376159
 21
75.33640361911955
 31
0.0
  0
LINE
  5
318E
330
3129
100
AcDbEntity
  8
0
100
AcDbLine
 10
53.19635921645249
 20
65.95061646741863
 30
0.0
 11
52.80571477920307
 21
65.95061646741863
 31
0.0
  0
ARC
  5
318F
330
3129
100
AcDbEntity
  8
0
100
AcDbCircle
 10
57.98094555365651
 20
74.79252273222903
 30
0.0
 40
0.4
100
AcDbArc
 50
257.0698677002803
 51
326.0187104207608
  0
LINE
  5
3190
330
3129
100
AcDbEntity
  8
0
100
AcDbLine
 10
50.91432489784825
 20
75.53640361911959
 30
0.0
 11
50.91432489784825
 21
81.63640361911962
 31
0.0
  0
LINE
  5
3191
330
3129
100
AcDbEntity
  8
0
100
AcDbLine
 10
51.11432489784829
 20
75.33640361911955
 30
0.0
 11
53.82435479376136
 21
75.33640361911955
 31
0.0
  0
ARC
  5
3192
330
3129
100
AcDbEntity
  8
0
100
AcDbCircle
 10
51.11432489784829
 20
75.53640361911959
 30
0.0
 40
0.2
100
AcDbArc
 50
180.0
 51
270.0
  0
LINE
  5
3193
330
3129
100
AcDbEntity
  8
0
100
AcDbLine
 10
51.11432489784829
 20
81.83640361911967
 30
0.0
 11
53.8493745310368
 21
81.83640361911967
 31
0.0
  0
ARC
  5
3194
330
3129
100
AcDbEntity
  8
0
100
AcDbCircle
 10
51.11432489784829
 20
81.63640361911962
 30
0.0
 40
0.2
100
AcDbArc
 50
90.0
 51
180.0
  0
LINE
  5
3195
330
3129
100
AcDbEntity
  8
0
100
AcDbLine
 10
76.5592125420078
 20
80.48574318238696
 30
0.0
 11
68.75661058630043
 21
80.48574318238683
 31
0.0
  0
LINE
  5
3196
330
3129
100
AcDbEntity
  8
0
100
AcDbLine
 10
76.5592125420078
 20
81.68574318238688
 30
0.0
 11
68.70421745481031
 21
81.68574318238677
 31
0.0
  0
LINE
  5
3197
330
3129
100
AcDbEntity
  8
0
100
AcDbLine
 10
76.5592125420078
 20
82.98574318238683
 30
0.0
 11
70.2979813865843
 21
82.98574318238683
 31
0.0
  0
LINE
  5
3198
330
3129
100
AcDbEntity
  8
0
100
AcDbLine
 10
76.5592125420078
 20
84.18574318238688
 30
0.0
 11
70.19299499035333
 21
84.18574318238688
 31
0.0
  0
LINE
  5
3199
330
3129
100
AcDbEntity
  8
0
100
AcDbLine
 10
76.5592125420078
 20
72.98574318238696
 30
0.0
 11
70.19299499035378
 21
72.98574318238684
 31
0.0
  0
LINE
  5
319A
330
3129
100
AcDbEntity
  8
0
100
AcDbLine
 10
76.5592125420078
 20
74.18574318238689
 30
0.0
 11
70.29798138658566
 21
74.18574318238677
 31
0.0
  0
LINE
  5
319B
330
3129
100
AcDbEntity
  8
0
100
AcDbLine
 10
76.5592125420078
 20
75.48574318238684
 30
0.0
 11
68.70421745481348
 21
75.48574318238684
 31
0.0
  0
LINE
  5
319C
330
3129
100
AcDbEntity
  8
0
100
AcDbLine
 10
76.5592125420078
 20
76.68574318238689
 30
0.0
 11
68.75661058630453
 21
76.68574318238677
 31
0.0
  0
LINE
  5
319D
330
3129
100
AcDbEntity
  8
0
100
AcDbLine
 10
76.5592125420078
 20
79.18574318238689
 30
0.0
 11
60.68094555365632
 21
79.18574318238689
 31
0.0
  0
LINE
  5
319E
330
3129
100
AcDbEntity
  8
0
100
AcDbLine
 10
76.5592125420078
 20
77.98574318238696
 30
0.0
 11
60.68094555365632
 21
77.98574318238673
 31
0.0
  0
LINE
  5
319F
330
3129
100
AcDbEntity
  8
0
100
AcDbLine
 10
60.68094555365632
 20
74.38970729833624
 30
0.0
 11
60.68094555365632
 21
82.78177906643781
 31
0.0
  0
LINE
  5
31A0
330
3129
100
AcDbEntity
  8
0
100
AcDbLine
 10
60.68094555365632
 20
75.57295383645737
 30
0.0
 11
66.82501783324664
 21
74.48958812214266
 31
0.0
  0
ARC
  5
31A1
330
3129
100
AcDbEntity
  8
0
100
AcDbCircle
 10
70.29798138658543
 20
94.18574318238688
 30
0.0
 40
20.0
100
AcDbArc
 50
260.0000000000014
 51
270.0
  0
ARC
  5
31A2
330
3129
100
AcDbEntity
  8
0
100
AcDbCircle
 10
70.19299499035378
 20
92.98574318238696
 30
0.0
 40
20.0
100
AcDbArc
 50
260.0000000000014
 51
270.0
  0
LINE
  5
31A3
330
3129
100
AcDbEntity
  8
0
100
AcDbLine
 10
60.67790710425879
 20
74.35497766280287
 30
0.0
 11
66.72003143701499
 21
73.28958812214273
 31
0.0
  0
ARC
  5
31A4
330
3129
100
AcDbEntity
  8
0
100
AcDbCircle
 10
60.48094555365628
 20
74.38970729833624
 30
0.0
 40
0.2
100
AcDbArc
 50
260.0000000000014
 51
0.0
  0
ARC
  5
31A5
330
3129
100
AcDbEntity
  8
0
100
AcDbCircle
 10
70.19299499035333
 20
64.18574318238689
 30
0.0
 40
20.0
100
AcDbArc
 50
90.0
 51
99.99999999999861
  0
ARC
  5
31A6
330
3129
100
AcDbEntity
  8
0
100
AcDbCircle
 10
70.29798138658453
 20
62.98574318238673
 30
0.0
 40
20.0
100
AcDbArc
 50
90.0
 51
99.99999999999861
  0
ARC
  5
31A7
330
3129
100
AcDbEntity
  8
0
100
AcDbCircle
 10
68.70421745481053
 20
61.68574318238677
 30
0.0
 40
20.0
100
AcDbArc
 50
90.0
 51
94.99999999999982
  0
ARC
  5
31A8
330
3129
100
AcDbEntity
  8
0
100
AcDbCircle
 10
68.75661058630067
 20
60.48574318238684
 30
0.0
 40
20.0
100
AcDbArc
 50
90.0
 51
94.99999999999982
  0
ARC
  5
31A9
330
3129
100
AcDbEntity
  8
0
100
AcDbCircle
 10
68.75661058630453
 20
96.68574318238677
 30
0.0
 40
20.0
100
AcDbArc
 50
265.0000000000002
 51
270.0
  0
ARC
  5
31AA
330
3129
100
AcDbEntity
  8
0
100
AcDbCircle
 10
68.70421745481348
 20
95.48574318238683
 30
0.0
 40
20.0
100
AcDbArc
 50
265.0000000000002
 51
270.0
  0
LINE
  5
31AB
330
3129
100
AcDbEntity
  8
0
100
AcDbLine
 10
67.01349573134734
 20
80.40963714422174
 30
0.0
 11
60.68094555365632
 21
79.85561079246474
 31
0.0
  0
LINE
  5
31AC
330
3129
100
AcDbEntity
  8
0
100
AcDbLine
 10
67.01349573135122
 20
76.76184922055188
 30
0.0
 11
60.68094555365632
 21
77.31587557230921
 31
0.0
  0
LINE
  5
31AD
330
3129
100
AcDbEntity
  8
0
100
AcDbLine
 10
66.96110259986017
 20
75.56184922055194
 30
0.0
 11
60.68094555365632
 21
76.11129176725717
 31
0.0
  0
LINE
  5
31AE
330
3129
100
AcDbEntity
  8
0
100
AcDbLine
 10
60.68094555365632
 20
81.59853252831636
 30
0.0
 11
66.82501783324596
 21
82.68189824263094
 31
0.0
  0
LINE
  5
31AF
330
3129
100
AcDbEntity
  8
0
100
AcDbLine
 10
66.96110259985744
 20
81.60963714422178
 30
0.0
 11
60.68094555365632
 21
81.06019459751667
 31
0.0
  0
LINE
  5
31B0
330
3129
100
AcDbEntity
  8
0
100
AcDbLine
 10
60.67790710425879
 20
82.81650870197109
 30
0.0
 11
66.72003143701477
 21
83.88189824263111
 31
0.0
  0
ARC
  5
31B1
330
3129
100
AcDbEntity
  8
0
100
AcDbCircle
 10
60.48094555365628
 20
82.78177906643781
 30
0.0
 40
0.2
100
AcDbArc
 50
0.0
 51
99.99999999999861
  0
ARC
  5
31B2
330
3129
100
AcDbEntity
  8
0
100
AcDbCircle
 10
58.98094555365651
 20
82.55754309282588
 30
0.0
 40
0.4
100
AcDbArc
 50
33.63399402201179
 51
102.4264747477325
  0
LINE
  5
31B3
330
3129
100
AcDbEntity
  8
0
100
AcDbLine
 10
59.31398265874122
 20
82.77909734495564
 30
0.0
 11
60.44621591812301
 21
82.97874061704021
 31
0.0
  0
LINE
  5
31B4
330
3129
100
AcDbEntity
  8
0
100
AcDbLine
 10
87.59122302344213
 20
68.65863118278525
 30
0.0
 11
82.61024953298329
 21
68.22285246904698
 31
0.0
  0
LINE
  5
31B5
330
3129
100
AcDbEntity
  8
0
100
AcDbLine
 10
87.682736553327
 20
67.61262674978889
 30
0.0
 11
82.7017630628684
 21
67.17684803605061
 31
0.0
  0
LINE
  5
31B6
330
3129
100
AcDbEntity
  8
0
100
AcDbLine
 10
87.73012291012515
 20
67.26543557567436
 30
0.0
 11
82.7322675728301
 21
66.82817989171849
 31
0.0
  0
LINE
  5
31B7
330
3129
100
AcDbEntity
  8
0
100
AcDbLine
 10
87.69635921645249
 20
63.65061646741856
 30
0.0
 11
82.69635921645249
 21
63.65061646741856
 31
0.0
  0
LINE
  5
31B8
330
3129
100
AcDbEntity
  8
0
100
AcDbLine
 10
87.6522320433653
 20
67.96129489412101
 30
0.0
 11
82.6712585529067
 21
67.52551618038274
 31
0.0
  0
LINE
  5
31B9
330
3129
100
AcDbEntity
  8
0
100
AcDbLine
 10
87.62172753340383
 20
68.30996303845314
 30
0.0
 11
82.640754042945
 21
67.87418432471486
 31
0.0
  0
LINE
  5
31BA
330
3129
100
AcDbEntity
  8
0
100
AcDbLine
 10
82.58410281015903
 20
68.52171087847455
 30
0.0
 11
82.75841429565435
 21
66.52932148229104
 31
0.0
  0
LINE
  5
31BB
330
3129
100
AcDbEntity
  8
0
  6
Continuous
 62
     7
370
    15
100
AcDbLine
 10
76.5592125420078
 20
76.08574318238112
 30
0.0
 11
77.0592125420078
 21
76.08574318238112
 31
0.0
  0
LINE
  5
31BC
330
3129
100
AcDbEntity
  8
0
  6
Continuous
 62
     7
370
    15
100
AcDbLine
 10
76.5592125420078
 20
76.08574318238112
 30
0.0
 11
76.5592125420078
 21
81.08574318239567
 31
0.0
  0
LINE
  5
31BD
330
3129
100
AcDbEntity
  8
0
  6
Continuous
 62
     7
370
    15
100
AcDbLine
 10
77.0592125420078
 20
81.08574318239567
 30
0.0
 11
76.5592125420078
 21
81.08574318239567
 31
0.0
  0
LINE
  5
31BE
330
3129
100
AcDbEntity
  8
0
  6
Continuous
 62
     7
370
    15
100
AcDbLine
 10
77.0592125420078
 20
81.08574318239567
 30
0.0
 11
77.0592125420078
 21
79.38574318238403
 31
0.0
  0
LINE
  5
31BF
330
3129
100
AcDbEntity
  8
0
  6
Continuous
 62
     7
370
    15
100
AcDbLine
 10
77.0592125420078
 20
79.38574318238403
 30
0.0
 11
77.0592125420078
 21
77.78574318237821
 31
0.0
  0
LINE
  5
31C0
330
3129
100
AcDbEntity
  8
0
  6
Continuous
 62
     7
370
    15
100
AcDbLine
 10
77.0592125420078
 20
77.78574318237821
 30
0.0
 11
77.0592125420078
 21
76.08574318238112
 31
0.0
  0
LINE
  5
31C1
330
3129
100
AcDbEntity
  8
0
  6
Continuous
 62
     7
370
    15
100
AcDbLine
 10
81.25921254200489
 20
77.78574318237821
 30
0.0
 11
77.0592125420078
 21
77.78574318237821
 31
0.0
  0
LINE
  5
31C2
330
3129
100
AcDbEntity
  8
0
  6
Continuous
 62
     7
370
    15
100
AcDbLine
 10
81.25921254200489
 20
79.38574318238403
 30
0.0
 11
77.0592125420078
 21
79.38574318238403
 31
0.0
  0
LINE
  5
31C3
330
3129
100
AcDbEntity
  8
0
  6
Continuous
 62
     7
370
    15
100
AcDbLine
 10
81.25921254200489
 20
79.38574318238403
 30
0.0
 11
81.25921254200489
 21
77.78574318237821
 31
0.0
  0
LINE
  5
31C4
330
3129
100
AcDbEntity
  8
0
  6
Continuous
 62
     7
370
    15
100
AcDbLine
 10
78.29126334200532
 20
82.78574318239277
 30
0.0
 11
78.29126334200532
 21
81.88574318238403
 31
0.0
  0
LINE
  5
31C5
330
3129
100
AcDbEntity
  8
0
  6
Continuous
 62
     7
370
    15
100
AcDbLine
 10
78.29126334200532
 20
81.88574318238403
 30
0.0
 11
76.5592125420078
 21
81.88574318238403
 31
0.0
  0
LINE
  5
31C6
330
3129
100
AcDbEntity
  8
0
  6
Continuous
 62
     7
370
    15
100
AcDbLine
 10
76.5592125420078
 20
81.88574318238403
 30
0.0
 11
76.5592125420078
 21
82.78574318239277
 31
0.0
  0
LINE
  5
31C7
330
3129
100
AcDbEntity
  8
0
  6
Continuous
 62
     7
370
    15
100
AcDbLine
 10
76.5592125420078
 20
82.78574318239277
 30
0.0
 11
78.29126334200532
 21
82.78574318239277
 31
0.0
  0
LINE
  5
31C8
330
3129
100
AcDbEntity
  8
0
  6
Continuous
 62
     7
370
    15
100
AcDbLine
 10
81.25921254200489
 20
81.88574318238403
 30
0.0
 11
81.25921254200489
 21
82.78574318239277
 31
0.0
  0
LINE
  5
31C9
330
3129
100
AcDbEntity
  8
0
  6
Continuous
 62
     7
370
    15
100
AcDbLine
 10
81.25921254200489
 20
82.78574318239277
 30
0.0
 11
78.29126334200532
 21
82.78574318239277
 31
0.0
  0
LINE
  5
31CA
330
3129
100
AcDbEntity
  8
0
  6
Continuous
 62
     7
370
    15
100
AcDbLine
 10
78.29126334200532
 20
81.88574318238403
 30
0.0
 11
81.25921254200489
 21
81.88574318238403
 31
0.0
  0
LINE
  5
31CB
330
3129
100
AcDbEntity
  8
0
  6
Continuous
 62
     7
370
    15
100
AcDbLine
 10
86.05921254200779
 20
81.08574318239567
 30
0.0
 11
86.05921254200779
 21
76.08574318238112
 31
0.0
  0
LINE
  5
31CC
330
3129
100
AcDbEntity
  8
0
  6
Continuous
 62
     7
370
    15
100
AcDbLine
 10
77.0592125420078
 20
81.08574318239567
 30
0.0
 11
86.05921254200779
 21
81.08574318239567
 31
0.0
  0
LINE
  5
31CD
330
3129
100
AcDbEntity
  8
0
  6
Continuous
 62
     7
370
    15
100
AcDbLine
 10
77.0592125420078
 20
76.08574318238112
 30
0.0
 11
86.05921254200779
 21
76.08574318238112
 31
0.0
  0
LINE
  5
31CE
330
3129
100
AcDbEntity
  8
0
  6
Continuous
 62
     7
370
    15
100
AcDbLine
 10
78.29126334200532
 20
75.28574318237821
 30
0.0
 11
78.29126334200532
 21
74.38574318238403
 31
0.0
  0
LINE
  5
31CF
330
3129
100
AcDbEntity
  8
0
  6
Continuous
 62
     7
370
    15
100
AcDbLine
 10
78.29126334200532
 20
74.38574318238403
 30
0.0
 11
76.5592125420078
 21
74.38574318238403
 31
0.0
  0
LINE
  5
31D0
330
3129
100
AcDbEntity
  8
0
  6
Continuous
 62
     7
370
    15
100
AcDbLine
 10
76.5592125420078
 20
74.38574318238403
 30
0.0
 11
76.5592125420078
 21
75.28574318237821
 31
0.0
  0
LINE
  5
31D1
330
3129
100
AcDbEntity
  8
0
  6
Continuous
 62
     7
370
    15
100
AcDbLine
 10
76.5592125420078
 20
75.28574318237821
 30
0.0
 11
78.29126334200532
 21
75.28574318237821
 31
0.0
  0
LINE
  5
31D2
330
3129
100
AcDbEntity
  8
0
  6
Continuous
 62
     7
370
    15
100
AcDbLine
 10
81.25921254200489
 20
74.38574318238403
 30
0.0
 11
81.25921254200489
 21
75.28574318237821
 31
0.0
  0
LINE
  5
31D3
330
3129
100
AcDbEntity
  8
0
  6
Continuous
 62
     7
370
    15
100
AcDbLine
 10
78.29126334200532
 20
74.38574318238403
 30
0.0
 11
81.25921254200489
 21
74.38574318238403
 31
0.0
  0
LINE
  5
31D4
330
3129
100
AcDbEntity
  8
0
  6
Continuous
 62
     7
370
    15
100
AcDbLine
 10
81.25921254200489
 20
75.28574318237821
 30
0.0
 11
78.29126334200532
 21
75.28574318237821
 31
0.0
  0
LINE
  5
31D5
330
3129
100
AcDbEntity
  8
0
  6
Continuous
 62
     7
370
    15
100
AcDbLine
 10
77.35921254201071
 20
71.98574318238986
 30
0.0
 11
85.5592125420078
 21
71.98574318238986
 31
0.0
  0
LINE
  5
31D6
330
3129
100
AcDbEntity
  8
0
  6
Continuous
 62
     7
370
    15
100
AcDbLine
 10
77.35921254201071
 20
71.18574318238694
 30
0.0
 11
77.35921254201071
 21
71.98574318238986
 31
0.0
  0
LINE
  5
31D7
330
3129
100
AcDbEntity
  8
0
  6
Continuous
 62
     7
370
    15
100
AcDbLine
 10
77.35921254201071
 20
71.18574318238694
 30
0.0
 11
76.5592125420078
 21
71.18574318238694
 31
0.0
  0
LINE
  5
31D8
330
3129
100
AcDbEntity
  8
0
  6
Continuous
 62
     7
370
    15
100
AcDbLine
 10
76.5592125420078
 20
72.78574318237821
 30
0.0
 11
76.5592125420078
 21
71.18574318238694
 31
0.0
  0
LINE
  5
31D9
330
3129
100
AcDbEntity
  8
0
  6
Continuous
 62
     7
370
    15
100
AcDbLine
 10
85.5592125420078
 20
72.78574318237821
 30
0.0
 11
76.5592125420078
 21
72.78574318237821
 31
0.0
  0
LINE
  5
31DA
330
3129
100
AcDbEntity
  8
0
  6
Continuous
 62
     7
370
    15
100
AcDbLine
 10
85.5592125420078
 20
71.98574318238986
 30
0.0
 11
85.5592125420078
 21
72.78574318237821
 31
0.0
  0
LINE
  5
31DB
330
3129
100
AcDbEntity
  8
0
  6
Continuous
 62
     7
370
    15
100
AcDbLine
 10
85.5592125420078
 20
84.38574318238403
 30
0.0
 11
76.5592125420078
 21
84.38574318238403
 31
0.0
  0
LINE
  5
31DC
330
3129
100
AcDbEntity
  8
0
  6
Continuous
 62
     7
370
    15
100
AcDbLine
 10
76.5592125420078
 20
85.98574318238986
 30
0.0
 11
76.5592125420078
 21
84.38574318238403
 31
0.0
  0
LINE
  5
31DD
330
3129
100
AcDbEntity
  8
0
  6
Continuous
 62
     7
370
    15
100
AcDbLine
 10
85.5592125420078
 20
84.38574318238403
 30
0.0
 11
85.5592125420078
 21
85.18574318238695
 31
0.0
  0
LINE
  5
31DE
330
3129
100
AcDbEntity
  8
0
  6
Continuous
 62
     7
370
    15
100
AcDbLine
 10
77.35921254201071
 20
85.18574318238695
 30
0.0
 11
85.5592125420078
 21
85.18574318238695
 31
0.0
  0
LINE
  5
31DF
330
3129
100
AcDbEntity
  8
0
  6
Continuous
 62
     7
370
    15
100
AcDbLine
 10
77.35921254201071
 20
85.98574318238986
 30
0.0
 11
77.35921254201071
 21
85.18574318238695
 31
0.0
  0
LINE
  5
31E0
330
3129
100
AcDbEntity
  8
0
  6
Continuous
 62
     7
370
    15
100
AcDbLine
 10
85.5592125420078
 20
81.88574318238403
 30
0.0
 11
85.5592125420078
 21
82.78574318239277
 31
0.0
  0
LINE
  5
31E1
330
3129
100
AcDbEntity
  8
0
  6
Continuous
 62
     7
370
    15
100
AcDbLine
 10
85.5592125420078
 20
82.78574318239277
 30
0.0
 11
81.25921254200489
 21
82.78574318239277
 31
0.0
  0
LINE
  5
31E2
330
3129
100
AcDbEntity
  8
0
  6
Continuous
 62
     7
370
    15
100
AcDbLine
 10
81.25921254200489
 20
81.88574318238403
 30
0.0
 11
85.5592125420078
 21
81.88574318238403
 31
0.0
  0
LINE
  5
31E3
330
3129
100
AcDbEntity
  8
0
  6
Continuous
 62
     7
370
    15
100
AcDbLine
 10
85.5592125420078
 20
74.38574318238403
 30
0.0
 11
85.5592125420078
 21
75.28574318237821
 31
0.0
  0
LINE
  5
31E4
330
3129
100
AcDbEntity
  8
0
  6
Continuous
 62
     7
370
    15
100
AcDbLine
 10
81.25921254200489
 20
74.38574318238403
 30
0.0
 11
85.5592125420078
 21
74.38574318238403
 31
0.0
  0
LINE
  5
31E5
330
3129
100
AcDbEntity
  8
0
  6
Continuous
 62
     7
370
    15
100
AcDbLine
 10
85.5592125420078
 20
75.28574318237821
 30
0.0
 11
81.25921254200489
 21
75.28574318237821
 31
0.0
  0
LINE
  5
31E6
330
3129
100
AcDbEntity
  8
0
  6
Continuous
 62
     7
370
    15
100
AcDbLine
 10
77.35921254201071
 20
82.78574318239277
 30
0.0
 11
77.35921254201071
 21
84.38574318238403
 31
0.0
  0
LINE
  5
31E7
330
3129
100
AcDbEntity
  8
0
  6
Continuous
 62
     7
370
    15
100
AcDbLine
 10
76.5592125420078
 20
84.38574318238403
 30
0.0
 11
76.5592125420078
 21
82.78574318239277
 31
0.0
  0
LINE
  5
31E8
330
3129
100
AcDbEntity
  8
0
  6
Continuous
 62
     7
370
    15
100
AcDbLine
 10
77.35921254201071
 20
72.78574318237821
 30
0.0
 11
77.35921254201071
 21
74.38574318238403
 31
0.0
  0
LINE
  5
31E9
330
3129
100
AcDbEntity
  8
0
  6
Continuous
 62
     7
370
    15
100
AcDbLine
 10
76.5592125420078
 20
74.38574318238403
 30
0.0
 11
76.5592125420078
 21
72.78574318237821
 31
0.0
  0
LINE
  5
31EA
330
3129
100
AcDbEntity
  8
0
  6
Continuous
 62
     7
370
    15
100
AcDbLine
 10
85.5592125420078
 20
74.38574318238403
 30
0.0
 11
85.5592125420078
 21
72.78574318237821
 31
0.0
  0
LINE
  5
31EB
330
3129
100
AcDbEntity
  8
0
  6
Continuous
 62
     7
370
    15
100
AcDbLine
 10
85.5592125420078
 20
84.38574318238403
 30
0.0
 11
85.5592125420078
 21
82.78574318239277
 31
0.0
  0
LINE
  5
31EC
330
3129
100
AcDbEntity
  8
0
  6
Continuous
 62
     7
370
    15
100
AcDbLine
 10
76.5592125420078
 20
81.88574318238403
 30
0.0
 11
76.5592125420078
 21
81.08574318239567
 31
0.0
  0
LINE
  5
31ED
330
3129
100
AcDbEntity
  8
0
  6
Continuous
 62
     7
370
    15
100
AcDbLine
 10
76.5592125420078
 20
76.08574318238112
 30
0.0
 11
76.5592125420078
 21
75.28574318237821
 31
0.0
  0
LINE
  5
31EE
330
3129
100
AcDbEntity
  8
0
  6
Continuous
 62
     7
370
    15
100
AcDbLine
 10
85.5592125420078
 20
75.28574318237821
 30
0.0
 11
85.5592125420078
 21
76.08574318238112
 31
0.0
  0
LINE
  5
31EF
330
3129
100
AcDbEntity
  8
0
  6
Continuous
 62
     7
370
    15
100
AcDbLine
 10
85.5592125420078
 20
81.08574318239567
 30
0.0
 11
85.5592125420078
 21
81.88574318238403
 31
0.0
  0
LINE
  5
31F0
330
3129
100
AcDbEntity
  8
0
  6
Continuous
 62
     7
370
    15
100
AcDbLine
 10
86.05921254200779
 20
85.18574318238695
 30
0.0
 11
86.05921254200779
 21
81.08574318239567
 31
0.0
  0
LINE
  5
31F1
330
3129
100
AcDbEntity
  8
0
  6
Continuous
 62
     7
370
    15
100
AcDbLine
 10
86.05921254200779
 20
76.08574318238112
 30
0.0
 11
86.05921254200779
 21
71.98574318238986
 31
0.0
  0
LINE
  5
31F2
330
3129
100
AcDbEntity
  8
0
  6
Continuous
 62
     7
370
    15
100
AcDbLine
 10
86.05921254200779
 20
85.18574318238695
 30
0.0
 11
85.5592125420078
 21
85.18574318238695
 31
0.0
  0
LINE
  5
31F3
330
3129
100
AcDbEntity
  8
0
  6
Continuous
 62
     7
370
    15
100
AcDbLine
 10
86.05921254200779
 20
71.98574318238986
 30
0.0
 11
85.5592125420078
 21
71.98574318238986
 31
0.0
  0
LINE
  5
31F4
330
3129
100
AcDbEntity
  8
0
  6
Continuous
 62
     7
370
    15
100
AcDbLine
 10
80.95921254200925
 20
71.98574318238986
 30
0.0
 11
80.95921254200925
 21
71.63574318238403
 31
0.0
  0
LINE
  5
31F5
330
3129
100
AcDbEntity
  8
0
  6
Continuous
 62
     7
370
    15
100
AcDbLine
 10
80.95921254200925
 20
71.63574318238403
 30
0.0
 11
77.35921254201071
 21
71.63574318238403
 31
0.0
  0
LINE
  5
31F6
330
3129
100
AcDbEntity
  8
0
  6
Continuous
 62
     7
370
    15
100
AcDbLine
 10
77.35921254201071
 20
85.53574318237821
 30
0.0
 11
80.95921254200925
 21
85.53574318237821
 31
0.0
  0
LINE
  5
31F7
330
3129
100
AcDbEntity
  8
0
  6
Continuous
 62
     7
370
    15
100
AcDbLine
 10
80.95921254200925
 20
85.53574318237821
 30
0.0
 11
80.95921254200925
 21
85.18574318238695
 31
0.0
  0
LINE
  5
31F8
330
3129
100
AcDbEntity
  8
0
100
AcDbLine
 10
-1.000118000000156
 20
24.03160099999991
 30
0.0
 11
3.0
 21
24.03160099999991
 31
0.0
  0
ENDBLK
  5
31F9
330
3129
100
AcDbEntity
  8
0
100
AcDbBlockEnd
  0
ENDSEC
  0
SECTION
  2
ENTITIES
  0
LINE
  5
6DB
330
2
100
AcDbEntity
  8
CENTER
100
AcDbLine
 10
23.62483797005655
 20
108.8569404316466
 30
0.0
 11
167.6248379700565
 21
108.8569404316466
 31
0.0
  0
LINE
  5
716
330
2
100
AcDbEntity
  8
0
100
AcDbLine
 10
188.1248379700565
 20
125.3569404316466
 30
0.0
 11
188.1248379700565
 21
114.3569404316466
 31
0.0
  0
LINE
  5
717
330
2
100
AcDbEntity
  8
0
100
AcDbLine
 10
166.1248379700565
 20
127.3569404316466
 30
0.0
 11
166.1248379700565
 21
112.3569404316466
 31
0.0
  0
ARC
  5
718
330
2
100
AcDbEntity
  8
0
100
AcDbCircle
 10
170.1248379700565
 20
119.8569404316466
 30
0.0
 40
2.0
100
AcDbArc
 50
180.0
 51
270.0
  0
LINE
  5
719
330
2
100
AcDbEntity
  8
0
100
AcDbLine
 10
165.1248379700565
 20
136.3569404316466
 30
0.0
 11
165.1248379700565
 21
103.3569404316466
 31
0.0
  0
LINE
  5
71B
330
2
100
AcDbEntity
  8
0
100
AcDbLine
 10
121.1248759700567
 20
146.9969394316466
 30
0.0
 11
121.1248759700567
 21
71.85694043164665
 31
0.0
  0
LINE
  5
71D
330
2
100
AcDbEntity
  8
0
100
AcDbLine
 10
130.6161779700566
 20
86.19485043164662
 30
0.0
 11
143.6161859700565
 21
86.30824943164663
 31
0.0
  0
LINE
  5
71E
330
2
100
AcDbEntity
  8
0
100
AcDbLine
 10
112.1248759700566
 20
65.85694043164664
 30
0.0
 11
162.1248839700566
 21
65.85694043164664
 31
0.0
  0
LINE
  5
71F
330
2
100
AcDbEntity
  8
0
100
AcDbLine
 10
128.6248759700566
 20
71.85694043164665
 30
0.0
 11
145.6248839700566
 21
71.85694043164665
 31
0.0
  0
LINE
  5
720
330
2
100
AcDbEntity
  8
CENTER
100
AcDbLine
 10
119.6248759700567
 20
74.35694043164665
 30
0.0
 11
119.6248759700567
 21
62.35694043164665
 31
0.0
  0
ARC
  5
721
330
2
100
AcDbEntity
  8
0
100
AcDbCircle
 10
128.6248759700566
 20
72.85694043164665
 30
0.0
 40
1.0
100
AcDbArc
 50
270.0
 51
0.0
  0
LINE
  5
722
330
2
100
AcDbEntity
  8
0
100
AcDbLine
 10
122.1248759700567
 20
83.14144043164663
 30
0.0
 11
122.1248759700567
 21
71.85694043164665
 31
0.0
  0
LINE
  5
725
330
2
100
AcDbEntity
  8
0
100
AcDbLine
 10
113.1248759700566
 20
64.85694043164665
 30
0.0
 11
126.6248759700566
 21
64.85694043164665
 31
0.0
  0
LINE
  5
726
330
2
100
AcDbEntity
  8
0
100
AcDbLine
 10
113.1248759700566
 20
71.85694043164665
 30
0.0
 11
128.6248759700566
 21
71.85694043164665
 31
0.0
  0
LINE
  5
727
330
2
100
AcDbEntity
  8
0
100
AcDbLine
 10
112.1248759700566
 20
70.85694043164664
 30
0.0
 11
112.1248759700566
 21
65.85694043164664
 31
0.0
  0
LINE
  5
728
330
2
100
AcDbEntity
  8
HIDS
  6
sekkei_H
100
AcDbLine
 10
116.3748759700567
 20
71.85694043164665
 30
0.0
 11
116.3748759700567
 21
64.85694043164665
 31
0.0
  0
LINE
  5
729
330
2
100
AcDbEntity
  8
0
100
AcDbLine
 10
112.1248759700566
 20
65.85694043164664
 30
0.0
 11
113.1248759700566
 21
64.85694043164665
 31
0.0
  0
ARC
  5
72A
330
2
100
AcDbEntity
  8
0
100
AcDbCircle
 10
113.1248759700566
 20
70.85694043164664
 30
0.0
 40
1.0
100
AcDbArc
 50
90.0
 51
180.0
  0
LINE
  5
72B
330
2
100
AcDbEntity
  8
HIDS
  6
sekkei_H
100
AcDbLine
 10
122.8748759700567
 20
71.85694043164665
 30
0.0
 11
122.8748759700567
 21
64.85694043164665
 31
0.0
  0
LINE
  5
72C
330
2
100
AcDbEntity
  8
0
100
AcDbLine
 10
126.6248759700566
 20
64.85694043164665
 30
0.0
 11
127.6248759700566
 21
65.85694043164664
 31
0.0
  0
LINE
  5
72E
330
2
100
AcDbEntity
  8
0
100
AcDbLine
 10
123.1336759700567
 20
84.14144043164663
 30
0.0
 11
128.6161779700566
 21
84.09354143164666
 31
0.0
  0
ARC
  5
72F
330
2
100
AcDbEntity
  8
0
100
AcDbCircle
 10
123.1248759700567
 20
83.14144043164663
 30
0.0
 40
1.0
100
AcDbArc
 50
89.50000000000031
 51
180.0
  0
LINE
  5
736
330
2
100
AcDbEntity
  8
0
100
AcDbLine
 10
121.1248759700567
 20
80.62134043164666
 30
0.0
 11
122.1248759700567
 21
80.62134043164666
 31
0.0
  0
LINE
  5
737
330
2
100
AcDbEntity
  8
0
100
AcDbLine
 10
129.6248759700566
 20
85.19485043164662
 30
0.0
 11
129.6248759700566
 21
72.85694043164665
 31
0.0
  0
ARC
  5
738
330
2
100
AcDbEntity
  8
0
100
AcDbCircle
 10
128.6248759700566
 20
85.09354143164665
 30
0.0
 40
1.0
100
AcDbArc
 50
269.5000000000003
 51
0.0
  0
ARC
  5
739
330
2
100
AcDbEntity
  8
0
100
AcDbCircle
 10
130.6248759700566
 20
85.19485043164662
 30
0.0
 40
1.0
100
AcDbArc
 50
90.4999999999997
 51
180.0
  0
LINE
  5
73A
330
2
100
AcDbEntity
  8
0
100
AcDbLine
 10
129.6248759700566
 20
85.19485043164662
 30
0.0
 11
129.6248759700566
 21
85.09354143164665
 31
0.0
  0
LINE
  5
73B
330
2
100
AcDbEntity
  8
CENTER
100
AcDbLine
 10
154.6248839700566
 20
74.35694043164665
 30
0.0
 11
154.6248839700566
 21
62.35694043164665
 31
0.0
  0
ARC
  5
73C
330
2
100
AcDbEntity
  8
0
100
AcDbCircle
 10
145.6248839700566
 20
72.85694043164665
 30
0.0
 40
1.0
100
AcDbArc
 50
180.0
 51
270.0
  0
LINE
  5
73E
330
2
100
AcDbEntity
  8
0
100
AcDbLine
 10
145.6248839700566
 20
71.85694043164665
 30
0.0
 11
161.1248839700566
 21
71.85694043164665
 31
0.0
  0
LINE
  5
73F
330
2
100
AcDbEntity
  8
0
100
AcDbLine
 10
147.6248839700566
 20
64.85694043164665
 30
0.0
 11
161.1248839700566
 21
64.85694043164665
 31
0.0
  0
LINE
  5
740
330
2
100
AcDbEntity
  8
0
100
AcDbLine
 10
146.6248839700566
 20
65.85694043164664
 30
0.0
 11
147.6248839700566
 21
64.85694043164665
 31
0.0
  0
LINE
  5
741
330
2
100
AcDbEntity
  8
HIDS
  6
sekkei_H
100
AcDbLine
 10
151.3748839700566
 20
71.85694043164665
 30
0.0
 11
151.3748839700566
 21
64.85694043164665
 31
0.0
  0
LINE
  5
742
330
2
100
AcDbEntity
  8
0
100
AcDbLine
 10
162.1248839700566
 20
70.85694043164664
 30
0.0
 11
162.1248839700566
 21
65.85694043164664
 31
0.0
  0
LINE
  5
743
330
2
100
AcDbEntity
  8
HIDS
  6
sekkei_H
100
AcDbLine
 10
157.8748839700566
 20
71.85694043164665
 30
0.0
 11
157.8748839700566
 21
64.85694043164665
 31
0.0
  0
LINE
  5
744
330
2
100
AcDbEntity
  8
0
100
AcDbLine
 10
161.1248839700566
 20
64.85694043164665
 30
0.0
 11
162.1248839700566
 21
65.85694043164664
 31
0.0
  0
ARC
  5
745
330
2
100
AcDbEntity
  8
0
100
AcDbCircle
 10
161.1248839700566
 20
70.85694043164664
 30
0.0
 40
1.0
100
AcDbArc
 50
0.0
 51
90.0
  0
LINE
  5
746
330
2
100
AcDbEntity
  8
0
100
AcDbLine
 10
187.6248379700565
 20
113.8569404316466
 30
0.0
 11
166.1248379700565
 21
113.8569404316466
 31
0.0
  0
LINE
  5
747
330
2
100
AcDbEntity
  8
0
100
AcDbLine
 10
188.1248379700565
 20
117.8569404316466
 30
0.0
 11
170.1248379700565
 21
117.8569404316466
 31
0.0
  0
LINE
  5
749
330
2
100
AcDbEntity
  8
0
100
AcDbLine
 10
145.6335729700566
 20
84.09354143164666
 30
0.0
 11
158.1597799700567
 21
84.20284043164668
 31
0.0
  0
LINE
  5
74A
330
2
100
AcDbEntity
  8
0
100
AcDbLine
 10
144.6248839700566
 20
85.30834143164668
 30
0.0
 11
144.6248839700566
 21
72.85694043164665
 31
0.0
  0
ARC
  5
74B
330
2
100
AcDbEntity
  8
0
100
AcDbCircle
 10
145.6248839700566
 20
85.09354143164665
 30
0.0
 40
1.0
100
AcDbArc
 50
180.0
 51
270.4999999999996
  0
LINE
  5
74C
330
2
100
AcDbEntity
  8
0
100
AcDbLine
 10
144.6248839700566
 20
85.30834143164668
 30
0.0
 11
144.6248839700566
 21
85.09354143164665
 31
0.0
  0
ARC
  5
74D
330
2
100
AcDbEntity
  8
0
100
AcDbCircle
 10
143.6248839700566
 20
85.30834143164668
 30
0.0
 40
1.0
100
AcDbArc
 50
0.0
 51
90.4999999999997
  0
ARC
  5
74E
330
2
100
AcDbEntity
  8
0
100
AcDbCircle
 10
158.1248839700566
 20
88.20275043164668
 30
0.0
 40
4.0
100
AcDbArc
 50
270.4999999999996
 51
0.0
  0
ARC
  5
74F
330
2
100
AcDbEntity
  8
0
100
AcDbCircle
 10
164.1248379700565
 20
100.3569404316466
 30
0.0
 40
2.0
100
AcDbArc
 50
90.0
 51
180.0
  0
ARC
  5
750
330
2
100
AcDbEntity
  8
0
100
AcDbCircle
 10
164.1248379700565
 20
103.3569404316466
 30
0.0
 40
1.0
100
AcDbArc
 50
270.0
 51
0.0
  0
LINE
  5
751
330
2
100
AcDbEntity
  8
0
100
AcDbLine
 10
166.1248379700565
 20
112.3569404316466
 30
0.0
 11
165.1248379700565
 21
112.3569404316466
 31
0.0
  0
LINE
  5
752
330
2
100
AcDbEntity
  8
0
100
AcDbLine
 10
187.6248379700565
 20
117.8569404316466
 30
0.0
 11
187.6248379700565
 21
113.8569404316466
 31
0.0
  0
LINE
  5
753
330
2
100
AcDbEntity
  8
0
100
AcDbLine
 10
187.6248379700565
 20
113.8569404316466
 30
0.0
 11
188.1248379700565
 21
114.3569404316466
 31
0.0
  0
LINE
  5
757
330
2
100
AcDbEntity
  8
0
100
AcDbLine
 10
121.1248759700567
 20
137.0925404316466
 30
0.0
 11
158.1597799700567
 21
136.7693394316466
 31
0.0
  0
LINE
  5
758
330
2
100
AcDbEntity
  8
0
100
AcDbLine
 10
158.1597799700567
 20
146.6737394316466
 30
0.0
 11
121.1248759700567
 21
146.9969394316466
 31
0.0
  0
LINE
  5
7A9
330
2
100
AcDbEntity
  8
0
100
AcDbLine
 10
187.6248379700565
 20
125.8569404316466
 30
0.0
 11
166.1248379700565
 21
125.8569404316466
 31
0.0
  0
LINE
  5
7AA
330
2
100
AcDbEntity
  8
0
100
AcDbLine
 10
188.1248379700565
 20
121.8569404316466
 30
0.0
 11
170.1248379700565
 21
121.8569404316466
 31
0.0
  0
LINE
  5
7AB
330
2
100
AcDbEntity
  8
CENTER
100
AcDbLine
 10
193.1248379700565
 20
119.8569404316466
 30
0.0
 11
157.1248839700566
 21
119.8569404316466
 31
0.0
  0
LINE
  5
7AC
330
2
100
AcDbEntity
  8
0
100
AcDbLine
 10
162.1248839700566
 20
142.6739414316466
 30
0.0
 11
162.1248839700566
 21
70.85694043164664
 31
0.0
  0
LINE
  5
7AD
330
2
100
AcDbEntity
  8
0
100
AcDbLine
 10
166.1248379700565
 20
127.3569404316466
 30
0.0
 11
165.1248379700565
 21
127.3569404316466
 31
0.0
  0
ARC
  5
7AE
330
2
100
AcDbEntity
  8
0
100
AcDbCircle
 10
170.1248379700565
 20
119.8569404316466
 30
0.0
 40
2.0
100
AcDbArc
 50
90.0
 51
180.0
  0
ARC
  5
7AF
330
2
100
AcDbEntity
  8
0
100
AcDbCircle
 10
158.1248839700566
 20
132.7694504316466
 30
0.0
 40
4.0
100
AcDbArc
 50
0.0
 51
89.50000000000031
  0
ARC
  5
7B0
330
2
100
AcDbEntity
  8
0
100
AcDbCircle
 10
164.1248379700565
 20
139.3569404316466
 30
0.0
 40
2.0
100
AcDbArc
 50
180.0
 51
270.0
  0
ARC
  5
7B1
330
2
100
AcDbEntity
  8
0
100
AcDbCircle
 10
164.1248379700565
 20
136.3569404316466
 30
0.0
 40
1.0
100
AcDbArc
 50
0.0
 51
90.0
  0
ARC
  5
7BB
330
2
100
AcDbEntity
  8
0
100
AcDbCircle
 10
158.1248839700566
 20
142.6739414316466
 30
0.0
 40
4.0
100
AcDbArc
 50
0.0
 51
89.50000000000031
  0
LINE
  5
7BC
330
2
100
AcDbEntity
  8
0
100
AcDbLine
 10
187.6248379700565
 20
125.8569404316466
 30
0.0
 11
187.6248379700565
 21
121.8569404316466
 31
0.0
  0
LINE
  5
7BD
330
2
100
AcDbEntity
  8
0
100
AcDbLine
 10
187.6248379700565
 20
125.8569404316466
 30
0.0
 11
188.1248379700565
 21
125.3569404316466
 31
0.0
  0
ARC
  5
824
330
2
100
AcDbEntity
  8
0
100
AcDbCircle
 10
294.9216842038694
 20
108.8569404316466
 30
0.0
 40
38.139999
100
AcDbArc
 50
327.1472210000009
 51
45.8803220000006
  0
ARC
  5
825
330
2
100
AcDbEntity
  8
0
100
AcDbCircle
 10
294.9216842038694
 20
119.8569404316466
 30
0.0
 40
7.5
100
AcDbArc
 50
195.4660029999981
 51
164.5339969999985
  0
LINE
  5
826
330
2
100
AcDbEntity
  8
0
100
AcDbLine
 10
287.4216842038694
 20
117.8569404316466
 30
0.0
 11
287.4216842038694
 21
121.8569404316466
 31
0.0
  0
ARC
  5
827
330
2
100
AcDbEntity
  8
0
100
AcDbCircle
 10
294.9216842038694
 20
119.8569404316466
 30
0.0
 40
6.0
100
AcDbArc
 50
199.4712069999985
 51
160.5287930000011
  0
LINE
  5
828
330
2
100
AcDbEntity
  8
0
100
AcDbLine
 10
291.4216842038694
 20
117.8569404316466
 30
0.0
 11
291.4216842038694
 21
121.8569404316466
 31
0.0
  0
ARC
  5
829
330
2
100
AcDbEntity
  8
0
100
AcDbCircle
 10
294.9216842038694
 20
108.8569404316466
 30
0.0
 40
38.139999
100
AcDbArc
 50
134.1197050000002
 51
212.8527980000013
  0
CIRCLE
  5
82A
330
2
100
AcDbEntity
  8
0
100
AcDbCircle
 10
294.9216842038694
 20
119.8569404316466
 30
0.0
 40
17.5
  0
LINE
  5
82B
330
2
100
AcDbEntity
  8
CENTER
100
AcDbLine
 10
294.9216842038694
 20
166.5581400507662
 30
0.0
 11
294.9216842038694
 21
60.85694043164664
 31
0.0
  0
LINE
  5
82C
330
2
100
AcDbEntity
  8
CENTER
100
AcDbLine
 10
251.7816852038694
 20
108.8569404316466
 30
0.0
 11
338.0616832038694
 21
108.8569404316466
 31
0.0
  0
LINE
  5
82D
330
2
100
AcDbEntity
  8
0
100
AcDbLine
 10
249.9216842038694
 20
65.85694043164664
 30
0.0
 11
339.9216992038692
 21
65.85694043164664
 31
0.0
  0
LINE
  5
82E
330
2
100
AcDbEntity
  8
CENTER
100
AcDbLine
 10
256.9216842038694
 20
74.35694043164665
 30
0.0
 11
256.9216842038694
 21
62.35694043164665
 31
0.0
  0
ARC
  5
82F
330
2
100
AcDbEntity
  8
0
100
AcDbCircle
 10
264.9216842038694
 20
72.85694043164665
 30
0.0
 40
1.0
100
AcDbArc
 50
270.0
 51
0.0
  0
ARC
  5
830
330
2
100
AcDbEntity
  8
0
100
AcDbCircle
 10
250.9216842038694
 20
71.44274043164665
 30
0.0
 40
1.0
100
AcDbArc
 50
135.0
 51
180.0
  0
LINE
  5
831
330
2
100
AcDbEntity
  8
0
100
AcDbLine
 10
250.9216842038694
 20
64.85694043164665
 30
0.0
 11
263.9216842038694
 21
64.85694043164665
 31
0.0
  0
LINE
  5
832
330
2
100
AcDbEntity
  8
0
100
AcDbLine
 10
250.9216842038694
 20
71.85694043164665
 30
0.0
 11
264.9216842038694
 21
71.85694043164665
 31
0.0
  0
LINE
  5
833
330
2
100
AcDbEntity
  8
0
100
AcDbLine
 10
249.9216842038694
 20
71.44274043164665
 30
0.0
 11
249.9216842038694
 21
65.85694043164664
 31
0.0
  0
LINE
  5
834
330
2
100
AcDbEntity
  8
0
100
AcDbLine
 10
249.9216842038694
 20
65.85694043164664
 30
0.0
 11
250.9216842038694
 21
64.85694043164665
 31
0.0
  0
ARC
  5
835
330
2
100
AcDbEntity
  8
0
100
AcDbCircle
 10
250.9216842038694
 20
70.85694043164664
 30
0.0
 40
1.0
100
AcDbArc
 50
90.0
 51
180.0
  0
LINE
  5
836
330
2
100
AcDbEntity
  8
HIDS
  6
sekkei_H
100
AcDbLine
 10
253.6716842038694
 20
71.85694043164665
 30
0.0
 11
253.6716842038694
 21
64.85694043164665
 31
0.0
  0
LINE
  5
837
330
2
100
AcDbEntity
  8
HIDS
  6
sekkei_H
100
AcDbLine
 10
260.1716842038694
 20
71.85694043164665
 30
0.0
 11
260.1716842038694
 21
64.85694043164665
 31
0.0
  0
LINE
  5
838
330
2
100
AcDbEntity
  8
0
100
AcDbLine
 10
263.9216842038694
 20
64.85694043164665
 30
0.0
 11
264.9216842038694
 21
65.85694043164664
 31
0.0
  0
LINE
  5
839
330
2
100
AcDbEntity
  8
0
100
AcDbLine
 10
250.2146832038694
 20
72.14985243164665
 30
0.0
 11
262.4826882038693
 21
84.41784043164664
 31
0.0
  0
ARC
  5
83A
330
2
100
AcDbEntity
  8
0
100
AcDbCircle
 10
263.9216842038694
 20
83.35755043164665
 30
0.0
 40
2.0
100
AcDbArc
 50
0.0
 51
39.43940000000075
  0
LINE
  5
83B
330
2
100
AcDbEntity
  8
0
100
AcDbLine
 10
265.9216842038694
 20
83.35755043164665
 30
0.0
 11
265.9216842038694
 21
72.85694043164665
 31
0.0
  0
ARC
  5
83C
330
2
100
AcDbEntity
  8
0
100
AcDbCircle
 10
294.9216842038694
 20
108.8569404316466
 30
0.0
 40
38.139999
100
AcDbArc
 50
212.8527980000013
 51
219.4394069999993
  0
ARC
  5
83D
330
2
100
AcDbEntity
  8
0
100
AcDbCircle
 10
260.3612892038694
 20
86.53924143164664
 30
0.0
 40
3.0
100
AcDbArc
 50
315.0
 51
32.85277899999914
  0
LINE
  5
83E
330
2
100
AcDbEntity
  8
0
100
AcDbLine
 10
293.8904792038694
 20
73.85694043164665
 30
0.0
 11
295.8357922038693
 21
73.85694043164665
 31
0.0
  0
LINE
  5
83F
330
2
100
AcDbEntity
  8
0
100
AcDbLine
 10
291.9217902038694
 20
82.85694043164665
 30
0.0
 11
297.9216842038694
 21
82.85694043164665
 31
0.0
  0
LINE
  5
840
330
2
100
AcDbEntity
  8
0
100
AcDbLine
 10
284.0791852038693
 20
73.85694043164665
 30
0.0
 11
287.1994852038694
 21
73.85694043164665
 31
0.0
  0
ARC
  5
841
330
2
100
AcDbEntity
  8
0
100
AcDbCircle
 10
286.1795882038692
 20
76.78663943164668
 30
0.0
 40
1.875
100
AcDbArc
 50
270.0002140000007
 51
0.0001089999998967
  0
LINE
  5
842
330
2
100
AcDbEntity
  8
0
100
AcDbLine
 10
287.4981912038694
 20
81.66164143164667
 30
0.0
 11
284.6069862038695
 21
81.66164143164667
 31
0.0
  0
LINE
  5
843
330
2
100
AcDbEntity
  8
0
100
AcDbLine
 10
284.0109932038694
 20
82.85694043164665
 30
0.0
 11
288.0455852038693
 21
82.85694043164665
 31
0.0
  0
LINE
  5
844
330
2
100
AcDbEntity
  8
0
100
AcDbLine
 10
283.9295882038692
 20
80.82165043164662
 30
0.0
 11
283.9295882038692
 21
75.63664943164667
 31
0.0
  0
LINE
  5
845
330
2
100
AcDbEntity
  8
0
100
AcDbLine
 10
282.9216842038694
 20
81.46214943164665
 30
0.0
 11
282.9216842038694
 21
75.02485243164665
 31
0.0
  0
LINE
  5
846
330
2
100
AcDbEntity
  8
0
100
AcDbLine
 10
282.9216842038694
 20
75.02485243164665
 30
0.0
 11
284.0791852038693
 21
73.85694043164665
 31
0.0
  0
LINE
  5
847
330
2
100
AcDbEntity
  8
0
100
AcDbLine
 10
286.1795882038692
 20
74.91163943164668
 30
0.0
 11
284.6177902038693
 21
74.91163943164668
 31
0.0
  0
LINE
  5
848
330
2
100
AcDbEntity
  8
0
100
AcDbLine
 10
283.9295882038692
 20
75.63664943164667
 30
0.0
 11
284.6177902038693
 21
74.91163943164668
 31
0.0
  0
LINE
  5
849
330
2
100
AcDbEntity
  8
0
100
AcDbLine
 10
284.0109932038694
 20
82.85694043164665
 30
0.0
 11
282.9216842038694
 21
81.46214943164665
 31
0.0
  0
LINE
  5
84A
330
2
100
AcDbEntity
  8
0
100
AcDbLine
 10
284.6069862038695
 20
81.66164143164667
 30
0.0
 11
283.9295882038692
 21
80.82165043164662
 31
0.0
  0
LINE
  5
84B
330
2
100
AcDbEntity
  8
0
100
AcDbLine
 10
288.0545882038692
 20
78.09914143164667
 30
0.0
 11
288.0545882038692
 21
76.78663943164668
 31
0.0
  0
LINE
  5
84C
330
2
100
AcDbEntity
  8
0
100
AcDbLine
 10
288.9216842038694
 20
79.08344043164664
 30
0.0
 11
288.9216842038694
 21
73.85694043164665
 31
0.0
  0
LINE
  5
84D
330
2
100
AcDbEntity
  8
0
100
AcDbLine
 10
294.3357922038694
 20
81.75535143164665
 30
0.0
 11
294.3357922038694
 21
74.84134943164668
 31
0.0
  0
LINE
  5
84E
330
2
100
AcDbEntity
  8
0
100
AcDbLine
 10
288.0545882038692
 20
73.85694043164665
 30
0.0
 11
288.9216842038694
 21
73.85694043164665
 31
0.0
  0
LINE
  5
84F
330
2
100
AcDbEntity
  8
0
100
AcDbLine
 10
288.0545882038692
 20
74.57435143164662
 30
0.0
 11
287.1994852038694
 21
73.85694043164665
 31
0.0
  0
LINE
  5
850
330
2
100
AcDbEntity
  8
0
100
AcDbLine
 10
288.0545882038692
 20
74.57435143164662
 30
0.0
 11
288.0545882038692
 21
73.85694043164665
 31
0.0
  0
LINE
  5
851
330
2
100
AcDbEntity
  8
0
100
AcDbLine
 10
288.0545882038692
 20
77.16164143164667
 30
0.0
 11
288.0545882038692
 21
77.91164143164667
 31
0.0
  0
LINE
  5
852
330
2
100
AcDbEntity
  8
0
100
AcDbLine
 10
293.8904792038694
 20
74.84134943164668
 30
0.0
 11
293.8904792038694
 21
73.85694043164665
 31
0.0
  0
LINE
  5
853
330
2
100
AcDbEntity
  8
0
100
AcDbLine
 10
293.8904792038694
 20
74.84134943164668
 30
0.0
 11
294.3357922038694
 21
74.84134943164668
 31
0.0
  0
LINE
  5
854
330
2
100
AcDbEntity
  8
0
100
AcDbLine
 10
286.4841842038694
 20
79.08344043164664
 30
0.0
 11
288.9216842038694
 21
79.08344043164664
 31
0.0
  0
LINE
  5
855
330
2
100
AcDbEntity
  8
0
100
AcDbLine
 10
288.0545882038692
 20
80.98194043164665
 30
0.0
 11
288.9216842038694
 21
80.98194043164665
 31
0.0
  0
LINE
  5
856
330
2
100
AcDbEntity
  8
0
100
AcDbLine
 10
288.0455852038693
 20
82.85694043164665
 30
0.0
 11
288.9216842038694
 21
81.88453943164665
 31
0.0
  0
LINE
  5
857
330
2
100
AcDbEntity
  8
0
100
AcDbLine
 10
286.4841842038694
 20
79.08344043164664
 30
0.0
 11
286.4841842038694
 21
78.09914143164667
 31
0.0
  0
LINE
  5
858
330
2
100
AcDbEntity
  8
0
100
AcDbLine
 10
288.0545882038692
 20
78.09914143164667
 30
0.0
 11
286.4841842038694
 21
78.09914143164667
 31
0.0
  0
LINE
  5
859
330
2
100
AcDbEntity
  8
0
100
AcDbLine
 10
288.0545882038692
 20
81.12385143164663
 30
0.0
 11
288.0545882038692
 21
80.98194043164665
 31
0.0
  0
LINE
  5
85A
330
2
100
AcDbEntity
  8
0
100
AcDbLine
 10
288.0545882038692
 20
81.12385143164663
 30
0.0
 11
287.4867932038693
 21
81.66164143164667
 31
0.0
  0
LINE
  5
85B
330
2
100
AcDbEntity
  8
0
100
AcDbLine
 10
288.9216842038694
 20
81.88453943164665
 30
0.0
 11
288.9216842038694
 21
80.98194043164665
 31
0.0
  0
LINE
  5
85C
330
2
100
AcDbEntity
  8
0
100
AcDbLine
 10
294.3357922038694
 20
81.75535143164665
 30
0.0
 11
292.9100872038695
 21
81.75535143164665
 31
0.0
  0
LINE
  5
85D
330
2
100
AcDbEntity
  8
0
100
AcDbLine
 10
291.9217902038694
 20
80.98194043164665
 30
0.0
 11
291.9217902038694
 21
82.85694043164665
 31
0.0
  0
LINE
  5
85E
330
2
100
AcDbEntity
  8
0
100
AcDbLine
 10
292.9100872038695
 20
81.75535143164665
 30
0.0
 11
292.5877912038694
 21
80.98194043164665
 31
0.0
  0
LINE
  5
85F
330
2
100
AcDbEntity
  8
0
100
AcDbLine
 10
291.9217902038694
 20
80.98194043164665
 30
0.0
 11
292.5877912038694
 21
80.98194043164665
 31
0.0
  0
LINE
  5
860
330
2
100
AcDbEntity
  8
0
100
AcDbLine
 10
302.8084942038694
 20
73.85694043164665
 30
0.0
 11
300.9216842038694
 21
73.85694043164665
 31
0.0
  0
LINE
  5
861
330
2
100
AcDbEntity
  8
0
100
AcDbLine
 10
302.3982922038694
 20
74.79444043164665
 30
0.0
 11
302.8084942038694
 21
74.79444043164665
 31
0.0
  0
LINE
  5
862
330
2
100
AcDbEntity
  8
0
100
AcDbLine
 10
302.3982922038694
 20
78.06394143164664
 30
0.0
 11
304.3186872038692
 21
78.06394143164664
 31
0.0
  0
LINE
  5
863
330
2
100
AcDbEntity
  8
0
100
AcDbLine
 10
302.3982922038694
 20
79.00124043164663
 30
0.0
 11
304.7084882038695
 21
79.00124043164663
 31
0.0
  0
LINE
  5
864
330
2
100
AcDbEntity
  8
0
100
AcDbLine
 10
302.3982922038694
 20
81.75535143164665
 30
0.0
 11
305.1980812038693
 21
81.75355043164666
 31
0.0
  0
LINE
  5
865
330
2
100
AcDbEntity
  8
0
100
AcDbLine
 10
300.9216842038694
 20
82.85694043164665
 30
0.0
 11
304.5194922038694
 21
82.85694043164665
 31
0.0
  0
LINE
  5
866
330
2
100
AcDbEntity
  8
0
100
AcDbLine
 10
295.4607922038693
 20
81.75535143164665
 30
0.0
 11
295.4607922038693
 21
74.84134943164668
 31
0.0
  0
LINE
  5
867
330
2
100
AcDbEntity
  8
0
100
AcDbLine
 10
301.3670882038692
 20
81.75535143164665
 30
0.0
 11
301.3670882038692
 21
74.79444043164665
 31
0.0
  0
LINE
  5
868
330
2
100
AcDbEntity
  8
0
100
AcDbLine
 10
302.3982922038694
 20
78.06394143164664
 30
0.0
 11
302.3982922038694
 21
74.79444043164665
 31
0.0
  0
LINE
  5
869
330
2
100
AcDbEntity
  8
0
100
AcDbLine
 10
295.8357922038693
 20
74.84134943164668
 30
0.0
 11
295.8357922038693
 21
73.85694043164665
 31
0.0
  0
LINE
  5
86A
330
2
100
AcDbEntity
  8
0
100
AcDbLine
 10
295.4607922038693
 20
74.84134943164668
 30
0.0
 11
295.8357922038693
 21
74.84134943164668
 31
0.0
  0
LINE
  5
86B
330
2
100
AcDbEntity
  8
0
100
AcDbLine
 10
300.9216842038694
 20
74.79444043164665
 30
0.0
 11
300.9216842038694
 21
73.85694043164665
 31
0.0
  0
LINE
  5
86C
330
2
100
AcDbEntity
  8
0
100
AcDbLine
 10
300.9216842038694
 20
74.79444043164665
 30
0.0
 11
301.3670882038692
 21
74.79444043164665
 31
0.0
  0
LINE
  5
86D
330
2
100
AcDbEntity
  8
0
100
AcDbLine
 10
297.9216842038694
 20
80.98194043164665
 30
0.0
 11
297.9216842038694
 21
82.85694043164665
 31
0.0
  0
LINE
  5
86E
330
2
100
AcDbEntity
  8
0
100
AcDbLine
 10
295.4607922038693
 20
81.75535143164665
 30
0.0
 11
297.0241922038693
 21
81.75535143164665
 31
0.0
  0
LINE
  5
86F
330
2
100
AcDbEntity
  8
0
100
AcDbLine
 10
297.0241922038693
 20
81.75535143164665
 30
0.0
 11
297.2958902038694
 21
80.98194043164665
 31
0.0
  0
LINE
  5
870
330
2
100
AcDbEntity
  8
0
100
AcDbLine
 10
297.2958902038694
 20
80.98194043164665
 30
0.0
 11
297.9216842038694
 21
80.98194043164665
 31
0.0
  0
LINE
  5
871
330
2
100
AcDbEntity
  8
0
100
AcDbLine
 10
302.3982922038694
 20
81.75535143164665
 30
0.0
 11
302.3982922038694
 21
79.00124043164663
 31
0.0
  0
LINE
  5
872
330
2
100
AcDbEntity
  8
0
100
AcDbLine
 10
300.9216842038694
 20
82.85694043164665
 30
0.0
 11
300.9216842038694
 21
81.75535143164665
 31
0.0
  0
LINE
  5
873
330
2
100
AcDbEntity
  8
0
100
AcDbLine
 10
300.9216842038694
 20
81.75535143164665
 30
0.0
 11
301.3670882038692
 21
81.75535143164665
 31
0.0
  0
LINE
  5
874
330
2
100
AcDbEntity
  8
0
100
AcDbLine
 10
304.3186872038692
 20
78.06394143164664
 30
0.0
 11
305.7258832038693
 21
74.79444043164665
 31
0.0
  0
LINE
  5
875
330
2
100
AcDbEntity
  8
0
100
AcDbLine
 10
305.1823802038695
 20
78.14554143164662
 30
0.0
 11
306.6690902038694
 21
74.79444043164665
 31
0.0
  0
LINE
  5
876
330
2
100
AcDbEntity
  8
0
100
AcDbLine
 10
305.5389932038694
 20
73.85694043164665
 30
0.0
 11
306.9216842038694
 21
73.85694043164665
 31
0.0
  0
LINE
  5
877
330
2
100
AcDbEntity
  8
0
100
AcDbLine
 10
306.6690902038694
 20
74.79444043164665
 30
0.0
 11
306.9216842038694
 21
74.79444043164665
 31
0.0
  0
LINE
  5
878
330
2
100
AcDbEntity
  8
0
100
AcDbLine
 10
302.8084942038694
 20
74.79444043164665
 30
0.0
 11
302.8084942038694
 21
73.85694043164665
 31
0.0
  0
LINE
  5
879
330
2
100
AcDbEntity
  8
0
100
AcDbLine
 10
305.5389932038694
 20
74.79444043164665
 30
0.0
 11
305.5389932038694
 21
73.85694043164665
 31
0.0
  0
LINE
  5
87A
330
2
100
AcDbEntity
  8
0
100
AcDbLine
 10
305.5389932038694
 20
74.79444043164665
 30
0.0
 11
305.7258832038693
 21
74.79444043164665
 31
0.0
  0
LINE
  5
87B
330
2
100
AcDbEntity
  8
0
100
AcDbLine
 10
306.9216842038694
 20
74.79444043164665
 30
0.0
 11
306.9216842038694
 21
73.85694043164665
 31
0.0
  0
ARC
  5
87C
330
2
100
AcDbEntity
  8
0
100
AcDbCircle
 10
304.5194922038694
 20
80.45464043164669
 30
0.0
 40
2.402343999999999
100
AcDbArc
 50
286.0181270000008
 51
90.00351000000046
  0
ARC
  5
87D
330
2
100
AcDbEntity
  8
0
100
AcDbCircle
 10
304.5194922038694
 20
80.45464043164669
 30
0.0
 40
1.465594
100
AcDbArc
 50
277.4147260000002
 51
62.41184999999986
  0
LINE
  5
87E
330
2
100
AcDbEntity
  8
0
100
AcDbLine
 10
287.4216842038694
 20
117.8569404316466
 30
0.0
 11
291.4216842038694
 21
117.8569404316466
 31
0.0
  0
ARC
  5
87F
330
2
100
AcDbEntity
  8
0
100
AcDbCircle
 10
338.9216992038693
 20
71.44274043164665
 30
0.0
 40
1.0
100
AcDbArc
 50
0.0
 51
45.0
  0
ARC
  5
880
330
2
100
AcDbEntity
  8
0
100
AcDbCircle
 10
324.9216842038694
 20
72.85694043164665
 30
0.0
 40
1.0
100
AcDbArc
 50
180.0
 51
270.0
  0
LINE
  5
881
330
2
100
AcDbEntity
  8
CENTER
100
AcDbLine
 10
332.9216992038693
 20
74.35694043164665
 30
0.0
 11
332.9216992038693
 21
62.35694043164665
 31
0.0
  0
LINE
  5
882
330
2
100
AcDbEntity
  8
0
100
AcDbLine
 10
324.9216842038694
 20
71.85694043164665
 30
0.0
 11
338.9216992038693
 21
71.85694043164665
 31
0.0
  0
LINE
  5
883
330
2
100
AcDbEntity
  8
0
100
AcDbLine
 10
325.9216842038694
 20
64.85694043164665
 30
0.0
 11
338.9216992038693
 21
64.85694043164665
 31
0.0
  0
LINE
  5
884
330
2
100
AcDbEntity
  8
0
100
AcDbLine
 10
324.9216842038694
 20
65.85694043164664
 30
0.0
 11
325.9216842038694
 21
64.85694043164665
 31
0.0
  0
LINE
  5
885
330
2
100
AcDbEntity
  8
HIDS
  6
sekkei_H
100
AcDbLine
 10
329.6716992038692
 20
71.85694043164665
 30
0.0
 11
329.6716992038692
 21
64.85694043164665
 31
0.0
  0
LINE
  5
886
330
2
100
AcDbEntity
  8
0
100
AcDbLine
 10
339.9216992038692
 20
71.44274043164665
 30
0.0
 11
339.9216992038692
 21
65.85694043164664
 31
0.0
  0
LINE
  5
887
330
2
100
AcDbEntity
  8
HIDS
  6
sekkei_H
100
AcDbLine
 10
336.1716992038692
 20
71.85694043164665
 30
0.0
 11
336.1716992038692
 21
64.85694043164665
 31
0.0
  0
LINE
  5
888
330
2
100
AcDbEntity
  8
0
100
AcDbLine
 10
339.9216992038692
 20
65.85694043164664
 30
0.0
 11
338.9216992038693
 21
64.85694043164665
 31
0.0
  0
ARC
  5
889
330
2
100
AcDbEntity
  8
0
100
AcDbCircle
 10
338.9216992038693
 20
70.85694043164664
 30
0.0
 40
1.0
100
AcDbArc
 50
0.0
 51
90.0
  0
ARC
  5
88A
330
2
100
AcDbEntity
  8
0
100
AcDbCircle
 10
329.4820932038693
 20
86.53924143164664
 30
0.0
 40
3.0
100
AcDbArc
 50
147.1472019999987
 51
225.0
  0
ARC
  5
88B
330
2
100
AcDbEntity
  8
0
100
AcDbCircle
 10
325.9216842038694
 20
83.35755043164665
 30
0.0
 40
2.0
100
AcDbArc
 50
140.5605930000007
 51
180.0
  0
LINE
  5
88C
330
2
100
AcDbEntity
  8
0
100
AcDbLine
 10
323.9216842038694
 20
83.35755043164665
 30
0.0
 11
323.9216842038694
 21
72.85694043164665
 31
0.0
  0
ARC
  5
88D
330
2
100
AcDbEntity
  8
0
100
AcDbCircle
 10
294.9216842038694
 20
108.8569404316466
 30
0.0
 40
38.139999
100
AcDbArc
 50
320.5606080000013
 51
327.1471860000012
  0
LINE
  5
88E
330
2
100
AcDbEntity
  8
0
100
AcDbLine
 10
339.6287912038693
 20
72.14985243164665
 30
0.0
 11
327.3606942038692
 21
84.41784043164664
 31
0.0
  0
LINE
  5
88F
330
2
100
AcDbEntity
  8
CENTER
100
AcDbLine
 10
272.4216842038694
 20
119.8569404316466
 30
0.0
 11
317.4216842038694
 21
119.8569404316466
 31
0.0
  0
LINE
  5
890
330
2
100
AcDbEntity
  8
0
100
AcDbLine
 10
273.2817912033662
 20
146.9569404316466
 30
0.0
 11
316.5617902038694
 21
146.9569404316466
 31
0.0
  0
LINE
  5
891
330
2
100
AcDbEntity
  8
0
100
AcDbLine
 10
269.2816842038693
 20
138.3908514316466
 30
0.0
 11
269.2816842038693
 21
142.9569404295406
 31
0.0
  0
ARC
  5
892
330
2
100
AcDbEntity
  8
0
100
AcDbCircle
 10
266.2816842038693
 20
138.3908514316466
 30
0.0
 40
3.0
100
AcDbArc
 50
314.1196779999994
 51
0.0
  0
ARC
  5
893
330
2
100
AcDbEntity
  8
0
100
AcDbCircle
 10
273.2818668667381
 20
142.9567577653227
 30
0.0
 40
4.000182667039413
100
AcDbArc
 50
90.00108374127156
 51
179.9973836171283
  0
LINE
  5
894
330
2
100
AcDbEntity
  8
0
100
AcDbLine
 10
287.4216842038694
 20
121.8569404316466
 30
0.0
 11
291.4216842038694
 21
121.8569404316466
 31
0.0
  0
ARC
  5
895
330
2
100
AcDbEntity
  8
HOJO
100
AcDbCircle
 10
294.6713949951819
 20
162.4573576291648
 30
0.0
 40
1.600781999999999
100
AcDbArc
 50
67.16467300000023
 51
117.926618450097
  0
LINE
  5
896
330
2
100
AcDbEntity
  8
0
100
AcDbLine
 10
287.4213942038693
 20
163.4573595565271
 30
0.0
 11
287.4213942038693
 21
146.9969394316466
 31
0.0
  0
LINE
  5
897
330
2
100
AcDbEntity
  8
0
100
AcDbLine
 10
293.4213942038695
 20
163.4573581457858
 30
0.0
 11
293.4213942038692
 21
146.9969394316466
 31
0.0
  0
LINE
  5
898
330
2
100
AcDbEntity
  8
0
100
AcDbLine
 10
293.9216842038694
 20
163.87172559434
 30
0.0
 11
293.9216842038692
 21
146.9569404316466
 31
0.0
  0
LINE
  5
899
330
2
100
AcDbEntity
  8
HOJO
100
AcDbLine
 10
289.2926862038695
 20
163.9326700507662
 30
0.0
 11
291.5502852038693
 21
162.9820620507662
 31
0.0
  0
ARC
  5
89A
330
2
100
AcDbEntity
  8
HOJO
100
AcDbCircle
 10
288.6713942038692
 20
162.4573580507662
 30
0.0
 40
1.600781999999999
100
AcDbArc
 50
67.16467300000023
 51
141.3401949999999
  0
ARC
  5
89B
330
2
100
AcDbEntity
  8
HOJO
100
AcDbCircle
 10
292.1713942038692
 20
164.4573580507662
 30
0.0
 40
1.600781
100
AcDbArc
 50
247.1647030000001
 51
321.340194401624
  0
LINE
  5
89C
330
2
100
AcDbEntity
  8
0
100
AcDbLine
 10
296.4213942038692
 20
163.4574044903
 30
0.0
 11
296.4213942038692
 21
146.9969394316466
 31
0.0
  0
LINE
  5
89D
330
2
100
AcDbEntity
  8
0
100
AcDbLine
 10
291.4219742038696
 20
163.036090008383
 30
0.0
 11
291.4219742038696
 21
146.9969394316466
 31
0.0
  0
LINE
  5
89E
330
2
100
AcDbEntity
  8
0
100
AcDbLine
 10
289.4219742038695
 20
163.8782307074178
 30
0.0
 11
289.4219742038696
 21
146.9969394316466
 31
0.0
  0
LINE
  5
89F
330
2
100
AcDbEntity
  8
0
100
AcDbLine
 10
302.4213942038692
 20
163.4574044902999
 30
0.0
 11
302.4213942038692
 21
146.9969394316466
 31
0.0
  0
LINE
  5
8A0
330
2
100
AcDbEntity
  8
0
100
AcDbLine
 10
295.9216842038694
 20
163.6678175546574
 30
0.0
 11
295.9216842038692
 21
146.9569404316466
 31
0.0
  0
LINE
  5
8A1
330
2
100
AcDbEntity
  8
0
100
AcDbLine
 10
294.9216842038694
 20
164.0384516565834
 30
0.0
 11
294.9217907036178
 21
146.9569404316466
 31
0.0
  0
ARC
  5
8A2
330
2
100
AcDbEntity
  8
HOJO
100
AcDbCircle
 10
298.1713949951819
 20
164.4573576291648
 30
0.0
 40
1.600781
100
AcDbArc
 50
247.1647030000001
 51
321.340194401624
  0
LINE
  5
8A3
330
2
100
AcDbEntity
  8
HOJO
100
AcDbLine
 10
295.292686995182
 20
163.9326696291649
 30
0.0
 11
295.9216842038694
 21
163.6678175546574
 31
0.0
  0
LINE
  5
8A4
330
2
100
AcDbEntity
  8
HOJO
100
AcDbLine
 10
296.4213942038692
 20
163.4574044903
 30
0.0
 11
297.5502859951817
 21
162.9820616291648
 31
0.0
  0
LINE
  5
8A5
330
2
100
AcDbEntity
  8
HOJO
100
AcDbLine
 10
301.2926869951817
 20
163.9326696291647
 30
0.0
 11
302.4213942038692
 21
163.4574044902999
 31
0.0
  0
ARC
  5
8A6
330
2
100
AcDbEntity
  8
HOJO
100
AcDbCircle
 10
300.6713949951819
 20
162.4573576291647
 30
0.0
 40
1.600781999999999
100
AcDbArc
 50
67.16467300000023
 51
141.3401949999999
  0
LINE
  5
8A7
330
2
100
AcDbEntity
  8
0
100
AcDbLine
 10
320.5617902038695
 20
138.3908514316466
 30
0.0
 11
320.5617902038695
 21
142.9569404316467
 31
0.0
  0
ARC
  5
8A8
330
2
100
AcDbEntity
  8
0
100
AcDbCircle
 10
323.5617902038695
 20
138.3908514316466
 30
0.0
 40
3.0
100
AcDbArc
 50
180.0
 51
225.8802949999998
  0
ARC
  5
8A9
330
2
100
AcDbEntity
  8
0
100
AcDbCircle
 10
316.5617902038694
 20
142.9569404316467
 30
0.0
 40
4.0
100
AcDbArc
 50
0.0
 51
90.0
  0
TEXT
  5
8AA
330
2
100
AcDbEntity
  8
TITLE
100
AcDbText
 10
29.38913899078239
 20
19.3573539672127
 30
0.0
 40
6.0
  1
VGLD12-5～60N50
100
AcDbText
  0
MTEXT
  5
8BB
330
2
100
AcDbEntity
  8
TITLE
100
AcDbMText
 10
113.029056341028
 20
28.19799186969477
 30
0.0
 40
4.242600000000001
 41
28.62656628124717
 71
     1
 72
     5
  1
L1A\PL2A
 73
     1
 44
1.0
1001
ACAD
1000
MTEXTBEGIN
1070
    73
1070
     1
1070
    44
1040
1.0
1070
    74
1070
     0
1000
MTEXTEND
  0
LINE
  5
9BE
330
2
100
AcDbEntity
  8
0
100
AcDbLine
 10
168.1248379700565
 20
283.6861668588166
 30
0.0
 11
188.1248379700565
 21
283.6861668588166
 31
0.0
  0
LINE
  5
9BF
330
2
100
AcDbEntity
  8
0
100
AcDbLine
 10
168.1248379700565
 20
281.8431648588165
 30
0.0
 11
188.1248379700565
 21
281.8431648588165
 31
0.0
  0
LINE
  5
9C0
330
2
100
AcDbEntity
  8
0
100
AcDbLine
 10
187.6248379700565
 20
295.3431648588165
 30
0.0
 11
166.1248379700565
 21
295.3431648588165
 31
0.0
  0
LINE
  5
9C1
330
2
100
AcDbEntity
  8
CENTER
100
AcDbLine
 10
193.1248379700565
 20
289.3431648588165
 30
0.0
 11
23.62483797005655
 21
289.3431648588165
 31
0.0
  0
LINE
  5
9FF
330
2
100
AcDbEntity
  8
0
100
AcDbLine
 10
162.1248379700565
 20
332.8280888588166
 30
0.0
 11
162.1248379700565
 21
245.8582408588165
 31
0.0
  0
LINE
  5
A00
330
2
100
AcDbEntity
  8
0
100
AcDbLine
 10
166.1248379700565
 20
296.8431648588165
 30
0.0
 11
166.1248379700565
 21
281.8431648588165
 31
0.0
  0
LINE
  5
A01
330
2
100
AcDbEntity
  8
0
100
AcDbLine
 10
165.1248379700565
 20
305.8431648588165
 30
0.0
 11
165.1248379700565
 21
272.8431648588165
 31
0.0
  0
LINE
  5
A02
330
2
100
AcDbEntity
  8
0
100
AcDbLine
 10
113.1073889700566
 20
244.6663918588165
 30
0.0
 11
131.6248379700565
 21
244.3431648588165
 31
0.0
  0
LINE
  5
A03
330
2
100
AcDbEntity
  8
0
100
AcDbLine
 10
121.1248379700565
 20
263.7075298588166
 30
0.0
 11
158.1597419700566
 21
264.0307258588165
 31
0.0
  0
LINE
  5
A04
330
2
100
AcDbEntity
  8
0
100
AcDbLine
 10
158.1597419700566
 20
251.5307258588165
 30
0.0
 11
121.1248379700566
 21
251.2075298588166
 31
0.0
  0
ARC
  5
A05
330
2
100
AcDbEntity
  8
HIDS
100
AcDbCircle
 10
119.6248379700565
 20
251.3431648588165
 30
0.0
 40
3.25
100
AcDbArc
 50
357.8772009999994
 51
181.660858000001
  0
ARC
  5
A06
330
2
100
AcDbEntity
  8
0
100
AcDbCircle
 10
119.6248379700565
 20
251.3431648588165
 30
0.0
 40
3.25
100
AcDbArc
 50
181.660858000001
 51
357.8772009999994
  0
ARC
  5
A07
330
2
100
AcDbEntity
  8
0
100
AcDbCircle
 10
113.1248379700565
 20
245.6662388588165
 30
0.0
 40
1.0
100
AcDbArc
 50
180.0
 51
268.9999999999998
  0
LINE
  5
A08
330
2
100
AcDbEntity
  8
0
100
AcDbLine
 10
112.1248379700565
 20
245.6662388588165
 30
0.0
 11
112.1248379700565
 21
255.6746909399115
 31
0.0
  0
LINE
  5
A09
330
2
100
AcDbEntity
  8
0
100
AcDbLine
 10
129.6248379700565
 20
251.2817028588165
 30
0.0
 11
129.6248379700565
 21
244.3780768588165
 31
0.0
  0
LINE
  5
A0A
330
2
100
AcDbEntity
  8
0
100
AcDbLine
 10
161.1422939700566
 20
244.8583928588165
 30
0.0
 11
131.6248379700565
 21
244.3431648588165
 31
0.0
  0
ARC
  5
A0B
330
2
100
AcDbEntity
  8
HIDS
100
AcDbCircle
 10
154.6248379700565
 20
251.3431648588165
 30
0.0
 40
3.25
100
AcDbArc
 50
3.263732999999678
 51
177.736266999999
  0
ARC
  5
A0C
330
2
100
AcDbEntity
  8
0
100
AcDbCircle
 10
154.6248379700565
 20
251.3431648588165
 30
0.0
 40
3.25
100
AcDbArc
 50
177.736266999999
 51
3.263739999999915
  0
LINE
  5
A0D
330
2
100
AcDbEntity
  8
0
100
AcDbLine
 10
144.6248379700565
 20
251.4126078588165
 30
0.0
 11
144.6248379700565
 21
244.5700778588165
 31
0.0
  0
ARC
  5
A0E
330
2
100
AcDbEntity
  8
0
100
AcDbCircle
 10
158.1248379700565
 20
268.0305728588165
 30
0.0
 40
4.0
100
AcDbArc
 50
270.4999999999996
 51
0.0
  0
ARC
  5
A0F
330
2
100
AcDbEntity
  8
0
100
AcDbCircle
 10
158.1248379700565
 20
255.5305728588165
 30
0.0
 40
4.0
100
AcDbArc
 50
270.4999999999996
 51
0.0
  0
ARC
  5
A10
330
2
100
AcDbEntity
  8
0
100
AcDbCircle
 10
161.1248379700565
 20
245.8582408588165
 30
0.0
 40
1.0
100
AcDbArc
 50
271.0000000000001
 51
0.0
  0
LINE
  5
A11
330
2
100
AcDbEntity
  8
0
100
AcDbLine
 10
166.1248379700565
 20
281.8431648588165
 30
0.0
 11
165.1248379700565
 21
281.8431648588165
 31
0.0
  0
ARC
  5
A12
330
2
100
AcDbEntity
  8
0
100
AcDbCircle
 10
164.1248379700565
 20
269.8431648588165
 30
0.0
 40
2.0
100
AcDbArc
 50
90.0
 51
180.0
  0
ARC
  5
A13
330
2
100
AcDbEntity
  8
0
100
AcDbCircle
 10
164.1248379700565
 20
272.8431648588165
 30
0.0
 40
1.0
100
AcDbArc
 50
270.0
 51
0.0
  0
LINE
  5
A14
330
2
100
AcDbEntity
  8
0
100
AcDbLine
 10
168.1248379700565
 20
283.6861668588166
 30
0.0
 11
168.1248379700565
 21
281.8431648588165
 31
0.0
  0
LINE
  5
A15
330
2
100
AcDbEntity
  8
0
100
AcDbLine
 10
168.1248379700565
 20
283.3431648588165
 30
0.0
 11
166.1248379700565
 21
283.3431648588165
 31
0.0
  0
LINE
  5
A16
330
2
100
AcDbEntity
  8
0
100
AcDbLine
 10
113.1073889700566
 20
334.0199378588165
 30
0.0
 11
131.6248379700565
 21
334.3431648588166
 31
0.0
  0
LINE
  5
A17
330
2
100
AcDbEntity
  8
0
100
AcDbLine
 10
121.1248379700565
 20
314.9787998588165
 30
0.0
 11
158.1597419700566
 21
314.6556038588165
 31
0.0
  0
LINE
  5
A18
330
2
100
AcDbEntity
  8
0
100
AcDbLine
 10
158.1597419700566
 20
327.1556038588165
 30
0.0
 11
121.1248379700565
 21
327.4787998588165
 31
0.0
  0
ARC
  5
A19
330
2
100
AcDbEntity
  8
HIDS
100
AcDbCircle
 10
119.6248379700565
 20
327.3431648588166
 30
0.0
 40
3.25
100
AcDbArc
 50
178.3391420000006
 51
2.122799000000671
  0
LINE
  5
A1A
330
2
100
AcDbEntity
  8
CENTER
100
AcDbLine
 10
119.6248379700565
 20
332.9787848588166
 30
0.0
 11
119.6248379700565
 21
321.7075448588165
 31
0.0
  0
LINE
  5
A1B
330
2
100
AcDbEntity
  8
0
100
AcDbLine
 10
121.1248379700565
 20
327.4787998588165
 30
0.0
 11
121.1248379700566
 21
251.2075298588166
 31
0.0
  0
ARC
  5
A1C
330
2
100
AcDbEntity
  8
0
100
AcDbCircle
 10
119.6248379700565
 20
327.3431648588166
 30
0.0
 40
3.25
100
AcDbArc
 50
2.122799000000671
 51
178.3391420000006
  0
LINE
  5
A1D
330
2
100
AcDbEntity
  8
CENTER
100
AcDbLine
 10
113.9892179700565
 20
327.3431648588166
 30
0.0
 11
125.2604579700566
 21
327.3431648588166
 31
0.0
  0
ARC
  5
A1E
330
2
100
AcDbEntity
  8
0
100
AcDbCircle
 10
113.1248379700565
 20
333.0200908588166
 30
0.0
 40
1.0
100
AcDbArc
 50
91.00000000000013
 51
180.0
  0
LINE
  5
A1F
330
2
100
AcDbEntity
  8
0
100
AcDbLine
 10
112.1248379700565
 20
333.0200908588166
 30
0.0
 11
112.1248379700565
 21
323.0116387777216
 31
0.0
  0
LINE
  5
A20
330
2
100
AcDbEntity
  8
0
100
AcDbLine
 10
129.6248379700565
 20
327.4046268588165
 30
0.0
 11
129.6248379700565
 21
334.3082528588165
 31
0.0
  0
ARC
  5
A21
330
2
100
AcDbEntity
  8
HIDS
100
AcDbCircle
 10
154.6248379700565
 20
327.3431648588166
 30
0.0
 40
3.25
100
AcDbArc
 50
182.263733000001
 51
356.7362670000004
  0
ARC
  5
A22
330
2
100
AcDbEntity
  8
0
100
AcDbCircle
 10
154.6248379700565
 20
327.3431648588166
 30
0.0
 40
3.25
100
AcDbArc
 50
356.7362600000001
 51
182.263733000001
  0
ARC
  5
A23
330
2
100
AcDbEntity
  8
0
100
AcDbCircle
 10
158.1248379700565
 20
323.1557568588165
 30
0.0
 40
4.0
100
AcDbArc
 50
0.0
 51
89.50000000000031
  0
LINE
  5
A24
330
2
100
AcDbEntity
  8
0
100
AcDbLine
 10
166.1248379700565
 20
296.8431648588165
 30
0.0
 11
165.1248379700565
 21
296.8431648588165
 31
0.0
  0
ARC
  5
A25
330
2
100
AcDbEntity
  8
0
100
AcDbCircle
 10
158.1248379700565
 20
310.6557568588165
 30
0.0
 40
4.0
100
AcDbArc
 50
0.0
 51
89.50000000000031
  0
ARC
  5
A26
330
2
100
AcDbEntity
  8
0
100
AcDbCircle
 10
164.1248379700565
 20
308.8431648588165
 30
0.0
 40
2.0
100
AcDbArc
 50
180.0
 51
270.0
  0
ARC
  5
A27
330
2
100
AcDbEntity
  8
0
100
AcDbCircle
 10
164.1248379700565
 20
305.8431648588165
 30
0.0
 40
1.0
100
AcDbArc
 50
0.0
 51
90.0
  0
LINE
  5
A28
330
2
100
AcDbEntity
  8
0
100
AcDbLine
 10
161.1422939700566
 20
333.8279368588165
 30
0.0
 11
131.6248379700565
 21
334.3431648588166
 31
0.0
  0
LINE
  5
A29
330
2
100
AcDbEntity
  8
0
100
AcDbLine
 10
144.6248379700565
 20
327.2737218588166
 30
0.0
 11
144.6248379700565
 21
334.1162508588165
 31
0.0
  0
ARC
  5
A2A
330
2
100
AcDbEntity
  8
0
100
AcDbCircle
 10
161.1248379700565
 20
332.8280888588166
 30
0.0
 40
1.0
100
AcDbArc
 50
0.0
 51
88.99999999999987
  0
LINE
  5
AA4
330
2
100
AcDbEntity
  8
0
100
AcDbLine
 10
188.1248379700565
 20
294.8431648588165
 30
0.0
 11
188.1248379700565
 21
283.8431648588165
 31
0.0
  0
LINE
  5
AA5
330
2
100
AcDbEntity
  8
0
100
AcDbLine
 10
187.6248379700565
 20
295.3431648588165
 30
0.0
 11
187.6248379700565
 21
283.6861668588166
 31
0.0
  0
LINE
  5
AA6
330
2
100
AcDbEntity
  8
0
100
AcDbLine
 10
188.1248379700565
 20
283.6861668588166
 30
0.0
 11
188.1248379700565
 21
281.8431648588165
 31
0.0
  0
LINE
  5
AA7
330
2
100
AcDbEntity
  8
0
100
AcDbLine
 10
187.9678399700565
 20
283.6861668588166
 30
0.0
 11
188.1248379700565
 21
283.8431648588165
 31
0.0
  0
LINE
  5
AA8
330
2
100
AcDbEntity
  8
0
100
AcDbLine
 10
187.6248379700565
 20
295.3431648588165
 30
0.0
 11
188.1248379700565
 21
294.8431648588165
 31
0.0
  0
LINE
  5
AA9
330
2
100
AcDbEntity
  8
CENTER
100
AcDbLine
 10
148.9892179700565
 20
327.3431648588166
 30
0.0
 11
160.2604579700567
 21
327.3431648588166
 31
0.0
  0
LINE
  5
AAA
330
2
100
AcDbEntity
  8
CENTER
100
AcDbLine
 10
154.6248379700565
 20
332.9787848588166
 30
0.0
 11
154.6248379700565
 21
321.7075448588165
 31
0.0
  0
LINE
  5
AAB
330
2
100
AcDbEntity
  8
CENTER
100
AcDbLine
 10
148.9892179700565
 20
251.3431648588165
 30
0.0
 11
160.2604579700567
 21
251.3431648588165
 31
0.0
  0
LINE
  5
AAC
330
2
100
AcDbEntity
  8
CENTER
100
AcDbLine
 10
154.6248379700565
 20
256.9787848588166
 30
0.0
 11
154.6248379700565
 21
245.7075448588164
 31
0.0
  0
LINE
  5
AAD
330
2
100
AcDbEntity
  8
CENTER
100
AcDbLine
 10
113.9892179700565
 20
251.3431648588165
 30
0.0
 11
125.2604579700566
 21
251.3431648588165
 31
0.0
  0
LINE
  5
AAE
330
2
100
AcDbEntity
  8
CENTER
100
AcDbLine
 10
119.6248379700565
 20
256.9787848588166
 30
0.0
 11
119.6248379700565
 21
245.7075448588164
 31
0.0
  0
LINE
  5
1F0E
330
2
100
AcDbEntity
  8
0
100
AcDbLine
 10
69.12483797005655
 20
281.4431648588164
 30
0.0
 11
69.12483797005655
 21
278.3431648588165
 31
0.0
  0
LINE
  5
1F0F
330
2
100
AcDbEntity
  8
0
100
AcDbLine
 10
74.62483797005678
 20
282.4431648588163
 30
0.0
 11
74.62483797005655
 21
279.5009178658282
 31
0.0
  0
LINE
  5
1F12
330
2
100
AcDbEntity
  8
0
100
AcDbLine
 10
112.6248379700568
 20
253.2031648588167
 30
0.0
 11
112.6248379700565
 21
325.4831648588166
 31
0.0
  0
LINE
  5
1F13
330
2
100
AcDbEntity
  8
0
100
AcDbLine
 10
63.62480697005674
 20
256.9825282316237
 30
0.0
 11
63.62480697005674
 21
321.7038014860093
 31
0.0
  0
LINE
  5
1F18
330
2
100
AcDbEntity
  8
0
100
AcDbLine
 10
28.62479997005664
 20
258.2792798759834
 30
0.0
 11
28.62479997005642
 21
320.4070498416495
 31
0.0
  0
LINE
  5
204E
330
2
100
AcDbEntity
  8
0
100
AcDbLine
 10
112.6248759700567
 20
145.4313424316466
 30
0.0
 11
112.6247769700563
 21
72.28234043164661
 31
0.0
  0
LINE
  5
2051
330
2
100
AcDbEntity
  8
0
100
AcDbLine
 10
64.62493697005641
 20
76.27575243164665
 30
0.0
 11
64.62493697005641
 21
132.8885414316467
 31
0.0
  0
ARC
  5
2054
330
2
100
AcDbEntity
  8
0
100
AcDbCircle
 10
115.0248769700566
 20
76.85694043164665
 30
0.0
 40
6.5
100
AcDbArc
 50
188.535994999999
 51
213.0556950000029
  0
LINE
  5
2055
330
2
100
AcDbEntity
  8
0
100
AcDbLine
 10
112.6248759700567
 20
78.97375043164664
 30
0.0
 11
64.62493697005641
 21
79.39254143164657
 31
0.0
  0
LINE
  5
2056
330
2
100
AcDbEntity
  8
0
100
AcDbLine
 10
111.1379759700563
 20
75.86994043164668
 30
0.0
 11
64.62493697005641
 21
76.27575243164665
 31
0.0
  0
LINE
  5
205A
330
2
100
AcDbEntity
  8
0
100
AcDbLine
 10
64.62493697005641
 20
76.57583943164661
 30
0.0
 11
63.62483797005655
 21
76.58446590628376
 31
0.0
  0
LINE
  5
205C
330
2
100
AcDbEntity
  8
0
100
AcDbLine
 10
111.6248759700567
 20
72.85694043164665
 30
0.0
 11
111.6248759700567
 21
75.78414043164662
 31
0.0
  0
ARC
  5
205E
330
2
100
AcDbEntity
  8
0
100
AcDbCircle
 10
114.1248759700566
 20
72.28234043164661
 30
0.0
 40
1.5
100
AcDbArc
 50
180.0
 51
200.0025019999998
  0
LINE
  5
205F
330
2
100
AcDbEntity
  8
0
100
AcDbLine
 10
111.6248759700567
 20
72.85694043164665
 30
0.0
 11
110.4150749700567
 21
72.85694043164665
 31
0.0
  0
ARC
  5
2060
330
2
100
AcDbEntity
  8
0
100
AcDbCircle
 10
110.4150749700567
 20
73.85694043164665
 30
0.0
 40
1.0
100
AcDbArc
 50
213.0556950000029
 51
270.0
  0
LINE
  5
2061
330
2
100
AcDbEntity
  8
0
100
AcDbLine
 10
111.6248759700567
 20
73.05684943164658
 30
0.0
 11
112.6248759700567
 21
73.05684943164658
 31
0.0
  0
ARC
  5
2062
330
2
100
AcDbEntity
  8
0
100
AcDbCircle
 10
111.1248759700567
 20
74.36994043164668
 30
0.0
 40
1.5
100
AcDbArc
 50
0.0
 51
89.50000000000192
  0
LINE
  5
2063
330
2
100
AcDbEntity
  8
0
100
AcDbLine
 10
121.1512769700567
 20
80.63134143164665
 30
0.0
 11
112.6512769700567
 21
80.55735143164667
 31
0.0
  0
LINE
  5
2064
330
2
100
AcDbEntity
  8
CENTER
100
AcDbLine
 10
107.4709759700564
 20
140.8568504316466
 30
0.0
 11
113.5123769700564
 21
140.8568504316466
 31
0.0
  0
ARC
  5
2065
330
2
100
AcDbEntity
  8
0
100
AcDbCircle
 10
115.0248769700566
 20
140.8568504316466
 30
0.0
 40
6.5
100
AcDbArc
 50
146.9443049999971
 51
213.0556950000029
  0
ARC
  5
2066
330
2
100
AcDbEntity
  8
0
100
AcDbCircle
 10
115.0248399700566
 20
269.3431648588165
 30
0.0
 40
6.5
100
AcDbArc
 50
146.9443049999971
 51
213.0556950000029
  0
LINE
  5
2067
330
2
100
AcDbEntity
  8
CENTER
100
AcDbLine
 10
107.3179379700567
 20
269.3431648588165
 30
0.0
 11
117.5165389700568
 21
269.3431648588165
 31
0.0
  0
LINE
  5
2068
330
2
100
AcDbEntity
  8
0
100
AcDbLine
 10
112.6248379700568
 20
275.334438164939
 30
0.0
 11
67.62483797005654
 21
275.7271393894289
 31
0.0
  0
LINE
  5
2069
330
2
100
AcDbEntity
  8
0
100
AcDbLine
 10
110.6422904600653
 20
256.3517391355773
 30
0.0
 11
64.62489497005652
 21
256.7533134927775
 31
0.0
  0
LINE
  5
2081
330
2
100
AcDbEntity
  8
0
100
AcDbLine
 10
108.8905769700565
 20
138.7073414316467
 30
0.0
 11
67.62483797005654
 21
138.3472899511129
 31
0.0
  0
LINE
  5
2082
330
2
100
AcDbEntity
  8
0
100
AcDbLine
 10
108.5968759700564
 20
141.8217424316466
 30
0.0
 11
67.62483797005654
 21
141.4641070994943
 31
0.0
  0
LINE
  5
208B
330
2
100
AcDbEntity
  8
0
100
AcDbLine
 10
67.62483797005654
 20
141.4641070994943
 30
0.0
 11
67.62483797005654
 21
132.8885414316467
 31
0.0
  0
LINE
  5
208C
330
2
100
AcDbEntity
  8
0
100
AcDbLine
 10
63.62483797005655
 20
132.8885414316467
 30
0.0
 11
67.62483797005654
 21
132.8885414316467
 31
0.0
  0
LINE
  5
208D
330
2
100
AcDbEntity
  8
0
100
AcDbLine
 10
63.62483797005655
 20
139.4369404316466
 30
0.0
 11
67.62483797005654
 21
139.4369404316466
 31
0.0
  0
POINT
  5
208F
330
2
100
AcDbEntity
  8
0
100
AcDbPoint
 10
61.17473897005641
 20
141.1787424360825
 30
0.0
  0
LINE
  5
20B7
330
2
100
AcDbEntity
  8
0
100
AcDbLine
 10
63.62479997005642
 20
256.9825282927118
 30
0.0
 11
29.61607343455819
 21
257.2793179529193
 31
0.0
  0
ARC
  5
20B8
330
2
100
AcDbEntity
  8
0
100
AcDbCircle
 10
29.62479997005664
 20
258.2792798759835
 30
0.0
 40
1.0
100
AcDbArc
 50
180.0
 51
269.500000000002
  0
POINT
  5
20B9
330
2
100
AcDbEntity
  8
0
100
AcDbPoint
 10
28.62479997005664
 20
258.2792798759834
 30
0.0
  0
ARC
  5
20BA
330
2
100
AcDbEntity
  8
0
100
AcDbCircle
 10
73.62483797005655
 20
279.5009178658281
 30
0.0
 40
1.0
100
AcDbArc
 50
272.0000000000037
 51
0.0
  0
LINE
  5
20BB
330
2
100
AcDbEntity
  8
0
100
AcDbLine
 10
64.62489497005652
 20
256.7533134927775
 30
0.0
 11
64.62489497005652
 21
267.3431648588166
 31
0.0
  0
LINE
  5
20BC
330
2
100
AcDbEntity
  8
0
 62
     7
100
AcDbLine
 10
64.62480697005651
 20
257.0620668588166
 30
0.0
 11
63.62480697005651
 21
257.0708718588166
 31
0.0
  0
LINE
  5
20BD
330
2
100
AcDbEntity
  8
0
100
AcDbLine
 10
67.62483797005654
 20
278.3169822614242
 30
0.0
 11
67.62483797005654
 21
267.3431648588165
 31
0.0
  0
LINE
  5
20BE
330
2
100
AcDbEntity
  8
0
100
AcDbLine
 10
67.62483797005654
 20
267.3431648588165
 30
0.0
 11
64.62483797005655
 21
267.3431648588165
 31
0.0
  0
ARC
  5
20BF
330
2
100
AcDbEntity
  8
0
100
AcDbCircle
 10
64.62483797005655
 20
268.3431648588165
 30
0.0
 40
1.0
100
AcDbArc
 50
180.0
 51
270.0
  0
LINE
  5
20C0
330
2
100
AcDbEntity
  8
0
100
AcDbLine
 10
69.12483797005655
 20
278.3431648588165
 30
0.0
 11
64.62483797005655
 21
278.2646170666395
 31
0.0
  0
LINE
  5
20C1
330
2
100
AcDbEntity
  8
0
100
AcDbLine
 10
69.12483797005655
 20
278.3431648588165
 30
0.0
 11
73.65973746675933
 21
278.5015270388091
 31
0.0
  0
LINE
  5
20C6
330
2
100
AcDbEntity
  8
0
100
AcDbLine
 10
111.6248759700567
 20
144.8568484316466
 30
0.0
 11
111.6248759700567
 21
136.8568504316466
 31
0.0
  0
LINE
  5
20C7
330
2
100
AcDbEntity
  8
0
100
AcDbLine
 10
121.1248759700567
 20
137.0821414316466
 30
0.0
 11
112.6248759700567
 21
137.1563504316466
 31
0.0
  0
LINE
  5
20C8
330
2
100
AcDbEntity
  8
0
100
AcDbLine
 10
111.6248759700567
 20
136.8568504316466
 30
0.0
 11
110.4150749700567
 21
136.8568504316466
 31
0.0
  0
ARC
  5
20C9
330
2
100
AcDbEntity
  8
0
100
AcDbCircle
 10
110.4150749700567
 20
137.8568504316466
 30
0.0
 40
1.0
100
AcDbArc
 50
213.0556950000029
 51
270.0
  0
LINE
  5
20CA
330
2
100
AcDbEntity
  8
0
100
AcDbLine
 10
112.6248759700567
 20
137.0569414316465
 30
0.0
 11
111.6248759700567
 21
137.0569414316465
 31
0.0
  0
LINE
  5
20CB
330
2
100
AcDbEntity
  8
0
100
AcDbLine
 10
121.1248759700567
 20
146.9925414316466
 30
0.0
 11
114.1118749700564
 21
146.9313424316466
 31
0.0
  0
ARC
  5
20CC
330
2
100
AcDbEntity
  8
0
100
AcDbCircle
 10
114.1248759700566
 20
145.4313424316466
 30
0.0
 40
1.5
100
AcDbArc
 50
90.49999999999805
 51
180.0
  0
LINE
  5
20CD
330
2
100
AcDbEntity
  8
0
100
AcDbLine
 10
111.6248759700567
 20
144.8568484316466
 30
0.0
 11
110.4150749700567
 21
144.8568484316466
 31
0.0
  0
ARC
  5
20CE
330
2
100
AcDbEntity
  8
0
100
AcDbCircle
 10
110.4150749700567
 20
143.8568484316466
 30
0.0
 40
1.0
100
AcDbArc
 50
90.0
 51
146.9443049999971
  0
LINE
  5
20CF
330
2
100
AcDbEntity
  8
0
100
AcDbLine
 10
111.6248759700567
 20
144.6569394316466
 30
0.0
 11
112.6248759700567
 21
144.6569394316466
 31
0.0
  0
LINE
  5
216E
330
2
100
AcDbEntity
  8
0
100
AcDbLine
 10
114.6248379700568
 20
251.2031648588167
 30
0.0
 11
121.1248379700567
 21
251.2031648588166
 31
0.0
  0
ARC
  5
216F
330
2
100
AcDbEntity
  8
0
100
AcDbCircle
 10
114.6248379700568
 20
253.2031648588167
 30
0.0
 40
2.0
100
AcDbArc
 50
180.0
 51
270.0
  0
ARC
  5
2170
330
2
100
AcDbEntity
  8
0
100
AcDbCircle
 10
110.6248379700567
 20
254.3518152843788
 30
0.0
 40
2.0
100
AcDbArc
 50
0.0
 51
89.50001664472729
  0
LINE
  5
2171
330
2
100
AcDbEntity
  8
0
100
AcDbLine
 10
111.6248379700568
 20
273.3431648588165
 30
0.0
 11
111.6248379700568
 21
265.3431648588165
 31
0.0
  0
LINE
  5
2172
330
2
100
AcDbEntity
  8
0
100
AcDbLine
 10
114.6248379700568
 20
263.7531648588165
 30
0.0
 11
121.1248379700567
 21
263.7531648588165
 31
0.0
  0
ARC
  5
2173
330
2
100
AcDbEntity
  8
0
100
AcDbCircle
 10
114.6248379700568
 20
265.7531648588166
 30
0.0
 40
2.0
100
AcDbArc
 50
180.0
 51
270.0
  0
LINE
  5
2174
330
2
100
AcDbEntity
  8
0
100
AcDbLine
 10
112.6764359700568
 20
265.5432648588166
 30
0.0
 11
111.6248379700568
 21
265.5432648588166
 31
0.0
  0
LINE
  5
2175
330
2
100
AcDbEntity
  8
0
100
AcDbLine
 10
111.6248379700568
 20
265.3431648588165
 30
0.0
 11
110.4150369700568
 21
265.3431648588165
 31
0.0
  0
ARC
  5
2176
330
2
100
AcDbEntity
  8
0
100
AcDbCircle
 10
110.4150369700568
 20
266.3431648588165
 30
0.0
 40
1.0
100
AcDbArc
 50
213.0556950000029
 51
270.0
  0
LINE
  5
2177
330
2
100
AcDbEntity
  8
0
100
AcDbLine
 10
111.6248379700568
 20
273.3431648588165
 30
0.0
 11
110.4150369700568
 21
273.3431648588165
 31
0.0
  0
ARC
  5
2178
330
2
100
AcDbEntity
  8
0
100
AcDbCircle
 10
110.4150369700568
 20
272.3431648588165
 30
0.0
 40
1.0
100
AcDbArc
 50
90.0
 51
146.9443049999971
  0
LINE
  5
2179
330
2
100
AcDbEntity
  8
0
100
AcDbLine
 10
111.6248379700568
 20
273.1432748588165
 30
0.0
 11
112.6248379700568
 21
273.1432748588165
 31
0.0
  0
LINE
  5
21B5
330
2
100
AcDbEntity
  8
0
100
AcDbLine
 10
112.6248379700568
 20
303.3518915526942
 30
0.0
 11
67.62483797005654
 21
302.9591903282044
 31
0.0
  0
LINE
  5
21B6
330
2
100
AcDbEntity
  8
0
100
AcDbLine
 10
110.6422904600648
 20
322.3345905820557
 30
0.0
 11
64.62489497005652
 21
321.9330162248557
 31
0.0
  0
LINE
  5
21B8
330
2
100
AcDbEntity
  8
0
100
AcDbLine
 10
41.66930919988828
 20
289.6518917266074
 30
0.0
 11
31.66930919988829
 21
289.6518917266075
 31
0.0
  0
LINE
  5
21B9
330
2
100
AcDbEntity
  8
0
100
AcDbLine
 10
41.66930919988828
 20
289.3518917266074
 30
0.0
 11
31.66930919988829
 21
289.3518917266075
 31
0.0
  0
LINE
  5
21BA
330
2
100
AcDbEntity
  8
0
100
AcDbLine
 10
41.66930919988828
 20
289.0518917266074
 30
0.0
 11
31.66930919988829
 21
289.0518917266074
 31
0.0
  0
LINE
  5
21BB
330
2
100
AcDbEntity
  8
0
100
AcDbLine
 10
63.62479997005642
 20
321.7038014249212
 30
0.0
 11
29.61607343455819
 21
321.4070117647139
 31
0.0
  0
POINT
  5
21BC
330
2
100
AcDbEntity
  8
0
100
AcDbPoint
 10
28.62479997005642
 20
320.4070498416495
 30
0.0
  0
ARC
  5
21BD
330
2
100
AcDbEntity
  8
0
100
AcDbCircle
 10
29.62479997005642
 20
320.4070498416497
 30
0.0
 40
1.0
100
AcDbArc
 50
90.49999999999805
 51
180.0
  0
ARC
  5
21BE
330
2
100
AcDbEntity
  8
0
100
AcDbCircle
 10
73.62483797005655
 20
299.1854207373934
 30
0.0
 40
1.0
100
AcDbArc
 50
0.0
 51
87.99999999999633
  0
LINE
  5
21BF
330
2
100
AcDbEntity
  8
0
100
AcDbLine
 10
69.12483797005655
 20
282.4431648588164
 30
0.0
 11
79.94779398124967
 21
282.4431648588164
 31
0.0
  0
LINE
  5
21C0
330
2
100
AcDbEntity
  8
0
100
AcDbLine
 10
69.12483797005655
 20
284.4431648588164
 30
0.0
 11
79.85353438778986
 21
284.4431648588164
 31
0.0
  0
LINE
  5
21C1
330
2
100
AcDbEntity
  8
0
100
AcDbLine
 10
67.32483797005659
 20
287.5431648588165
 30
0.0
 11
78.05353438778991
 21
287.5431648588165
 31
0.0
  0
LINE
  5
21C2
330
2
100
AcDbEntity
  8
0
100
AcDbLine
 10
67.32483797005659
 20
285.5431648588165
 30
0.0
 11
78.14779398124972
 21
285.5431648588165
 31
0.0
  0
LINE
  5
21C3
330
2
100
AcDbEntity
  8
0
100
AcDbLine
 10
69.12483797005655
 20
296.8431648588165
 30
0.0
 11
80.17242706543299
 21
296.8431648588164
 31
0.0
  0
LINE
  5
21C4
330
2
100
AcDbEntity
  8
0
100
AcDbLine
 10
69.12483797005655
 20
290.8431648588165
 30
0.0
 11
80.25021740929389
 21
290.8431648588162
 31
0.0
  0
LINE
  5
21C5
330
2
100
AcDbEntity
  8
0
100
AcDbLine
 10
67.62483797005654
 20
300.3693474562088
 30
0.0
 11
67.62483797005654
 21
311.3431648588165
 31
0.0
  0
LINE
  5
21C8
330
2
100
AcDbEntity
  8
0
100
AcDbLine
 10
56.12479997005664
 20
289.8518917266074
 30
0.0
 11
41.66930919988828
 21
289.8518917266074
 31
0.0
  0
LINE
  5
21C9
330
2
100
AcDbEntity
  8
0
100
AcDbLine
 10
56.12479997005664
 20
288.8518917266074
 30
0.0
 11
41.66930919988828
 21
288.8518917266075
 31
0.0
  0
LINE
  5
21CA
330
2
100
AcDbEntity
  8
0
100
AcDbLine
 10
41.66930919988828
 20
288.8518917266075
 30
0.0
 11
41.66930919988828
 21
289.8518917266074
 31
0.0
  0
ARC
  5
21CB
330
2
100
AcDbEntity
  8
0
100
AcDbCircle
 10
56.12479997005664
 20
289.3518917266074
 30
0.0
 40
0.5
100
AcDbArc
 50
270.0
 51
90.0
  0
ARC
  5
21CC
330
2
100
AcDbEntity
  8
0
100
AcDbCircle
 10
69.12483797005655
 20
293.8431648588165
 30
0.0
 40
3.0
100
AcDbArc
 50
90.0
 51
269.9999999999935
  0
ARC
  5
21CD
330
2
100
AcDbEntity
  8
0
100
AcDbCircle
 10
67.32483797005659
 20
286.5431648588165
 30
0.0
 40
2.0
100
AcDbArc
 50
89.99999999997395
 51
204.6092450239452
  0
ARC
  5
21CE
330
2
100
AcDbEntity
  8
0
100
AcDbCircle
 10
69.12483797005655
 20
284.8431648588164
 30
0.0
 40
3.25
100
AcDbArc
 50
176.1778378686729
 51
249.4781325999764
  0
LINE
  5
21CF
330
2
100
AcDbEntity
  8
0
100
AcDbLine
 10
65.50650011453069
 20
285.710309863537
 30
0.0
 11
65.8820667540823
 21
285.0598093622058
 31
0.0
  0
ARC
  5
21D0
330
2
100
AcDbEntity
  8
0
100
AcDbCircle
 10
67.32483797005659
 20
286.5431648588165
 30
0.0
 40
1.0
100
AcDbArc
 50
90.0
 51
270.0
  0
ARC
  5
21D1
330
2
100
AcDbEntity
  8
0
100
AcDbCircle
 10
69.12483797005655
 20
284.8431648588164
 30
0.0
 40
3.25
100
AcDbArc
 50
290.5218674000236
 51
312.3994733644477
  0
ARC
  5
21D2
330
2
100
AcDbEntity
  8
0
100
AcDbCircle
 10
69.12483797005655
 20
283.4431648588164
 30
0.0
 40
2.0
100
AcDbArc
 50
235.2729312954191
 51
304.7270687045809
  0
ARC
  5
21D3
330
2
100
AcDbEntity
  8
0
100
AcDbCircle
 10
69.12483797005655
 20
283.4431648588164
 30
0.0
 40
1.0
100
AcDbArc
 50
90.0
 51
270.0
  0
LINE
  5
21D4
330
2
100
AcDbEntity
  8
0
100
AcDbLine
 10
74.62483797005655
 20
285.5431648588163
 30
0.0
 11
74.62483797005678
 21
284.4431648588164
 31
0.0
  0
LINE
  5
21D5
330
2
100
AcDbEntity
  8
0
100
AcDbLine
 10
72.64667461211309
 20
285.5431648588165
 30
0.0
 11
72.36760918603079
 21
285.0598093622058
 31
0.0
  0
LINE
  5
21D6
330
2
100
AcDbEntity
  8
0
100
AcDbLine
 10
72.64667461211309
 20
285.5431648588165
 30
0.0
 11
72.36760918603079
 21
285.0598093622058
 31
0.0
  0
ARC
  5
21D7
330
2
100
AcDbEntity
  8
0
100
AcDbCircle
 10
69.12483797005655
 20
284.8431648588164
 30
0.0
 40
3.25
100
AcDbArc
 50
352.930285957695
 51
3.822162131327067
  0
LINE
  5
21D8
330
2
100
AcDbEntity
  8
0
100
AcDbLine
 10
67.3248379700575
 20
288.5431648588165
 30
0.0
 11
70.92483797005559
 21
288.5431648588165
 31
0.0
  0
LINE
  5
21D9
330
2
100
AcDbEntity
  8
0
100
AcDbLine
 10
69.12483797005655
 20
290.8431648588165
 30
0.0
 11
69.12483797005655
 21
288.5431648588166
 31
0.0
  0
ARC
  5
21DA
330
2
100
AcDbEntity
  8
0
100
AcDbCircle
 10
70.9248379700565
 20
286.5431648588165
 30
0.0
 40
2.0
100
AcDbArc
 50
30.00000000000055
 51
90.00000000002605
  0
LINE
  5
21DB
330
2
100
AcDbEntity
  8
0
100
AcDbLine
 10
74.62483797005586
 20
290.8431648588164
 30
0.0
 11
74.62483797005678
 21
287.5431648588165
 31
0.0
  0
LINE
  5
21DC
330
2
100
AcDbEntity
  8
0
100
AcDbLine
 10
69.12483797005655
 20
300.3431648588165
 30
0.0
 11
64.62483797005655
 21
300.4217126509934
 31
0.0
  0
LINE
  5
21DD
330
2
100
AcDbEntity
  8
0
100
AcDbLine
 10
74.62483797005655
 20
299.1854207373934
 30
0.0
 11
74.62483797005678
 21
296.8431648588165
 31
0.0
  0
LINE
  5
21DE
330
2
100
AcDbEntity
  8
0
100
AcDbLine
 10
69.12483797005655
 20
300.3431648588165
 30
0.0
 11
69.12483797005655
 21
296.8431648588165
 31
0.0
  0
LINE
  5
21DF
330
2
100
AcDbEntity
  8
0
100
AcDbLine
 10
69.1253467149894
 20
300.3431559786406
 30
0.0
 11
73.65973746675911
 21
300.1848115644126
 31
0.0
  0
LINE
  5
21E0
330
2
100
AcDbEntity
  8
0
100
AcDbLine
 10
64.62489497005652
 20
311.3431648588165
 30
0.0
 11
64.62489497005652
 21
321.9330162248557
 31
0.0
  0
LINE
  5
21E1
330
2
100
AcDbEntity
  8
0
100
AcDbLine
 10
67.62483797005654
 20
311.3431648588165
 30
0.0
 11
64.62483797005655
 21
311.3431648588165
 31
0.0
  0
ARC
  5
21E2
330
2
100
AcDbEntity
  8
0
100
AcDbCircle
 10
64.62483797005655
 20
310.3431648588165
 30
0.0
 40
1.0
100
AcDbArc
 50
90.0
 51
180.0
  0
LINE
  5
21E3
330
2
100
AcDbEntity
  8
0
 62
     7
100
AcDbLine
 10
64.62480697005651
 20
321.6242628588164
 30
0.0
 11
63.62480697005651
 21
321.6154578588164
 31
0.0
  0
SPLINE
  5
21E4
330
2
100
AcDbEntity
  8
HOJO
100
AcDbSpline
210
0.0
220
0.0
230
1.0
 70
     8
 71
     3
 72
    12
 73
     8
 74
     6
 42
0.0000000001
 43
0.0000000001
 44
0.0000000001
 40
0.0
 40
0.0
 40
0.0
 40
0.0
 40
1.684659730310349
 40
2.786160565551575
 40
4.550934817628674
 40
5.718899366607204
 40
6.335570522767257
 40
6.335570522767257
 40
6.335570522767257
 40
6.335570522767257
 10
80.25021740929389
 20
290.8431648588162
 30
0.0
 10
79.97330580102017
 20
291.3941246724997
 30
0.0
 10
79.51533782728964
 20
292.30532500481
 30
0.0
 10
80.39796244522724
 20
293.6423262368326
 30
0.0
 10
80.9600402830746
 20
294.9681457033023
 30
0.0
 10
80.46263079159629
 20
296.1023389119116
 30
0.0
 10
80.24695326207172
 20
296.6529159570395
 30
0.0
 10
80.17242706543299
 20
296.8431648588164
 30
0.0
 11
80.25021740929389
 21
290.8431648588162
 31
0.0
 11
79.78447552541218
 21
292.4621654469963
 31
0.0
 11
80.24620536177861
 21
293.4622202696166
 31
0.0
 11
80.74641293706724
 21
295.1546210916497
 31
0.0
 11
80.40011530723438
 21
296.2700668049154
 31
0.0
 11
80.17242706543299
 21
296.8431648588164
 31
0.0
  0
SPLINE
  5
21E5
330
2
100
AcDbEntity
  8
HOJO
100
AcDbSpline
210
0.0
220
0.0
230
1.0
 70
     8
 71
     3
 72
    10
 73
     6
 74
     4
 42
0.0000000001
 43
0.0000000001
 44
0.0000000001
 40
0.0
 40
0.0
 40
0.0
 40
0.0
 40
0.697190763405494
 40
1.694952319108353
 40
2.335350738679082
 40
2.335350738679082
 40
2.335350738679082
 40
2.335350738679082
 10
78.14779398124972
 20
285.5431648588165
 30
0.0
 10
78.31500812335789
 20
285.76414987094
 30
0.0
 10
78.72152526734531
 20
286.3013902912774
 30
0.0
 10
77.54521615656208
 20
286.8118373369504
 30
0.0
 10
77.9106694111214
 20
287.3376221831267
 30
0.0
 10
78.05353438778991
 20
287.5431648588165
 30
0.0
 11
78.14779398124972
 21
285.5431648588165
 31
0.0
 11
78.436206430379
 21
286.1779035607759
 31
0.0
 11
77.80688856288623
 21
286.9521691119229
 31
0.0
 11
78.05353438778991
 21
287.5431648588165
 31
0.0
  0
SPLINE
  5
21E6
330
2
100
AcDbEntity
  8
HOJO
100
AcDbSpline
210
0.0
220
0.0
230
1.0
 70
     8
 71
     3
 72
    10
 73
     6
 74
     4
 42
0.0000000001
 43
0.0000000001
 44
0.0000000001
 40
0.0
 40
0.0
 40
0.0
 40
0.0
 40
0.697190763405494
 40
1.694952319108353
 40
2.335350738679082
 40
2.335350738679082
 40
2.335350738679082
 40
2.335350738679082
 10
79.94779398124967
 20
282.4431648588164
 30
0.0
 10
80.11500812335786
 20
282.66414987094
 30
0.0
 10
80.52152526734527
 20
283.2013902912773
 30
0.0
 10
79.345216156562
 20
283.7118373369502
 30
0.0
 10
79.71066941112134
 20
284.2376221831267
 30
0.0
 10
79.85353438778986
 20
284.4431648588164
 30
0.0
 11
79.94779398124967
 21
282.4431648588164
 31
0.0
 11
80.23620643037896
 21
283.0779035607759
 31
0.0
 11
79.60688856288618
 21
283.8521691119229
 31
0.0
 11
79.85353438778986
 21
284.4431648588164
 31
0.0
  0
ARC
  5
21E7
330
2
100
AcDbEntity
  8
0
100
AcDbCircle
 10
114.6248379700565
 20
325.4831648588166
 30
0.0
 40
2.0
100
AcDbArc
 50
90.0
 51
180.0
  0
LINE
  5
21E8
330
2
100
AcDbEntity
  8
0
100
AcDbLine
 10
114.6248379700568
 20
314.9331648588165
 30
0.0
 11
121.1248379700565
 21
314.9331648588165
 31
0.0
  0
ARC
  5
21E9
330
2
100
AcDbEntity
  8
0
100
AcDbCircle
 10
114.6248379700568
 20
312.9331648588165
 30
0.0
 40
2.0
100
AcDbArc
 50
90.0
 51
180.0
  0
LINE
  5
21EA
330
2
100
AcDbEntity
  8
0
100
AcDbLine
 10
114.6248379700565
 20
327.4831648588165
 30
0.0
 11
121.1248379700563
 21
327.4831648588165
 31
0.0
  0
ARC
  5
21EB
330
2
100
AcDbEntity
  8
0
100
AcDbCircle
 10
110.6248379700567
 20
324.3345144332542
 30
0.0
 40
2.0
100
AcDbArc
 50
270.4999833552727
 51
0.0
  0
LINE
  5
303D
330
2
100
AcDbEntity
  8
0
  6
Continuous
 62
     7
370
    15
100
AcDbLine
 10
141.984050512067
 20
194.8426836140365
 30
0.0
 11
141.1840505120641
 21
194.8426836140365
 31
0.0
  0
INSERT
  5
31FF
330
2
100
AcDbEntity
  8
0
100
AcDbBlockReference
  2
ケーブル AWG18
 10
64.62493697005641
 20
108.8569404316466
 30
0.0
  0
ENDSEC
  0
SECTION
  2
OBJECTS
  0
DICTIONARY
  5
7
330
0
100
AcDbDictionary
281
     1
  3
ACAD_CIP_PREVIOUS_PRODUCT_INFO
350
2B21
  3
ACAD_COLOR
350
2A8E
  3
ACAD_DETAILVIEWSTYLE
350
2B1D
  3
ACAD_FIELDLIST
350
2DD9
  3
ACAD_GROUP
350
75
  3
ACAD_LAYOUT
350
61
  3
ACAD_MATERIAL
350
2A64
  3
ACAD_MLEADERSTYLE
350
2AB3
  3
ACAD_MLINESTYLE
350
76
  3
ACAD_PLOTSETTINGS
350
77
  3
ACAD_PLOTSTYLENAME
350
6
  3
ACAD_SCALELIST
350
2A91
  3
ACAD_SECTIONVIEWSTYLE
350
2B1B
  3
ACAD_TABLESTYLE
350
2A8F
  3
ACAD_VISUALSTYLE
350
2A7D
  3
AcadDim
350
480
  3
ACDB_RECOMPOSE_DATA
350
34F7
  3
AcDbVariableDictionary
350
102
  3
DWGPROPS
350
34F8
  0
DICTIONARY
  5
2B01
330
6E
100
AcDbDictionary
280
     1
281
     1
  0
DICTIONARY
  5
2AE2
330
66
100
AcDbDictionary
280
     1
281
     1
  3
ACAD_LAYERSTATES
360
2AE3
  0
DICTIONARY
  5
2AEA
330
5E
100
AcDbDictionary
280
     1
281
     1
  3
ADSK_XREC_LAYER_RECONCILED
360
2AEB
  0
DICTIONARY
  5
2AEC
330
3E
100
AcDbDictionary
280
     1
281
     1
  3
ADSK_XREC_LAYER_RECONCILED
360
2AED
  0
DICTIONARY
  5
2AF2
330
2B5
100
AcDbDictionary
280
     1
281
     1
  3
ADSK_XREC_LAYER_RECONCILED
360
2AF3
  0
DICTIONARY
  5
2AF4
330
2BA
100
AcDbDictionary
280
     1
281
     1
  3
ADSK_XREC_LAYER_RECONCILED
360
2AF5
  0
DICTIONARY
  5
2AF8
330
3FA
100
AcDbDictionary
280
     1
281
     1
  3
ADSK_XREC_LAYER_RECONCILED
360
2AF9
  0
XRECORD
  5
2B21
102
{ACAD_REACTORS
330
7
102
}
330
7
100
AcDbXrecord
280
     1
300
ACD
300
2015
300
86295ACD_2015_0F
  0
DICTIONARY
  5
2A8E
102
{ACAD_REACTORS
330
7
102
}
330
7
100
AcDbDictionary
281
     1
  0
DICTIONARY
  5
2B1D
102
{ACAD_REACTORS
330
7
102
}
330
7
100
AcDbDictionary
281
     1
  3
Imperial24
350
2B1E
  3
Metric50
350
2DC8
  0
FIELDLIST
  5
2DD9
102
{ACAD_REACTORS
330
7
102
}
330
7
100
AcDbIdSet
 90
        2
330
2DB7
330
2DB8
100
AcDbFieldList
  0
DICTIONARY
  5
75
102
{ACAD_REACTORS
330
7
102
}
330
7
100
AcDbDictionary
281
     1
  0
DICTIONARY
  5
61
102
{ACAD_REACTORS
330
7
102
}
330
7
100
AcDbDictionary
281
     1
  3
Model
350
60
  3
レイアウト1
350
34F1
  0
DICTIONARY
  5
2A64
102
{ACAD_REACTORS
330
7
102
}
330
7
100
AcDbDictionary
281
     1
  3
ByBlock
350
2A6D
  3
ByLayer
350
2A65
  3
Global
350
2A75
  0
DICTIONARY
  5
2AB3
102
{ACAD_REACTORS
330
7
102
}
330
7
100
AcDbDictionary
281
     1
  3
Standard
350
2AB4
  0
DICTIONARY
  5
76
102
{ACAD_REACTORS
330
7
102
}
330
7
100
AcDbDictionary
281
     1
  3
STANDARD
350
78
  0
DICTIONARY
  5
77
102
{ACAD_REACTORS
330
7
102
}
330
7
100
AcDbDictionary
281
     1
  0
ACDBDICTIONARYWDFLT
  5
6
102
{ACAD_REACTORS
330
7
102
}
330
7
100
AcDbDictionary
281
     1
  3
Normal
350
5
100
AcDbDictionaryWithDefault
340
5
  0
DICTIONARY
  5
2A91
102
{ACAD_REACTORS
330
7
102
}
330
7
100
AcDbDictionary
281
     1
  3
A0
350
2A92
  3
A1
350
2A93
  3
A2
350
2A94
  3
A3
350
2A95
  3
A4
350
2A96
  3
A5
350
2A97
  3
A6
350
2A98
  3
A7
350
2A99
  3
A8
350
2A9A
  3
A9
350
2A9B
  3
B0
350
2A9C
  3
B1
350
2A9D
  3
B2
350
2A9E
  3
B3
350
2A9F
  3
B4
350
2AA0
  3
B5
350
2AA1
  3
B6
350
2AA2
  3
B7
350
2AA3
  3
B8
350
2AA4
  3
B9
350
2AA5
  3
C0
350
2AA6
  3
C1
350
2AA7
  3
C2
350
2AA8
  3
C3
350
2AA9
  3
C4
350
2AAA
  3
C5
350
2AAB
  3
C6
350
2AAC
  3
C7
350
2AAD
  3
C8
350
2AAE
  3
C9
350
2AAF
  3
D0
350
2AB0
  3
D1
350
2AB1
  3
D2
350
2AB2
  0
DICTIONARY
  5
2B1B
102
{ACAD_REACTORS
330
7
102
}
330
7
100
AcDbDictionary
281
     1
  3
Imperial24
350
2B1C
  3
Metric50
350
2DC7
  0
DICTIONARY
  5
2A8F
102
{ACAD_REACTORS
330
7
102
}
330
7
100
AcDbDictionary
281
     1
  3
Standard
350
2A90
  0
DICTIONARY
  5
2A7D
102
{ACAD_REACTORS
330
7
102
}
330
7
100
AcDbDictionary
281
     1
  3
2dWireframe
350
2A83
  3
3D Hidden
350
2A85
  3
3dWireframe
350
2A84
  3
Basic
350
2A82
  3
Brighten
350
2A89
  3
ColorChange
350
2A8D
  3
Conceptual
350
2A86
  3
Dim
350
2A88
  3
EdgeColorOff
350
2B1A
  3
Facepattern
350
2A8C
  3
Flat
350
2A7E
  3
FlatWithEdges
350
2A7F
  3
Gouraud
350
2A80
  3
GouraudWithEdges
350
2A81
  3
Hidden
350
2B12
  3
JitterOff
350
2B18
  3
Linepattern
350
2A8B
  3
OverhangOff
350
2B19
  3
Realistic
350
2A87
  3
Shaded
350
2B17
  3
Shaded with edges
350
2B16
  3
Shades of Gray
350
2B13
  3
Sketchy
350
2B14
  3
Thicken
350
2A8A
  3
Wireframe
350
2B11
  3
X-Ray
350
2B15
  0
XRECORD
  5
480
102
{ACAD_REACTORS
330
7
102
}
330
7
100
AcDbXrecord
280
     1
 90
   990106
  3

 60
     0
 61
     0
 62
     1
 63
     3
 64
     1
 65
     0
 66
     0
 67
     3
 68
     1
 69
     0
 70
     0
 71
     0
 72
     0
 40
0.0
170
     2
340
0
  0
XRECORD
  5
34F7
102
{ACAD_REACTORS
330
7
102
}
330
7
100
AcDbXrecord
280
     1
 90
        1
330
2A90
  0
DICTIONARY
  5
102
102
{ACAD_REACTORS
330
7
102
}
330
7
100
AcDbDictionary
281
     1
  3
CANNOSCALE
350
2B0D
  3
CMLEADERSTYLE
350
2B0C
  3
CTABLESTYLE
350
2B0B
  3
CVIEWDETAILSTYLE
350
2BBA
  3
CVIEWSECTIONSTYLE
350
2BBB
  3
DIMASSOC
350
103
  3
INDEXCTL
350
2B0F
  3
SORTENTS
350
2B0E
  3
XCLIPFRAME
350
34F5
  0
XRECORD
  5
34F8
102
{ACAD_REACTORS
330
7
102
}
330
7
100
AcDbXrecord
280
     1
  1
DWGPROPS COOKIE
  2

  3

  4

  6

  7

  8
ykitaga
  9

300
=
301
=
302
=
303
=
304
=
305
=
306
=
307
=
308
=
309
=
 40
0.0879551273148148
 41
2453692.620047014
 42
2458037.528949074
  1

 90
        0
  0
DICTIONARY
  5
2AE3
102
{ACAD_REACTORS
330
2AE2
102
}
330
2AE2
100
AcDbDictionary
281
     1
  0
XRECORD
  5
2AEB
102
{ACAD_REACTORS
330
2AEA
102
}
330
2AEA
100
AcDbXrecord
280
     1
290
     1
  0
XRECORD
  5
2AED
102
{ACAD_REACTORS
330
2AEC
102
}
330
2AEC
100
AcDbXrecord
280
     1
290
     1
  0
XRECORD
  5
2AF3
102
{ACAD_REACTORS
330
2AF2
102
}
330
2AF2
100
AcDbXrecord
280
     1
290
     1
  0
XRECORD
  5
2AF5
102
{ACAD_REACTORS
330
2AF4
102
}
330
2AF4
100
AcDbXrecord
280
     1
290
     1
  0
XRECORD
  5
2AF9
102
{ACAD_REACTORS
330
2AF8
102
}
330
2AF8
100
AcDbXrecord
280
     1
290
     1
  0
ACAD_PROXY_OBJECT
  5
2B1E
102
{ACAD_XDICTIONARY
360
349C
102
}
102
{ACAD_REACTORS
330
2B1D
102
}
330
2B1D
100
AcDbProxyObject
 90
      499
 91
      511
 95
   983063
 70
     0
 93
     1261
310
90B496D70657269616C323400481E5C0F42F5A8DC671FC056BD1B81E856B9F81E5C0F42F5A8DC671FA33E5C0F42F5A8DC671FA02000000000000741FA02AD929E2E20B1AB30B9102B34B2BBAA3CB832902E33101112BA3198911F1290129E2E20B1AB30B9102B34B2BBA232BA30B4B624B21F12AE2829A1A0A62290129E2E2
310
0B1AB30B9102B34B2BBA9B1B0B632902E33101112B9B7111F1280233A33807
340
16
340
0
340
8
340
16
340
8
340
8
 94
        0
1001
ACAD
1000
AcRTDxfName
1000
ACDBDETAILVIEWSTYLE
  0
ACAD_PROXY_OBJECT
  5
2DC8
102
{ACAD_XDICTIONARY
360
34A2
102
}
102
{ACAD_REACTORS
330
2B1D
102
}
330
2B1D
100
AcDbProxyObject
 90
      499
 91
      511
 95
   983063
 70
     0
 93
      893
310
9094D6574726963353000481E0000000000000A20500E0000000000000A20233E0000000000000A20400000000000017202029C129E2E20B1AB30B9102B34B2BBA232BA30B4B624B21F129014129E2E20B1AB30B9102B34B2BBA9B1B0B632902E33101112B9B7111F129480233A33807
340
16
340
0
340
8
340
16
340
8
340
8
 94
        0
1001
ACAD
1000
AcRTDxfName
1000
ACDBDETAILVIEWSTYLE
  0
LAYOUT
  5
60
102
{ACAD_XDICTIONARY
360
2B75
102
}
102
{ACAD_REACTORS
330
61
102
}
330
61
100
AcDbPlotSettings
  1

  2
Canon LBP-1420
  4
A4
  6

 40
5.873749732971191
 41
5.873747825622558
 42
5.873748779296875
 43
5.873748779296875
 44
209.9733276367187
 45
296.9259948730469
 46
0.0
 47
5.37
 48
0.0
 49
0.0
140
0.0
141
0.0
142
1.0
143
0.0880999410370753
 70
 11956
 72
     1
 73
     1
 74
     1
  7
Sekkei.ctb
 75
     0
147
11.35074539470086
148
-88.97401507731297
149
-101.3630682338996
100
AcDbLayout
  1
Model
 70
     1
 71
     0
 10
0.0
 20
0.0
 11
12.0
 21
9.0
 12
0.0
 22
0.0
 32
0.0
 14
0.0
 24
0.0
 34
0.0
 15
0.0
 25
0.0
 35
0.0
146
0.0
 13
0.0
 23
0.0
 33
0.0
 16
1.0
 26
0.0
 36
0.0
 17
0.0
 27
1.0
 37
0.0
 76
     0
330
2
331
2A62
  0
LAYOUT
  5
34F1
102
{ACAD_XDICTIONARY
360
3502
102
}
102
{ACAD_REACTORS
330
61
102
}
330
61
100
AcDbPlotSettings
  1

  2
Canon LBP8630/8620/8610 LIPSLX
  4

  6

 40
0.0
 41
0.0
 42
0.0
 43
0.0
 44
0.0
 45
0.0
 46
0.0
 47
0.0
 48
0.0
 49
0.0
140
0.0
141
0.0
142
1.0
143
1.0
 70
   688
 72
     0
 73
     0
 74
     5
  7

 75
    16
147
1.0
148
0.0
149
0.0
100
AcDbLayout
  1
レイアウト1
 70
     1
 71
     1
 10
0.0
 20
0.0
 11
12.0
 21
9.0
 12
0.0
 22
0.0
 32
0.0
 14
0.0
 24
0.0
 34
0.0
 15
0.0
 25
0.0
 35
0.0
146
0.0
 13
0.0
 23
0.0
 33
0.0
 16
1.0
 26
0.0
 36
0.0
 17
0.0
 27
1.0
 37
0.0
 76
     0
330
34F0
  0
MATERIAL
  5
2A6D
102
{ACAD_XDICTIONARY
360
2A6E
102
}
102
{ACAD_REACTORS
330
2A64
102
}
330
2A64
100
AcDbMaterial
  1
ByBlock
 72
     0
 43
0.0208333333333333
 43
0.0
 43
0.0
 43
0.0
 43
0.0
 43
0.0208333333333333
 43
0.0
 43
0.0
 43
0.0
 43
0.0
 43
1.0
 43
0.0
 43
0.0
 43
0.0
 43
0.0
 43
1.0
 77
     0
 47
0.0208333333333333
 47
0.0
 47
0.0
 47
0.0
 47
0.0
 47
0.0208333333333333
 47
0.0
 47
0.0
 47
0.0
 47
0.0
 47
1.0
 47
0.0
 47
0.0
 47
0.0
 47
0.0
 47
1.0
171
     0
 49
0.0208333333333333
 49
0.0
 49
0.0
 49
0.0
 49
0.0
 49
0.0208333333333333
 49
0.0
 49
0.0
 49
0.0
 49
0.0
 49
1.0
 49
0.0
 49
0.0
 49
0.0
 49
0.0
 49
1.0
175
     0
142
0.0208333333333333
142
0.0
142
0.0
142
0.0
142
0.0
142
0.0208333333333333
142
0.0
142
0.0
142
0.0
142
0.0
142
1.0
142
0.0
142
0.0
142
0.0
142
0.0
142
1.0
179
     0
144
0.0208333333333333
144
0.0
144
0.0
144
0.0
144
0.0
144
0.0208333333333333
144
0.0
144
0.0
144
0.0
144
0.0
144
1.0
144
0.0
144
0.0
144
0.0
144
0.0
144
1.0
147
0.0208333333333333
147
0.0
147
0.0
147
0.0
147
0.0
147
0.0208333333333333
147
0.0
147
0.0
147
0.0
147
0.0
147
1.0
147
0.0
147
0.0
147
0.0
147
0.0
147
1.0
  0
MATERIAL
  5
2A65
102
{ACAD_XDICTIONARY
360
2A66
102
}
102
{ACAD_REACTORS
330
2A64
102
}
330
2A64
100
AcDbMaterial
  1
ByLayer
 72
     0
 43
0.0208333333333333
 43
0.0
 43
0.0
 43
0.0
 43
0.0
 43
0.0208333333333333
 43
0.0
 43
0.0
 43
0.0
 43
0.0
 43
1.0
 43
0.0
 43
0.0
 43
0.0
 43
0.0
 43
1.0
 77
     0
 47
0.0208333333333333
 47
0.0
 47
0.0
 47
0.0
 47
0.0
 47
0.0208333333333333
 47
0.0
 47
0.0
 47
0.0
 47
0.0
 47
1.0
 47
0.0
 47
0.0
 47
0.0
 47
0.0
 47
1.0
171
     0
 49
0.0208333333333333
 49
0.0
 49
0.0
 49
0.0
 49
0.0
 49
0.0208333333333333
 49
0.0
 49
0.0
 49
0.0
 49
0.0
 49
1.0
 49
0.0
 49
0.0
 49
0.0
 49
0.0
 49
1.0
175
     0
142
0.0208333333333333
142
0.0
142
0.0
142
0.0
142
0.0
142
0.0208333333333333
142
0.0
142
0.0
142
0.0
142
0.0
142
1.0
142
0.0
142
0.0
142
0.0
142
0.0
142
1.0
179
     0
144
0.0208333333333333
144
0.0
144
0.0
144
0.0
144
0.0
144
0.0208333333333333
144
0.0
144
0.0
144
0.0
144
0.0
144
1.0
144
0.0
144
0.0
144
0.0
144
0.0
144
1.0
147
0.0208333333333333
147
0.0
147
0.0
147
0.0
147
0.0
147
0.0208333333333333
147
0.0
147
0.0
147
0.0
147
0.0
147
1.0
147
0.0
147
0.0
147
0.0
147
0.0
147
1.0
  0
MATERIAL
  5
2A75
102
{ACAD_XDICTIONARY
360
2A76
102
}
102
{ACAD_REACTORS
330
2A64
102
}
330
2A64
100
AcDbMaterial
  1
Global
 72
     0
 43
0.0208333333333333
 43
0.0
 43
0.0
 43
0.0
 43
0.0
 43
0.0208333333333333
 43
0.0
 43
0.0
 43
0.0
 43
0.0
 43
1.0
 43
0.0
 43
0.0
 43
0.0
 43
0.0
 43
1.0
 77
     0
 47
0.0208333333333333
 47
0.0
 47
0.0
 47
0.0
 47
0.0
 47
0.0208333333333333
 47
0.0
 47
0.0
 47
0.0
 47
0.0
 47
1.0
 47
0.0
 47
0.0
 47
0.0
 47
0.0
 47
1.0
171
     0
 49
0.0208333333333333
 49
0.0
 49
0.0
 49
0.0
 49
0.0
 49
0.0208333333333333
 49
0.0
 49
0.0
 49
0.0
 49
0.0
 49
1.0
 49
0.0
 49
0.0
 49
0.0
 49
0.0
 49
1.0
175
     0
142
0.0208333333333333
142
0.0
142
0.0
142
0.0
142
0.0
142
0.0208333333333333
142
0.0
142
0.0
142
0.0
142
0.0
142
1.0
142
0.0
142
0.0
142
0.0
142
0.0
142
1.0
179
     0
144
0.0208333333333333
144
0.0
144
0.0
144
0.0
144
0.0
144
0.0208333333333333
144
0.0
144
0.0
144
0.0
144
0.0
144
1.0
144
0.0
144
0.0
144
0.0
144
0.0
144
1.0
147
0.0208333333333333
147
0.0
147
0.0
147
0.0
147
0.0
147
0.0208333333333333
147
0.0
147
0.0
147
0.0
147
0.0
147
1.0
147
0.0
147
0.0
147
0.0
147
0.0
147
1.0
  0
MLEADERSTYLE
  5
2AB4
102
{ACAD_REACTORS
330
2AB3
102
}
330
2AB3
100
AcDbMLeaderStyle
170
     2
171
     1
172
     0
 90
        2
 40
0.0
 41
0.0
173
     1
 91
-1056964608
340
6A
 92
       -2
290
     1
 42
0.09
291
     1
 43
0.36
  3
Standard
 44
0.18
300

342
16
174
     1
178
     6
175
     1
176
     0
 93
-1056964608
 45
0.18
292
     0
297
     0
 46
0.18
 94
-1056964608
 47
1.0
 49
1.0
140
1.0
293
     1
141
0.0
294
     1
177
     0
142
1.0
295
     0
296
     0
143
0.125
1001
ACAD_MLEADERVER
1070
     2
  0
MLINESTYLE
  5
78
102
{ACAD_REACTORS
330
76
102
}
330
76
100
AcDbMlineStyle
  2
STANDARD
 70
     0
  3

 62
     0
 51
90.0
 52
90.0
 71
     2
 49
0.5
 62
   256
  6
BYLAYER
 49
-0.5
 62
   256
  6
BYLAYER
  0
ACDBPLACEHOLDER
  5
5
102
{ACAD_REACTORS
330
6
102
}
330
6
  0
SCALE
  5
2A92
102
{ACAD_REACTORS
330
2A91
102
}
330
2A91
100
AcDbScale
 70
     0
300
1:1
140
1.0
141
1.0
290
     1
  0
SCALE
  5
2A93
102
{ACAD_REACTORS
330
2A91
102
}
330
2A91
100
AcDbScale
 70
     0
300
1:2
140
1.0
141
2.0
290
     0
  0
SCALE
  5
2A94
102
{ACAD_REACTORS
330
2A91
102
}
330
2A91
100
AcDbScale
 70
     0
300
1:4
140
1.0
141
4.0
290
     0
  0
SCALE
  5
2A95
102
{ACAD_REACTORS
330
2A91
102
}
330
2A91
100
AcDbScale
 70
     0
300
1:5
140
1.0
141
5.0
290
     0
  0
SCALE
  5
2A96
102
{ACAD_REACTORS
330
2A91
102
}
330
2A91
100
AcDbScale
 70
     0
300
1:8
140
1.0
141
8.0
290
     0
  0
SCALE
  5
2A97
102
{ACAD_REACTORS
330
2A91
102
}
330
2A91
100
AcDbScale
 70
     0
300
1:10
140
1.0
141
10.0
290
     0
  0
SCALE
  5
2A98
102
{ACAD_REACTORS
330
2A91
102
}
330
2A91
100
AcDbScale
 70
     0
300
1:16
140
1.0
141
16.0
290
     0
  0
SCALE
  5
2A99
102
{ACAD_REACTORS
330
2A91
102
}
330
2A91
100
AcDbScale
 70
     0
300
1:20
140
1.0
141
20.0
290
     0
  0
SCALE
  5
2A9A
102
{ACAD_REACTORS
330
2A91
102
}
330
2A91
100
AcDbScale
 70
     0
300
1:30
140
1.0
141
30.0
290
     0
  0
SCALE
  5
2A9B
102
{ACAD_REACTORS
330
2A91
102
}
330
2A91
100
AcDbScale
 70
     0
300
1:40
140
1.0
141
40.0
290
     0
  0
SCALE
  5
2A9C
102
{ACAD_REACTORS
330
2A91
102
}
330
2A91
100
AcDbScale
 70
     0
300
1:50
140
1.0
141
50.0
290
     0
  0
SCALE
  5
2A9D
102
{ACAD_REACTORS
330
2A91
102
}
330
2A91
100
AcDbScale
 70
     0
300
1:100
140
1.0
141
100.0
290
     0
  0
SCALE
  5
2A9E
102
{ACAD_REACTORS
330
2A91
102
}
330
2A91
100
AcDbScale
 70
     0
300
2:1
140
2.0
141
1.0
290
     0
  0
SCALE
  5
2A9F
102
{ACAD_REACTORS
330
2A91
102
}
330
2A91
100
AcDbScale
 70
     0
300
4:1
140
4.0
141
1.0
290
     0
  0
SCALE
  5
2AA0
102
{ACAD_REACTORS
330
2A91
102
}
330
2A91
100
AcDbScale
 70
     0
300
8:1
140
8.0
141
1.0
290
     0
  0
SCALE
  5
2AA1
102
{ACAD_REACTORS
330
2A91
102
}
330
2A91
100
AcDbScale
 70
     0
300
10:1
140
10.0
141
1.0
290
     0
  0
SCALE
  5
2AA2
102
{ACAD_REACTORS
330
2A91
102
}
330
2A91
100
AcDbScale
 70
     0
300
100:1
140
100.0
141
1.0
290
     0
  0
SCALE
  5
2AA3
102
{ACAD_REACTORS
330
2A91
102
}
330
2A91
100
AcDbScale
 70
     0
300
1/128" = 1'-0"
140
0.0078125
141
12.0
290
     0
  0
SCALE
  5
2AA4
102
{ACAD_REACTORS
330
2A91
102
}
330
2A91
100
AcDbScale
 70
     0
300
1/64" = 1'-0"
140
0.015625
141
12.0
290
     0
  0
SCALE
  5
2AA5
102
{ACAD_REACTORS
330
2A91
102
}
330
2A91
100
AcDbScale
 70
     0
300
1/32" = 1'-0"
140
0.03125
141
12.0
290
     0
  0
SCALE
  5
2AA6
102
{ACAD_REACTORS
330
2A91
102
}
330
2A91
100
AcDbScale
 70
     0
300
1/16" = 1'-0"
140
0.0625
141
12.0
290
     0
  0
SCALE
  5
2AA7
102
{ACAD_REACTORS
330
2A91
102
}
330
2A91
100
AcDbScale
 70
     0
300
3/32" = 1'-0"
140
0.09375
141
12.0
290
     0
  0
SCALE
  5
2AA8
102
{ACAD_REACTORS
330
2A91
102
}
330
2A91
100
AcDbScale
 70
     0
300
1/8" = 1'-0"
140
0.125
141
12.0
290
     0
  0
SCALE
  5
2AA9
102
{ACAD_REACTORS
330
2A91
102
}
330
2A91
100
AcDbScale
 70
     0
300
3/16" = 1'-0"
140
0.1875
141
12.0
290
     0
  0
SCALE
  5
2AAA
102
{ACAD_REACTORS
330
2A91
102
}
330
2A91
100
AcDbScale
 70
     0
300
1/4" = 1'-0"
140
0.25
141
12.0
290
     0
  0
SCALE
  5
2AAB
102
{ACAD_REACTORS
330
2A91
102
}
330
2A91
100
AcDbScale
 70
     0
300
3/8" = 1'-0"
140
0.375
141
12.0
290
     0
  0
SCALE
  5
2AAC
102
{ACAD_REACTORS
330
2A91
102
}
330
2A91
100
AcDbScale
 70
     0
300
1/2" = 1'-0"
140
0.5
141
12.0
290
     0
  0
SCALE
  5
2AAD
102
{ACAD_REACTORS
330
2A91
102
}
330
2A91
100
AcDbScale
 70
     0
300
3/4" = 1'-0"
140
0.75
141
12.0
290
     0
  0
SCALE
  5
2AAE
102
{ACAD_REACTORS
330
2A91
102
}
330
2A91
100
AcDbScale
 70
     0
300
1" = 1'-0"
140
1.0
141
12.0
290
     0
  0
SCALE
  5
2AAF
102
{ACAD_REACTORS
330
2A91
102
}
330
2A91
100
AcDbScale
 70
     0
300
1-1/2" = 1'-0"
140
1.5
141
12.0
290
     0
  0
SCALE
  5
2AB0
102
{ACAD_REACTORS
330
2A91
102
}
330
2A91
100
AcDbScale
 70
     0
300
3" = 1'-0"
140
3.0
141
12.0
290
     0
  0
SCALE
  5
2AB1
102
{ACAD_REACTORS
330
2A91
102
}
330
2A91
100
AcDbScale
 70
     0
300
6" = 1'-0"
140
6.0
141
12.0
290
     0
  0
SCALE
  5
2AB2
102
{ACAD_REACTORS
330
2A91
102
}
330
2A91
100
AcDbScale
 70
     0
300
1'-0" = 1'-0"
140
12.0
141
12.0
290
     0
  0
ACAD_PROXY_OBJECT
  5
2B1C
102
{ACAD_XDICTIONARY
360
349A
102
}
102
{ACAD_REACTORS
330
2B1B
102
}
330
2B1B
100
AcDbProxyObject
 90
      499
 91
      510
 95
   983063
 70
     0
 93
     2303
310
90B496D70657269616C3234004A765C0F42F5A8DC671FE5C0F42F5A8DC671FA229258409E5840A25840A65840B05840B4005C0F42F5A8DC6F1FA33A659703D0BD6A3719C7E5C0F42F5A8DC671FE5C0F42F5A8DC671FA02000000000000741FA02BE929E2E20B1AB30B9102B34B2BBAA3CB832902E33101112BA3198911F129
310
0129E2E20B1AB30B9102B34B2BBA9B2B1BA34B7B729BA30B93A24B21F1296929E2E20B1AB30B9102B34B2BBA9B2B1BA34B7B722B73224B21F12AE2829A1A0A62290129E2E20B1AB30B9102B34B2BBA9B1B0B632902E33101112B9B7111F128060080A0E829CA692666200C206056BD1B81E85639FA0320D0305A88A9F643F2
310
7E32B9969C2960E81F87FA0718D4DE3E87E32B9969C2960E85F9E5129FC49EA5FA7F
340
16
340
0
340
0
340
8
340
8
340
16
 94
        0
1001
ACAD
1000
AcRTDxfName
1000
ACDBSECTIONVIEWSTYLE
  0
ACAD_PROXY_OBJECT
  5
2DC7
102
{ACAD_XDICTIONARY
360
34A0
102
}
102
{ACAD_REACTORS
330
2B1B
102
}
330
2B1B
100
AcDbProxyObject
 90
      499
 91
      510
 95
   983063
 70
     0
 93
     2047
310
9094D65747269633530004B360000000000000A2060000000000000A202229258409E5840A25840A65840B05840B4000000000000001220233A65800000000000028800000000000000A2060000000000000A2040000000000001720202AD129E2E20B1AB30B9102B34B2BBA9B2B1BA34B7B729BA30B93A24B21F1296929E2
310
E20B1AB30B9102B34B2BBA9B2B1BA34B7B722B73224B21F129014129E2E20B1AB30B9102B34B2BBA9B1B0B632902E33101112B9B7111F12948060080A0E829CA692666200C400000000000002204000000000000022020D0305A88A9F643F27E32B9969C2960E81F87FA0718D4DE3E87E32B9969C2960E85F9E5129FC49EA5
310
FA7F
340
16
340
0
340
0
340
8
340
8
340
16
 94
        0
1001
ACAD
1000
AcRTDxfName
1000
ACDBSECTIONVIEWSTYLE
  0
TABLESTYLE
  5
2A90
102
{ACAD_XDICTIONARY
360
2AFA
102
}
102
{ACAD_REACTORS
330
2A8F
102
}
330
2A8F
100
AcDbTableStyle
  3
Standard
 70
     0
 71
     0
 40
0.06
 41
0.06
280
     0
281
     0
  7
STANDARD
140
0.18
170
     2
 62
     0
 63
     7
283
     0
274
    -2
284
     1
 64
     0
275
    -2
285
     1
 65
     0
276
    -2
286
     1
 66
     0
277
    -2
287
     1
 67
     0
278
    -2
288
     1
 68
     0
279
    -2
289
     1
 69
     0
  7
STANDARD
140
0.25
170
     5
 62
     0
 63
     7
283
     0
274
    -2
284
     1
 64
     0
275
    -2
285
     1
 65
     0
276
    -2
286
     1
 66
     0
277
    -2
287
     1
 67
     0
278
    -2
288
     1
 68
     0
279
    -2
289
     1
 69
     0
  7
STANDARD
140
0.18
170
     5
 62
     0
 63
     7
283
     0
274
    -2
284
     1
 64
     0
275
    -2
285
     1
 65
     0
276
    -2
286
     1
 66
     0
277
    -2
287
     1
 67
     0
278
    -2
288
     1
 68
     0
279
    -2
289
     1
 69
     0
  0
VISUALSTYLE
  5
2A83
102
{ACAD_XDICTIONARY
360
346F
102
}
102
{ACAD_REACTORS
330
2A7D
102
}
330
2A7D
100
AcDbVisualStyle
  2
2dWireframe
 70
     4
 71
     0
 72
     2
 73
     0
 90
        0
 40
-0.6
 41
-30.0
 62
     5
 63
     7
 74
     1
 91
        4
 64
     7
 65
   257
 75
     1
175
     1
 42
1.0
 92
        0
 66
   257
 43
1.0
 76
     1
 77
     6
 78
     2
 67
     7
 79
     5
170
     0
171
     0
290
     0
174
     0
 93
        1
 44
0.0
173
     0
291
     0
 45
0.0
1001
ACAD
1000
AcDbSavedByObjectVersion
1070
     0
  0
VISUALSTYLE
  5
2A85
102
{ACAD_XDICTIONARY
360
3473
102
}
102
{ACAD_REACTORS
330
2A7D
102
}
330
2A7D
100
AcDbVisualStyle
  2
3D Hidden
 70
     6
 71
     1
 72
     2
 73
     2
 90
        0
 40
-0.6
 41
-30.0
 62
     5
 63
     7
 74
     2
 91
        2
 64
     7
 65
   257
 75
     2
175
     1
 42
40.0
 92
        0
 66
   257
 43
1.0
 76
     1
 77
     6
 78
     2
 67
     7
 79
     3
170
     0
171
     0
290
     0
174
     0
 93
        1
 44
0.0
173
     0
291
     0
 45
0.0
1001
ACAD
1000
AcDbSavedByObjectVersion
1070
     0
  0
VISUALSTYLE
  5
2A84
102
{ACAD_XDICTIONARY
360
3471
102
}
102
{ACAD_REACTORS
330
2A7D
102
}
330
2A7D
100
AcDbVisualStyle
  2
3dWireframe
 70
     5
 71
     0
 72
     2
 73
     0
 90
        0
 40
-0.6
 41
-30.0
 62
     5
 63
     7
 74
     1
 91
        4
 64
     7
 65
   257
 75
     1
175
     1
 42
1.0
 92
        0
 66
   257
 43
1.0
 76
     1
 77
     6
 78
     2
 67
     7
 79
     5
170
     0
171
     0
290
     0
174
     0
 93
        1
 44
0.0
173
     0
291
     0
 45
0.0
1001
ACAD
1000
AcDbSavedByObjectVersion
1070
     0
  0
VISUALSTYLE
  5
2A82
102
{ACAD_XDICTIONARY
360
346D
102
}
102
{ACAD_REACTORS
330
2A7D
102
}
330
2A7D
100
AcDbVisualStyle
  2
Basic
 70
     7
 71
     1
 72
     0
 73
     1
 90
        0
 40
-0.6
 41
-30.0
 62
     5
 63
     7
 74
     0
 91
        4
 64
     7
 65
   257
 75
     1
175
     1
 42
1.0
 92
        8
 66
     7
 43
1.0
 76
     1
 77
     6
 78
     2
 67
     7
 79
     5
170
     0
171
     0
290
     0
174
     0
 93
        1
 44
0.0
173
     0
291
     1
 45
0.0
1001
ACAD
1000
AcDbSavedByObjectVersion
1070
     0
  0
VISUALSTYLE
  5
2A89
102
{ACAD_XDICTIONARY
360
347B
102
}
102
{ACAD_REACTORS
330
2A7D
102
}
330
2A7D
100
AcDbVisualStyle
  2
Brighten
 70
    12
 71
     2
 72
     2
 73
     0
 90
        0
 40
-0.6
 41
-30.0
 62
     5
 63
     7
 74
     1
 91
        4
 64
     7
 65
   257
 75
     1
175
     1
 42
1.0
 92
        8
 66
     7
 43
1.0
 76
     1
 77
     6
 78
     2
 67
     7
 79
     5
170
     0
171
     0
290
     0
174
     0
 93
        1
 44
50.0
173
     0
291
     1
 45
0.0
1001
ACAD
1000
AcDbSavedByObjectVersion
1070
     0
  0
VISUALSTYLE
  5
2A8D
102
{ACAD_XDICTIONARY
360
3483
102
}
102
{ACAD_REACTORS
330
2A7D
102
}
330
2A7D
100
AcDbVisualStyle
  2
ColorChange
 70
    16
 71
     2
 72
     2
 73
     3
 90
        0
 40
-0.6
 41
-30.0
 62
     5
 63
     8
 74
     1
 91
        4
 64
     7
 65
   257
 75
     1
175
     1
 42
1.0
 92
        8
 66
     8
 43
1.0
 76
     1
 77
     6
 78
     2
 67
     7
 79
     5
170
     0
171
     0
290
     0
174
     0
 93
        1
 44
0.0
173
     0
291
     1
 45
0.0
1001
ACAD
1000
AcDbSavedByObjectVersion
1070
     0
  0
VISUALSTYLE
  5
2A86
102
{ACAD_XDICTIONARY
360
3475
102
}
102
{ACAD_REACTORS
330
2A7D
102
}
330
2A7D
100
AcDbVisualStyle
  2
Conceptual
 70
     9
 71
     3
 72
     2
 73
     0
 90
        0
 40
-0.6
 41
-30.0
 62
     5
 63
     7
 74
     2
 91
        2
 64
     7
 65
   257
 75
     1
175
     1
 42
40.0
 92
        8
 66
     7
 43
1.0
 76
     1
 77
     6
 78
     2
 67
     7
 79
     3
170
     0
171
     0
290
     0
174
     0
 93
        1
 44
0.0
173
     0
291
     0
 45
0.0
1001
ACAD
1000
AcDbSavedByObjectVersion
1070
     0
  0
VISUALSTYLE
  5
2A88
102
{ACAD_XDICTIONARY
360
3479
102
}
102
{ACAD_REACTORS
330
2A7D
102
}
330
2A7D
100
AcDbVisualStyle
  2
Dim
 70
    11
 71
     2
 72
     2
 73
     0
 90
        0
 40
-0.6
 41
-30.0
 62
     5
 63
     7
 74
     1
 91
        4
 64
     7
 65
   257
 75
     1
175
     1
 42
1.0
 92
        8
 66
     7
 43
1.0
 76
     1
 77
     6
 78
     2
 67
     7
 79
     5
170
     0
171
     0
290
     0
174
     0
 93
        1
 44
-50.0
173
     0
291
     1
 45
0.0
1001
ACAD
1000
AcDbSavedByObjectVersion
1070
     0
  0
VISUALSTYLE
  5
2B1A
102
{ACAD_XDICTIONARY
360
3498
102
}
102
{ACAD_REACTORS
330
2A7D
102
}
330
2A7D
100
AcDbVisualStyle
  2
EdgeColorOff
 70
    22
 71
     2
 72
     2
 73
     0
 90
        0
 40
-0.6
 41
-30.0
 62
     5
 63
     7
 74
     1
 91
        4
 64
     7
 65
   257
 75
     1
175
     1
 42
1.0
 92
        8
 66
     7
 43
1.0
 76
     1
 77
     6
 78
     2
 67
     7
 79
     5
170
     0
171
     0
290
     0
174
     0
 93
        1
 44
0.0
173
     0
291
     1
 45
0.0
1001
ACAD
1000
AcDbSavedByObjectVersion
1070
     0
  0
VISUALSTYLE
  5
2A8C
102
{ACAD_XDICTIONARY
360
3481
102
}
102
{ACAD_REACTORS
330
2A7D
102
}
330
2A7D
100
AcDbVisualStyle
  2
Facepattern
 70
    15
 71
     2
 72
     2
 73
     0
 90
        0
 40
-0.6
 41
-30.0
 62
     5
 63
     7
 74
     1
 91
        4
 64
     7
 65
   257
 75
     1
175
     1
 42
1.0
 92
        8
 66
     7
 43
1.0
 76
     1
 77
     6
 78
     2
 67
     7
 79
     5
170
     0
171
     0
290
     0
174
     0
 93
        1
 44
0.0
173
     0
291
     1
 45
0.0
1001
ACAD
1000
AcDbSavedByObjectVersion
1070
     0
  0
VISUALSTYLE
  5
2A7E
102
{ACAD_XDICTIONARY
360
3465
102
}
102
{ACAD_REACTORS
330
2A7D
102
}
330
2A7D
100
AcDbVisualStyle
  2
Flat
 70
     0
 71
     2
 72
     1
 73
     1
 90
        2
 40
-0.6
 41
30.0
 62
     5
 63
     7
 74
     0
 91
        4
 64
     7
 65
   257
 75
     1
175
     1
 42
1.0
 92
        8
 66
     7
 43
1.0
 76
     1
 77
     6
 78
     2
 67
     7
 79
     5
170
     0
171
     0
290
     0
174
     0
 93
       13
 44
0.0
173
     0
291
     1
 45
0.0
1001
ACAD
1000
AcDbSavedByObjectVersion
1070
     0
  0
VISUALSTYLE
  5
2A7F
102
{ACAD_XDICTIONARY
360
3467
102
}
102
{ACAD_REACTORS
330
2A7D
102
}
330
2A7D
100
AcDbVisualStyle
  2
FlatWithEdges
 70
     1
 71
     2
 72
     1
 73
     1
 90
        2
 40
-0.6
 41
30.0
 62
     5
 63
     7
 74
     1
 91
        4
 64
     7
 65
   257
 75
     1
175
     1
 42
1.0
 92
        0
 66
   257
 43
1.0
 76
     1
 77
     6
 78
     2
 67
     7
 79
     5
170
     0
171
     0
290
     0
174
     0
 93
       13
 44
0.0
173
     0
291
     1
 45
0.0
1001
ACAD
1000
AcDbSavedByObjectVersion
1070
     0
  0
VISUALSTYLE
  5
2A80
102
{ACAD_XDICTIONARY
360
3469
102
}
102
{ACAD_REACTORS
330
2A7D
102
}
330
2A7D
100
AcDbVisualStyle
  2
Gouraud
 70
     2
 71
     2
 72
     2
 73
     1
 90
        2
 40
-0.6
 41
30.0
 62
     5
 63
     7
 74
     0
 91
        4
 64
     7
 65
   257
 75
     1
175
     1
 42
1.0
 92
        0
 66
     7
 43
1.0
 76
     1
 77
     6
 78
     2
 67
     7
 79
     5
170
     0
171
     0
290
     0
174
     0
 93
       13
 44
0.0
173
     0
291
     1
 45
0.0
1001
ACAD
1000
AcDbSavedByObjectVersion
1070
     0
  0
VISUALSTYLE
  5
2A81
102
{ACAD_XDICTIONARY
360
346B
102
}
102
{ACAD_REACTORS
330
2A7D
102
}
330
2A7D
100
AcDbVisualStyle
  2
GouraudWithEdges
 70
     3
 71
     2
 72
     2
 73
     1
 90
        2
 40
-0.6
 41
30.0
 62
     5
 63
     7
 74
     1
 91
        4
 64
     7
 65
   257
 75
     1
175
     1
 42
1.0
 92
        0
 66
   257
 43
1.0
 76
     1
 77
     6
 78
     2
 67
     7
 79
     5
170
     0
171
     0
290
     0
174
     0
 93
       13
 44
0.0
173
     0
291
     1
 45
0.0
1001
ACAD
1000
AcDbSavedByObjectVersion
1070
     0
  0
VISUALSTYLE
  5
2B12
102
{ACAD_XDICTIONARY
360
3488
102
}
102
{ACAD_REACTORS
330
2A7D
102
}
330
2A7D
100
AcDbVisualStyle
  2
Hidden
 70
     6
 71
     1
 72
     2
 73
     2
 90
        0
 40
-0.6
 41
-30.0
 62
     5
 63
     7
 74
     2
 91
        2
 64
     7
 65
   257
 75
     2
175
     1
 42
40.0
 92
        0
 66
   257
 43
1.0
 76
     1
 77
     6
 78
     2
 67
     7
 79
     3
170
     0
171
     0
290
     0
174
     0
 93
        1
 44
0.0
173
     0
291
     0
 45
0.0
1001
ACAD
1000
AcDbSavedByObjectVersion
1070
     0
  0
VISUALSTYLE
  5
2B18
102
{ACAD_XDICTIONARY
360
3494
102
}
102
{ACAD_REACTORS
330
2A7D
102
}
330
2A7D
100
AcDbVisualStyle
  2
JitterOff
 70
    20
 71
     2
 72
     2
 73
     0
 90
        0
 40
-0.6
 41
-30.0
 62
     5
 63
     7
 74
     1
 91
        4
 64
     7
 65
   257
 75
     1
175
     1
 42
1.0
 92
       10
 66
     7
 43
1.0
 76
     1
 77
     6
 78
     2
 67
     7
 79
     5
170
     0
171
     0
290
     0
174
     0
 93
        1
 44
0.0
173
     0
291
     1
 45
0.0
1001
ACAD
1000
AcDbSavedByObjectVersion
1070
     0
  0
VISUALSTYLE
  5
2A8B
102
{ACAD_XDICTIONARY
360
347F
102
}
102
{ACAD_REACTORS
330
2A7D
102
}
330
2A7D
100
AcDbVisualStyle
  2
Linepattern
 70
    14
 71
     2
 72
     2
 73
     0
 90
        0
 40
-0.6
 41
-30.0
 62
     5
 63
     7
 74
     1
 91
        4
 64
     7
 65
   257
 75
     7
175
     7
 42
1.0
 92
        8
 66
     7
 43
1.0
 76
     1
 77
     6
 78
     2
 67
     7
 79
     5
170
     0
171
     0
290
     0
174
     0
 93
        1
 44
0.0
173
     0
291
     1
 45
0.0
1001
ACAD
1000
AcDbSavedByObjectVersion
1070
     0
  0
VISUALSTYLE
  5
2B19
102
{ACAD_XDICTIONARY
360
3496
102
}
102
{ACAD_REACTORS
330
2A7D
102
}
330
2A7D
100
AcDbVisualStyle
  2
OverhangOff
 70
    21
 71
     2
 72
     2
 73
     0
 90
        0
 40
-0.6
 41
-30.0
 62
     5
 63
     7
 74
     1
 91
        4
 64
     7
 65
   257
 75
     1
175
     1
 42
1.0
 92
        9
 66
     7
 43
1.0
 76
     1
 77
     6
 78
     2
 67
     7
 79
     5
170
     0
171
     0
290
     0
174
     0
 93
        1
 44
0.0
173
     0
291
     1
 45
0.0
1001
ACAD
1000
AcDbSavedByObjectVersion
1070
     0
  0
VISUALSTYLE
  5
2A87
102
{ACAD_XDICTIONARY
360
3477
102
}
102
{ACAD_REACTORS
330
2A7D
102
}
330
2A7D
100
AcDbVisualStyle
  2
Realistic
 70
     8
 71
     2
 72
     2
 73
     0
 90
        0
 40
-0.6
 41
-30.0
 62
     5
 63
     7
 74
     1
 91
        0
 64
     7
 65
   257
 75
     1
175
     1
 42
1.0
 92
        8
 66
     8
 43
1.0
 76
     1
 77
     6
 78
     2
 67
     7
 79
     5
170
     0
171
     0
290
     0
174
     0
 93
       13
 44
0.0
173
     0
291
     0
 45
0.0
1001
ACAD
1000
AcDbSavedByObjectVersion
1070
     0
  0
VISUALSTYLE
  5
2B17
102
{ACAD_XDICTIONARY
360
3492
102
}
102
{ACAD_REACTORS
330
2A7D
102
}
330
2A7D
100
AcDbVisualStyle
  2
Shaded
 70
    27
 71
     2
 72
     2
 73
     1
 90
        2
 40
-0.6
 41
30.0
 62
     5
 63
     7
 74
     0
 91
        4
 64
     7
 65
   257
 75
     1
175
     1
 42
1.0
 92
        8
 66
   257
 43
1.0
 76
     1
 77
     6
 78
     2
 67
     8
 79
     3
170
     0
171
     0
290
     0
174
     0
 93
        5
 44
0.0
173
     0
291
     0
 45
0.0
1001
ACAD
1000
AcDbSavedByObjectVersion
1070
     0
  0
VISUALSTYLE
  5
2B16
102
{ACAD_XDICTIONARY
360
3490
102
}
102
{ACAD_REACTORS
330
2A7D
102
}
330
2A7D
100
AcDbVisualStyle
  2
Shaded with edges
 70
    26
 71
     2
 72
     2
 73
     1
 90
        2
 40
-0.6
 41
30.0
 62
     5
 63
     7
 74
     1
 91
       10
 64
     7
 65
   257
 75
     2
175
     1
 42
1.0
 92
        8
 66
   257
 43
1.0
 76
     1
 77
     6
 78
     2
 67
     7
 79
     3
170
     0
171
     0
290
     0
174
     0
 93
        5
 44
0.0
173
     0
291
     0
 45
0.0
1001
ACAD
1000
AcDbSavedByObjectVersion
1070
     0
  0
VISUALSTYLE
  5
2B13
102
{ACAD_XDICTIONARY
360
348A
102
}
102
{ACAD_REACTORS
330
2A7D
102
}
330
2A7D
100
AcDbVisualStyle
  2
Shades of Gray
 70
    23
 71
     2
 72
     2
 73
     3
 90
        0
 40
-0.6
 41
-30.0
 62
     5
 63
     7
 74
     2
 91
        2
 64
     7
 65
     7
 75
     1
175
     1
 42
40.0
 92
        8
 66
     7
 43
1.0
 76
     1
 77
     6
 78
     2
 67
     7
 79
     3
170
     0
171
     0
290
     0
174
     0
 93
        1
 44
0.0
173
     0
291
     0
 45
0.0
1001
ACAD
1000
AcDbSavedByObjectVersion
1070
     0
  0
VISUALSTYLE
  5
2B14
102
{ACAD_XDICTIONARY
360
348C
102
}
102
{ACAD_REACTORS
330
2A7D
102
}
330
2A7D
100
AcDbVisualStyle
  2
Sketchy
 70
    24
 71
     1
 72
     2
 73
     2
 90
        0
 40
-0.6
 41
-30.0
 62
     5
 63
     7
 74
     2
 91
        2
 64
     7
 65
     7
 75
     1
175
     1
 42
40.0
 92
       11
 66
     7
 43
1.0
 76
     1
 77
     6
 78
     2
 67
     7
 79
     6
170
     0
171
     0
290
     0
174
     0
 93
        1
 44
0.0
173
     0
291
     0
 45
0.0
1001
ACAD
1000
AcDbSavedByObjectVersion
1070
     0
  0
VISUALSTYLE
  5
2A8A
102
{ACAD_XDICTIONARY
360
347D
102
}
102
{ACAD_REACTORS
330
2A7D
102
}
330
2A7D
100
AcDbVisualStyle
  2
Thicken
 70
    13
 71
     2
 72
     2
 73
     0
 90
        0
 40
-0.6
 41
-30.0
 62
     5
 63
     7
 74
     1
 91
        4
 64
     7
 65
   257
 75
     1
175
     1
 42
1.0
 92
       12
 66
     7
 43
1.0
 76
     1
 77
     6
 78
     2
 67
     7
 79
     5
170
     0
171
     0
290
     0
174
     0
 93
        1
 44
0.0
173
     0
291
     1
 45
0.0
1001
ACAD
1000
AcDbSavedByObjectVersion
1070
     0
  0
VISUALSTYLE
  5
2B11
102
{ACAD_XDICTIONARY
360
3486
102
}
102
{ACAD_REACTORS
330
2A7D
102
}
330
2A7D
100
AcDbVisualStyle
  2
Wireframe
 70
     5
 71
     0
 72
     2
 73
     0
 90
        0
 40
-0.6
 41
-30.0
 62
     5
 63
     7
 74
     1
 91
        4
 64
     7
 65
   257
 75
     1
175
     1
 42
1.0
 92
        0
 66
   257
 43
1.0
 76
     1
 77
     6
 78
     2
 67
     7
 79
     3
170
     0
171
     0
290
     0
174
     0
 93
        1
 44
0.0
173
     0
291
     0
 45
0.0
1001
ACAD
1000
AcDbSavedByObjectVersion
1070
     0
  0
VISUALSTYLE
  5
2B15
102
{ACAD_XDICTIONARY
360
348E
102
}
102
{ACAD_REACTORS
330
2A7D
102
}
330
2A7D
100
AcDbVisualStyle
  2
X-Ray
 70
    25
 71
     2
 72
     2
 73
     1
 90
        1
 40
0.5
 41
-30.0
 62
     5
 63
     7
 74
     1
 91
        0
 64
     7
 65
   257
 75
     1
175
     1
 42
1.0
 92
        8
 66
     7
 43
1.0
 76
     1
 77
     6
 78
     2
 67
     7
 79
     3
170
     0
171
     0
290
     0
174
     0
 93
       13
 44
0.0
173
     0
291
     0
 45
0.0
1001
ACAD
1000
AcDbSavedByObjectVersion
1070
     0
  0
DICTIONARYVAR
  5
2B0D
102
{ACAD_REACTORS
330
102
102
}
330
102
100
DictionaryVariables
280
     0
  1
1:1
  0
DICTIONARYVAR
  5
2B0C
102
{ACAD_REACTORS
330
102
102
}
330
102
100
DictionaryVariables
280
     0
  1
STANDARD
  0
DICTIONARYVAR
  5
2B0B
102
{ACAD_REACTORS
330
102
102
}
330
102
100
DictionaryVariables
280
     0
  1
STANDARD
  0
DICTIONARYVAR
  5
2BBA
102
{ACAD_REACTORS
330
102
102
}
330
102
100
DictionaryVariables
280
     0
  1
Imperial24
  0
DICTIONARYVAR
  5
2BBB
102
{ACAD_REACTORS
330
102
102
}
330
102
100
DictionaryVariables
280
     0
  1
Imperial24
  0
DICTIONARYVAR
  5
103
102
{ACAD_REACTORS
330
102
102
}
330
102
100
DictionaryVariables
280
     0
  1
1
  0
DICTIONARYVAR
  5
2B0F
102
{ACAD_REACTORS
330
102
102
}
330
102
100
DictionaryVariables
280
     0
  1
0
  0
DICTIONARYVAR
  5
2B0E
102
{ACAD_REACTORS
330
102
102
}
330
102
100
DictionaryVariables
280
     0
  1
127
  0
DICTIONARYVAR
  5
34F5
102
{ACAD_REACTORS
330
102
102
}
330
102
100
DictionaryVariables
280
     0
  1
2
  0
DICTIONARY
  5
349C
330
2B1E
100
AcDbDictionary
280
     1
281
     1
  3
ACAD_XREC_ROUNDTRIP
360
349D
  0
DICTIONARY
  5
34A2
330
2DC8
100
AcDbDictionary
280
     1
281
     1
  3
ACAD_XREC_ROUNDTRIP
360
34A3
  0
DICTIONARY
  5
2B75
330
60
100
AcDbDictionary
280
     1
281
     1
  3
ACAD_XREC_ROUNDTRIP
360
34F9
  3
ADSK_XREC_LAYOUTTHUMBNAIL
360
2B77
  0
DICTIONARY
  5
3502
330
34F1
100
AcDbDictionary
280
     1
281
     1
  3
ACAD_XREC_ROUNDTRIP
360
3503
  0
DICTIONARY
  5
2A6E
330
2A6D
100
AcDbDictionary
280
     1
281
     1
  3
ACAD_XREC_ROUNDTRIP
360
34FF
  3
BUMPTILE
360
2A70
  3
DIFFUSETILE
360
2A6F
  3
OPACITYTILE
360
2A73
  3
REFLECTIONTILE
360
2A72
  3
REFRACTIONTILE
360
2A74
  3
SPECULARTILE
360
2A71
  0
DICTIONARY
  5
2A66
330
2A65
100
AcDbDictionary
280
     1
281
     1
  3
ACAD_XREC_ROUNDTRIP
360
34FE
  3
BUMPTILE
360
2A68
  3
DIFFUSETILE
360
2A67
  3
OPACITYTILE
360
2A6B
  3
REFLECTIONTILE
360
2A6A
  3
REFRACTIONTILE
360
2A6C
  3
SPECULARTILE
360
2A69
  0
DICTIONARY
  5
2A76
330
2A75
100
AcDbDictionary
280
     1
281
     1
  3
ACAD_XREC_ROUNDTRIP
360
3500
  3
BUMPTILE
360
2A78
  3
DIFFUSETILE
360
2A77
  3
OPACITYTILE
360
2A7B
  3
REFLECTIONTILE
360
2A7A
  3
REFRACTIONTILE
360
2A7C
  3
SPECULARTILE
360
2A79
  0
DICTIONARY
  5
349A
330
2B1C
100
AcDbDictionary
280
     1
281
     1
  3
ACAD_XREC_ROUNDTRIP
360
349B
  0
DICTIONARY
  5
34A0
330
2DC7
100
AcDbDictionary
280
     1
281
     1
  3
ACAD_XREC_ROUNDTRIP
360
34A1
  0
DICTIONARY
  5
2AFA
330
2A90
100
AcDbDictionary
280
     1
281
     1
  3
ACAD_ROUNDTRIP_2008_TABLESTYLE_CELLSTYLEMAP
360
34F6
  3
ACAD_XREC_ROUNDTRIP
360
3501
  0
DICTIONARY
  5
346F
330
2A83
100
AcDbDictionary
280
     1
281
     1
  3
ACAD_XREC_ROUNDTRIP
360
3470
  0
DICTIONARY
  5
3473
330
2A85
100
AcDbDictionary
280
     1
281
     1
  3
ACAD_XREC_ROUNDTRIP
360
3474
  0
DICTIONARY
  5
3471
330
2A84
100
AcDbDictionary
280
     1
281
     1
  3
ACAD_XREC_ROUNDTRIP
360
3472
  0
DICTIONARY
  5
346D
330
2A82
100
AcDbDictionary
280
     1
281
     1
  3
ACAD_XREC_ROUNDTRIP
360
346E
  0
DICTIONARY
  5
347B
330
2A89
100
AcDbDictionary
280
     1
281
     1
  3
ACAD_XREC_ROUNDTRIP
360
347C
  0
DICTIONARY
  5
3483
330
2A8D
100
AcDbDictionary
280
     1
281
     1
  3
ACAD_XREC_ROUNDTRIP
360
3484
  0
DICTIONARY
  5
3475
330
2A86
100
AcDbDictionary
280
     1
281
     1
  3
ACAD_XREC_ROUNDTRIP
360
3476
  0
DICTIONARY
  5
3479
330
2A88
100
AcDbDictionary
280
     1
281
     1
  3
ACAD_XREC_ROUNDTRIP
360
347A
  0
DICTIONARY
  5
3498
330
2B1A
100
AcDbDictionary
280
     1
281
     1
  3
ACAD_XREC_ROUNDTRIP
360
3499
  0
DICTIONARY
  5
3481
330
2A8C
100
AcDbDictionary
280
     1
281
     1
  3
ACAD_XREC_ROUNDTRIP
360
3482
  0
DICTIONARY
  5
3465
330
2A7E
100
AcDbDictionary
280
     1
281
     1
  3
ACAD_XREC_ROUNDTRIP
360
3466
  0
DICTIONARY
  5
3467
330
2A7F
100
AcDbDictionary
280
     1
281
     1
  3
ACAD_XREC_ROUNDTRIP
360
3468
  0
DICTIONARY
  5
3469
330
2A80
100
AcDbDictionary
280
     1
281
     1
  3
ACAD_XREC_ROUNDTRIP
360
346A
  0
DICTIONARY
  5
346B
330
2A81
100
AcDbDictionary
280
     1
281
     1
  3
ACAD_XREC_ROUNDTRIP
360
346C
  0
DICTIONARY
  5
3488
330
2B12
100
AcDbDictionary
280
     1
281
     1
  3
ACAD_XREC_ROUNDTRIP
360
3489
  0
DICTIONARY
  5
3494
330
2B18
100
AcDbDictionary
280
     1
281
     1
  3
ACAD_XREC_ROUNDTRIP
360
3495
  0
DICTIONARY
  5
347F
330
2A8B
100
AcDbDictionary
280
     1
281
     1
  3
ACAD_XREC_ROUNDTRIP
360
3480
  0
DICTIONARY
  5
3496
330
2B19
100
AcDbDictionary
280
     1
281
     1
  3
ACAD_XREC_ROUNDTRIP
360
3497
  0
DICTIONARY
  5
3477
330
2A87
100
AcDbDictionary
280
     1
281
     1
  3
ACAD_XREC_ROUNDTRIP
360
3478
  0
DICTIONARY
  5
3492
330
2B17
100
AcDbDictionary
280
     1
281
     1
  3
ACAD_XREC_ROUNDTRIP
360
3493
  0
DICTIONARY
  5
3490
330
2B16
100
AcDbDictionary
280
     1
281
     1
  3
ACAD_XREC_ROUNDTRIP
360
3491
  0
DICTIONARY
  5
348A
330
2B13
100
AcDbDictionary
280
     1
281
     1
  3
ACAD_XREC_ROUNDTRIP
360
348B
  0
DICTIONARY
  5
348C
330
2B14
100
AcDbDictionary
280
     1
281
     1
  3
ACAD_XREC_ROUNDTRIP
360
348D
  0
DICTIONARY
  5
347D
330
2A8A
100
AcDbDictionary
280
     1
281
     1
  3
ACAD_XREC_ROUNDTRIP
360
347E
  0
DICTIONARY
  5
3486
330
2B11
100
AcDbDictionary
280
     1
281
     1
  3
ACAD_XREC_ROUNDTRIP
360
3487
  0
DICTIONARY
  5
348E
330
2B15
100
AcDbDictionary
280
     1
281
     1
  3
ACAD_XREC_ROUNDTRIP
360
348F
  0
XRECORD
  5
349D
102
{ACAD_REACTORS
330
349C
102
}
330
349C
100
AcDbXrecord
280
     1
102
DISPLAYNAME
  1
Imperial24
102
FLAGS
 90
        0
  0
XRECORD
  5
34A3
102
{ACAD_REACTORS
330
34A2
102
}
330
34A2
100
AcDbXrecord
280
     1
102
DISPLAYNAME
  1
Metric50
102
FLAGS
 90
        0
  0
XRECORD
  5
34F9
102
{ACAD_REACTORS
330
2B75
102
}
330
2B75
100
AcDbXrecord
280
     1
102
SHADEPLOT
 70
     0
102
SHADEPLOTRESLEVEL
 70
     2
102
SHADEPLOTCUSTOMDPI
 70
   300
  0
XRECORD
  5
2B77
102
{ACAD_REACTORS
330
2B75
102
}
330
2B75
100
AcDbXrecord
280
     1
310
28000000000100006E0000000100080000000000006E0000010000000100000000010000000000003028210000000000C8C8C8000000000000000000000000000000000000000000000000000000000000000000330000006600000099000000CC000000FF00000000330000333300006633000099330000CC330000FF3300
310
0000660000336600006666000099660000CC660000FF66000000990000339900006699000099990000CC990000FF99000000CC000033CC000066CC000099CC0000CCCC0000FFCC000000FF000033FF000066FF000099FF0000CCFF0000FFFF000000003300330033006600330099003300CC003300FF003300003333003333
310
33006633330099333300CC333300FF33330000663300336633006666330099663300CC663300FF66330000993300339933006699330099993300CC993300FF99330000CC330033CC330066CC330099CC3300CCCC3300FFCC330000FF330033FF330066FF330099FF3300CCFF3300FFFF330000006600330066006600660099
310
006600CC006600FF00660000336600333366006633660099336600CC336600FF33660000666600336666006666660099666600CC666600FF66660000996600339966006699660099996600CC996600FF99660000CC660033CC660066CC660099CC6600CCCC6600FFCC660000FF660033FF660066FF660099FF6600CCFF6600
310
FFFF660000009900330099006600990099009900CC009900FF00990000339900333399006633990099339900CC339900FF33990000669900336699006666990099669900CC669900FF66990000999900339999006699990099999900CC999900FF99990000CC990033CC990066CC990099CC9900CCCC9900FFCC990000FF99
310
0033FF990066FF990099FF9900CCFF9900FFFF99000000CC003300CC006600CC009900CC00CC00CC00FF00CC000033CC003333CC006633CC009933CC00CC33CC00FF33CC000066CC003366CC006666CC009966CC00CC66CC00FF66CC000099CC003399CC006699CC009999CC00CC99CC00FF99CC0000CCCC0033CCCC0066CC
310
CC0099CCCC00CCCCCC00FFCCCC0000FFCC0033FFCC0066FFCC0099FFCC00CCFFCC00FFFFCC000000FF003300FF006600FF009900FF00CC00FF00FF00FF000033FF003333FF006633FF009933FF00CC33FF00FF33FF000066FF003366FF006666FF009966FF00CC66FF00FF66FF000099FF003399FF006699FF009999FF00CC
310
99FF00FF99FF0000CCFF0033CCFF0066CCFF0099CCFF00CCCCFF00FFCCFF0000FFFF0033FFFF0066FFFF0099FFFF00CCFFFF00FFFFFF00000000000D0D0D001A1A1A00282828003535350043434300505050005D5D5D006B6B6B00787878008686860093939300A1A1A100AEAEAE00BBBBBB00C9C9C900D6D6D600E4E4E400
310
F1F1F100FFFFFF000000000000000000000000000000000000000000000000000000000000000000000000000000000000000000000000000000000000000000000000000000000000000000000000000000000000000000000000000000000000000000000000000000000000000000000000000000000000000000000000
310
00000000000000000000000000000000000000000000000000000000000000000000000000000000000000000000000000000000000000000000000000000000000000000000000000000000000000000000000000000000000000000000000000000000000000000000000000000000000000000000000000000000000000
310
00000000000000000000000000000000000000000000000000000000000000000000000000000000000000000000000000000000000000000000000000000000000000000000000000000000000000000000000000000000000000000000000000000000000000000000000000000000000000000000000000000000000000
310
00000000000000000000000000000000000000000000000000000000000000000000000000000000000000000000000000000000000000000000000000000000000000000000000000000000000000000000000000000000000000000000000000000000000000000000000000000000000000000000000000000000000000
310
00000000000000000000000000000000000000000000000000000000000000000000000000000000000000000000000000000000000000000000000000000000000000000000000000000000000000000000000000000000000000000000000000000000000000000000000000000000000000000000000000000000000000
310
00000000000000000000000000000000000000000000000000000000000000000000000000000000000000000000000000000000000000000000000000000000000000000000000000000000000000000000000000000000000000000000000000000000000000000000000000000000000000000000000000000000000000
310
00000000000000000000000000000000000000000000000000000000000000000000000000000000000000000000000000000000000000000000000000000000000000000000000000000000000000000000000000000000000000000000000000000000000000000000000000000000000000000000000000000000000000
310
00000000000000000000000000000000000000000000000000000000000000000000000000000000000000000000000000000000000000000000000000000000000000000000000000000000000000000000000000000000000000000000000000000000000000000000000000000000000000000000000000000000000000
310
00000000000000000000000000000000000000000000000000000000000000000000000000000000000000000000000000000000000000000000000000000000000000000000000000000000000000000000000000000000000000000000000000000000000000000000000000000000000000000000000000000000000000
310
00000000000000000000000000000000000000000000000000000000000000000000000000000000000000000000000000000000000000000000000000000000000000000000000000000000000000000000000000000000000000000000000000000000000000000000000000000000000000000000000000000000000000
310
00000000000000000000000000000000000000000000000000000000000000000000000000000000000000000000000000000000000000000000000000000000000000000000000000000000000000000000000000000000000000000000000000000000000000000000000000000000000000000000000000000000000000
310
00000000000000000000000000000000000000000000000000000000000000000000000000000000000000000000000000000000000000000000000000000000000000000000000000000000000000000000000000000000000000000000000000000000000000000000000000000000000000000000000000000000000000
310
00000000000000000000000000000000000000000000000000000000000000000000000000000000000000000000000000000000000000000000000000000000000000000000000000000000000000000000000000000000000000000000000000000000000000000000000000000000000000000000000000000000000000
310
00000000000000000000000000000000000000000000000000000000000000000000000000000000000000000000000000000000000000000000000000000000000000000000000000000000000000000000000000000000000000000000000000000000000000000000000000000000000000000000000000000000000000
310
00000000000000000000000000000000000000000000000000000000000000000000000000000000000000000000000000000000000000000000000000000000000000000000000000000000000000000000000000000000000000000000000000000000000000000000000000000000000000000000000000000000000000
310
00000000000000000000000000000000000000000000000000000000000000000000000000000000000000000000000000000000000000000000000000000000000000000000000000000000000000000000000000000000000000000000000000000000000000000000000000000000000000000000000000000000000000
310
00000000000000000000000000000000000000000000000000000000000000000000000000000000000000000000000000000000000000000000000000000000000000000000000000000000000000000000000000000000000000000000000000000000000000000000000000000000000000000000000000000000000000
310
00000000000000000000000000000000000000000000000000000000000000000000000000000000000000000000000000000000000000000000000000000000000000000000000000000000000000000000000000000000000000000000000000000000000000000000000000000000000000000000000000000000000000
310
00000000000000000000000000000000000000000000000000000000000000000000000000000000000000000000000000000000000000000000000000000000000000000000000000000000000000000000000000000000000000000000000000000000000000000000000000000000000000000000000000000000000000
310
00000000000000000000000000000000000000000000000000000000000000000000000000000000000000000000000000000000000000000000000000000000000000000000000000000000000000000000000000000000000000000000000000000000000000000000000000000000000000000000000000000000000000
310
00000000000000000000000000000000000000000000000000000000000000000000000000000000000000000000000000000000000000000000000000000000000000000000000000000000000000000000000000000000000000000000000000000000000000000000000000000000000000000000000000000000000000
310
00000000000000000000000000000000000000000000000000000000000000000000000000000000000000000000000000000000000000000000000000000000000000000000000000000000000000000000000000000000000000000000000000000000000000000000000000000000000000000000000000000000000000
310
00000000000000000000000000000000000000000000000000000000000000000000000000000000000000000000000000000000000000000000000000000000000000000000000000000000000000000000000000000000000000000000000000000000000000000000000000000000000000000000000000000000000000
310
00000000000000000000000000000000000000000000000000000000000000000000000000000000000000000000000000000000000000000000000000000000000000000000000000000000000000000000000000000000000000000000000000000000000000000000000000000000000000000000000000000000000000
310
00000000000000000000000000000000000000000000000000000000000000000000000000000000000000000000000000000000000000000000000000000000000000000000000000000000000000000000000000000000000000000000000000000000000000000000000000000000000000000000000000000000000000
310
00000000000000000000000000000000000000000000000000000000000000000000000000000000000000000000000000000000000000000000000000000000000000000000000000000000000000000000000000000000000000000000000000000000000000000000000000000000000000000000000000000000000000
310
00000000000000000000000000000000000000000000000000000000000000000000000000000000000000000000000000000000000000000000000000000000000000000000000000000000000000000000000000000000000000000000000000000000000000000000000000000000000000000000000000000000000000
310
00000000000000000000000000000000000000000000000000000000000000000000000000000000000000000000000000000000000000000000000000000000000000000000000000000000000000000000000000000000000000000000000000000000000000000000000000000000000000000000000000000000000000
310
00000000000000000000000000000000000000000000000000000000000000000000000000000000000000000000000000000000000000000000000000000000000000000000000000000000000000000000000000000000000000000000000000000000000000000000000000000000000000000000000000000000000000
310
00000000000000000000000000000000000000000000000000000000000000000000000000000000000000000000000000000000000000000000000000000000000000000000000000000000000000000000000000000000000000000000000000000000000000000000000000000000000000000000000000000000000000
310
00000000000000000000000000000000000000000000000000000000000000000000000000000000000000000000000000000000000000000000000000000000000000000000000000000000000000000000000000000000000000000000000000000000000000000000000000000000000000000000000000000000000000
310
00000000000000000000000000000000000000000000000000000000000000000000000000000000000000000000000000000000000000000000000000000000000000000000000000000000000000000000000000000000000000000000000000000000000000000000000000000000000000000000000000000000000000
310
00000000000000000000000000000000000000000000000000000000000000000000000000000000000000000000000000000000000000000000000000000000000000000000000000000000000000000000000000000000000000000000000000000000000000000000000000000000000000000000000000000000000000
310
00000000000000000000000000000000000000000000000000000000000000000000000000000000000000000000000000000000000000000000000000000000000000000000000000000000000000000000000000000000000000000000000000000000000000000000000000000000000000000000000000000000000000
310
00000000000000000000000000000000000000000000000000000000000000000000000000000000000000000000000000000000000000000000000000000000000000000000000000000000000000000000000000000000000000000000000000000000000000000000000000000000000000000000000000000000000000
310
00000000000000000000000000000000000000000000000000000000000000000000000000000000000000000000000000000000000000000000000000000000002D2D2D2D00000000000000000000000000000000000000000000000000000000000000000000000000000000000000000000000000000000000000000000
310
00000000000000000000000000000000000000000000000000000000000000000000000000000000000000000000000000000000000000000000000000000000000000000000000000000000000000000000000000000000000000000000000000000000000000000000000000000000000000000000000000000000000000
310
000000000000000000000000000000000000000000000000000000002D002D2D2D2D2D2D2D002D002D2D2D0000002D2D2D0000002D2D2D2D2D2D2D002D2D2D002D2D002D002D2D0000000000000000000000000000000000000000000000000000000000000000000000000000000000000000000000000000000000000000
310
00000000000000000000000000000000000000000000000000000000000000000000000000000000000000000000000000000000000000000000000000000000000000000000000000000000000000000000000000000000000000000000000000000000000000000000000000000000000000000000000000000000000000
310
0000000000000000000000000000000000000000000000000000000000002D2D2D2D2D00002D2D2D2D00002D2D2D2D2D2D002D2D2D2D2D2D2D2D002D2D2D2D2D2D2D002D002D002D2D000000000000000000000000000000000000000000000000000000000000000000000000000000000000000000000000000000000000
310
00000000000000000000000000000000000000000000000000000000000000000000000000000000000000000000000000000000000000000000000000000000000000000000000000000000000000000000000000000000000000000000000000000000000000000000000000000000000000000000000000000000000000
310
000000000000000000000000000000000000000000000000000000000000002D002D2D2D2D00002D2D2D2D002D2D2D0000002D2D2D002D002D2D2D2D002D2D2D2D2D2D002D2D002D2D2D0000000000000000000000000000000000000000000000000000000000000000000000000000000000000000000000000000000000
310
00000000000000000000000000000000000000000000000000000000000000000000000000000000000000000000000000000000000000000000000000000000000000000000000000000000000000000000000000000000000000000000000000000000000000000000000000000000000000000000000000000000000000
310
0000000000000000000000000000000000000000000000000000000000000000002D002D2D2D2D00002D2D002D002D2D000000002D2D2D000000002D2D2D2D002D002D2D2D002D2D002D002D000000000000000000000000000000000000000000000000000000000000000000000000000000000000000000000000000000
310
00000000000000000000000000000000000000000000000000000000000000000000000000000000000000000000000000000000000000000000000000000000000000000000000000000000000000000000000000000000000000000000000000000000000000000000000000000000000000000000000000000000000000
310
0000000000000000000000000000000000000000000000000000000000000000000000000000000000000000000000000000000000000000000000000000000000000000000000000000002D2D2D00000000000000000000000000000000000000000000000000000000000000000000000000000000000000000000000000
310
00000000000000000000000000000000000000000000000000000000000000000000000000000000000000000000000000000000000000000000000000000000000000000000000000000000000000000000000000000000000000000000000000000000000000000000000000000000000000000000000000000000000000
310
00000000000000000000000000000000000000000000000000000000000000000000000000000000000000000000000000000000000000000000000000000000000000000000000000000000000000000000000000000000000000000000000000000000000000000000000000000000000000000000000000000000000000
310
00000000000000000000000000000000000000000000000000000000000000000000000000000000000000000000000000000000000000000000000000000000000000000000000000000000000000000000000000000000000000000000000000000000000000000000000000000000000000000000000000000000000000
310
00000000000000000000000000000000000000000000000000000000000000000000000000000000000000000000000000000000000000000000000000000000000000000000000000000000000000000000000000000000000000000000000000000000000000000000000000000000000000000000000000000000000000
310
00000000000000000000000000000000000000000000000000000000000000000000000000000000000000000000000000000000000000000000000000000000000000000000000000000000000000000000000000000000000000000000000000000000000000000000000000000000000000000000000000000000000000
310
00000000000000000000000000000000000000000000000000000000000000000000000000000000000000000000000000000000000000000000000000000000000000000000000000000000000000000000000000000000000000000000000000000000000000000000000000000000000000000000000000000000000000
310
00000000000000000000000000000000000000000000000000000000000000000000000000000000000000000000000000000000000000000000000000000000000000000000000000000000000000000000000000000000000000000000000000000000000000000000000000000000000000000000000000000000000000
310
000000000000000000000000000000000000000000000000000000000000000000000000000000000000000000000000000000000000000000000000000000000000000000000000000000000000000000002D2D2D2D2D2D2D2D2D2D2D2D2D2D2D2D2D2D2D2D2D2D2D2D2D0000000000000000000000000000000000000000
310
0000000000000000000000000000000000000000002D2D2D2D2D2D2D2D2D2D2D2D2D2D2D2D2D2D2D2D2D2D2D2D2D2D2D2D2D2D2D2D2D2D2D2D2D2D2D2D2D2D2D2D2D00000000000000000000000000000000000000000000000000000000000000000000000000000000000000000000000000000000000000000000000000
310
0000000000000000000000000000000000000000000000000000000000000000000000000000000000000000000000000000000000000000000000000000000000000000000000000000000000000000000000002D2D2D00000000000000002D2D2D2D00000000000000002D2D000000000000000000000000000000000000
310
00000000000000000000000000000000000000000000002D2D2D0000000000000000000000000000000000002D2D2D0000000000000000000000000000000000002D2D2D0000000000000000000000000000000000000000000000000000000000000000000000000000000000000000000000000000000000000000000000
310
00000000000000000000000000000000000000000000000000000000000000000000000000000000000000000000000000000000000000000000000000000000000000000000000000000000000000000000000000002D000000000000000000002D2D2D2D0000000000000000002D00000000000000000000000000000000
310
000000000000000000000000000000000000000000000000002D00000000000000000000000000000000000000002D2D2D00000000000000000000000000000000000000002D000000000000000000000000000000000000000000000000000000000000000000000000000000000000000000000000000000000000000000
310
000000000000000000000000000000000000000000000000000000000000000000000000000000000000000000000000000000000000000000000000000000000000000000000000000000000000000000000000000000002D000000000000000000002D2D2D2D0000000000000000002D0000000000000000000000000000
310
0000000000000000000000000000000000000000000000000000002D00000000000000000000000000000000000000002D2D2D00000000000000000000000000000000000000002D00000000000000000000000000000000000000000000000000000000000000000000000000000000000000000000000000000000000000
310
0000000000000000000000000000000000000000000000000000000000000000000000000000000000000000000000000000000000000000000000000000000000000000000000000000000000000000000000000000000000002D00000000000000000000000000000000000000000000002D000000000000000000000000
310
0000000000000000000000000000002D2D2D2D2D2D2D2D2D2D2D0000002D000000000000000000000000000000000000000000000000000000000000000000000000000000000000002D0000000000000000000000000000000000000000000000000000000000000000000000000000000000000000000000000000000000
310
00000000000000000000000000000000000000000000000000000000000000000000000000000000000000000000000000000000000000000000000000000000000000000000000000000000000000000000000000000000000000002D0000002D000000000000000000000000000000002D00002D00000000000000000000
310
00002D000000000000000000000000000000002D00002D2D2D2D2D2D2D00002D0000002D00000000000000000000000000000000000000000000000000000000000000000000002D0000002D000000000000000000000000000000000000000000000000000000000000000000000000000000000000000000000000000000
310
000000000000000000000000000000000000000000000000000000000000000000000000000000000000000000000000000000000000000000000000000000000000000000000000000000000000000000000000000000000000000000002D0000002D2D2D2D2D2D2D2D2D2D2D2D2D2D2D2D2D2D2D2D2D2D2D2D2D2D2D2D2D
310
2D2D2D2D2D0000000000000000000000000000002D2D2D2D2D2D2D002D2D002D002D0000002D2D2D2D2D2D2D2D2D2D2D2D2D2D2D2D2D2D2D2D2D2D2D2D2D2D2D2D2D2D2D2D2D2D2D2D2D0000002D00000000000000000000000000000000000000000000000000000000000000000000000000000000000000000000000000
310
0000000000000000000000000000000000000000000000000000000000000000000000000000000000000000000000000000000000000000000000000000000000000000000000000000000000000000000000000000000000000000000000002D0000002D0000000000002D2D2D2D0000000000002D00002D002D2D2D2D2D
310
2D00000000002D000000000000000000000000000000002D00002D2D2D002D2D00002D2D0000002D000000000000000000000000000000002D2D2D000000000000000000000000000000002D0000002D0000000000000000000000000000000000000000000000000000000000000000000000000000000000000000000000
310
00000000000000000000000000000000000000000000000000000000000000000000000000000000000000000000000000000000000000000000000000000000000000000000000000000000000000000000000000000000000000000000000000002D0000002D0000000000002D2D2D2D0000000000002D00002D002D2D2D
310
2D2D2D00000000002D000000000000000000000000000000000000000000000000000000002D0000002D000000000000000000000000000000002D2D2D000000000000000000000000000000002D0000002D000000000000000000000000000000000000000000000000000000000000000000000000000000000000000000
310
000000000000000000000000000000000000000000000000000000000000000000000000000000000000000000000000000000000000000000000000000000000000000000000000000000000000000000000000000000000000000000000000000000002D0000002D000000000000000000000000000000002D00002D0000
310
000000000000000000002D000000000000000000000000000000000000000000000000000000002D0000002D00000000000000000000000000000000000000000000000000000000000000000000002D0000002D00000000000000000000000000000000000000000000000000000000000000000000000000000000000000
310
0000000000000000000000000000000000000000000000000000000000000000000000000000000000000000000000000000000000000000000000000000000000000000000000000000000000000000000000000000000000000000000000000000000000002D0000002D000000000000000000000000000000002D00002D
310
000000000000002D000000002D000000000000000000000000000000000000000000000000000000002D2D00002D00000000000000000000000000000000000000000000000000000000000000000000002D0000002D0000000000000000000000000000000000000000000000000000000000000000000000000000000000
310
00000000000000000000000000000000000000000000000000000000000000000000000000000000000000000000000000000000000000000000000000000000000000000000000000000000000000000000000000000000000000000000000000000000000000002D0000002D000000000000000000000000000000002D00
310
002D000000000000002D000000002D000000000000000000000000000000000000000000000000000000002D002D002D00000000000000000000000000000000000000000000000000000000000000000000002D0000002D000000000000000000000000000000000000000000000000000000000000000000000000000000
310
000000000000000000000000000000000000000000000000000000000000000000000000000000000000000000000000000000000000000000000000000000000000000000000000000000000000000000000000000000000000000000000000000000000000000000002D0000002D00000000000000000000000000000000
310
2D00002D000000000000002D2D0000002D000000000000000000000000000000000000000000000000000000002D002D2D2D00000000000000000000000000000000002800000000000000000000000000000000002D0000002D00000000000000000000000000000000000000000000000000000000000000000000000000
310
0000000000000000000000000000000000000000000000000000000000000000000000000000000000000000000000000000000000000000000000000000000000000000000000000000000000000000000000000000000000000000000000000000000000000000000000002DF5BEF5F5F5BEF5000000000000000000F5F5
310
BEF5F5BEF52D2D2D2D2D2D2D2D2D2D0000002D000000000000000000000000000000000000000000000000000000002DF5BE2D2DBEF5F50000000000000000000000000000280000000000000000000000000000F5F5BEF5F5BE2D2D2D2D2D2D2D2D2D2D2D2D2D2D2D2D2D2D00000000000000000000000000000000000000
310
00000000000000000000000000000000000000000000000000000000000000000000000000000000000000000000000000000000000000000000000000000000000000000000000000000000000000000000000000000000000000000000000000000000000000000000000000002DF5BEF528F5BEF5F5F5F5F5F5F5F5F5F5
310
F5F5BEF528BEF52D000000000000002D000000002D000000000000000000000000000000000000000000000000000000002DF5BEF528BEF5F5F5F5F5F5F5F5F5F5F5F5F5F5F5F5F5F5F5F5F5F5F5F5F5F5F5F5F5F5F5F5F5BE28F5BEF52D00000000000000002D2D000000002D000000000000000000000000000000000000
310
00000000000000000000000000000000000000000000000000000000000000000000000000000000000000000000000000000000000000000000000000000000000000000000000000000000000000000000000000000000000000000000000000000000000000000000000000000000F500BE002800BE0000000000000000
310
00000000BE0028BE00F500000000002D002D000000002D00000000000000000000000000000000000000000000000000000000F500BE0028BE000000000000000000000000000000002800000000000000000000000000000000BE2800BE00F500000000000000002D2D000000002D00000000000000000000000000000000
310
000000000000000000000000000000000000000000000000000000000000000000000000000000000000000000000000000000000000000000000000000000000000000000000000000000000000000000000000000000000000000000000000000000000000000000000000000000000000F500BE002800BE000000000000
310
000000000000BE0028BE00F500000000002D2D2D000000002D00000000000000000000000000000000000000000000000000000000F500BE0028BE000000000000000000000000000000002800000000000000000000000000000000BE2800BE00F500000000000000002D00000000002D0000000000000000000000000000
310
00000000000000000000000000000000000000000000000000000000000000000000000000000000000000000000000000000000000000000000000000000000000000000000000000000000000000000000000000000000000000000000000000000000000000000000000000000000000000F5F5F5BEF5F5F5BEF5F5F5F5
310
F5F5F5F5F5F5F5F5BEF5F5BEF52D2D2D2D2D2D2D2D2D2D0000002D00000000000000000000000000000000000000000000000000000000F5F5BEF5F5BEF5F5F5000000000000000000000000002800000000000000000000000000F5F5F5BEF5F5BEF5F500000000000000002D00000000002D000000000000000000000000
310
000000000000000000000000000000000000000000000000000000000000000000000000000000000000000000000000000000000000000000000000000000000000000000000000000000000000000000000000000000000000000000000000000000000000000000000000000000000000000000F5F5F5000028F5000000
310
F5000000000000F500000000280000F5000000000000002D2D0000002D000000000000000000000000000000000000000000000000000000000000F50028000000F500000000000000F5F5F5F500F5F50000F5F5F5F500000000000000F50000002800F5000000000000000000002D00000000002D00000000000000000000
310
0000000000000000000000000000000000000000000000000000000000000000000000000000000000000000000000000000000000000000000000000000000000000000000000000000000000000000F5F5F5F5F5F5F5F5F5F5F5F5F5F5F5F5F5F5F5F5F5F5F5F5F5F5F5F5F5F5F5F5F5F5F5F5F5F5F5F5F5F5000000F500
310
0000F5000000000000F500000000000000F5000000000000002D000000002D00000000000000000000000000000000000000000000000000000000000000F500000000F500000000000000F5F500F50000F50000F5F5F5F500000000000000F500000000F500000000000000000000002D00000000002D0000000000000000
310
00000000000000000000000000000000000000000000000000000000000000000000000000000000000000000000000000000000000000000000000000000000000000000000000000000000000000000000F500000000000000000000000000000000F5F5F5F5F5F5F5F5F5F5F5F5F5F5F5F5F5F5F5F5F5F5F5F5F5000000
310
F5000000F5000000000000F500000000000000F5000000000000002D000000002D00000000000000000000000000000000000000000000000000000000000000F500000000F500000000000000F5F5F5F50000F50000F5F5F5F500000000000000F500000000F500000000000000000000002D00000000002D000000000000
310
000000000000000000000000000000000000000000000000000000000000000000000000000000000000000000000000000000000000000000000000000000000000000000000000000000000000000000000000F500000000000000000000000000000000F5F500000000000000000000000000000000000000000000F5F5
310
F5F5F5000000F5000000000000F500000000000000F50000000000000000000000002D0000000000000000000000000000000000000000000000000000000000000000F5000000F500000000000000F5F5F5F500F5F5F500F5F5F5F500000000000000F5000000F50000000000000000000000002D00000000002D00000000
310
0000000000000000000000000000000000000000000000000000000000000000000000000000000000000000000000000000000000000000000000000000000000000000000000000000000000000000000000000000F500000000000000000000000000000000F5F500000000000000000000000000000000000000000000
310
F5000000F5000000F5000000000000F500000000000000F50000000000000000000000002D000000000000000000000000000000000000000000000000000000000000000000F50000F50000000000000000F5F5F500F5F5F500F5F5F50000000000000000F50000F5000000000000000000000000002D00000000002D0000
310
00000000000000000000000000000000000000000000000000000000000000000000000000000000000000000000000000000000000000000000000000000000000000000000000000000000000000000000000000000000F500000000000000000000000000000000F5F50000000000000000000000000000000000000000
310
0000F5000000F5F5F5F5F5000000000000F5F5F5F5F5F5F5F5F50000000000000000000000002D00000000000000000000000000000000000000000000000000000000000000000000F5F5F5000000000000000000000000002800000000000000000000000000F5F5F500000000000000000000000000002D00000000002D
310
000000000000000000000000000000000000000000000000000000000000000000000000000000000000000000000000000000000000000000000000000000000000000000000000000000000000000000000000000000000000F500000000000000000000000000000000F5F5000000000000000000000000000000000000
310
00000000F5000000F5000000F5F5F5F5F5F5F50000000000000000F50000000000000000000000002D0000000000000000000000000000000000000000000000000000000000000000000000F5F500000000000000000000000000280000000000000000000000000000F50000000000000000000000000000002D00000000
310
002D000000000000000000000000000000000000000000000000000000000000000000000000000000000000000000000000000000000000000000000000000000000000000000000000000000000000000000000000000000000000F500000000000000000000000000000000F5F500000000000000000000000000000000
310
000000000000F5000000F5000000000000000000000000000000000000F50000000000000000000000002D0000000000000000000000000000000000000000000000000000000000000000000000F50000000000000000000000000000280000000000000000000000000000F5000000000000000000000000002D2D2D0000
310
0000002D000000000000000000000000000000000000000000000000000000000000000000000000000000000000000000000000000000000000000000000000000000000000000000000000000000000000000000000000000000000000F500000000000000000000000000000000F5F50000000000000000000000000000
310
0000000000000000F5000000F5000000000000000000000000000000000000F50000000000000000000000002D00000000000000000000000000000000000000000000000000000000000000000000F500000000000000000000002D2D2D2D2D2D2D2D2D2D2D2D2D2D2D2D00000000F50000000000000000000000002D2D2D
310
00000000002D000000000000000000000000000000000000000000000000000000000000000000000000000000000000000000000000000000000000000000000000000000000000000000000000000000000000000000000000000000000000F500000000000000000000000000000000F5F5000000000000000000000000
310
00000000000000000000F5000000F5000000000000000000000000000000000000F50000000000000000000000002D000000000000000000000000000000000000000000000000000000000000000000F50000000000000000000000002D2D2D00282D2D2D00002D2D2D2D2D000000000000F500000000000000000000002D
310
2D2D00000000002D000000000000000000000000000000000000000000000000000000000000000000000000000000000000000000000000000000000000000000000000000000000000000000000000000000000000000000000000000000000000F500000000000000000000000000000000F5F500000000000000000000
310
000000000000000000000000F5000000F5000000000000000000000000000000000000F50000000000000000000000002D000000000000000000000000000000000000000000000000000000000000000000F50000000000000000000000002D0000002800002D002D2D2D2D2D2D000000000000F500000000000000000000
310
002D2D2D00000000002D000000000000000000000000000000000000000000000000000000000000000000000000000000000000000000000000000000000000000000000000000000000000000000000000000000000000000000000000000000000000F500000000000000000000000000000000F5F50000000000000000
310
0000000000000000000000000000F5000000F5000000000000000000000000000000000000F50000000000000000000000002D0000000000000000000000000000000000000000000000000000000000000000F5000000000000000000000000002D0000002800002D00002D2D2D2D2D00000000000000F500000000000000
310
00000000002D00000000002D000000000000000000000000000000000000000000000000000000000000000000000000000000000000000000000000000000000000000000000000000000000000000000000000000000000000000000000000000000000000F500000000000000000000000000000000F5F5000000000000
310
00000000000000000000000000000000F5000000F5000000000000000000000000000000000000F50000000000000000000000002D0000000000000000000000000000000000000000000000000000000000000000F5000000000000000000000000002D0000002800002D0000000000000000000000000000F50000000000
310
000000000000002D0000002D2D2D000000000000000000000000000000000000000000000000000000000000000000000000000000000000000000000000000000000000000000000000000000000000000000000000000000000000000000000000000000000000F500000000000000000000000000000000F5F500000000
310
000000000000000000000000000000000000F5000000F5000000000000000000000000000000000000F5F5F5000000000000000000002D0000000000000000000000000000000000000000000000000000000000000000F5000000000000000000000000002D0000002800002D0000000000000000000000000000F5000000
310
0000000000000000002D00002D2D2D2D000000000000000000000000000000000000000000000000000000000000000000000000000000000000000000000000000000000000000000000000000000000000000000000000000000000000000000000000000000000000F500000000000000000000000000000000F5F50000
310
0000000000000000000000000000000000000000F5000000F5000000000000000000000000000000000000F500F5000000000000000000002D0000000000000000000000000000000000000000000000000000000000000000F5000000000000000000000000002DF5F5F528F5F52DF500000000000000000000000000F500
310
00000000000000000000002D00002D2D2D2D000000000000000000000000000000000000000000000000000000000000000000000000000000000000000000000000000000000000000000000000000000000000000000000000000000000000000000000000000000000000F500000000000000000000000000000000F5F5
310
00000000000000000000000000000000000000000000F5000000F5000000000000000000000000000000000000F500F5000000000000000000002D0000000000000000000000000000000000000000000000000000000000000000F5000000000000000000000000F52D0000002800002D00F5000000000000000000000000
310
F50000000000000000000000002D00002D2D2D2D000000000000000000000000000000000000000000000000000000000000000000000000000000000000000000000000000000000000000000000000000000000000000000000000000000000000000000000000000000002828F528282828282828282828282828282828
310
F5F528282828282828282828282800282800282828282828F5282828F5282828282828282828282828282D28282828F528F5280000000000000000002D00000000000000000000000000000000000000000000000000000000002828282D282800282800282828282828282D2828282828282D282828282828282800282800
310
28282D2828280000000000000000002D0000002D2D2D000000000000000000000000000000000000000000000000000000000000000000000000000000000000000000000000000000000000000000000000000000000000000000000000000000000000000000000000000000000000F50000000000000000000000000000
310
0000F5F500000000000000000000000000000000000000000000F5000000F5000000000000000000000000002D2D000000F500F5000000000000000000002D00000000000000000000000000000000000000000000000000000000000000002D0000000000002D000000F500002D0000000000002D000000F5000000000000
310
000000002D0000000000000000000000002D00002D2D2D2D000000000000000000000000000000000000000000000000000000000000000000000000000000000000000000000000000000000000000000000000000000000000000000000000000000000000000000000000000000000000F5000000000000000000000000
310
00000000F5F500000000000000000000000000000000000000000000F5000000F500000000000000000000002D002D2D000000F500F5000000000000000000002D00000000000000000000000000000000000000000000000000000000000000002D0000000000002D000000F500002D00F5F528F5002D00000000F5000000
310
0000000000002D0000000000000000000000002D000000002D2D000000000000000000000000000000000000000000000000000000000000000000000000000000000000000000000000000000000000000000000000000000000000000000000000000000000000000000000000000000000000F500000000000000000000
310
000000000000F5F500000000000000000000000000000000000000000000F5000000F500000000000000000000002D2D2D00000000F500F5F5F5F5F5F5F5F5F5F5F52D2D2D2D2D2D2D2D000000000000000000000000000000000000000000000000002D00000000002D2D0000F50000002DF500F528F5F52D00000000F500
310
00000000000000002D0000000000000000000000002D00000000002D000000000000000000000000000000000000000000000000000000000000000000000000000000000000000000000000000000000000000000000000000000000000000000000000000000000000000000000000000000000000F50000000000000000
310
0000000000000000F5F500000000000000000000000000000000000000000000F5000000F500000000000000000000002D2D2D2D000000F500F500000000000000000000F500000000002D2D000000000000000000000000000000000000000000000000002D0000000000002D0000F50000002DF5F5000000F52D00000000
310
F50000000000000000F52D0000000000000000000000002D2D000000002D000000000000000000000000000000000000000000000000000000000000000000000000000000000000000000000000000000000000000000000000000000000000000000000000000000000000000000000000000000000000F5000000000000
310
00000000000000000000F5F500000000000000000000000000000000000000000000F5000000F5000000000000000000000000002D2D000000F500F5F5F5F5F5F5F5F5F5F5F5F50000000000002D000000000000000000000000000000000000000000000000002D000000002D2D2D2D2D2D2D2D2D2DF5F5002800002D0000
310
0000F50000000000000000F52D0000000000000000000000002D2D000000002D000000000000000000000000000000000000000000000000000000000000000000000000000000000000000000000000000000000000000000000000000000000000000000000000000000000000000000000000000000000000F500000000
310
000000000000000000000000F5F500000000000000000000000000000000000000000000F5000000F5000000000000000000000000002D2D2D2D28F528282D280028280028282828282828000000002D000000000000000000000000000000000000000000000000002DF500002D2D2D2D282828282828282828282828282D
310
282828282828282D2D2D2D2D2D2D2D2D2D2D2D2D2D2D2D2D2D2D2D2D2D000000002D000000000000000000000000000000000000000000000000000000000000000000000000000000000000000000000000000000000000000000000000000000000000000000000000000000000000000000000000000000000000F50000
310
0000000000000000000000000000F5F500000000000000000000000000000000000000000000F5000000F5000000000000000000000000000000000000F500F52DF5F5F5F5F5F5F5F5F5F500000000002D2D000000000000000000000000000000000000000000000000002DF5000000002D2D2D2D2D2D2D2D2DF5F5002800
310
00F500000000F500000000000000F5002D0000000000000000000000000000000000002D000000000000000000000000000000000000000000000000000000000000000000000000000000000000000000000000000000000000000000000000000000000000000000000000000000000000000000000000000000000000F5
310
00000000000000000000000000000000F5F500000000000000000000000000000000000000000000F5000000F5000000000000000000000000000000000000F500F52DF5F5F5F5F5F5F5F5F52D2D2D2D2D2D2D2D000000000000000000000000000000000000000000000000002D00F50000002D2D0000F500000000F500F5
310
28F5F50000000000F500000000000000F5002D0000000000000000000000000000000000002D0000000000000000000000000000000000000000000000000000000000000000000000000000000000000000000000000000000000000000000000000000000000000000000000000000000000000000000000000000000000
310
00F500000000000000000000000000000000F5F500000000000000000000000000000000000000000000F5000000F5000000000000000000000000000000000000F5002D2D0000000000000000002D0000000000002D000000000000000000000000000000000000000000000000002D00F5000000002D000000F500000000
310
F5F528F5000000000000F500000000000000F5002D0000000000000000000000000000000000002D000000000000000000000000000000000000000000000000000000000000000000000000000000000000000000000000000000000000000000000000000000000000000000000000000000000000000000000000000000
310
000000F500000000000000000000000000000000F5F500000000000000000000000000000000000000000000F5000000F5000000000000000000000000000000000000F5002D2D0000000000000000002D0000000000002D000000000000000000000000000000000000000000000000002D0000F50000002D000000F50000
310
0000000028000000000000F500000000000000F500002D0000000000000000000000000000000000002D00000000000000000000000000000000000000000000000000000000000000000000000000000000000000000000000000000000000000000000000000000000000000000000000000000000000000000000000000
310
0000000000F500000000000000000000000000000000F5F500000000000000000000000000000000000000000000F5000000F5000000000000000000000000000000000000F5002D2D0000000000000000002D0000002D2D2D2D000000000000000000000000000000000000000000000000002D0000F50000000000000000
310
F50000000000280000000000F50000000000000000F500002D0000000000000000000000000000000000002D0000000000000000000000000000000000000000000000000000000000000000000000000000000000000000000000000000000000000000000000000000000000000000000000000000000000000000000000
310
00000000000000F500000000000000000000000000000000F5F5F5000000000000000000000000000000000000000000F5000000F5000000000000000000000000000000000000F5002D2D0000000000000000002D0000002D2D002D000000000000000000000000000000000000000000000000002D000000F50000000000
310
000000F5000000002800000000F50000000000000000F50000002D0000000000000000000000000000000000002D000000000000000000000000000000000000000000000000000000000000000000000000000000000000000000000000000000000000000000000000000000000000000000000000000000000000000000
310
000000000000000000F500000000000000000000000000000000F500F5000000000000000000000000000000000000000000F5000000F50000000000000000000000000000000000F5F5002D2D0000000000000000002D0000002D2D2D2D000000000000000000000000000000000000000000000000002D00000000F50000
310
000000000000F500000028000000F50000000000000000F5000000002D0000000000000000000000000000000000002D00000000000000000000000000000000000000000000000000000000000000000000000000000000000000000000000000000000000000000000000000000000000000000000000000000000000000
310
0000000000000000000000F500000000000000000000000000000000F500F5F5F5F5F5F5F5F5F5F500000000000000000000F5F5F5F5F5F5F5F5F5F5F5F5F5F5F5F5F5F5F5F5F5F5F5F500F5F52D2D0000000000000000002D0000002D2D2D2D000000000000000000000000000000000000000000000000002D0000000000
310
F50000000000000000F5F5F528F5F5F50000000000000000F500000000002D0000000000000000000000000000000000002D0000000000000000000000000000000000000000000000000000000000000000000000000000000000000000000000000000000000000000000000000000000000000000000000000000000000
310
00000000000000000000000000F500000000000000000000000000000000F5F5F5000000000000000000F5F5F5F5F5F5F5F5F5F5F5F5F5000000F5000000000000000000000000000000000000F5002D2D0000000000000000002D0000002D2D2D2D000000000000000000000000000000000000000000000000002D000000
310
0000F50000000000000000000000280000000000000000000000F500000000002D0000000000000000000000000000000000002D000000000000000000000000000000000000000000000000000000000000000000000000000000000000000000000000000000000000000000000000000000000000000000000000000000
310
0000000000000000000000000000002DF5F5F5F5F5F5F5F5F5F5F5F5F5F5F5F5F500F5F5F5F5F5F5F5F5F5F5F5F5F5F5F5F5F5F5F5F5F5F528000000F5000000000000000000000000000000000000F5002D2D0000000000000000002D000000002D2D2D000000000000000000000000000000000000000000000000002D00
310
00000000F50000000000000000000000280000000000000000000000F500000000002D0000000000000000000000000000000000002D00000000000000000000000000000000000000000000000000000000000000000000000000000000000000000000000000000000000000000000000000000000000000000000000000
310
00000000000000000000000000000000002D000000000000000000000000F5F50000F500000000F500000000000000000000000000000000F5F5F5000000F5000000000000000000000000000000000000F5002D2D0000000000000000002D0000002D002D2D00000000000000000000000000000000000000000000000000
310
2D0000000000F50000000000000000000000280000000000000000000000F500000000002D0000000000000000000000000000000000002D0000000000000000000000000000000000000000000000000000000000000000000000000000000000000000000000000000000000000000000000000000000000000000000000
310
000000000000000000000000000000000000002D000000000000000000000000F5F50000F5F5F5F5F5F5000000000000000000000000000000000000F5F5F5F5F5F5F5F5F5F5F5F5F5F5F5F5F5F5F5F5F5F5F500002D2D0000000000000000002D0000002D2D002D0000000000000000000000000000000000000000000000
310
00002D000000000000F5F5F5F5F5F5F5F5F5F5F5F5F5F5F5F5F5F5F5F5F52D2D2D2D2D2D2D2D2D2D2D2D2D2D2D2D2D2D2D2D2D2D2D2D2D2D2D2D2D0000000000000000000000000000000000000000000000000000000000000000000000000000000000000000000000000000000000000000000000000000000000000000
310
0000000000000000000000000000000000000000002D000000000000000000000000F5F5000000F5F5F5F500000000000000000000000000000000000000000000000000000000000000000000000000000000000000002D2D0000000000000000002D0000000000002D000000000000000000000000000000000000000000
310
000000002D00000000000000000000000000F5F5F5F5F5F50000F5000000000000000000000000002D0000000000000000000000000000000000000000000000000000000000000000000000000000000000000000000000000000000000000000000000000000000000000000000000000000000000000000000000000000
310
00000000000000000000000000000000000000000000002D000000000000000000000000F5F5000000F5F5F5F500000000000000000000000000000000000000000000000000000000000000000000000000000000000000002D2D0000000000000000002D0000000000000000000000000000000000000000000000000000
310
0000000000002D00000000000000000000000000F5F5F5F5F5F50000F5000000000000000000000000002D000000000000000000000000000000000000000000000000000000000000000000000000000000000000000000000000000000000000000000000000000000000000000000000000000000000000000000000000
310
000000000000000000000000000000000000000000000000002D000000000000000000000000F5F5000000F5F5F5F500000000000000000000000000000000000000000000000000000000000000000000000000000000000000002D2D0000000000000000002D000000000000000000000000000000000000000000000000
310
00000000000000002D00000000000000000000000000F5F5F5F5F5F50000F5000000000000000000000000002D00000000000000000000000000000000000000000000000000000000000000000000000000000000000000000000000000000000000000000000000000000000000000000000000000000000000000000000
310
0000000000000000000000000000000000000000000000000000002D000000000000000000000000F5F5000000F5F5F5F500000000000000000000000000000000000000000000000000000000000000000000000000000000000000002D2D0000000000000000002D00000000000000000000000000000000000000000000
310
000000000000000000002D00000000000000000000000000F5F5F5F5F5F50000F5000000000000000000000000002D0000000000000000000000000000000000000000000000000000000000000000000000000000000000000000000000000000000000000000000000000000000000000000000000000000000000000000
310
00000000000000000000000000000000000000000000000000000000002D000000000000000000000000F5F5000000F5F5F5F500000000000000000000000000000000000000000000000000000000000000000000000000000000000000002D2D0000000000000000002D0000000000000000000000000000000000000000
310
0000000000000000000000002D00000000000000000000000000F5F5F5F5F5F50000F5000000000000000000000000002D000000000000000000000000000000000000000000000000000000000000000000000000000000000000000000000000000000000000000000000000000000000000000000000000000000000000
310
000000000000000000000000000000000000000000000000000000000000002D000000000000000000000000F5F5000000F5F5F5F500000000000000000000000000000000000000000000000000000000000000000000000000000000000000002D2D0000000000000000002D000000000000000000000000000000000000
310
00000000000000000000000000002D00000000000000000000000000F5F5F5F5F5F50000F5000000000000000000000000002D00000000000000000000000000000000000000000000000000000000000000000000000000000000000000000000000000000000000000000000000000000000000000000000000000000000
310
0000000000000000000000000000000000000000000000000000000000000000002D000000000000000000000000F5F5000000F5F5F5F500000000000000000000000000000000000000000000000000000000000000000000000000000000000000002D2D0000000000000000002D00000000000000000000000000000000
310
000000000000000000000000000000002D00000000000000000000000000F5F5F5F5F5F50000F5000000000000000000000000002D0000000000000000000000000000000000000000000000000000000000000000000000000000000000000000000000000000000000000000000000000000000000000000000000000000
310
00000000000000000000000000000000000000000000000000000000000000000000002D000000000000000000000000F5F5000000F5F5F5F500000000000000000000000000000000000000000000000000000000000000000000000000000000000000002D2D0000000000000000002D0000000000000000000000000000
310
0000000000000000000000000000000000002D000000000000000000000000002DF5F52D2D2D2D2D2D000000000000000000000000002D000000000000000000000000000000000000000000000000000000000000000000000000000000000000000000000000000000000000000000000000000000000000000000000000
310
000000000000000000000000000000000000000000000000000000000000000000000000002D000000000000000000000000F5F5000000F5F5F5F500000000000000000000000000000000000000000000000000000000000000000000000000000000000000002D2D0000000000000000002D000000000000000000000000
310
00000000000000000000000000000000000000002D00000000000000000000000000002D0000F500002D00000000000000000000000000002D00000000000000000000000000000000000000000000000000000000000000000000000000000000000000000000000000000000000000000000000000000000000000000000
310
0000000000000000000000000000000000000000000000000000000000000000000000000000002D000000000000000000000000F5F5000000F5F5F5F50000000000000000000000000000000000000000000000000000000000F5F5F5F5F5F5F5F5F5F500000000002D2D0000000000000000002D00000000000000000000
310
000000000000000000000000000000000000000000002D00000000000000000000000000000000002800000000000000000000000000000000002D0000000000000000000000000000000000000000000000000000000000000000000000000000000000000000000000000000000000000000000000000000000000000000
310
00000000000000000000000000000000000000000000000000000000000000000000000000000000002D000000000000000000000000F5F5000000F5F52D2D00000000000000000000000000000000F5F5F5F5F5F5F5F5F5F5F5F5F5F5F5F5F5F5F5F500000000000000002D2D0000000000000000002D0000000000000000
310
0000000000000000000000000000000000000000000000002D00000000000000000000000000000000000000000000000000000000000000000000002D000000000000000000000000000000000000000000000000000000000000000000000000000000000000000000000000000000000000000000000000000000000000
310
000000000000000000000000000000000000000000000000000000000000000000000000000000000000002D000000000000000000000000F52D0000002D2DF52D00000000000000000000000000F5F5F5F5F5F5F5F5F5F5F5F5F5F5F5F5F5F5F5F5F5F5F5F5F5F500000000002D2D0000000000000000002D000000000000
310
00000000000000000000000000000000000000000000000000002D00000000000000000000000000000000000000000000000000000000000000000000002D00000000000000000000000000000000000000000000000000000000000000000000000000000000000000000000000000000000000000000000000000000000
310
0000000000000000000000000000000000000000000000000000000000000000000000000000000000000000002D000000000000000000000000F52D0000002D2DF5F500000000000000000000F5F5F5F5F5F500F5F5F5F5F5F5F5F5F5F5F5F5F5F5F5F5F5F5F5F5F5F500000000002D2D0000000000000000002D00000000
310
000000000000000000000000000000000000000000000000000000002D00000000000000000000000000000000000000000000000000000000000000000000002D0000000000000000000000000000000000000000000000000000000000000000000000000000000000000000000000000000000000000000000000000000
310
00000000000000000000000000000000000000000000000000000000000000000000000000000000000000000000002D000000000000000000000000F5F5000000F5F5F500F5000000000000F5F5F5F5F5F5F5F5F5F5F5F5F5F5F5F5F5F5F5F5F5F5F5F5F5F5F5F5F5F5F5F500000000002D2D0000000000000000002D0000
310
0000000000000000000000000000000000000000000000000000000000002D00000000000000000000000000000000000000000000000000000000000000000000002D000000000000000000000000000000000000000000000000000000000000000000000000000000000000000000000000000000000000000000000000
310
000000000000000000000000000000000000000000000000000000000000000000000000000000000000000000000000002D000000000000000000000000F5F5000000F5F500F5F5F5F5F5F5F5F5F5F5F500F5F500F5F5F50000000000000000000000F5F5F5F5F5F5F5F5F5F5F500000000002D2D0000000000000000002D
310
00000000000000000000000000000000000000000000000000000000000000002D00000000000000000000000000000000000000000000000000000000000000000000002D00000000000000000000000000000000000000000000000000000000000000000000000000000000000000000000000000000000000000000000
310
0000000000000000000000000000000000000000000000000000000000000000000000000000000000000000000000000000002D000000000000000000000000F5F5000000F5F500F5F5F5F5F5F5F5F500F5F5F5F5F5F5000000000000000000000000000000000000F5F5F50000000000000000002D2D0000000000000000
310
002D00000000000000000000000000000000000000000000000000000000000000002D2D0000000000000000000000000000000000000000000000000000000000000000002D2D0000000000000000000000000000000000000000000000000000000000000000000000000000000000000000000000000000000000000000
310
00000000000000000000000000000000000000000000000000000000000000000000000000000000000000000000000000000000002D000000000000000000000000F5F500000000F5F500F5F5F5F5F5F5F5F5F5F5F5002D0000000000000000000000000000F5F5F5F5F5F5F5F5F5F5F50000000000002D2D000000000000
310
0000002D00000000000000000000000000000000000000000000000000000000000000002D2D2D2D2D2D2D2D2D2D2D2D2D2D2D2D2D2D2D2D2D2D2D2D2D2D2D2D2D2D2D2D2D2D2D2D2D000000000000000000000000000000000000000000000000000000000000000000000000000000000000000000000000000000000000
310
000000000000000000000000000000000000000000000000000000000000000000000000000000000000000000000000000000000000002D000000000000000000002D00F5F500000000F500F5F5F5F5F5F5F5F5F5F5F5F5F5F5F5F5F5F5F5F5F5F5F5F5F5F5F5F5F5F5F5F5F5F5F5F5F5F5F50000000000002D2D00000000
310
00000000002D00000000000000000000000000000000000000000000000000000000000000000000000000000000000000000000002D2D2D2D2D2D2D00000000000000000000000000000000000000000000000000000000000000000000000000000000000000000000000000000000000000000000000000000000000000
310
0000000000000000000000000000000000000000000000000000000000000000000000000000000000000000000000000000000000000000002D000000000000000000002DF5F5F500000000F500000000000000000000002D2D002D00000000000000F500000000F5F5F5F5F5F5F5F5F5F5F500F50000000000002D2D0000
310
000000000000002D00000000000000000000000000000000000000000000000000000000000000000000000000000000000000000000002D2D2D2D2D2D2D0000000000000000000000000000000000000000000000000000000000000000000000000000000000000000000000000000000000000000000000000000000000
310
00000000000000000000000000000000000000000000000000000000000000000000000000000000000000000000000000000000000000000000002D00F5F5F5F5F5F5F5F5F5F5F5F5000000000000F5000000000000000000002D2D00002D000000000000F500000000F5F5F5F5F5F5F5F5F5F5F500F50000000000002D2D
310
002D00000000002D002D000000000000000000000000000000000000000000000000000000000000000000000000000000000000000000000000000000000000000000000000000000000000000000000000000000000000000000000000000000000000000000000000000000000000000000000000000000000000000000
310
000000000000000000000000000000000000000000000000000000000000000000000000000000000000000000000000000000000000000000000000002D00F5F5F5F5F5F5F5F5F5F5F52D00000000000000F5F5F5F5F5F5F5F5F5F5F5F5F5F5F5F5F5F5F5F5F5F5F5F50000F5F5F5F5F5F5F5F5F5F5F5F5F5000000000000
310
2D2D2D2D2D2D2D2D2D2D2D2D00000000000000000000000000000000000000000000000000000000000000000000000000000000000000000000000000000000000000000000000000000000000000000000000000000000000000000000000000000000000000000000000000000000000000000000000000000000000000
310
0000000000000000000000000000000000000000000000000000000000000000000000000000000000000000000000000000000000000000000000000000002D00F5F5F500000000000000002D000000000000000000000000000000000000002D002D000000000000000000F5F5F5F5F5F5F5F5F5F5F5F5F5F5F500000000
310
00002D000000002D2D2D0000002D0000000000000000000000000000000000000000000000000000000000000000000000000000000000000000000000000000000000000000000000000000000000000000000000000000000000000000000000000000000000000000000000000000000000000000000000000000000000
310
00000000000000000000000000000000000000000000000000000000000000000000000000000000000000000000000000000000000000000000000000000000002D0000000000000000000000002D000000000000000000000000000000000000002D002D000000000000000000000000000000000000F5F5F5F5F5F50000
310
000000002D000000002D2D2D0000002D000000000000000000000000000000000000000000000000000000000000000000000000000000000000000000000000000000000000000000000000000000000000000000000000000000000000000000000000000000000000000000000000000000000000000000000000000000
310
000000000000000000000000000000000000000000000000000000000000000000000000000000000000000000000000000000000000000000000000000000000000002D0000000000000000000000002D00000000000000000000000000000000000000002D2D000000000000000000000000000000000000000000000000
310
0000000000002D000000000000000000002D00000000000000000000000000000000000000000000000000000000000000000000000000000000000000000000000000000000000000000000000000000000000000000000000000000000000000000000000000000000000000000000000000000000000000000000000000
310
0000000000000000000000000000000000000000000000000000000000000000000000000000000000000000000000000000000000000000000000000000000000000000002D000000000000000000000000002D00000000000000000000000000000000000000002D2D000000000000000000000000000000000000000000
310
00000000000000002D000000000000000000002D0000000000000000000000000000000000000000000000000000000000000000000000000000000000000000000000000000000000000000000000000000000000000000000000000000000000000000000000000000000000000000000000000000000000000000000000
310
00000000000000000000000000000000000000000000000000000000000000000000000000000000000000000000000000000000000000000000000000000000000000000000002D000000000000000000000000002D00000000000000000000000000000000000000002D2D00000000000000000000000000000000000000
310
000000000000000000002D002D0000000000002D002D000000000000000000000000000000000000000000000000000000000000000000000000000000000000000000000000000000000000000000000000000000000000000000000000000000000000000000000000000000000000000000000000000000000000000000
310
000000000000000000000000000000000000000000000000000000000000000000000000000000000000000000000000000000000000000000000000000000000000000000000000002D000000000000000000000000002D2D2D2D2D2D2D2D00000000000000000000000000002D2D2D2D2D2D2D2D00000000000000000000
310
0000000000000000000000002D2D2D2D2D2D2D2D2D2D2D2D00000000000000000000000000000000000000000000000000000000000000000000000000000000000000000000000000000000000000000000000000000000000000000000000000000000000000000000000000000000000000000000000000000000000000
310
0000000000000000000000000000000000000000000000000000000000000000000000000000000000000000000000000000000000000000000000000000000000000000000000000000002D00000000000000000000000000002D2D2D2D2D2D00000000000000000000000000000000002D2D2D2D2D000000000000000000
310
000000000000000000000000000000000000002D002D0000002D0000000000000000000000000000000000000000000000000000000000000000000000000000000000000000000000000000000000000000000000000000000000000000000000000000000000000000000000000000000000000000000000000000000000
310
00000000000000000000000000000000000000000000000000000000000000000000000000000000000000000000000000000000000000000000000000000000000000000000000000000000002D00000000000000000000000000002D2D2D2D2D2D00000000000000000000000000000000002D2D2D2D2D00000000000000
310
00000000000000000000000000000000000000002D2D2D2D0000002D000000000000000000000000000000000000000000000000000000000000000000000000000000000000000000000000000000000000000000000000000000000000000000000000000000000000000000000000000000000000000000000000000000
310
000000000000000000000000000000000000000000000000000000000000000000000000000000000000000000000000000000000000000000000000000000000000000000000000000000000000002D0000000000000000000000000000000000000000000000000000000000000000000000000000000000000000000000
310
00000000000000000000000000000000000000000000000000000000002D00000000000000000000000000000000000000000000000000000000000000000000000000000000000000000000000000000000000000000000000000000000000000000000000000000000000000000000000000000000000000000000000000
310
0000000000000000000000000000000000000000000000000000000000000000000000000000000000000000000000000000000000000000000000000000000000000000000000000000000000000000002D000000000000000000000000000000000000000000000000000000000000000000000000000000000000000000
310
000000000000000000000000000000000000000000000000000000000000002D0000000000000000000000000000000000000000000000000000000000000000000000000000000000000000000000000000000000000000000000000000000000000000000000000000000000000000000000000000000000000000000000
310
0000000000000000000000000000
  0
XRECORD
  5
3503
102
{ACAD_REACTORS
330
3502
102
}
330
3502
100
AcDbXrecord
280
     1
102
SHADEPLOT
 70
     0
102
SHADEPLOTRESLEVEL
 70
     2
102
SHADEPLOTCUSTOMDPI
 70
   300
  0
XRECORD
  5
34FF
102
{ACAD_REACTORS
330
2A6E
102
}
330
2A6E
100
AcDbXrecord
280
     1
102
MATERIAL
148
0.0
149
0.0
149
0.0
 93
        0
 94
      127
282
     0
 72
     0
 77
     0
171
     0
175
     0
179
     0
273
     0
  0
XRECORD
  5
2A70
102
{ACAD_REACTORS
330
2A6E
102
}
330
2A6E
100
AcDbXrecord
280
     1
270
     1
271
     1
  0
XRECORD
  5
2A6F
102
{ACAD_REACTORS
330
2A6E
102
}
330
2A6E
100
AcDbXrecord
280
     1
270
     1
271
     1
  0
XRECORD
  5
2A73
102
{ACAD_REACTORS
330
2A6E
102
}
330
2A6E
100
AcDbXrecord
280
     1
270
     1
271
     1
  0
XRECORD
  5
2A72
102
{ACAD_REACTORS
330
2A6E
102
}
330
2A6E
100
AcDbXrecord
280
     1
270
     1
271
     1
  0
XRECORD
  5
2A74
102
{ACAD_REACTORS
330
2A6E
102
}
330
2A6E
100
AcDbXrecord
280
     1
270
     1
271
     1
  0
XRECORD
  5
2A71
102
{ACAD_REACTORS
330
2A6E
102
}
330
2A6E
100
AcDbXrecord
280
     1
270
     1
271
     1
  0
XRECORD
  5
34FE
102
{ACAD_REACTORS
330
2A66
102
}
330
2A66
100
AcDbXrecord
280
     1
102
MATERIAL
148
0.0
149
0.0
149
0.0
 93
        0
 94
      127
282
     0
 72
     0
 77
     0
171
     0
175
     0
179
     0
273
     0
  0
XRECORD
  5
2A68
102
{ACAD_REACTORS
330
2A66
102
}
330
2A66
100
AcDbXrecord
280
     1
270
     1
271
     1
  0
XRECORD
  5
2A67
102
{ACAD_REACTORS
330
2A66
102
}
330
2A66
100
AcDbXrecord
280
     1
270
     1
271
     1
  0
XRECORD
  5
2A6B
102
{ACAD_REACTORS
330
2A66
102
}
330
2A66
100
AcDbXrecord
280
     1
270
     1
271
     1
  0
XRECORD
  5
2A6A
102
{ACAD_REACTORS
330
2A66
102
}
330
2A66
100
AcDbXrecord
280
     1
270
     1
271
     1
  0
XRECORD
  5
2A6C
102
{ACAD_REACTORS
330
2A66
102
}
330
2A66
100
AcDbXrecord
280
     1
270
     1
271
     1
  0
XRECORD
  5
2A69
102
{ACAD_REACTORS
330
2A66
102
}
330
2A66
100
AcDbXrecord
280
     1
270
     1
271
     1
  0
XRECORD
  5
3500
102
{ACAD_REACTORS
330
2A76
102
}
330
2A76
100
AcDbXrecord
280
     1
102
MATERIAL
148
0.0
149
0.0
149
0.0
 93
        0
 94
      127
282
     0
 72
     0
 77
     0
171
     0
175
     0
179
     0
273
     0
  0
XRECORD
  5
2A78
102
{ACAD_REACTORS
330
2A76
102
}
330
2A76
100
AcDbXrecord
280
     1
270
     1
271
     1
  0
XRECORD
  5
2A77
102
{ACAD_REACTORS
330
2A76
102
}
330
2A76
100
AcDbXrecord
280
     1
270
     1
271
     1
  0
XRECORD
  5
2A7B
102
{ACAD_REACTORS
330
2A76
102
}
330
2A76
100
AcDbXrecord
280
     1
270
     1
271
     1
  0
XRECORD
  5
2A7A
102
{ACAD_REACTORS
330
2A76
102
}
330
2A76
100
AcDbXrecord
280
     1
270
     1
271
     1
  0
XRECORD
  5
2A7C
102
{ACAD_REACTORS
330
2A76
102
}
330
2A76
100
AcDbXrecord
280
     1
270
     1
271
     1
  0
XRECORD
  5
2A79
102
{ACAD_REACTORS
330
2A76
102
}
330
2A76
100
AcDbXrecord
280
     1
270
     1
271
     1
  0
XRECORD
  5
349B
102
{ACAD_REACTORS
330
349A
102
}
330
349A
100
AcDbXrecord
280
     1
102
DISPLAYNAME
  1
Imperial24
102
FLAGS
 90
        0
  0
XRECORD
  5
34A1
102
{ACAD_REACTORS
330
34A0
102
}
330
34A0
100
AcDbXrecord
280
     1
102
DISPLAYNAME
  1
Metric50
102
FLAGS
 90
        0
  0
CELLSTYLEMAP
  5
34F6
102
{ACAD_REACTORS
330
2AFA
102
}
330
2AFA
100
AcDbCellStyleMap
 90
        3
300
CELLSTYLE
  1
TABLEFORMAT_BEGIN
 90
        5
170
     1
 91
        0
 92
    32768
 62
   257
 93
        1
300
CONTENTFORMAT
  1
CONTENTFORMAT_BEGIN
 90
        0
 91
        0
 92
      512
 93
        0
300

 40
0.0
140
1.0
 94
        5
 62
     0
340
16
144
0.25
309
CONTENTFORMAT_END
171
     0
 94
        0
309
TABLEFORMAT_END
  1
CELLSTYLE_BEGIN
 90
        1
 91
        1
300
_TITLE
309
CELLSTYLE_END
300
CELLSTYLE
  1
TABLEFORMAT_BEGIN
 90
        5
170
     1
 91
        0
 92
        0
 62
   257
 93
        1
300
CONTENTFORMAT
  1
CONTENTFORMAT_BEGIN
 90
        0
 91
        0
 92
      512
 93
        0
300

 40
0.0
140
1.0
 94
        5
 62
     0
340
16
144
0.18
309
CONTENTFORMAT_END
171
     0
 94
        0
309
TABLEFORMAT_END
  1
CELLSTYLE_BEGIN
 90
        2
 91
        1
300
_HEADER
309
CELLSTYLE_END
300
CELLSTYLE
  1
TABLEFORMAT_BEGIN
 90
        5
170
     1
 91
        0
 92
        0
 62
   257
 93
        1
300
CONTENTFORMAT
  1
CONTENTFORMAT_BEGIN
 90
        0
 91
        0
 92
      512
 93
        0
300

 40
0.0
140
1.0
 94
        2
 62
     0
340
16
144
0.18
309
CONTENTFORMAT_END
171
     0
 94
        0
309
TABLEFORMAT_END
  1
CELLSTYLE_BEGIN
 90
        3
 91
        2
300
_DATA
309
CELLSTYLE_END
  0
XRECORD
  5
3501
102
{ACAD_REACTORS
330
2AFA
102
}
330
2AFA
100
AcDbXrecord
280
     1
102
ACAD_ROUNDTRIP_PRE2007_TABLESTYLE
 90
      512
 91
        0
  1

 92
      512
 93
        0
  2

 94
      512
 95
        0
  3

  0
XRECORD
  5
3470
102
{ACAD_REACTORS
330
346F
102
}
330
346F
100
AcDbXrecord
280
     1
102
RTVSPost2010Prop28
280
     1
102
RTVSPost2010PropOp28
 70
     1
102
RTVSPost2010Prop29
280
     1
102
RTVSPost2010PropOp29
 70
     1
102
RTVSPost2010Prop30
280
     0
102
RTVSPost2010PropOp30
 70
     1
102
RTVSPost2010Prop31
280
     0
102
RTVSPost2010PropOp31
 70
     1
102
RTVSPost2010Prop32
280
     0
102
RTVSPost2010PropOp32
 70
     1
102
RTVSPost2010Prop33
280
     0
102
RTVSPost2010PropOp33
 70
     1
102
RTVSPost2010Prop34
280
     0
102
RTVSPost2010PropOp34
 70
     1
102
RTVSPost2010Prop35
280
     0
102
RTVSPost2010PropOp35
 70
     1
102
RTVSPost2010Prop36
280
     0
102
RTVSPost2010PropOp36
 70
     1
102
RTVSPost2010Prop37
 90
       50
102
RTVSPost2010PropOp37
 70
     1
102
RTVSPost2010Prop38
140
0.0
102
RTVSPost2010PropOp38
 70
     1
102
RTVSPost2010Prop39
140
1.0
102
RTVSPost2010PropOp39
 70
     1
102
RTVSPost2010Prop40
 90
        0
102
RTVSPost2010PropOp40
 70
     1
102
RTVSPost2010Prop41ColorIndex
 90
       18
102
RTVSPost2010Prop41ColorRGB
 90
        0
102
RTVSPost2010PropOp41
 70
     1
102
RTVSPost2010Prop42
 90
       50
102
RTVSPost2010PropOp42
 70
     1
102
RTVSPost2010Prop43
 90
        3
102
RTVSPost2010PropOp43
 70
     1
102
RTVSPost2010Prop44ColorIndex
 90
        5
102
RTVSPost2010Prop44ColorRGB
 90
      255
102
RTVSPost2010PropOp44
 70
     1
102
RTVSPost2010Prop45
280
     0
102
RTVSPost2010PropOp45
 70
     1
102
RTVSPost2010Prop46
 90
       50
102
RTVSPost2010PropOp46
 70
     1
102
RTVSPost2010Prop47
 90
       50
102
RTVSPost2010PropOp47
 70
     1
102
RTVSPost2010Prop48
 90
       50
102
RTVSPost2010PropOp48
 70
     1
102
RTVSPost2010Prop49
280
     0
102
RTVSPost2010PropOp49
 70
     1
102
RTVSPost2010Prop50
 90
       50
102
RTVSPost2010PropOp50
 70
     1
102
RTVSPost2010Prop51ColorIndex
 90
      256
102
RTVSPost2010Prop51ColorRGB
 90
-16777216
102
RTVSPost2010PropOp51
 70
     0
102
RTVSPost2010Prop52
140
1.0
102
RTVSPost2010PropOp52
 70
     0
102
RTVSPost2010Prop53
 90
        2
102
RTVSPost2010PropOp53
 70
     1
102
RTVSPost2010Prop54
  1
strokes_ogs.tif
102
RTVSPost2010PropOp54
 70
     1
102
RTVSPost2010Prop55
280
     0
102
RTVSPost2010PropOp55
 70
     1
102
RTVSPost2010Prop56
140
1.0
102
RTVSPost2010PropOp56
 70
     1
102
RTVSPost2010Prop57
140
1.0
102
RTVSPost2010PropOp57
 70
     1
102
RTVSPropertyOp28
 70
     1
102
RTVSPropertyOp29
 70
     1
102
RTVSPropertyOp30
 70
     1
102
RTVSPropertyOp31
 70
     1
102
RTVSPropertyOp32
 70
     1
102
RTVSPropertyOp33
 70
     1
102
RTVSPropertyOp34
 70
     1
102
RTVSPropertyOp35
 70
     1
102
RTVSPropertyOp36
 70
     1
102
RTVSPropertyOp37
 70
     1
102
RTVSPropertyOp38
 70
     1
102
RTVSPropertyOp39
 70
     1
102
RTVSPropertyOp40
 70
     1
102
RTVSPropertyOp41
 70
     1
102
RTVSPropertyOp42
 70
     1
102
RTVSPropertyOp43
 70
     1
102
RTVSPropertyOp44
 70
     1
102
RTVSPropertyOp45
 70
     1
102
RTVSPropertyOp46
 70
     1
102
RTVSPropertyOp47
 70
     1
102
RTVSPropertyOp48
 70
     1
102
RTVSPropertyOp49
 70
     1
102
RTVSPropertyOp50
 70
     1
102
RTVSPropertyOp51
 70
     0
102
RTVSPropertyOp52
 70
     0
102
RTVSPropertyOp53
 70
     1
102
RTVSPropertyOp54
 70
     1
102
RTVSPropertyOp55
 70
     1
102
RTVSPropertyOp56
 70
     1
102
RTVSPropertyOp57
 70
     1
102
RTVSPropertyOp58
 70
     1
102
RTVSPropertyOp59
 70
     1
102
RTVSPropertyOp60
 70
     1
102
RTVSPropertyOp61
 70
     1
102
RTVSPropertyOp62
 70
     1
102
RTVSPropertyOp0
 70
     1
102
RTVSPropertyOp1
 70
     1
102
RTVSPropertyOp2
 70
     1
102
RTVSPropertyOp3
 70
     1
102
RTVSPropertyOp4
 70
     1
102
RTVSPropertyOp5
 70
     1
102
RTVSPropertyOp6
 70
     1
102
RTVSPropertyOp7
 70
     1
102
RTVSPropertyOp8
 70
     1
102
RTVSPropertyOp9
 70
     1
102
RTVSPropertyOp10
 70
     1
102
RTVSPropertyOp11
 70
     1
102
RTVSPropertyOp12
 70
     1
102
RTVSPropertyOp13
 70
     1
102
RTVSPropertyOp14
 70
     1
102
RTVSPropertyOp15
 70
     1
102
RTVSPropertyOp16
 70
     1
102
RTVSPropertyOp17
 70
     1
102
RTVSPropertyOp18
 70
     1
102
RTVSPropertyOp19
 70
     1
102
RTVSPropertyOp20
 70
     1
102
RTVSPropertyOp21
 70
     1
102
RTVSPropertyOp22
 70
     1
102
RTVSPropertyOp23
 70
     1
102
RTVSPropertyOp24
 70
     1
102
RTVSPropertyOp25
 70
     1
102
RTVSPropertyOp26
 70
     1
102
RTVSPropertyOp27
 70
     1
  0
XRECORD
  5
3474
102
{ACAD_REACTORS
330
3473
102
}
330
3473
100
AcDbXrecord
280
     1
102
RTVSPost2010Prop28
280
     0
102
RTVSPost2010PropOp28
 70
     1
102
RTVSPost2010Prop29
280
     1
102
RTVSPost2010PropOp29
 70
     1
102
RTVSPost2010Prop30
280
     1
102
RTVSPost2010PropOp30
 70
     1
102
RTVSPost2010Prop31
280
     0
102
RTVSPost2010PropOp31
 70
     1
102
RTVSPost2010Prop32
280
     0
102
RTVSPost2010PropOp32
 70
     1
102
RTVSPost2010Prop33
280
     0
102
RTVSPost2010PropOp33
 70
     1
102
RTVSPost2010Prop34
280
     0
102
RTVSPost2010PropOp34
 70
     1
102
RTVSPost2010Prop35
280
     0
102
RTVSPost2010PropOp35
 70
     1
102
RTVSPost2010Prop36
280
     0
102
RTVSPost2010PropOp36
 70
     1
102
RTVSPost2010Prop37
 90
       50
102
RTVSPost2010PropOp37
 70
     1
102
RTVSPost2010Prop38
140
0.0
102
RTVSPost2010PropOp38
 70
     1
102
RTVSPost2010Prop39
140
1.0
102
RTVSPost2010PropOp39
 70
     1
102
RTVSPost2010Prop40
 90
        0
102
RTVSPost2010PropOp40
 70
     1
102
RTVSPost2010Prop41ColorIndex
 90
       18
102
RTVSPost2010Prop41ColorRGB
 90
        0
102
RTVSPost2010PropOp41
 70
     1
102
RTVSPost2010Prop42
 90
       50
102
RTVSPost2010PropOp42
 70
     1
102
RTVSPost2010Prop43
 90
        3
102
RTVSPost2010PropOp43
 70
     1
102
RTVSPost2010Prop44ColorIndex
 90
        5
102
RTVSPost2010Prop44ColorRGB
 90
      255
102
RTVSPost2010PropOp44
 70
     1
102
RTVSPost2010Prop45
280
     0
102
RTVSPost2010PropOp45
 70
     1
102
RTVSPost2010Prop46
 90
       50
102
RTVSPost2010PropOp46
 70
     1
102
RTVSPost2010Prop47
 90
       50
102
RTVSPost2010PropOp47
 70
     1
102
RTVSPost2010Prop48
 90
       50
102
RTVSPost2010PropOp48
 70
     1
102
RTVSPost2010Prop49
280
     0
102
RTVSPost2010PropOp49
 70
     1
102
RTVSPost2010Prop50
 90
       50
102
RTVSPost2010PropOp50
 70
     1
102
RTVSPost2010Prop51ColorIndex
 90
      256
102
RTVSPost2010Prop51ColorRGB
 90
-16777216
102
RTVSPost2010PropOp51
 70
     0
102
RTVSPost2010Prop52
140
1.0
102
RTVSPost2010PropOp52
 70
     0
102
RTVSPost2010Prop53
 90
        2
102
RTVSPost2010PropOp53
 70
     1
102
RTVSPost2010Prop54
  1
strokes_ogs.tif
102
RTVSPost2010PropOp54
 70
     1
102
RTVSPost2010Prop55
280
     0
102
RTVSPost2010PropOp55
 70
     1
102
RTVSPost2010Prop56
140
1.0
102
RTVSPost2010PropOp56
 70
     1
102
RTVSPost2010Prop57
140
1.0
102
RTVSPost2010PropOp57
 70
     1
102
RTVSPropertyOp28
 70
     1
102
RTVSPropertyOp29
 70
     1
102
RTVSPropertyOp30
 70
     1
102
RTVSPropertyOp31
 70
     1
102
RTVSPropertyOp32
 70
     1
102
RTVSPropertyOp33
 70
     1
102
RTVSPropertyOp34
 70
     1
102
RTVSPropertyOp35
 70
     1
102
RTVSPropertyOp36
 70
     1
102
RTVSPropertyOp37
 70
     1
102
RTVSPropertyOp38
 70
     1
102
RTVSPropertyOp39
 70
     1
102
RTVSPropertyOp40
 70
     1
102
RTVSPropertyOp41
 70
     1
102
RTVSPropertyOp42
 70
     1
102
RTVSPropertyOp43
 70
     1
102
RTVSPropertyOp44
 70
     1
102
RTVSPropertyOp45
 70
     1
102
RTVSPropertyOp46
 70
     1
102
RTVSPropertyOp47
 70
     1
102
RTVSPropertyOp48
 70
     1
102
RTVSPropertyOp49
 70
     1
102
RTVSPropertyOp50
 70
     1
102
RTVSPropertyOp51
 70
     0
102
RTVSPropertyOp52
 70
     0
102
RTVSPropertyOp53
 70
     1
102
RTVSPropertyOp54
 70
     1
102
RTVSPropertyOp55
 70
     1
102
RTVSPropertyOp56
 70
     1
102
RTVSPropertyOp57
 70
     1
102
RTVSPropertyOp58
 70
     1
102
RTVSPropertyOp59
 70
     1
102
RTVSPropertyOp60
 70
     1
102
RTVSPropertyOp61
 70
     1
102
RTVSPropertyOp62
 70
     1
102
RTVSPropertyOp0
 70
     1
102
RTVSPropertyOp1
 70
     1
102
RTVSPropertyOp2
 70
     1
102
RTVSPropertyOp3
 70
     1
102
RTVSPropertyOp4
 70
     1
102
RTVSPropertyOp5
 70
     1
102
RTVSPropertyOp6
 70
     1
102
RTVSPropertyOp7
 70
     1
102
RTVSPropertyOp8
 70
     1
102
RTVSPropertyOp9
 70
     1
102
RTVSPropertyOp10
 70
     1
102
RTVSPropertyOp11
 70
     1
102
RTVSPropertyOp12
 70
     1
102
RTVSPropertyOp13
 70
     1
102
RTVSPropertyOp14
 70
     1
102
RTVSPropertyOp15
 70
     1
102
RTVSPropertyOp16
 70
     1
102
RTVSPropertyOp17
 70
     1
102
RTVSPropertyOp18
 70
     1
102
RTVSPropertyOp19
 70
     1
102
RTVSPropertyOp20
 70
     1
102
RTVSPropertyOp21
 70
     1
102
RTVSPropertyOp22
 70
     1
102
RTVSPropertyOp23
 70
     1
102
RTVSPropertyOp24
 70
     1
102
RTVSPropertyOp25
 70
     1
102
RTVSPropertyOp26
 70
     1
102
RTVSPropertyOp27
 70
     1
  0
XRECORD
  5
3472
102
{ACAD_REACTORS
330
3471
102
}
330
3471
100
AcDbXrecord
280
     1
102
RTVSPost2010Prop28
280
     0
102
RTVSPost2010PropOp28
 70
     1
102
RTVSPost2010Prop29
280
     1
102
RTVSPost2010PropOp29
 70
     1
102
RTVSPost2010Prop30
280
     1
102
RTVSPost2010PropOp30
 70
     1
102
RTVSPost2010Prop31
280
     0
102
RTVSPost2010PropOp31
 70
     1
102
RTVSPost2010Prop32
280
     0
102
RTVSPost2010PropOp32
 70
     1
102
RTVSPost2010Prop33
280
     0
102
RTVSPost2010PropOp33
 70
     1
102
RTVSPost2010Prop34
280
     0
102
RTVSPost2010PropOp34
 70
     1
102
RTVSPost2010Prop35
280
     0
102
RTVSPost2010PropOp35
 70
     1
102
RTVSPost2010Prop36
280
     0
102
RTVSPost2010PropOp36
 70
     1
102
RTVSPost2010Prop37
 90
       50
102
RTVSPost2010PropOp37
 70
     1
102
RTVSPost2010Prop38
140
0.0
102
RTVSPost2010PropOp38
 70
     1
102
RTVSPost2010Prop39
140
1.0
102
RTVSPost2010PropOp39
 70
     1
102
RTVSPost2010Prop40
 90
        0
102
RTVSPost2010PropOp40
 70
     1
102
RTVSPost2010Prop41ColorIndex
 90
       18
102
RTVSPost2010Prop41ColorRGB
 90
        0
102
RTVSPost2010PropOp41
 70
     1
102
RTVSPost2010Prop42
 90
       50
102
RTVSPost2010PropOp42
 70
     1
102
RTVSPost2010Prop43
 90
        3
102
RTVSPost2010PropOp43
 70
     1
102
RTVSPost2010Prop44ColorIndex
 90
        5
102
RTVSPost2010Prop44ColorRGB
 90
      255
102
RTVSPost2010PropOp44
 70
     1
102
RTVSPost2010Prop45
280
     0
102
RTVSPost2010PropOp45
 70
     1
102
RTVSPost2010Prop46
 90
       50
102
RTVSPost2010PropOp46
 70
     1
102
RTVSPost2010Prop47
 90
       50
102
RTVSPost2010PropOp47
 70
     1
102
RTVSPost2010Prop48
 90
       50
102
RTVSPost2010PropOp48
 70
     1
102
RTVSPost2010Prop49
280
     0
102
RTVSPost2010PropOp49
 70
     1
102
RTVSPost2010Prop50
 90
       50
102
RTVSPost2010PropOp50
 70
     1
102
RTVSPost2010Prop51ColorIndex
 90
      256
102
RTVSPost2010Prop51ColorRGB
 90
-16777216
102
RTVSPost2010PropOp51
 70
     0
102
RTVSPost2010Prop52
140
1.0
102
RTVSPost2010PropOp52
 70
     0
102
RTVSPost2010Prop53
 90
        2
102
RTVSPost2010PropOp53
 70
     1
102
RTVSPost2010Prop54
  1
strokes_ogs.tif
102
RTVSPost2010PropOp54
 70
     1
102
RTVSPost2010Prop55
280
     0
102
RTVSPost2010PropOp55
 70
     1
102
RTVSPost2010Prop56
140
1.0
102
RTVSPost2010PropOp56
 70
     1
102
RTVSPost2010Prop57
140
1.0
102
RTVSPost2010PropOp57
 70
     1
102
RTVSPropertyOp28
 70
     1
102
RTVSPropertyOp29
 70
     1
102
RTVSPropertyOp30
 70
     1
102
RTVSPropertyOp31
 70
     1
102
RTVSPropertyOp32
 70
     1
102
RTVSPropertyOp33
 70
     1
102
RTVSPropertyOp34
 70
     1
102
RTVSPropertyOp35
 70
     1
102
RTVSPropertyOp36
 70
     1
102
RTVSPropertyOp37
 70
     1
102
RTVSPropertyOp38
 70
     1
102
RTVSPropertyOp39
 70
     1
102
RTVSPropertyOp40
 70
     1
102
RTVSPropertyOp41
 70
     1
102
RTVSPropertyOp42
 70
     1
102
RTVSPropertyOp43
 70
     1
102
RTVSPropertyOp44
 70
     1
102
RTVSPropertyOp45
 70
     1
102
RTVSPropertyOp46
 70
     1
102
RTVSPropertyOp47
 70
     1
102
RTVSPropertyOp48
 70
     1
102
RTVSPropertyOp49
 70
     1
102
RTVSPropertyOp50
 70
     1
102
RTVSPropertyOp51
 70
     0
102
RTVSPropertyOp52
 70
     0
102
RTVSPropertyOp53
 70
     1
102
RTVSPropertyOp54
 70
     1
102
RTVSPropertyOp55
 70
     1
102
RTVSPropertyOp56
 70
     1
102
RTVSPropertyOp57
 70
     1
102
RTVSPropertyOp58
 70
     1
102
RTVSPropertyOp59
 70
     1
102
RTVSPropertyOp60
 70
     1
102
RTVSPropertyOp61
 70
     1
102
RTVSPropertyOp62
 70
     1
102
RTVSPropertyOp0
 70
     1
102
RTVSPropertyOp1
 70
     1
102
RTVSPropertyOp2
 70
     1
102
RTVSPropertyOp3
 70
     1
102
RTVSPropertyOp4
 70
     1
102
RTVSPropertyOp5
 70
     1
102
RTVSPropertyOp6
 70
     1
102
RTVSPropertyOp7
 70
     1
102
RTVSPropertyOp8
 70
     1
102
RTVSPropertyOp9
 70
     1
102
RTVSPropertyOp10
 70
     1
102
RTVSPropertyOp11
 70
     1
102
RTVSPropertyOp12
 70
     1
102
RTVSPropertyOp13
 70
     1
102
RTVSPropertyOp14
 70
     1
102
RTVSPropertyOp15
 70
     1
102
RTVSPropertyOp16
 70
     1
102
RTVSPropertyOp17
 70
     1
102
RTVSPropertyOp18
 70
     1
102
RTVSPropertyOp19
 70
     1
102
RTVSPropertyOp20
 70
     1
102
RTVSPropertyOp21
 70
     1
102
RTVSPropertyOp22
 70
     1
102
RTVSPropertyOp23
 70
     1
102
RTVSPropertyOp24
 70
     1
102
RTVSPropertyOp25
 70
     1
102
RTVSPropertyOp26
 70
     1
102
RTVSPropertyOp27
 70
     1
  0
XRECORD
  5
346E
102
{ACAD_REACTORS
330
346D
102
}
330
346D
100
AcDbXrecord
280
     1
102
RTVSPost2010Prop28
280
     0
102
RTVSPost2010PropOp28
 70
     1
102
RTVSPost2010Prop29
280
     1
102
RTVSPost2010PropOp29
 70
     1
102
RTVSPost2010Prop30
280
     1
102
RTVSPost2010PropOp30
 70
     1
102
RTVSPost2010Prop31
280
     0
102
RTVSPost2010PropOp31
 70
     1
102
RTVSPost2010Prop32
280
     0
102
RTVSPost2010PropOp32
 70
     1
102
RTVSPost2010Prop33
280
     0
102
RTVSPost2010PropOp33
 70
     1
102
RTVSPost2010Prop34
280
     0
102
RTVSPost2010PropOp34
 70
     1
102
RTVSPost2010Prop35
280
     0
102
RTVSPost2010PropOp35
 70
     1
102
RTVSPost2010Prop36
280
     0
102
RTVSPost2010PropOp36
 70
     1
102
RTVSPost2010Prop37
 90
       50
102
RTVSPost2010PropOp37
 70
     1
102
RTVSPost2010Prop38
140
0.0
102
RTVSPost2010PropOp38
 70
     1
102
RTVSPost2010Prop39
140
1.0
102
RTVSPost2010PropOp39
 70
     1
102
RTVSPost2010Prop40
 90
        0
102
RTVSPost2010PropOp40
 70
     1
102
RTVSPost2010Prop41ColorIndex
 90
       18
102
RTVSPost2010Prop41ColorRGB
 90
        0
102
RTVSPost2010PropOp41
 70
     1
102
RTVSPost2010Prop42
 90
       50
102
RTVSPost2010PropOp42
 70
     1
102
RTVSPost2010Prop43
 90
        3
102
RTVSPost2010PropOp43
 70
     1
102
RTVSPost2010Prop44ColorIndex
 90
        5
102
RTVSPost2010Prop44ColorRGB
 90
      255
102
RTVSPost2010PropOp44
 70
     1
102
RTVSPost2010Prop45
280
     0
102
RTVSPost2010PropOp45
 70
     1
102
RTVSPost2010Prop46
 90
       50
102
RTVSPost2010PropOp46
 70
     1
102
RTVSPost2010Prop47
 90
       50
102
RTVSPost2010PropOp47
 70
     1
102
RTVSPost2010Prop48
 90
       50
102
RTVSPost2010PropOp48
 70
     1
102
RTVSPost2010Prop49
280
     0
102
RTVSPost2010PropOp49
 70
     1
102
RTVSPost2010Prop50
 90
       50
102
RTVSPost2010PropOp50
 70
     1
102
RTVSPost2010Prop51ColorIndex
 90
      256
102
RTVSPost2010Prop51ColorRGB
 90
-16777216
102
RTVSPost2010PropOp51
 70
     0
102
RTVSPost2010Prop52
140
1.0
102
RTVSPost2010PropOp52
 70
     0
102
RTVSPost2010Prop53
 90
        2
102
RTVSPost2010PropOp53
 70
     1
102
RTVSPost2010Prop54
  1
strokes_ogs.tif
102
RTVSPost2010PropOp54
 70
     1
102
RTVSPost2010Prop55
280
     0
102
RTVSPost2010PropOp55
 70
     1
102
RTVSPost2010Prop56
140
1.0
102
RTVSPost2010PropOp56
 70
     1
102
RTVSPost2010Prop57
140
1.0
102
RTVSPost2010PropOp57
 70
     1
102
RTVSPropertyOp28
 70
     1
102
RTVSPropertyOp29
 70
     1
102
RTVSPropertyOp30
 70
     1
102
RTVSPropertyOp31
 70
     1
102
RTVSPropertyOp32
 70
     1
102
RTVSPropertyOp33
 70
     1
102
RTVSPropertyOp34
 70
     1
102
RTVSPropertyOp35
 70
     1
102
RTVSPropertyOp36
 70
     1
102
RTVSPropertyOp37
 70
     1
102
RTVSPropertyOp38
 70
     1
102
RTVSPropertyOp39
 70
     1
102
RTVSPropertyOp40
 70
     1
102
RTVSPropertyOp41
 70
     1
102
RTVSPropertyOp42
 70
     1
102
RTVSPropertyOp43
 70
     1
102
RTVSPropertyOp44
 70
     1
102
RTVSPropertyOp45
 70
     1
102
RTVSPropertyOp46
 70
     1
102
RTVSPropertyOp47
 70
     1
102
RTVSPropertyOp48
 70
     1
102
RTVSPropertyOp49
 70
     1
102
RTVSPropertyOp50
 70
     1
102
RTVSPropertyOp51
 70
     0
102
RTVSPropertyOp52
 70
     0
102
RTVSPropertyOp53
 70
     1
102
RTVSPropertyOp54
 70
     1
102
RTVSPropertyOp55
 70
     1
102
RTVSPropertyOp56
 70
     1
102
RTVSPropertyOp57
 70
     1
102
RTVSPropertyOp58
 70
     1
102
RTVSPropertyOp59
 70
     1
102
RTVSPropertyOp60
 70
     1
102
RTVSPropertyOp61
 70
     1
102
RTVSPropertyOp62
 70
     1
102
RTVSPropertyOp0
 70
     1
102
RTVSPropertyOp1
 70
     1
102
RTVSPropertyOp2
 70
     1
102
RTVSPropertyOp3
 70
     1
102
RTVSPropertyOp4
 70
     1
102
RTVSPropertyOp5
 70
     1
102
RTVSPropertyOp6
 70
     1
102
RTVSPropertyOp7
 70
     1
102
RTVSPropertyOp8
 70
     1
102
RTVSPropertyOp9
 70
     1
102
RTVSPropertyOp10
 70
     1
102
RTVSPropertyOp11
 70
     1
102
RTVSPropertyOp12
 70
     1
102
RTVSPropertyOp13
 70
     1
102
RTVSPropertyOp14
 70
     1
102
RTVSPropertyOp15
 70
     1
102
RTVSPropertyOp16
 70
     1
102
RTVSPropertyOp17
 70
     1
102
RTVSPropertyOp18
 70
     1
102
RTVSPropertyOp19
 70
     1
102
RTVSPropertyOp20
 70
     1
102
RTVSPropertyOp21
 70
     1
102
RTVSPropertyOp22
 70
     1
102
RTVSPropertyOp23
 70
     1
102
RTVSPropertyOp24
 70
     1
102
RTVSPropertyOp25
 70
     1
102
RTVSPropertyOp26
 70
     1
102
RTVSPropertyOp27
 70
     1
  0
XRECORD
  5
347C
102
{ACAD_REACTORS
330
347B
102
}
330
347B
100
AcDbXrecord
280
     1
102
RTVSPost2010Prop28
280
     0
102
RTVSPost2010PropOp28
 70
     1
102
RTVSPost2010Prop29
280
     1
102
RTVSPost2010PropOp29
 70
     1
102
RTVSPost2010Prop30
280
     1
102
RTVSPost2010PropOp30
 70
     1
102
RTVSPost2010Prop31
280
     0
102
RTVSPost2010PropOp31
 70
     1
102
RTVSPost2010Prop32
280
     0
102
RTVSPost2010PropOp32
 70
     1
102
RTVSPost2010Prop33
280
     0
102
RTVSPost2010PropOp33
 70
     1
102
RTVSPost2010Prop34
280
     0
102
RTVSPost2010PropOp34
 70
     1
102
RTVSPost2010Prop35
280
     0
102
RTVSPost2010PropOp35
 70
     1
102
RTVSPost2010Prop36
280
     0
102
RTVSPost2010PropOp36
 70
     1
102
RTVSPost2010Prop37
 90
       50
102
RTVSPost2010PropOp37
 70
     1
102
RTVSPost2010Prop38
140
0.0
102
RTVSPost2010PropOp38
 70
     1
102
RTVSPost2010Prop39
140
1.0
102
RTVSPost2010PropOp39
 70
     1
102
RTVSPost2010Prop40
 90
        0
102
RTVSPost2010PropOp40
 70
     1
102
RTVSPost2010Prop41ColorIndex
 90
       18
102
RTVSPost2010Prop41ColorRGB
 90
        0
102
RTVSPost2010PropOp41
 70
     1
102
RTVSPost2010Prop42
 90
       50
102
RTVSPost2010PropOp42
 70
     1
102
RTVSPost2010Prop43
 90
        3
102
RTVSPost2010PropOp43
 70
     1
102
RTVSPost2010Prop44ColorIndex
 90
        5
102
RTVSPost2010Prop44ColorRGB
 90
      255
102
RTVSPost2010PropOp44
 70
     1
102
RTVSPost2010Prop45
280
     0
102
RTVSPost2010PropOp45
 70
     1
102
RTVSPost2010Prop46
 90
       50
102
RTVSPost2010PropOp46
 70
     1
102
RTVSPost2010Prop47
 90
       50
102
RTVSPost2010PropOp47
 70
     1
102
RTVSPost2010Prop48
 90
       50
102
RTVSPost2010PropOp48
 70
     1
102
RTVSPost2010Prop49
280
     0
102
RTVSPost2010PropOp49
 70
     1
102
RTVSPost2010Prop50
 90
       50
102
RTVSPost2010PropOp50
 70
     1
102
RTVSPost2010Prop51ColorIndex
 90
      256
102
RTVSPost2010Prop51ColorRGB
 90
-16777216
102
RTVSPost2010PropOp51
 70
     0
102
RTVSPost2010Prop52
140
1.0
102
RTVSPost2010PropOp52
 70
     0
102
RTVSPost2010Prop53
 90
        2
102
RTVSPost2010PropOp53
 70
     1
102
RTVSPost2010Prop54
  1
strokes_ogs.tif
102
RTVSPost2010PropOp54
 70
     1
102
RTVSPost2010Prop55
280
     0
102
RTVSPost2010PropOp55
 70
     1
102
RTVSPost2010Prop56
140
1.0
102
RTVSPost2010PropOp56
 70
     1
102
RTVSPost2010Prop57
140
1.0
102
RTVSPost2010PropOp57
 70
     1
102
RTVSPropertyOp28
 70
     1
102
RTVSPropertyOp29
 70
     1
102
RTVSPropertyOp30
 70
     1
102
RTVSPropertyOp31
 70
     1
102
RTVSPropertyOp32
 70
     1
102
RTVSPropertyOp33
 70
     1
102
RTVSPropertyOp34
 70
     1
102
RTVSPropertyOp35
 70
     1
102
RTVSPropertyOp36
 70
     1
102
RTVSPropertyOp37
 70
     1
102
RTVSPropertyOp38
 70
     1
102
RTVSPropertyOp39
 70
     1
102
RTVSPropertyOp40
 70
     1
102
RTVSPropertyOp41
 70
     1
102
RTVSPropertyOp42
 70
     1
102
RTVSPropertyOp43
 70
     1
102
RTVSPropertyOp44
 70
     1
102
RTVSPropertyOp45
 70
     1
102
RTVSPropertyOp46
 70
     1
102
RTVSPropertyOp47
 70
     1
102
RTVSPropertyOp48
 70
     1
102
RTVSPropertyOp49
 70
     1
102
RTVSPropertyOp50
 70
     1
102
RTVSPropertyOp51
 70
     0
102
RTVSPropertyOp52
 70
     0
102
RTVSPropertyOp53
 70
     1
102
RTVSPropertyOp54
 70
     1
102
RTVSPropertyOp55
 70
     1
102
RTVSPropertyOp56
 70
     1
102
RTVSPropertyOp57
 70
     1
102
RTVSPropertyOp58
 70
     1
102
RTVSPropertyOp59
 70
     1
102
RTVSPropertyOp60
 70
     1
102
RTVSPropertyOp61
 70
     1
102
RTVSPropertyOp62
 70
     1
102
RTVSPropertyOp0
 70
     1
102
RTVSPropertyOp1
 70
     1
102
RTVSPropertyOp2
 70
     1
102
RTVSPropertyOp3
 70
     1
102
RTVSPropertyOp4
 70
     1
102
RTVSPropertyOp5
 70
     1
102
RTVSPropertyOp6
 70
     1
102
RTVSPropertyOp7
 70
     1
102
RTVSPropertyOp8
 70
     1
102
RTVSPropertyOp9
 70
     1
102
RTVSPropertyOp10
 70
     1
102
RTVSPropertyOp11
 70
     1
102
RTVSPropertyOp12
 70
     1
102
RTVSPropertyOp13
 70
     1
102
RTVSPropertyOp14
 70
     1
102
RTVSPropertyOp15
 70
     1
102
RTVSPropertyOp16
 70
     1
102
RTVSPropertyOp17
 70
     1
102
RTVSPropertyOp18
 70
     1
102
RTVSPropertyOp19
 70
     1
102
RTVSPropertyOp20
 70
     1
102
RTVSPropertyOp21
 70
     1
102
RTVSPropertyOp22
 70
     1
102
RTVSPropertyOp23
 70
     1
102
RTVSPropertyOp24
 70
     1
102
RTVSPropertyOp25
 70
     1
102
RTVSPropertyOp26
 70
     1
102
RTVSPropertyOp27
 70
     1
  0
XRECORD
  5
3484
102
{ACAD_REACTORS
330
3483
102
}
330
3483
100
AcDbXrecord
280
     1
102
RTVSPost2010Prop28
280
     0
102
RTVSPost2010PropOp28
 70
     1
102
RTVSPost2010Prop29
280
     1
102
RTVSPost2010PropOp29
 70
     1
102
RTVSPost2010Prop30
280
     1
102
RTVSPost2010PropOp30
 70
     1
102
RTVSPost2010Prop31
280
     0
102
RTVSPost2010PropOp31
 70
     1
102
RTVSPost2010Prop32
280
     0
102
RTVSPost2010PropOp32
 70
     1
102
RTVSPost2010Prop33
280
     0
102
RTVSPost2010PropOp33
 70
     1
102
RTVSPost2010Prop34
280
     0
102
RTVSPost2010PropOp34
 70
     1
102
RTVSPost2010Prop35
280
     0
102
RTVSPost2010PropOp35
 70
     1
102
RTVSPost2010Prop36
280
     0
102
RTVSPost2010PropOp36
 70
     1
102
RTVSPost2010Prop37
 90
       50
102
RTVSPost2010PropOp37
 70
     1
102
RTVSPost2010Prop38
140
0.0
102
RTVSPost2010PropOp38
 70
     1
102
RTVSPost2010Prop39
140
1.0
102
RTVSPost2010PropOp39
 70
     1
102
RTVSPost2010Prop40
 90
        0
102
RTVSPost2010PropOp40
 70
     1
102
RTVSPost2010Prop41ColorIndex
 90
       18
102
RTVSPost2010Prop41ColorRGB
 90
        0
102
RTVSPost2010PropOp41
 70
     1
102
RTVSPost2010Prop42
 90
       50
102
RTVSPost2010PropOp42
 70
     1
102
RTVSPost2010Prop43
 90
        3
102
RTVSPost2010PropOp43
 70
     1
102
RTVSPost2010Prop44ColorIndex
 90
        5
102
RTVSPost2010Prop44ColorRGB
 90
      255
102
RTVSPost2010PropOp44
 70
     1
102
RTVSPost2010Prop45
280
     0
102
RTVSPost2010PropOp45
 70
     1
102
RTVSPost2010Prop46
 90
       50
102
RTVSPost2010PropOp46
 70
     1
102
RTVSPost2010Prop47
 90
       50
102
RTVSPost2010PropOp47
 70
     1
102
RTVSPost2010Prop48
 90
       50
102
RTVSPost2010PropOp48
 70
     1
102
RTVSPost2010Prop49
280
     0
102
RTVSPost2010PropOp49
 70
     1
102
RTVSPost2010Prop50
 90
       50
102
RTVSPost2010PropOp50
 70
     1
102
RTVSPost2010Prop51ColorIndex
 90
      256
102
RTVSPost2010Prop51ColorRGB
 90
-16777216
102
RTVSPost2010PropOp51
 70
     0
102
RTVSPost2010Prop52
140
1.0
102
RTVSPost2010PropOp52
 70
     0
102
RTVSPost2010Prop53
 90
        2
102
RTVSPost2010PropOp53
 70
     1
102
RTVSPost2010Prop54
  1
strokes_ogs.tif
102
RTVSPost2010PropOp54
 70
     1
102
RTVSPost2010Prop55
280
     0
102
RTVSPost2010PropOp55
 70
     1
102
RTVSPost2010Prop56
140
1.0
102
RTVSPost2010PropOp56
 70
     1
102
RTVSPost2010Prop57
140
1.0
102
RTVSPost2010PropOp57
 70
     1
102
RTVSPropertyOp28
 70
     1
102
RTVSPropertyOp29
 70
     1
102
RTVSPropertyOp30
 70
     1
102
RTVSPropertyOp31
 70
     1
102
RTVSPropertyOp32
 70
     1
102
RTVSPropertyOp33
 70
     1
102
RTVSPropertyOp34
 70
     1
102
RTVSPropertyOp35
 70
     1
102
RTVSPropertyOp36
 70
     1
102
RTVSPropertyOp37
 70
     1
102
RTVSPropertyOp38
 70
     1
102
RTVSPropertyOp39
 70
     1
102
RTVSPropertyOp40
 70
     1
102
RTVSPropertyOp41
 70
     1
102
RTVSPropertyOp42
 70
     1
102
RTVSPropertyOp43
 70
     1
102
RTVSPropertyOp44
 70
     1
102
RTVSPropertyOp45
 70
     1
102
RTVSPropertyOp46
 70
     1
102
RTVSPropertyOp47
 70
     1
102
RTVSPropertyOp48
 70
     1
102
RTVSPropertyOp49
 70
     1
102
RTVSPropertyOp50
 70
     1
102
RTVSPropertyOp51
 70
     0
102
RTVSPropertyOp52
 70
     0
102
RTVSPropertyOp53
 70
     1
102
RTVSPropertyOp54
 70
     1
102
RTVSPropertyOp55
 70
     1
102
RTVSPropertyOp56
 70
     1
102
RTVSPropertyOp57
 70
     1
102
RTVSPropertyOp58
 70
     1
102
RTVSPropertyOp59
 70
     1
102
RTVSPropertyOp60
 70
     1
102
RTVSPropertyOp61
 70
     1
102
RTVSPropertyOp62
 70
     1
102
RTVSPropertyOp0
 70
     1
102
RTVSPropertyOp1
 70
     1
102
RTVSPropertyOp2
 70
     1
102
RTVSPropertyOp3
 70
     1
102
RTVSPropertyOp4
 70
     1
102
RTVSPropertyOp5
 70
     1
102
RTVSPropertyOp6
 70
     1
102
RTVSPropertyOp7
 70
     1
102
RTVSPropertyOp8
 70
     1
102
RTVSPropertyOp9
 70
     1
102
RTVSPropertyOp10
 70
     1
102
RTVSPropertyOp11
 70
     1
102
RTVSPropertyOp12
 70
     1
102
RTVSPropertyOp13
 70
     1
102
RTVSPropertyOp14
 70
     1
102
RTVSPropertyOp15
 70
     1
102
RTVSPropertyOp16
 70
     1
102
RTVSPropertyOp17
 70
     1
102
RTVSPropertyOp18
 70
     1
102
RTVSPropertyOp19
 70
     1
102
RTVSPropertyOp20
 70
     1
102
RTVSPropertyOp21
 70
     1
102
RTVSPropertyOp22
 70
     1
102
RTVSPropertyOp23
 70
     1
102
RTVSPropertyOp24
 70
     1
102
RTVSPropertyOp25
 70
     1
102
RTVSPropertyOp26
 70
     1
102
RTVSPropertyOp27
 70
     1
  0
XRECORD
  5
3476
102
{ACAD_REACTORS
330
3475
102
}
330
3475
100
AcDbXrecord
280
     1
102
RTVSPost2010Prop28
280
     0
102
RTVSPost2010PropOp28
 70
     1
102
RTVSPost2010Prop29
280
     1
102
RTVSPost2010PropOp29
 70
     1
102
RTVSPost2010Prop30
280
     1
102
RTVSPost2010PropOp30
 70
     1
102
RTVSPost2010Prop31
280
     0
102
RTVSPost2010PropOp31
 70
     1
102
RTVSPost2010Prop32
280
     0
102
RTVSPost2010PropOp32
 70
     1
102
RTVSPost2010Prop33
280
     0
102
RTVSPost2010PropOp33
 70
     1
102
RTVSPost2010Prop34
280
     0
102
RTVSPost2010PropOp34
 70
     1
102
RTVSPost2010Prop35
280
     0
102
RTVSPost2010PropOp35
 70
     1
102
RTVSPost2010Prop36
280
     0
102
RTVSPost2010PropOp36
 70
     1
102
RTVSPost2010Prop37
 90
       50
102
RTVSPost2010PropOp37
 70
     1
102
RTVSPost2010Prop38
140
0.0
102
RTVSPost2010PropOp38
 70
     1
102
RTVSPost2010Prop39
140
1.0
102
RTVSPost2010PropOp39
 70
     1
102
RTVSPost2010Prop40
 90
        0
102
RTVSPost2010PropOp40
 70
     1
102
RTVSPost2010Prop41ColorIndex
 90
       18
102
RTVSPost2010Prop41ColorRGB
 90
        0
102
RTVSPost2010PropOp41
 70
     1
102
RTVSPost2010Prop42
 90
       50
102
RTVSPost2010PropOp42
 70
     1
102
RTVSPost2010Prop43
 90
        3
102
RTVSPost2010PropOp43
 70
     1
102
RTVSPost2010Prop44ColorIndex
 90
        5
102
RTVSPost2010Prop44ColorRGB
 90
      255
102
RTVSPost2010PropOp44
 70
     1
102
RTVSPost2010Prop45
280
     0
102
RTVSPost2010PropOp45
 70
     1
102
RTVSPost2010Prop46
 90
       50
102
RTVSPost2010PropOp46
 70
     1
102
RTVSPost2010Prop47
 90
       50
102
RTVSPost2010PropOp47
 70
     1
102
RTVSPost2010Prop48
 90
       50
102
RTVSPost2010PropOp48
 70
     1
102
RTVSPost2010Prop49
280
     0
102
RTVSPost2010PropOp49
 70
     1
102
RTVSPost2010Prop50
 90
       50
102
RTVSPost2010PropOp50
 70
     1
102
RTVSPost2010Prop51ColorIndex
 90
      256
102
RTVSPost2010Prop51ColorRGB
 90
-16777216
102
RTVSPost2010PropOp51
 70
     0
102
RTVSPost2010Prop52
140
1.0
102
RTVSPost2010PropOp52
 70
     0
102
RTVSPost2010Prop53
 90
        2
102
RTVSPost2010PropOp53
 70
     1
102
RTVSPost2010Prop54
  1
strokes_ogs.tif
102
RTVSPost2010PropOp54
 70
     1
102
RTVSPost2010Prop55
280
     0
102
RTVSPost2010PropOp55
 70
     1
102
RTVSPost2010Prop56
140
1.0
102
RTVSPost2010PropOp56
 70
     1
102
RTVSPost2010Prop57
140
1.0
102
RTVSPost2010PropOp57
 70
     1
102
RTVSPropertyOp28
 70
     1
102
RTVSPropertyOp29
 70
     1
102
RTVSPropertyOp30
 70
     1
102
RTVSPropertyOp31
 70
     1
102
RTVSPropertyOp32
 70
     1
102
RTVSPropertyOp33
 70
     1
102
RTVSPropertyOp34
 70
     1
102
RTVSPropertyOp35
 70
     1
102
RTVSPropertyOp36
 70
     1
102
RTVSPropertyOp37
 70
     1
102
RTVSPropertyOp38
 70
     1
102
RTVSPropertyOp39
 70
     1
102
RTVSPropertyOp40
 70
     1
102
RTVSPropertyOp41
 70
     1
102
RTVSPropertyOp42
 70
     1
102
RTVSPropertyOp43
 70
     1
102
RTVSPropertyOp44
 70
     1
102
RTVSPropertyOp45
 70
     1
102
RTVSPropertyOp46
 70
     1
102
RTVSPropertyOp47
 70
     1
102
RTVSPropertyOp48
 70
     1
102
RTVSPropertyOp49
 70
     1
102
RTVSPropertyOp50
 70
     1
102
RTVSPropertyOp51
 70
     0
102
RTVSPropertyOp52
 70
     0
102
RTVSPropertyOp53
 70
     1
102
RTVSPropertyOp54
 70
     1
102
RTVSPropertyOp55
 70
     1
102
RTVSPropertyOp56
 70
     1
102
RTVSPropertyOp57
 70
     1
102
RTVSPropertyOp58
 70
     1
102
RTVSPropertyOp59
 70
     1
102
RTVSPropertyOp60
 70
     1
102
RTVSPropertyOp61
 70
     1
102
RTVSPropertyOp62
 70
     1
102
RTVSPropertyOp0
 70
     1
102
RTVSPropertyOp1
 70
     1
102
RTVSPropertyOp2
 70
     1
102
RTVSPropertyOp3
 70
     1
102
RTVSPropertyOp4
 70
     1
102
RTVSPropertyOp5
 70
     1
102
RTVSPropertyOp6
 70
     1
102
RTVSPropertyOp7
 70
     1
102
RTVSPropertyOp8
 70
     1
102
RTVSPropertyOp9
 70
     1
102
RTVSPropertyOp10
 70
     1
102
RTVSPropertyOp11
 70
     1
102
RTVSPropertyOp12
 70
     1
102
RTVSPropertyOp13
 70
     1
102
RTVSPropertyOp14
 70
     1
102
RTVSPropertyOp15
 70
     1
102
RTVSPropertyOp16
 70
     1
102
RTVSPropertyOp17
 70
     1
102
RTVSPropertyOp18
 70
     1
102
RTVSPropertyOp19
 70
     1
102
RTVSPropertyOp20
 70
     1
102
RTVSPropertyOp21
 70
     1
102
RTVSPropertyOp22
 70
     1
102
RTVSPropertyOp23
 70
     1
102
RTVSPropertyOp24
 70
     1
102
RTVSPropertyOp25
 70
     1
102
RTVSPropertyOp26
 70
     1
102
RTVSPropertyOp27
 70
     1
  0
XRECORD
  5
347A
102
{ACAD_REACTORS
330
3479
102
}
330
3479
100
AcDbXrecord
280
     1
102
RTVSPost2010Prop28
280
     0
102
RTVSPost2010PropOp28
 70
     1
102
RTVSPost2010Prop29
280
     1
102
RTVSPost2010PropOp29
 70
     1
102
RTVSPost2010Prop30
280
     1
102
RTVSPost2010PropOp30
 70
     1
102
RTVSPost2010Prop31
280
     0
102
RTVSPost2010PropOp31
 70
     1
102
RTVSPost2010Prop32
280
     0
102
RTVSPost2010PropOp32
 70
     1
102
RTVSPost2010Prop33
280
     0
102
RTVSPost2010PropOp33
 70
     1
102
RTVSPost2010Prop34
280
     0
102
RTVSPost2010PropOp34
 70
     1
102
RTVSPost2010Prop35
280
     0
102
RTVSPost2010PropOp35
 70
     1
102
RTVSPost2010Prop36
280
     0
102
RTVSPost2010PropOp36
 70
     1
102
RTVSPost2010Prop37
 90
       50
102
RTVSPost2010PropOp37
 70
     1
102
RTVSPost2010Prop38
140
0.0
102
RTVSPost2010PropOp38
 70
     1
102
RTVSPost2010Prop39
140
1.0
102
RTVSPost2010PropOp39
 70
     1
102
RTVSPost2010Prop40
 90
        0
102
RTVSPost2010PropOp40
 70
     1
102
RTVSPost2010Prop41ColorIndex
 90
       18
102
RTVSPost2010Prop41ColorRGB
 90
        0
102
RTVSPost2010PropOp41
 70
     1
102
RTVSPost2010Prop42
 90
       50
102
RTVSPost2010PropOp42
 70
     1
102
RTVSPost2010Prop43
 90
        3
102
RTVSPost2010PropOp43
 70
     1
102
RTVSPost2010Prop44ColorIndex
 90
        5
102
RTVSPost2010Prop44ColorRGB
 90
      255
102
RTVSPost2010PropOp44
 70
     1
102
RTVSPost2010Prop45
280
     0
102
RTVSPost2010PropOp45
 70
     1
102
RTVSPost2010Prop46
 90
       50
102
RTVSPost2010PropOp46
 70
     1
102
RTVSPost2010Prop47
 90
       50
102
RTVSPost2010PropOp47
 70
     1
102
RTVSPost2010Prop48
 90
       50
102
RTVSPost2010PropOp48
 70
     1
102
RTVSPost2010Prop49
280
     0
102
RTVSPost2010PropOp49
 70
     1
102
RTVSPost2010Prop50
 90
       50
102
RTVSPost2010PropOp50
 70
     1
102
RTVSPost2010Prop51ColorIndex
 90
      256
102
RTVSPost2010Prop51ColorRGB
 90
-16777216
102
RTVSPost2010PropOp51
 70
     0
102
RTVSPost2010Prop52
140
1.0
102
RTVSPost2010PropOp52
 70
     0
102
RTVSPost2010Prop53
 90
        2
102
RTVSPost2010PropOp53
 70
     1
102
RTVSPost2010Prop54
  1
strokes_ogs.tif
102
RTVSPost2010PropOp54
 70
     1
102
RTVSPost2010Prop55
280
     0
102
RTVSPost2010PropOp55
 70
     1
102
RTVSPost2010Prop56
140
1.0
102
RTVSPost2010PropOp56
 70
     1
102
RTVSPost2010Prop57
140
1.0
102
RTVSPost2010PropOp57
 70
     1
102
RTVSPropertyOp28
 70
     1
102
RTVSPropertyOp29
 70
     1
102
RTVSPropertyOp30
 70
     1
102
RTVSPropertyOp31
 70
     1
102
RTVSPropertyOp32
 70
     1
102
RTVSPropertyOp33
 70
     1
102
RTVSPropertyOp34
 70
     1
102
RTVSPropertyOp35
 70
     1
102
RTVSPropertyOp36
 70
     1
102
RTVSPropertyOp37
 70
     1
102
RTVSPropertyOp38
 70
     1
102
RTVSPropertyOp39
 70
     1
102
RTVSPropertyOp40
 70
     1
102
RTVSPropertyOp41
 70
     1
102
RTVSPropertyOp42
 70
     1
102
RTVSPropertyOp43
 70
     1
102
RTVSPropertyOp44
 70
     1
102
RTVSPropertyOp45
 70
     1
102
RTVSPropertyOp46
 70
     1
102
RTVSPropertyOp47
 70
     1
102
RTVSPropertyOp48
 70
     1
102
RTVSPropertyOp49
 70
     1
102
RTVSPropertyOp50
 70
     1
102
RTVSPropertyOp51
 70
     0
102
RTVSPropertyOp52
 70
     0
102
RTVSPropertyOp53
 70
     1
102
RTVSPropertyOp54
 70
     1
102
RTVSPropertyOp55
 70
     1
102
RTVSPropertyOp56
 70
     1
102
RTVSPropertyOp57
 70
     1
102
RTVSPropertyOp58
 70
     1
102
RTVSPropertyOp59
 70
     1
102
RTVSPropertyOp60
 70
     1
102
RTVSPropertyOp61
 70
     1
102
RTVSPropertyOp62
 70
     1
102
RTVSPropertyOp0
 70
     1
102
RTVSPropertyOp1
 70
     1
102
RTVSPropertyOp2
 70
     1
102
RTVSPropertyOp3
 70
     1
102
RTVSPropertyOp4
 70
     1
102
RTVSPropertyOp5
 70
     1
102
RTVSPropertyOp6
 70
     1
102
RTVSPropertyOp7
 70
     1
102
RTVSPropertyOp8
 70
     1
102
RTVSPropertyOp9
 70
     1
102
RTVSPropertyOp10
 70
     1
102
RTVSPropertyOp11
 70
     1
102
RTVSPropertyOp12
 70
     1
102
RTVSPropertyOp13
 70
     1
102
RTVSPropertyOp14
 70
     1
102
RTVSPropertyOp15
 70
     1
102
RTVSPropertyOp16
 70
     1
102
RTVSPropertyOp17
 70
     1
102
RTVSPropertyOp18
 70
     1
102
RTVSPropertyOp19
 70
     1
102
RTVSPropertyOp20
 70
     1
102
RTVSPropertyOp21
 70
     1
102
RTVSPropertyOp22
 70
     1
102
RTVSPropertyOp23
 70
     1
102
RTVSPropertyOp24
 70
     1
102
RTVSPropertyOp25
 70
     1
102
RTVSPropertyOp26
 70
     1
102
RTVSPropertyOp27
 70
     1
  0
XRECORD
  5
3499
102
{ACAD_REACTORS
330
3498
102
}
330
3498
100
AcDbXrecord
280
     1
102
RTVSPost2010Prop28
280
     0
102
RTVSPost2010PropOp28
 70
     0
102
RTVSPost2010Prop29
280
     1
102
RTVSPost2010PropOp29
 70
     0
102
RTVSPost2010Prop30
280
     1
102
RTVSPost2010PropOp30
 70
     0
102
RTVSPost2010Prop31
280
     0
102
RTVSPost2010PropOp31
 70
     0
102
RTVSPost2010Prop32
280
     0
102
RTVSPost2010PropOp32
 70
     0
102
RTVSPost2010Prop33
280
     0
102
RTVSPost2010PropOp33
 70
     0
102
RTVSPost2010Prop34
280
     0
102
RTVSPost2010PropOp34
 70
     0
102
RTVSPost2010Prop35
280
     0
102
RTVSPost2010PropOp35
 70
     0
102
RTVSPost2010Prop36
280
     0
102
RTVSPost2010PropOp36
 70
     0
102
RTVSPost2010Prop37
 90
       50
102
RTVSPost2010PropOp37
 70
     0
102
RTVSPost2010Prop38
140
0.0
102
RTVSPost2010PropOp38
 70
     0
102
RTVSPost2010Prop39
140
1.0
102
RTVSPost2010PropOp39
 70
     0
102
RTVSPost2010Prop40
 90
        0
102
RTVSPost2010PropOp40
 70
     0
102
RTVSPost2010Prop41ColorIndex
 90
       18
102
RTVSPost2010Prop41ColorRGB
 90
        0
102
RTVSPost2010PropOp41
 70
     0
102
RTVSPost2010Prop42
 90
       50
102
RTVSPost2010PropOp42
 70
     0
102
RTVSPost2010Prop43
 90
        3
102
RTVSPost2010PropOp43
 70
     0
102
RTVSPost2010Prop44ColorIndex
 90
        5
102
RTVSPost2010Prop44ColorRGB
 90
      255
102
RTVSPost2010PropOp44
 70
     0
102
RTVSPost2010Prop45
280
     0
102
RTVSPost2010PropOp45
 70
     0
102
RTVSPost2010Prop46
 90
       50
102
RTVSPost2010PropOp46
 70
     0
102
RTVSPost2010Prop47
 90
       50
102
RTVSPost2010PropOp47
 70
     0
102
RTVSPost2010Prop48
 90
       50
102
RTVSPost2010PropOp48
 70
     0
102
RTVSPost2010Prop49
280
     0
102
RTVSPost2010PropOp49
 70
     0
102
RTVSPost2010Prop50
 90
       50
102
RTVSPost2010PropOp50
 70
     0
102
RTVSPost2010Prop51ColorIndex
 90
      256
102
RTVSPost2010Prop51ColorRGB
 90
-16777216
102
RTVSPost2010PropOp51
 70
     0
102
RTVSPost2010Prop52
140
1.0
102
RTVSPost2010PropOp52
 70
     0
102
RTVSPost2010Prop53
 90
        2
102
RTVSPost2010PropOp53
 70
     0
102
RTVSPost2010Prop54
  1
strokes_ogs.tif
102
RTVSPost2010PropOp54
 70
     0
102
RTVSPost2010Prop55
280
     0
102
RTVSPost2010PropOp55
 70
     0
102
RTVSPost2010Prop56
140
1.0
102
RTVSPost2010PropOp56
 70
     0
102
RTVSPost2010Prop57
140
1.0
102
RTVSPost2010PropOp57
 70
     0
102
RTVSPropertyOp28
 70
     0
102
RTVSPropertyOp29
 70
     0
102
RTVSPropertyOp30
 70
     0
102
RTVSPropertyOp31
 70
     0
102
RTVSPropertyOp32
 70
     0
102
RTVSPropertyOp33
 70
     0
102
RTVSPropertyOp34
 70
     0
102
RTVSPropertyOp35
 70
     0
102
RTVSPropertyOp36
 70
     0
102
RTVSPropertyOp37
 70
     0
102
RTVSPropertyOp38
 70
     0
102
RTVSPropertyOp39
 70
     0
102
RTVSPropertyOp40
 70
     0
102
RTVSPropertyOp41
 70
     0
102
RTVSPropertyOp42
 70
     0
102
RTVSPropertyOp43
 70
     0
102
RTVSPropertyOp44
 70
     0
102
RTVSPropertyOp45
 70
     0
102
RTVSPropertyOp46
 70
     0
102
RTVSPropertyOp47
 70
     0
102
RTVSPropertyOp48
 70
     0
102
RTVSPropertyOp49
 70
     0
102
RTVSPropertyOp50
 70
     0
102
RTVSPropertyOp51
 70
     0
102
RTVSPropertyOp52
 70
     0
102
RTVSPropertyOp53
 70
     0
102
RTVSPropertyOp54
 70
     0
102
RTVSPropertyOp55
 70
     0
102
RTVSPropertyOp56
 70
     0
102
RTVSPropertyOp57
 70
     0
102
RTVSPropertyOp58
 70
     0
102
RTVSPropertyOp59
 70
     0
102
RTVSPropertyOp60
 70
     0
102
RTVSPropertyOp61
 70
     0
102
RTVSPropertyOp62
 70
     0
102
RTVSPropertyOp0
 70
     0
102
RTVSPropertyOp1
 70
     0
102
RTVSPropertyOp2
 70
     0
102
RTVSPropertyOp3
 70
     0
102
RTVSPropertyOp4
 70
     0
102
RTVSPropertyOp5
 70
     0
102
RTVSPropertyOp6
 70
     0
102
RTVSPropertyOp7
 70
     0
102
RTVSPropertyOp8
 70
     0
102
RTVSPropertyOp9
 70
     0
102
RTVSPropertyOp10
 70
     0
102
RTVSPropertyOp11
 70
     0
102
RTVSPropertyOp12
 70
     0
102
RTVSPropertyOp13
 70
     0
102
RTVSPropertyOp14
 70
     2
102
RTVSPropertyOp15
 70
     0
102
RTVSPropertyOp16
 70
     0
102
RTVSPropertyOp17
 70
     0
102
RTVSPropertyOp18
 70
     0
102
RTVSPropertyOp19
 70
     0
102
RTVSPropertyOp20
 70
     0
102
RTVSPropertyOp21
 70
     0
102
RTVSPropertyOp22
 70
     0
102
RTVSPropertyOp23
 70
     0
102
RTVSPropertyOp24
 70
     0
102
RTVSPropertyOp25
 70
     0
102
RTVSPropertyOp26
 70
     0
102
RTVSPropertyOp27
 70
     0
  0
XRECORD
  5
3482
102
{ACAD_REACTORS
330
3481
102
}
330
3481
100
AcDbXrecord
280
     1
102
RTVSPost2010Prop28
280
     0
102
RTVSPost2010PropOp28
 70
     1
102
RTVSPost2010Prop29
280
     1
102
RTVSPost2010PropOp29
 70
     1
102
RTVSPost2010Prop30
280
     1
102
RTVSPost2010PropOp30
 70
     1
102
RTVSPost2010Prop31
280
     0
102
RTVSPost2010PropOp31
 70
     1
102
RTVSPost2010Prop32
280
     0
102
RTVSPost2010PropOp32
 70
     1
102
RTVSPost2010Prop33
280
     0
102
RTVSPost2010PropOp33
 70
     1
102
RTVSPost2010Prop34
280
     0
102
RTVSPost2010PropOp34
 70
     1
102
RTVSPost2010Prop35
280
     0
102
RTVSPost2010PropOp35
 70
     1
102
RTVSPost2010Prop36
280
     0
102
RTVSPost2010PropOp36
 70
     1
102
RTVSPost2010Prop37
 90
       50
102
RTVSPost2010PropOp37
 70
     1
102
RTVSPost2010Prop38
140
0.0
102
RTVSPost2010PropOp38
 70
     1
102
RTVSPost2010Prop39
140
1.0
102
RTVSPost2010PropOp39
 70
     1
102
RTVSPost2010Prop40
 90
        0
102
RTVSPost2010PropOp40
 70
     1
102
RTVSPost2010Prop41ColorIndex
 90
       18
102
RTVSPost2010Prop41ColorRGB
 90
        0
102
RTVSPost2010PropOp41
 70
     1
102
RTVSPost2010Prop42
 90
       50
102
RTVSPost2010PropOp42
 70
     1
102
RTVSPost2010Prop43
 90
        3
102
RTVSPost2010PropOp43
 70
     1
102
RTVSPost2010Prop44ColorIndex
 90
        5
102
RTVSPost2010Prop44ColorRGB
 90
      255
102
RTVSPost2010PropOp44
 70
     1
102
RTVSPost2010Prop45
280
     0
102
RTVSPost2010PropOp45
 70
     1
102
RTVSPost2010Prop46
 90
       50
102
RTVSPost2010PropOp46
 70
     1
102
RTVSPost2010Prop47
 90
       50
102
RTVSPost2010PropOp47
 70
     1
102
RTVSPost2010Prop48
 90
       50
102
RTVSPost2010PropOp48
 70
     1
102
RTVSPost2010Prop49
280
     0
102
RTVSPost2010PropOp49
 70
     1
102
RTVSPost2010Prop50
 90
       50
102
RTVSPost2010PropOp50
 70
     1
102
RTVSPost2010Prop51ColorIndex
 90
      256
102
RTVSPost2010Prop51ColorRGB
 90
-16777216
102
RTVSPost2010PropOp51
 70
     0
102
RTVSPost2010Prop52
140
1.0
102
RTVSPost2010PropOp52
 70
     0
102
RTVSPost2010Prop53
 90
        2
102
RTVSPost2010PropOp53
 70
     1
102
RTVSPost2010Prop54
  1
strokes_ogs.tif
102
RTVSPost2010PropOp54
 70
     1
102
RTVSPost2010Prop55
280
     0
102
RTVSPost2010PropOp55
 70
     1
102
RTVSPost2010Prop56
140
1.0
102
RTVSPost2010PropOp56
 70
     1
102
RTVSPost2010Prop57
140
1.0
102
RTVSPost2010PropOp57
 70
     1
102
RTVSPropertyOp28
 70
     1
102
RTVSPropertyOp29
 70
     1
102
RTVSPropertyOp30
 70
     1
102
RTVSPropertyOp31
 70
     1
102
RTVSPropertyOp32
 70
     1
102
RTVSPropertyOp33
 70
     1
102
RTVSPropertyOp34
 70
     1
102
RTVSPropertyOp35
 70
     1
102
RTVSPropertyOp36
 70
     1
102
RTVSPropertyOp37
 70
     1
102
RTVSPropertyOp38
 70
     1
102
RTVSPropertyOp39
 70
     1
102
RTVSPropertyOp40
 70
     1
102
RTVSPropertyOp41
 70
     1
102
RTVSPropertyOp42
 70
     1
102
RTVSPropertyOp43
 70
     1
102
RTVSPropertyOp44
 70
     1
102
RTVSPropertyOp45
 70
     1
102
RTVSPropertyOp46
 70
     1
102
RTVSPropertyOp47
 70
     1
102
RTVSPropertyOp48
 70
     1
102
RTVSPropertyOp49
 70
     1
102
RTVSPropertyOp50
 70
     1
102
RTVSPropertyOp51
 70
     0
102
RTVSPropertyOp52
 70
     0
102
RTVSPropertyOp53
 70
     1
102
RTVSPropertyOp54
 70
     1
102
RTVSPropertyOp55
 70
     1
102
RTVSPropertyOp56
 70
     1
102
RTVSPropertyOp57
 70
     1
102
RTVSPropertyOp58
 70
     1
102
RTVSPropertyOp59
 70
     1
102
RTVSPropertyOp60
 70
     1
102
RTVSPropertyOp61
 70
     1
102
RTVSPropertyOp62
 70
     1
102
RTVSPropertyOp0
 70
     1
102
RTVSPropertyOp1
 70
     1
102
RTVSPropertyOp2
 70
     1
102
RTVSPropertyOp3
 70
     1
102
RTVSPropertyOp4
 70
     1
102
RTVSPropertyOp5
 70
     1
102
RTVSPropertyOp6
 70
     1
102
RTVSPropertyOp7
 70
     1
102
RTVSPropertyOp8
 70
     1
102
RTVSPropertyOp9
 70
     1
102
RTVSPropertyOp10
 70
     1
102
RTVSPropertyOp11
 70
     1
102
RTVSPropertyOp12
 70
     1
102
RTVSPropertyOp13
 70
     1
102
RTVSPropertyOp14
 70
     1
102
RTVSPropertyOp15
 70
     1
102
RTVSPropertyOp16
 70
     1
102
RTVSPropertyOp17
 70
     1
102
RTVSPropertyOp18
 70
     1
102
RTVSPropertyOp19
 70
     1
102
RTVSPropertyOp20
 70
     1
102
RTVSPropertyOp21
 70
     1
102
RTVSPropertyOp22
 70
     1
102
RTVSPropertyOp23
 70
     1
102
RTVSPropertyOp24
 70
     1
102
RTVSPropertyOp25
 70
     1
102
RTVSPropertyOp26
 70
     1
102
RTVSPropertyOp27
 70
     1
  0
XRECORD
  5
3466
102
{ACAD_REACTORS
330
3465
102
}
330
3465
100
AcDbXrecord
280
     1
102
RTVSPost2010Prop28
280
     0
102
RTVSPost2010PropOp28
 70
     1
102
RTVSPost2010Prop29
280
     1
102
RTVSPost2010PropOp29
 70
     1
102
RTVSPost2010Prop30
280
     1
102
RTVSPost2010PropOp30
 70
     1
102
RTVSPost2010Prop31
280
     0
102
RTVSPost2010PropOp31
 70
     1
102
RTVSPost2010Prop32
280
     0
102
RTVSPost2010PropOp32
 70
     1
102
RTVSPost2010Prop33
280
     0
102
RTVSPost2010PropOp33
 70
     1
102
RTVSPost2010Prop34
280
     0
102
RTVSPost2010PropOp34
 70
     1
102
RTVSPost2010Prop35
280
     0
102
RTVSPost2010PropOp35
 70
     1
102
RTVSPost2010Prop36
280
     0
102
RTVSPost2010PropOp36
 70
     1
102
RTVSPost2010Prop37
 90
       50
102
RTVSPost2010PropOp37
 70
     1
102
RTVSPost2010Prop38
140
0.0
102
RTVSPost2010PropOp38
 70
     1
102
RTVSPost2010Prop39
140
1.0
102
RTVSPost2010PropOp39
 70
     1
102
RTVSPost2010Prop40
 90
        0
102
RTVSPost2010PropOp40
 70
     1
102
RTVSPost2010Prop41ColorIndex
 90
       18
102
RTVSPost2010Prop41ColorRGB
 90
        0
102
RTVSPost2010PropOp41
 70
     1
102
RTVSPost2010Prop42
 90
       50
102
RTVSPost2010PropOp42
 70
     1
102
RTVSPost2010Prop43
 90
        3
102
RTVSPost2010PropOp43
 70
     1
102
RTVSPost2010Prop44ColorIndex
 90
        5
102
RTVSPost2010Prop44ColorRGB
 90
      255
102
RTVSPost2010PropOp44
 70
     1
102
RTVSPost2010Prop45
280
     0
102
RTVSPost2010PropOp45
 70
     1
102
RTVSPost2010Prop46
 90
       50
102
RTVSPost2010PropOp46
 70
     1
102
RTVSPost2010Prop47
 90
       50
102
RTVSPost2010PropOp47
 70
     1
102
RTVSPost2010Prop48
 90
       50
102
RTVSPost2010PropOp48
 70
     1
102
RTVSPost2010Prop49
280
     0
102
RTVSPost2010PropOp49
 70
     1
102
RTVSPost2010Prop50
 90
       50
102
RTVSPost2010PropOp50
 70
     1
102
RTVSPost2010Prop51ColorIndex
 90
      256
102
RTVSPost2010Prop51ColorRGB
 90
-16777216
102
RTVSPost2010PropOp51
 70
     0
102
RTVSPost2010Prop52
140
1.0
102
RTVSPost2010PropOp52
 70
     0
102
RTVSPost2010Prop53
 90
        2
102
RTVSPost2010PropOp53
 70
     1
102
RTVSPost2010Prop54
  1
strokes_ogs.tif
102
RTVSPost2010PropOp54
 70
     1
102
RTVSPost2010Prop55
280
     0
102
RTVSPost2010PropOp55
 70
     1
102
RTVSPost2010Prop56
140
1.0
102
RTVSPost2010PropOp56
 70
     1
102
RTVSPost2010Prop57
140
1.0
102
RTVSPost2010PropOp57
 70
     1
102
RTVSPropertyOp28
 70
     1
102
RTVSPropertyOp29
 70
     1
102
RTVSPropertyOp30
 70
     1
102
RTVSPropertyOp31
 70
     1
102
RTVSPropertyOp32
 70
     1
102
RTVSPropertyOp33
 70
     1
102
RTVSPropertyOp34
 70
     1
102
RTVSPropertyOp35
 70
     1
102
RTVSPropertyOp36
 70
     1
102
RTVSPropertyOp37
 70
     1
102
RTVSPropertyOp38
 70
     1
102
RTVSPropertyOp39
 70
     1
102
RTVSPropertyOp40
 70
     1
102
RTVSPropertyOp41
 70
     1
102
RTVSPropertyOp42
 70
     1
102
RTVSPropertyOp43
 70
     1
102
RTVSPropertyOp44
 70
     1
102
RTVSPropertyOp45
 70
     1
102
RTVSPropertyOp46
 70
     1
102
RTVSPropertyOp47
 70
     1
102
RTVSPropertyOp48
 70
     1
102
RTVSPropertyOp49
 70
     1
102
RTVSPropertyOp50
 70
     1
102
RTVSPropertyOp51
 70
     0
102
RTVSPropertyOp52
 70
     0
102
RTVSPropertyOp53
 70
     1
102
RTVSPropertyOp54
 70
     1
102
RTVSPropertyOp55
 70
     1
102
RTVSPropertyOp56
 70
     1
102
RTVSPropertyOp57
 70
     1
102
RTVSPropertyOp58
 70
     1
102
RTVSPropertyOp59
 70
     1
102
RTVSPropertyOp60
 70
     1
102
RTVSPropertyOp61
 70
     1
102
RTVSPropertyOp62
 70
     1
102
RTVSPropertyOp0
 70
     1
102
RTVSPropertyOp1
 70
     1
102
RTVSPropertyOp2
 70
     1
102
RTVSPropertyOp3
 70
     1
102
RTVSPropertyOp4
 70
     1
102
RTVSPropertyOp5
 70
     1
102
RTVSPropertyOp6
 70
     1
102
RTVSPropertyOp7
 70
     1
102
RTVSPropertyOp8
 70
     1
102
RTVSPropertyOp9
 70
     1
102
RTVSPropertyOp10
 70
     1
102
RTVSPropertyOp11
 70
     1
102
RTVSPropertyOp12
 70
     1
102
RTVSPropertyOp13
 70
     1
102
RTVSPropertyOp14
 70
     1
102
RTVSPropertyOp15
 70
     1
102
RTVSPropertyOp16
 70
     1
102
RTVSPropertyOp17
 70
     1
102
RTVSPropertyOp18
 70
     1
102
RTVSPropertyOp19
 70
     1
102
RTVSPropertyOp20
 70
     1
102
RTVSPropertyOp21
 70
     1
102
RTVSPropertyOp22
 70
     1
102
RTVSPropertyOp23
 70
     1
102
RTVSPropertyOp24
 70
     1
102
RTVSPropertyOp25
 70
     1
102
RTVSPropertyOp26
 70
     1
102
RTVSPropertyOp27
 70
     1
  0
XRECORD
  5
3468
102
{ACAD_REACTORS
330
3467
102
}
330
3467
100
AcDbXrecord
280
     1
102
RTVSPost2010Prop28
280
     0
102
RTVSPost2010PropOp28
 70
     1
102
RTVSPost2010Prop29
280
     1
102
RTVSPost2010PropOp29
 70
     1
102
RTVSPost2010Prop30
280
     1
102
RTVSPost2010PropOp30
 70
     1
102
RTVSPost2010Prop31
280
     0
102
RTVSPost2010PropOp31
 70
     1
102
RTVSPost2010Prop32
280
     0
102
RTVSPost2010PropOp32
 70
     1
102
RTVSPost2010Prop33
280
     0
102
RTVSPost2010PropOp33
 70
     1
102
RTVSPost2010Prop34
280
     0
102
RTVSPost2010PropOp34
 70
     1
102
RTVSPost2010Prop35
280
     0
102
RTVSPost2010PropOp35
 70
     1
102
RTVSPost2010Prop36
280
     0
102
RTVSPost2010PropOp36
 70
     1
102
RTVSPost2010Prop37
 90
       50
102
RTVSPost2010PropOp37
 70
     1
102
RTVSPost2010Prop38
140
0.0
102
RTVSPost2010PropOp38
 70
     1
102
RTVSPost2010Prop39
140
1.0
102
RTVSPost2010PropOp39
 70
     1
102
RTVSPost2010Prop40
 90
        0
102
RTVSPost2010PropOp40
 70
     1
102
RTVSPost2010Prop41ColorIndex
 90
       18
102
RTVSPost2010Prop41ColorRGB
 90
        0
102
RTVSPost2010PropOp41
 70
     1
102
RTVSPost2010Prop42
 90
       50
102
RTVSPost2010PropOp42
 70
     1
102
RTVSPost2010Prop43
 90
        3
102
RTVSPost2010PropOp43
 70
     1
102
RTVSPost2010Prop44ColorIndex
 90
        5
102
RTVSPost2010Prop44ColorRGB
 90
      255
102
RTVSPost2010PropOp44
 70
     1
102
RTVSPost2010Prop45
280
     0
102
RTVSPost2010PropOp45
 70
     1
102
RTVSPost2010Prop46
 90
       50
102
RTVSPost2010PropOp46
 70
     1
102
RTVSPost2010Prop47
 90
       50
102
RTVSPost2010PropOp47
 70
     1
102
RTVSPost2010Prop48
 90
       50
102
RTVSPost2010PropOp48
 70
     1
102
RTVSPost2010Prop49
280
     0
102
RTVSPost2010PropOp49
 70
     1
102
RTVSPost2010Prop50
 90
       50
102
RTVSPost2010PropOp50
 70
     1
102
RTVSPost2010Prop51ColorIndex
 90
      256
102
RTVSPost2010Prop51ColorRGB
 90
-16777216
102
RTVSPost2010PropOp51
 70
     0
102
RTVSPost2010Prop52
140
1.0
102
RTVSPost2010PropOp52
 70
     0
102
RTVSPost2010Prop53
 90
        2
102
RTVSPost2010PropOp53
 70
     1
102
RTVSPost2010Prop54
  1
strokes_ogs.tif
102
RTVSPost2010PropOp54
 70
     1
102
RTVSPost2010Prop55
280
     0
102
RTVSPost2010PropOp55
 70
     1
102
RTVSPost2010Prop56
140
1.0
102
RTVSPost2010PropOp56
 70
     1
102
RTVSPost2010Prop57
140
1.0
102
RTVSPost2010PropOp57
 70
     1
102
RTVSPropertyOp28
 70
     1
102
RTVSPropertyOp29
 70
     1
102
RTVSPropertyOp30
 70
     1
102
RTVSPropertyOp31
 70
     1
102
RTVSPropertyOp32
 70
     1
102
RTVSPropertyOp33
 70
     1
102
RTVSPropertyOp34
 70
     1
102
RTVSPropertyOp35
 70
     1
102
RTVSPropertyOp36
 70
     1
102
RTVSPropertyOp37
 70
     1
102
RTVSPropertyOp38
 70
     1
102
RTVSPropertyOp39
 70
     1
102
RTVSPropertyOp40
 70
     1
102
RTVSPropertyOp41
 70
     1
102
RTVSPropertyOp42
 70
     1
102
RTVSPropertyOp43
 70
     1
102
RTVSPropertyOp44
 70
     1
102
RTVSPropertyOp45
 70
     1
102
RTVSPropertyOp46
 70
     1
102
RTVSPropertyOp47
 70
     1
102
RTVSPropertyOp48
 70
     1
102
RTVSPropertyOp49
 70
     1
102
RTVSPropertyOp50
 70
     1
102
RTVSPropertyOp51
 70
     0
102
RTVSPropertyOp52
 70
     0
102
RTVSPropertyOp53
 70
     1
102
RTVSPropertyOp54
 70
     1
102
RTVSPropertyOp55
 70
     1
102
RTVSPropertyOp56
 70
     1
102
RTVSPropertyOp57
 70
     1
102
RTVSPropertyOp58
 70
     1
102
RTVSPropertyOp59
 70
     1
102
RTVSPropertyOp60
 70
     1
102
RTVSPropertyOp61
 70
     1
102
RTVSPropertyOp62
 70
     1
102
RTVSPropertyOp0
 70
     1
102
RTVSPropertyOp1
 70
     1
102
RTVSPropertyOp2
 70
     1
102
RTVSPropertyOp3
 70
     1
102
RTVSPropertyOp4
 70
     1
102
RTVSPropertyOp5
 70
     1
102
RTVSPropertyOp6
 70
     1
102
RTVSPropertyOp7
 70
     1
102
RTVSPropertyOp8
 70
     1
102
RTVSPropertyOp9
 70
     1
102
RTVSPropertyOp10
 70
     1
102
RTVSPropertyOp11
 70
     1
102
RTVSPropertyOp12
 70
     1
102
RTVSPropertyOp13
 70
     1
102
RTVSPropertyOp14
 70
     1
102
RTVSPropertyOp15
 70
     1
102
RTVSPropertyOp16
 70
     1
102
RTVSPropertyOp17
 70
     1
102
RTVSPropertyOp18
 70
     1
102
RTVSPropertyOp19
 70
     1
102
RTVSPropertyOp20
 70
     1
102
RTVSPropertyOp21
 70
     1
102
RTVSPropertyOp22
 70
     1
102
RTVSPropertyOp23
 70
     1
102
RTVSPropertyOp24
 70
     1
102
RTVSPropertyOp25
 70
     1
102
RTVSPropertyOp26
 70
     1
102
RTVSPropertyOp27
 70
     1
  0
XRECORD
  5
346A
102
{ACAD_REACTORS
330
3469
102
}
330
3469
100
AcDbXrecord
280
     1
102
RTVSPost2010Prop28
280
     0
102
RTVSPost2010PropOp28
 70
     1
102
RTVSPost2010Prop29
280
     1
102
RTVSPost2010PropOp29
 70
     1
102
RTVSPost2010Prop30
280
     1
102
RTVSPost2010PropOp30
 70
     1
102
RTVSPost2010Prop31
280
     0
102
RTVSPost2010PropOp31
 70
     1
102
RTVSPost2010Prop32
280
     0
102
RTVSPost2010PropOp32
 70
     1
102
RTVSPost2010Prop33
280
     0
102
RTVSPost2010PropOp33
 70
     1
102
RTVSPost2010Prop34
280
     0
102
RTVSPost2010PropOp34
 70
     1
102
RTVSPost2010Prop35
280
     0
102
RTVSPost2010PropOp35
 70
     1
102
RTVSPost2010Prop36
280
     0
102
RTVSPost2010PropOp36
 70
     1
102
RTVSPost2010Prop37
 90
       50
102
RTVSPost2010PropOp37
 70
     1
102
RTVSPost2010Prop38
140
0.0
102
RTVSPost2010PropOp38
 70
     1
102
RTVSPost2010Prop39
140
1.0
102
RTVSPost2010PropOp39
 70
     1
102
RTVSPost2010Prop40
 90
        0
102
RTVSPost2010PropOp40
 70
     1
102
RTVSPost2010Prop41ColorIndex
 90
       18
102
RTVSPost2010Prop41ColorRGB
 90
        0
102
RTVSPost2010PropOp41
 70
     1
102
RTVSPost2010Prop42
 90
       50
102
RTVSPost2010PropOp42
 70
     1
102
RTVSPost2010Prop43
 90
        3
102
RTVSPost2010PropOp43
 70
     1
102
RTVSPost2010Prop44ColorIndex
 90
        5
102
RTVSPost2010Prop44ColorRGB
 90
      255
102
RTVSPost2010PropOp44
 70
     1
102
RTVSPost2010Prop45
280
     0
102
RTVSPost2010PropOp45
 70
     1
102
RTVSPost2010Prop46
 90
       50
102
RTVSPost2010PropOp46
 70
     1
102
RTVSPost2010Prop47
 90
       50
102
RTVSPost2010PropOp47
 70
     1
102
RTVSPost2010Prop48
 90
       50
102
RTVSPost2010PropOp48
 70
     1
102
RTVSPost2010Prop49
280
     0
102
RTVSPost2010PropOp49
 70
     1
102
RTVSPost2010Prop50
 90
       50
102
RTVSPost2010PropOp50
 70
     1
102
RTVSPost2010Prop51ColorIndex
 90
      256
102
RTVSPost2010Prop51ColorRGB
 90
-16777216
102
RTVSPost2010PropOp51
 70
     0
102
RTVSPost2010Prop52
140
1.0
102
RTVSPost2010PropOp52
 70
     0
102
RTVSPost2010Prop53
 90
        2
102
RTVSPost2010PropOp53
 70
     1
102
RTVSPost2010Prop54
  1
strokes_ogs.tif
102
RTVSPost2010PropOp54
 70
     1
102
RTVSPost2010Prop55
280
     0
102
RTVSPost2010PropOp55
 70
     1
102
RTVSPost2010Prop56
140
1.0
102
RTVSPost2010PropOp56
 70
     1
102
RTVSPost2010Prop57
140
1.0
102
RTVSPost2010PropOp57
 70
     1
102
RTVSPropertyOp28
 70
     1
102
RTVSPropertyOp29
 70
     1
102
RTVSPropertyOp30
 70
     1
102
RTVSPropertyOp31
 70
     1
102
RTVSPropertyOp32
 70
     1
102
RTVSPropertyOp33
 70
     1
102
RTVSPropertyOp34
 70
     1
102
RTVSPropertyOp35
 70
     1
102
RTVSPropertyOp36
 70
     1
102
RTVSPropertyOp37
 70
     1
102
RTVSPropertyOp38
 70
     1
102
RTVSPropertyOp39
 70
     1
102
RTVSPropertyOp40
 70
     1
102
RTVSPropertyOp41
 70
     1
102
RTVSPropertyOp42
 70
     1
102
RTVSPropertyOp43
 70
     1
102
RTVSPropertyOp44
 70
     1
102
RTVSPropertyOp45
 70
     1
102
RTVSPropertyOp46
 70
     1
102
RTVSPropertyOp47
 70
     1
102
RTVSPropertyOp48
 70
     1
102
RTVSPropertyOp49
 70
     1
102
RTVSPropertyOp50
 70
     1
102
RTVSPropertyOp51
 70
     0
102
RTVSPropertyOp52
 70
     0
102
RTVSPropertyOp53
 70
     1
102
RTVSPropertyOp54
 70
     1
102
RTVSPropertyOp55
 70
     1
102
RTVSPropertyOp56
 70
     1
102
RTVSPropertyOp57
 70
     1
102
RTVSPropertyOp58
 70
     1
102
RTVSPropertyOp59
 70
     1
102
RTVSPropertyOp60
 70
     1
102
RTVSPropertyOp61
 70
     1
102
RTVSPropertyOp62
 70
     1
102
RTVSPropertyOp0
 70
     1
102
RTVSPropertyOp1
 70
     1
102
RTVSPropertyOp2
 70
     1
102
RTVSPropertyOp3
 70
     1
102
RTVSPropertyOp4
 70
     1
102
RTVSPropertyOp5
 70
     1
102
RTVSPropertyOp6
 70
     1
102
RTVSPropertyOp7
 70
     1
102
RTVSPropertyOp8
 70
     1
102
RTVSPropertyOp9
 70
     1
102
RTVSPropertyOp10
 70
     1
102
RTVSPropertyOp11
 70
     1
102
RTVSPropertyOp12
 70
     1
102
RTVSPropertyOp13
 70
     1
102
RTVSPropertyOp14
 70
     1
102
RTVSPropertyOp15
 70
     1
102
RTVSPropertyOp16
 70
     1
102
RTVSPropertyOp17
 70
     1
102
RTVSPropertyOp18
 70
     1
102
RTVSPropertyOp19
 70
     1
102
RTVSPropertyOp20
 70
     1
102
RTVSPropertyOp21
 70
     1
102
RTVSPropertyOp22
 70
     1
102
RTVSPropertyOp23
 70
     1
102
RTVSPropertyOp24
 70
     1
102
RTVSPropertyOp25
 70
     1
102
RTVSPropertyOp26
 70
     1
102
RTVSPropertyOp27
 70
     1
  0
XRECORD
  5
346C
102
{ACAD_REACTORS
330
346B
102
}
330
346B
100
AcDbXrecord
280
     1
102
RTVSPost2010Prop28
280
     0
102
RTVSPost2010PropOp28
 70
     1
102
RTVSPost2010Prop29
280
     1
102
RTVSPost2010PropOp29
 70
     1
102
RTVSPost2010Prop30
280
     1
102
RTVSPost2010PropOp30
 70
     1
102
RTVSPost2010Prop31
280
     0
102
RTVSPost2010PropOp31
 70
     1
102
RTVSPost2010Prop32
280
     0
102
RTVSPost2010PropOp32
 70
     1
102
RTVSPost2010Prop33
280
     0
102
RTVSPost2010PropOp33
 70
     1
102
RTVSPost2010Prop34
280
     0
102
RTVSPost2010PropOp34
 70
     1
102
RTVSPost2010Prop35
280
     0
102
RTVSPost2010PropOp35
 70
     1
102
RTVSPost2010Prop36
280
     0
102
RTVSPost2010PropOp36
 70
     1
102
RTVSPost2010Prop37
 90
       50
102
RTVSPost2010PropOp37
 70
     1
102
RTVSPost2010Prop38
140
0.0
102
RTVSPost2010PropOp38
 70
     1
102
RTVSPost2010Prop39
140
1.0
102
RTVSPost2010PropOp39
 70
     1
102
RTVSPost2010Prop40
 90
        0
102
RTVSPost2010PropOp40
 70
     1
102
RTVSPost2010Prop41ColorIndex
 90
       18
102
RTVSPost2010Prop41ColorRGB
 90
        0
102
RTVSPost2010PropOp41
 70
     1
102
RTVSPost2010Prop42
 90
       50
102
RTVSPost2010PropOp42
 70
     1
102
RTVSPost2010Prop43
 90
        3
102
RTVSPost2010PropOp43
 70
     1
102
RTVSPost2010Prop44ColorIndex
 90
        5
102
RTVSPost2010Prop44ColorRGB
 90
      255
102
RTVSPost2010PropOp44
 70
     1
102
RTVSPost2010Prop45
280
     0
102
RTVSPost2010PropOp45
 70
     1
102
RTVSPost2010Prop46
 90
       50
102
RTVSPost2010PropOp46
 70
     1
102
RTVSPost2010Prop47
 90
       50
102
RTVSPost2010PropOp47
 70
     1
102
RTVSPost2010Prop48
 90
       50
102
RTVSPost2010PropOp48
 70
     1
102
RTVSPost2010Prop49
280
     0
102
RTVSPost2010PropOp49
 70
     1
102
RTVSPost2010Prop50
 90
       50
102
RTVSPost2010PropOp50
 70
     1
102
RTVSPost2010Prop51ColorIndex
 90
      256
102
RTVSPost2010Prop51ColorRGB
 90
-16777216
102
RTVSPost2010PropOp51
 70
     0
102
RTVSPost2010Prop52
140
1.0
102
RTVSPost2010PropOp52
 70
     0
102
RTVSPost2010Prop53
 90
        2
102
RTVSPost2010PropOp53
 70
     1
102
RTVSPost2010Prop54
  1
strokes_ogs.tif
102
RTVSPost2010PropOp54
 70
     1
102
RTVSPost2010Prop55
280
     0
102
RTVSPost2010PropOp55
 70
     1
102
RTVSPost2010Prop56
140
1.0
102
RTVSPost2010PropOp56
 70
     1
102
RTVSPost2010Prop57
140
1.0
102
RTVSPost2010PropOp57
 70
     1
102
RTVSPropertyOp28
 70
     1
102
RTVSPropertyOp29
 70
     1
102
RTVSPropertyOp30
 70
     1
102
RTVSPropertyOp31
 70
     1
102
RTVSPropertyOp32
 70
     1
102
RTVSPropertyOp33
 70
     1
102
RTVSPropertyOp34
 70
     1
102
RTVSPropertyOp35
 70
     1
102
RTVSPropertyOp36
 70
     1
102
RTVSPropertyOp37
 70
     1
102
RTVSPropertyOp38
 70
     1
102
RTVSPropertyOp39
 70
     1
102
RTVSPropertyOp40
 70
     1
102
RTVSPropertyOp41
 70
     1
102
RTVSPropertyOp42
 70
     1
102
RTVSPropertyOp43
 70
     1
102
RTVSPropertyOp44
 70
     1
102
RTVSPropertyOp45
 70
     1
102
RTVSPropertyOp46
 70
     1
102
RTVSPropertyOp47
 70
     1
102
RTVSPropertyOp48
 70
     1
102
RTVSPropertyOp49
 70
     1
102
RTVSPropertyOp50
 70
     1
102
RTVSPropertyOp51
 70
     0
102
RTVSPropertyOp52
 70
     0
102
RTVSPropertyOp53
 70
     1
102
RTVSPropertyOp54
 70
     1
102
RTVSPropertyOp55
 70
     1
102
RTVSPropertyOp56
 70
     1
102
RTVSPropertyOp57
 70
     1
102
RTVSPropertyOp58
 70
     1
102
RTVSPropertyOp59
 70
     1
102
RTVSPropertyOp60
 70
     1
102
RTVSPropertyOp61
 70
     1
102
RTVSPropertyOp62
 70
     1
102
RTVSPropertyOp0
 70
     1
102
RTVSPropertyOp1
 70
     1
102
RTVSPropertyOp2
 70
     1
102
RTVSPropertyOp3
 70
     1
102
RTVSPropertyOp4
 70
     1
102
RTVSPropertyOp5
 70
     1
102
RTVSPropertyOp6
 70
     1
102
RTVSPropertyOp7
 70
     1
102
RTVSPropertyOp8
 70
     1
102
RTVSPropertyOp9
 70
     1
102
RTVSPropertyOp10
 70
     1
102
RTVSPropertyOp11
 70
     1
102
RTVSPropertyOp12
 70
     1
102
RTVSPropertyOp13
 70
     1
102
RTVSPropertyOp14
 70
     1
102
RTVSPropertyOp15
 70
     1
102
RTVSPropertyOp16
 70
     1
102
RTVSPropertyOp17
 70
     1
102
RTVSPropertyOp18
 70
     1
102
RTVSPropertyOp19
 70
     1
102
RTVSPropertyOp20
 70
     1
102
RTVSPropertyOp21
 70
     1
102
RTVSPropertyOp22
 70
     1
102
RTVSPropertyOp23
 70
     1
102
RTVSPropertyOp24
 70
     1
102
RTVSPropertyOp25
 70
     1
102
RTVSPropertyOp26
 70
     1
102
RTVSPropertyOp27
 70
     1
  0
XRECORD
  5
3489
102
{ACAD_REACTORS
330
3488
102
}
330
3488
100
AcDbXrecord
280
     1
102
RTVSPost2010Prop28
280
     0
102
RTVSPost2010PropOp28
 70
     1
102
RTVSPost2010Prop29
280
     1
102
RTVSPost2010PropOp29
 70
     1
102
RTVSPost2010Prop30
280
     1
102
RTVSPost2010PropOp30
 70
     1
102
RTVSPost2010Prop31
280
     0
102
RTVSPost2010PropOp31
 70
     1
102
RTVSPost2010Prop32
280
     0
102
RTVSPost2010PropOp32
 70
     1
102
RTVSPost2010Prop33
280
     0
102
RTVSPost2010PropOp33
 70
     1
102
RTVSPost2010Prop34
280
     0
102
RTVSPost2010PropOp34
 70
     1
102
RTVSPost2010Prop35
280
     0
102
RTVSPost2010PropOp35
 70
     1
102
RTVSPost2010Prop36
280
     0
102
RTVSPost2010PropOp36
 70
     1
102
RTVSPost2010Prop37
 90
       50
102
RTVSPost2010PropOp37
 70
     1
102
RTVSPost2010Prop38
140
0.0
102
RTVSPost2010PropOp38
 70
     1
102
RTVSPost2010Prop39
140
1.0
102
RTVSPost2010PropOp39
 70
     1
102
RTVSPost2010Prop40
 90
        0
102
RTVSPost2010PropOp40
 70
     1
102
RTVSPost2010Prop41ColorIndex
 90
       18
102
RTVSPost2010Prop41ColorRGB
 90
        0
102
RTVSPost2010PropOp41
 70
     1
102
RTVSPost2010Prop42
 90
       50
102
RTVSPost2010PropOp42
 70
     1
102
RTVSPost2010Prop43
 90
        3
102
RTVSPost2010PropOp43
 70
     1
102
RTVSPost2010Prop44ColorIndex
 90
        5
102
RTVSPost2010Prop44ColorRGB
 90
      255
102
RTVSPost2010PropOp44
 70
     1
102
RTVSPost2010Prop45
280
     0
102
RTVSPost2010PropOp45
 70
     1
102
RTVSPost2010Prop46
 90
       50
102
RTVSPost2010PropOp46
 70
     1
102
RTVSPost2010Prop47
 90
       50
102
RTVSPost2010PropOp47
 70
     1
102
RTVSPost2010Prop48
 90
       50
102
RTVSPost2010PropOp48
 70
     1
102
RTVSPost2010Prop49
280
     0
102
RTVSPost2010PropOp49
 70
     1
102
RTVSPost2010Prop50
 90
       50
102
RTVSPost2010PropOp50
 70
     1
102
RTVSPost2010Prop51ColorIndex
 90
      256
102
RTVSPost2010Prop51ColorRGB
 90
-16777216
102
RTVSPost2010PropOp51
 70
     0
102
RTVSPost2010Prop52
140
1.0
102
RTVSPost2010PropOp52
 70
     0
102
RTVSPost2010Prop53
 90
        2
102
RTVSPost2010PropOp53
 70
     1
102
RTVSPost2010Prop54
  1
strokes_ogs.tif
102
RTVSPost2010PropOp54
 70
     1
102
RTVSPost2010Prop55
280
     0
102
RTVSPost2010PropOp55
 70
     1
102
RTVSPost2010Prop56
140
1.0
102
RTVSPost2010PropOp56
 70
     1
102
RTVSPost2010Prop57
140
1.0
102
RTVSPost2010PropOp57
 70
     1
102
RTVSPropertyOp28
 70
     1
102
RTVSPropertyOp29
 70
     1
102
RTVSPropertyOp30
 70
     1
102
RTVSPropertyOp31
 70
     1
102
RTVSPropertyOp32
 70
     1
102
RTVSPropertyOp33
 70
     1
102
RTVSPropertyOp34
 70
     1
102
RTVSPropertyOp35
 70
     1
102
RTVSPropertyOp36
 70
     1
102
RTVSPropertyOp37
 70
     1
102
RTVSPropertyOp38
 70
     1
102
RTVSPropertyOp39
 70
     1
102
RTVSPropertyOp40
 70
     1
102
RTVSPropertyOp41
 70
     1
102
RTVSPropertyOp42
 70
     1
102
RTVSPropertyOp43
 70
     1
102
RTVSPropertyOp44
 70
     1
102
RTVSPropertyOp45
 70
     1
102
RTVSPropertyOp46
 70
     1
102
RTVSPropertyOp47
 70
     1
102
RTVSPropertyOp48
 70
     1
102
RTVSPropertyOp49
 70
     1
102
RTVSPropertyOp50
 70
     1
102
RTVSPropertyOp51
 70
     0
102
RTVSPropertyOp52
 70
     0
102
RTVSPropertyOp53
 70
     1
102
RTVSPropertyOp54
 70
     1
102
RTVSPropertyOp55
 70
     1
102
RTVSPropertyOp56
 70
     1
102
RTVSPropertyOp57
 70
     1
102
RTVSPropertyOp58
 70
     1
102
RTVSPropertyOp59
 70
     1
102
RTVSPropertyOp60
 70
     1
102
RTVSPropertyOp61
 70
     1
102
RTVSPropertyOp62
 70
     1
102
RTVSPropertyOp0
 70
     1
102
RTVSPropertyOp1
 70
     1
102
RTVSPropertyOp2
 70
     1
102
RTVSPropertyOp3
 70
     1
102
RTVSPropertyOp4
 70
     1
102
RTVSPropertyOp5
 70
     1
102
RTVSPropertyOp6
 70
     1
102
RTVSPropertyOp7
 70
     1
102
RTVSPropertyOp8
 70
     1
102
RTVSPropertyOp9
 70
     1
102
RTVSPropertyOp10
 70
     1
102
RTVSPropertyOp11
 70
     1
102
RTVSPropertyOp12
 70
     1
102
RTVSPropertyOp13
 70
     1
102
RTVSPropertyOp14
 70
     1
102
RTVSPropertyOp15
 70
     1
102
RTVSPropertyOp16
 70
     1
102
RTVSPropertyOp17
 70
     1
102
RTVSPropertyOp18
 70
     1
102
RTVSPropertyOp19
 70
     1
102
RTVSPropertyOp20
 70
     1
102
RTVSPropertyOp21
 70
     1
102
RTVSPropertyOp22
 70
     1
102
RTVSPropertyOp23
 70
     1
102
RTVSPropertyOp24
 70
     1
102
RTVSPropertyOp25
 70
     1
102
RTVSPropertyOp26
 70
     1
102
RTVSPropertyOp27
 70
     1
  0
XRECORD
  5
3495
102
{ACAD_REACTORS
330
3494
102
}
330
3494
100
AcDbXrecord
280
     1
102
RTVSPost2010Prop28
280
     0
102
RTVSPost2010PropOp28
 70
     0
102
RTVSPost2010Prop29
280
     1
102
RTVSPost2010PropOp29
 70
     0
102
RTVSPost2010Prop30
280
     1
102
RTVSPost2010PropOp30
 70
     0
102
RTVSPost2010Prop31
280
     0
102
RTVSPost2010PropOp31
 70
     0
102
RTVSPost2010Prop32
280
     0
102
RTVSPost2010PropOp32
 70
     0
102
RTVSPost2010Prop33
280
     0
102
RTVSPost2010PropOp33
 70
     0
102
RTVSPost2010Prop34
280
     0
102
RTVSPost2010PropOp34
 70
     0
102
RTVSPost2010Prop35
280
     0
102
RTVSPost2010PropOp35
 70
     0
102
RTVSPost2010Prop36
280
     0
102
RTVSPost2010PropOp36
 70
     0
102
RTVSPost2010Prop37
 90
       50
102
RTVSPost2010PropOp37
 70
     0
102
RTVSPost2010Prop38
140
0.0
102
RTVSPost2010PropOp38
 70
     0
102
RTVSPost2010Prop39
140
1.0
102
RTVSPost2010PropOp39
 70
     0
102
RTVSPost2010Prop40
 90
        0
102
RTVSPost2010PropOp40
 70
     0
102
RTVSPost2010Prop41ColorIndex
 90
       18
102
RTVSPost2010Prop41ColorRGB
 90
        0
102
RTVSPost2010PropOp41
 70
     0
102
RTVSPost2010Prop42
 90
       50
102
RTVSPost2010PropOp42
 70
     0
102
RTVSPost2010Prop43
 90
        3
102
RTVSPost2010PropOp43
 70
     0
102
RTVSPost2010Prop44ColorIndex
 90
        5
102
RTVSPost2010Prop44ColorRGB
 90
      255
102
RTVSPost2010PropOp44
 70
     0
102
RTVSPost2010Prop45
280
     0
102
RTVSPost2010PropOp45
 70
     0
102
RTVSPost2010Prop46
 90
       50
102
RTVSPost2010PropOp46
 70
     0
102
RTVSPost2010Prop47
 90
       50
102
RTVSPost2010PropOp47
 70
     0
102
RTVSPost2010Prop48
 90
       50
102
RTVSPost2010PropOp48
 70
     0
102
RTVSPost2010Prop49
280
     0
102
RTVSPost2010PropOp49
 70
     0
102
RTVSPost2010Prop50
 90
       50
102
RTVSPost2010PropOp50
 70
     0
102
RTVSPost2010Prop51ColorIndex
 90
      256
102
RTVSPost2010Prop51ColorRGB
 90
-16777216
102
RTVSPost2010PropOp51
 70
     0
102
RTVSPost2010Prop52
140
1.0
102
RTVSPost2010PropOp52
 70
     0
102
RTVSPost2010Prop53
 90
        2
102
RTVSPost2010PropOp53
 70
     0
102
RTVSPost2010Prop54
  1
strokes_ogs.tif
102
RTVSPost2010PropOp54
 70
     0
102
RTVSPost2010Prop55
280
     0
102
RTVSPost2010PropOp55
 70
     0
102
RTVSPost2010Prop56
140
1.0
102
RTVSPost2010PropOp56
 70
     0
102
RTVSPost2010Prop57
140
1.0
102
RTVSPost2010PropOp57
 70
     0
102
RTVSPropertyOp28
 70
     0
102
RTVSPropertyOp29
 70
     0
102
RTVSPropertyOp30
 70
     0
102
RTVSPropertyOp31
 70
     0
102
RTVSPropertyOp32
 70
     0
102
RTVSPropertyOp33
 70
     0
102
RTVSPropertyOp34
 70
     0
102
RTVSPropertyOp35
 70
     0
102
RTVSPropertyOp36
 70
     0
102
RTVSPropertyOp37
 70
     0
102
RTVSPropertyOp38
 70
     0
102
RTVSPropertyOp39
 70
     0
102
RTVSPropertyOp40
 70
     0
102
RTVSPropertyOp41
 70
     0
102
RTVSPropertyOp42
 70
     0
102
RTVSPropertyOp43
 70
     0
102
RTVSPropertyOp44
 70
     0
102
RTVSPropertyOp45
 70
     0
102
RTVSPropertyOp46
 70
     0
102
RTVSPropertyOp47
 70
     0
102
RTVSPropertyOp48
 70
     0
102
RTVSPropertyOp49
 70
     0
102
RTVSPropertyOp50
 70
     0
102
RTVSPropertyOp51
 70
     0
102
RTVSPropertyOp52
 70
     0
102
RTVSPropertyOp53
 70
     0
102
RTVSPropertyOp54
 70
     0
102
RTVSPropertyOp55
 70
     0
102
RTVSPropertyOp56
 70
     0
102
RTVSPropertyOp57
 70
     0
102
RTVSPropertyOp58
 70
     0
102
RTVSPropertyOp59
 70
     0
102
RTVSPropertyOp60
 70
     0
102
RTVSPropertyOp61
 70
     0
102
RTVSPropertyOp62
 70
     0
102
RTVSPropertyOp0
 70
     0
102
RTVSPropertyOp1
 70
     0
102
RTVSPropertyOp2
 70
     0
102
RTVSPropertyOp3
 70
     0
102
RTVSPropertyOp4
 70
     0
102
RTVSPropertyOp5
 70
     0
102
RTVSPropertyOp6
 70
     0
102
RTVSPropertyOp7
 70
     0
102
RTVSPropertyOp8
 70
     0
102
RTVSPropertyOp9
 70
     0
102
RTVSPropertyOp10
 70
     0
102
RTVSPropertyOp11
 70
     0
102
RTVSPropertyOp12
 70
     0
102
RTVSPropertyOp13
 70
     0
102
RTVSPropertyOp14
 70
     2
102
RTVSPropertyOp15
 70
     0
102
RTVSPropertyOp16
 70
     0
102
RTVSPropertyOp17
 70
     0
102
RTVSPropertyOp18
 70
     0
102
RTVSPropertyOp19
 70
     0
102
RTVSPropertyOp20
 70
     0
102
RTVSPropertyOp21
 70
     0
102
RTVSPropertyOp22
 70
     0
102
RTVSPropertyOp23
 70
     0
102
RTVSPropertyOp24
 70
     0
102
RTVSPropertyOp25
 70
     0
102
RTVSPropertyOp26
 70
     0
102
RTVSPropertyOp27
 70
     0
  0
XRECORD
  5
3480
102
{ACAD_REACTORS
330
347F
102
}
330
347F
100
AcDbXrecord
280
     1
102
RTVSPost2010Prop28
280
     0
102
RTVSPost2010PropOp28
 70
     1
102
RTVSPost2010Prop29
280
     1
102
RTVSPost2010PropOp29
 70
     1
102
RTVSPost2010Prop30
280
     1
102
RTVSPost2010PropOp30
 70
     1
102
RTVSPost2010Prop31
280
     0
102
RTVSPost2010PropOp31
 70
     1
102
RTVSPost2010Prop32
280
     0
102
RTVSPost2010PropOp32
 70
     1
102
RTVSPost2010Prop33
280
     0
102
RTVSPost2010PropOp33
 70
     1
102
RTVSPost2010Prop34
280
     0
102
RTVSPost2010PropOp34
 70
     1
102
RTVSPost2010Prop35
280
     0
102
RTVSPost2010PropOp35
 70
     1
102
RTVSPost2010Prop36
280
     0
102
RTVSPost2010PropOp36
 70
     1
102
RTVSPost2010Prop37
 90
       50
102
RTVSPost2010PropOp37
 70
     1
102
RTVSPost2010Prop38
140
0.0
102
RTVSPost2010PropOp38
 70
     1
102
RTVSPost2010Prop39
140
1.0
102
RTVSPost2010PropOp39
 70
     1
102
RTVSPost2010Prop40
 90
        0
102
RTVSPost2010PropOp40
 70
     1
102
RTVSPost2010Prop41ColorIndex
 90
       18
102
RTVSPost2010Prop41ColorRGB
 90
        0
102
RTVSPost2010PropOp41
 70
     1
102
RTVSPost2010Prop42
 90
       50
102
RTVSPost2010PropOp42
 70
     1
102
RTVSPost2010Prop43
 90
        3
102
RTVSPost2010PropOp43
 70
     1
102
RTVSPost2010Prop44ColorIndex
 90
        5
102
RTVSPost2010Prop44ColorRGB
 90
      255
102
RTVSPost2010PropOp44
 70
     1
102
RTVSPost2010Prop45
280
     0
102
RTVSPost2010PropOp45
 70
     1
102
RTVSPost2010Prop46
 90
       50
102
RTVSPost2010PropOp46
 70
     1
102
RTVSPost2010Prop47
 90
       50
102
RTVSPost2010PropOp47
 70
     1
102
RTVSPost2010Prop48
 90
       50
102
RTVSPost2010PropOp48
 70
     1
102
RTVSPost2010Prop49
280
     0
102
RTVSPost2010PropOp49
 70
     1
102
RTVSPost2010Prop50
 90
       50
102
RTVSPost2010PropOp50
 70
     1
102
RTVSPost2010Prop51ColorIndex
 90
      256
102
RTVSPost2010Prop51ColorRGB
 90
-16777216
102
RTVSPost2010PropOp51
 70
     0
102
RTVSPost2010Prop52
140
1.0
102
RTVSPost2010PropOp52
 70
     0
102
RTVSPost2010Prop53
 90
        2
102
RTVSPost2010PropOp53
 70
     1
102
RTVSPost2010Prop54
  1
strokes_ogs.tif
102
RTVSPost2010PropOp54
 70
     1
102
RTVSPost2010Prop55
280
     0
102
RTVSPost2010PropOp55
 70
     1
102
RTVSPost2010Prop56
140
1.0
102
RTVSPost2010PropOp56
 70
     1
102
RTVSPost2010Prop57
140
1.0
102
RTVSPost2010PropOp57
 70
     1
102
RTVSPropertyOp28
 70
     1
102
RTVSPropertyOp29
 70
     1
102
RTVSPropertyOp30
 70
     1
102
RTVSPropertyOp31
 70
     1
102
RTVSPropertyOp32
 70
     1
102
RTVSPropertyOp33
 70
     1
102
RTVSPropertyOp34
 70
     1
102
RTVSPropertyOp35
 70
     1
102
RTVSPropertyOp36
 70
     1
102
RTVSPropertyOp37
 70
     1
102
RTVSPropertyOp38
 70
     1
102
RTVSPropertyOp39
 70
     1
102
RTVSPropertyOp40
 70
     1
102
RTVSPropertyOp41
 70
     1
102
RTVSPropertyOp42
 70
     1
102
RTVSPropertyOp43
 70
     1
102
RTVSPropertyOp44
 70
     1
102
RTVSPropertyOp45
 70
     1
102
RTVSPropertyOp46
 70
     1
102
RTVSPropertyOp47
 70
     1
102
RTVSPropertyOp48
 70
     1
102
RTVSPropertyOp49
 70
     1
102
RTVSPropertyOp50
 70
     1
102
RTVSPropertyOp51
 70
     0
102
RTVSPropertyOp52
 70
     0
102
RTVSPropertyOp53
 70
     1
102
RTVSPropertyOp54
 70
     1
102
RTVSPropertyOp55
 70
     1
102
RTVSPropertyOp56
 70
     1
102
RTVSPropertyOp57
 70
     1
102
RTVSPropertyOp58
 70
     1
102
RTVSPropertyOp59
 70
     1
102
RTVSPropertyOp60
 70
     1
102
RTVSPropertyOp61
 70
     1
102
RTVSPropertyOp62
 70
     1
102
RTVSPropertyOp0
 70
     1
102
RTVSPropertyOp1
 70
     1
102
RTVSPropertyOp2
 70
     1
102
RTVSPropertyOp3
 70
     1
102
RTVSPropertyOp4
 70
     1
102
RTVSPropertyOp5
 70
     1
102
RTVSPropertyOp6
 70
     1
102
RTVSPropertyOp7
 70
     1
102
RTVSPropertyOp8
 70
     1
102
RTVSPropertyOp9
 70
     1
102
RTVSPropertyOp10
 70
     1
102
RTVSPropertyOp11
 70
     1
102
RTVSPropertyOp12
 70
     1
102
RTVSPropertyOp13
 70
     1
102
RTVSPropertyOp14
 70
     1
102
RTVSPropertyOp15
 70
     1
102
RTVSPropertyOp16
 70
     1
102
RTVSPropertyOp17
 70
     1
102
RTVSPropertyOp18
 70
     1
102
RTVSPropertyOp19
 70
     1
102
RTVSPropertyOp20
 70
     1
102
RTVSPropertyOp21
 70
     1
102
RTVSPropertyOp22
 70
     1
102
RTVSPropertyOp23
 70
     1
102
RTVSPropertyOp24
 70
     1
102
RTVSPropertyOp25
 70
     1
102
RTVSPropertyOp26
 70
     1
102
RTVSPropertyOp27
 70
     1
  0
XRECORD
  5
3497
102
{ACAD_REACTORS
330
3496
102
}
330
3496
100
AcDbXrecord
280
     1
102
RTVSPost2010Prop28
280
     0
102
RTVSPost2010PropOp28
 70
     0
102
RTVSPost2010Prop29
280
     1
102
RTVSPost2010PropOp29
 70
     0
102
RTVSPost2010Prop30
280
     1
102
RTVSPost2010PropOp30
 70
     0
102
RTVSPost2010Prop31
280
     0
102
RTVSPost2010PropOp31
 70
     0
102
RTVSPost2010Prop32
280
     0
102
RTVSPost2010PropOp32
 70
     0
102
RTVSPost2010Prop33
280
     0
102
RTVSPost2010PropOp33
 70
     0
102
RTVSPost2010Prop34
280
     0
102
RTVSPost2010PropOp34
 70
     0
102
RTVSPost2010Prop35
280
     0
102
RTVSPost2010PropOp35
 70
     0
102
RTVSPost2010Prop36
280
     0
102
RTVSPost2010PropOp36
 70
     0
102
RTVSPost2010Prop37
 90
       50
102
RTVSPost2010PropOp37
 70
     0
102
RTVSPost2010Prop38
140
0.0
102
RTVSPost2010PropOp38
 70
     0
102
RTVSPost2010Prop39
140
1.0
102
RTVSPost2010PropOp39
 70
     0
102
RTVSPost2010Prop40
 90
        0
102
RTVSPost2010PropOp40
 70
     0
102
RTVSPost2010Prop41ColorIndex
 90
       18
102
RTVSPost2010Prop41ColorRGB
 90
        0
102
RTVSPost2010PropOp41
 70
     0
102
RTVSPost2010Prop42
 90
       50
102
RTVSPost2010PropOp42
 70
     0
102
RTVSPost2010Prop43
 90
        3
102
RTVSPost2010PropOp43
 70
     0
102
RTVSPost2010Prop44ColorIndex
 90
        5
102
RTVSPost2010Prop44ColorRGB
 90
      255
102
RTVSPost2010PropOp44
 70
     0
102
RTVSPost2010Prop45
280
     0
102
RTVSPost2010PropOp45
 70
     0
102
RTVSPost2010Prop46
 90
       50
102
RTVSPost2010PropOp46
 70
     0
102
RTVSPost2010Prop47
 90
       50
102
RTVSPost2010PropOp47
 70
     0
102
RTVSPost2010Prop48
 90
       50
102
RTVSPost2010PropOp48
 70
     0
102
RTVSPost2010Prop49
280
     0
102
RTVSPost2010PropOp49
 70
     0
102
RTVSPost2010Prop50
 90
       50
102
RTVSPost2010PropOp50
 70
     0
102
RTVSPost2010Prop51ColorIndex
 90
      256
102
RTVSPost2010Prop51ColorRGB
 90
-16777216
102
RTVSPost2010PropOp51
 70
     0
102
RTVSPost2010Prop52
140
1.0
102
RTVSPost2010PropOp52
 70
     0
102
RTVSPost2010Prop53
 90
        2
102
RTVSPost2010PropOp53
 70
     0
102
RTVSPost2010Prop54
  1
strokes_ogs.tif
102
RTVSPost2010PropOp54
 70
     0
102
RTVSPost2010Prop55
280
     0
102
RTVSPost2010PropOp55
 70
     0
102
RTVSPost2010Prop56
140
1.0
102
RTVSPost2010PropOp56
 70
     0
102
RTVSPost2010Prop57
140
1.0
102
RTVSPost2010PropOp57
 70
     0
102
RTVSPropertyOp28
 70
     0
102
RTVSPropertyOp29
 70
     0
102
RTVSPropertyOp30
 70
     0
102
RTVSPropertyOp31
 70
     0
102
RTVSPropertyOp32
 70
     0
102
RTVSPropertyOp33
 70
     0
102
RTVSPropertyOp34
 70
     0
102
RTVSPropertyOp35
 70
     0
102
RTVSPropertyOp36
 70
     0
102
RTVSPropertyOp37
 70
     0
102
RTVSPropertyOp38
 70
     0
102
RTVSPropertyOp39
 70
     0
102
RTVSPropertyOp40
 70
     0
102
RTVSPropertyOp41
 70
     0
102
RTVSPropertyOp42
 70
     0
102
RTVSPropertyOp43
 70
     0
102
RTVSPropertyOp44
 70
     0
102
RTVSPropertyOp45
 70
     0
102
RTVSPropertyOp46
 70
     0
102
RTVSPropertyOp47
 70
     0
102
RTVSPropertyOp48
 70
     0
102
RTVSPropertyOp49
 70
     0
102
RTVSPropertyOp50
 70
     0
102
RTVSPropertyOp51
 70
     0
102
RTVSPropertyOp52
 70
     0
102
RTVSPropertyOp53
 70
     0
102
RTVSPropertyOp54
 70
     0
102
RTVSPropertyOp55
 70
     0
102
RTVSPropertyOp56
 70
     0
102
RTVSPropertyOp57
 70
     0
102
RTVSPropertyOp58
 70
     0
102
RTVSPropertyOp59
 70
     0
102
RTVSPropertyOp60
 70
     0
102
RTVSPropertyOp61
 70
     0
102
RTVSPropertyOp62
 70
     0
102
RTVSPropertyOp0
 70
     0
102
RTVSPropertyOp1
 70
     0
102
RTVSPropertyOp2
 70
     0
102
RTVSPropertyOp3
 70
     0
102
RTVSPropertyOp4
 70
     0
102
RTVSPropertyOp5
 70
     0
102
RTVSPropertyOp6
 70
     0
102
RTVSPropertyOp7
 70
     0
102
RTVSPropertyOp8
 70
     0
102
RTVSPropertyOp9
 70
     0
102
RTVSPropertyOp10
 70
     0
102
RTVSPropertyOp11
 70
     0
102
RTVSPropertyOp12
 70
     0
102
RTVSPropertyOp13
 70
     0
102
RTVSPropertyOp14
 70
     2
102
RTVSPropertyOp15
 70
     0
102
RTVSPropertyOp16
 70
     0
102
RTVSPropertyOp17
 70
     0
102
RTVSPropertyOp18
 70
     0
102
RTVSPropertyOp19
 70
     0
102
RTVSPropertyOp20
 70
     0
102
RTVSPropertyOp21
 70
     0
102
RTVSPropertyOp22
 70
     0
102
RTVSPropertyOp23
 70
     0
102
RTVSPropertyOp24
 70
     0
102
RTVSPropertyOp25
 70
     0
102
RTVSPropertyOp26
 70
     0
102
RTVSPropertyOp27
 70
     0
  0
XRECORD
  5
3478
102
{ACAD_REACTORS
330
3477
102
}
330
3477
100
AcDbXrecord
280
     1
102
RTVSPost2010Prop28
280
     0
102
RTVSPost2010PropOp28
 70
     1
102
RTVSPost2010Prop29
280
     1
102
RTVSPost2010PropOp29
 70
     1
102
RTVSPost2010Prop30
280
     1
102
RTVSPost2010PropOp30
 70
     1
102
RTVSPost2010Prop31
280
     0
102
RTVSPost2010PropOp31
 70
     1
102
RTVSPost2010Prop32
280
     0
102
RTVSPost2010PropOp32
 70
     1
102
RTVSPost2010Prop33
280
     0
102
RTVSPost2010PropOp33
 70
     1
102
RTVSPost2010Prop34
280
     0
102
RTVSPost2010PropOp34
 70
     1
102
RTVSPost2010Prop35
280
     0
102
RTVSPost2010PropOp35
 70
     1
102
RTVSPost2010Prop36
280
     0
102
RTVSPost2010PropOp36
 70
     1
102
RTVSPost2010Prop37
 90
       50
102
RTVSPost2010PropOp37
 70
     1
102
RTVSPost2010Prop38
140
0.0
102
RTVSPost2010PropOp38
 70
     1
102
RTVSPost2010Prop39
140
1.0
102
RTVSPost2010PropOp39
 70
     1
102
RTVSPost2010Prop40
 90
        0
102
RTVSPost2010PropOp40
 70
     1
102
RTVSPost2010Prop41ColorIndex
 90
       18
102
RTVSPost2010Prop41ColorRGB
 90
        0
102
RTVSPost2010PropOp41
 70
     1
102
RTVSPost2010Prop42
 90
       50
102
RTVSPost2010PropOp42
 70
     1
102
RTVSPost2010Prop43
 90
        3
102
RTVSPost2010PropOp43
 70
     1
102
RTVSPost2010Prop44ColorIndex
 90
        5
102
RTVSPost2010Prop44ColorRGB
 90
      255
102
RTVSPost2010PropOp44
 70
     1
102
RTVSPost2010Prop45
280
     0
102
RTVSPost2010PropOp45
 70
     1
102
RTVSPost2010Prop46
 90
       50
102
RTVSPost2010PropOp46
 70
     1
102
RTVSPost2010Prop47
 90
       50
102
RTVSPost2010PropOp47
 70
     1
102
RTVSPost2010Prop48
 90
       50
102
RTVSPost2010PropOp48
 70
     1
102
RTVSPost2010Prop49
280
     0
102
RTVSPost2010PropOp49
 70
     1
102
RTVSPost2010Prop50
 90
       50
102
RTVSPost2010PropOp50
 70
     1
102
RTVSPost2010Prop51ColorIndex
 90
      256
102
RTVSPost2010Prop51ColorRGB
 90
-16777216
102
RTVSPost2010PropOp51
 70
     0
102
RTVSPost2010Prop52
140
1.0
102
RTVSPost2010PropOp52
 70
     0
102
RTVSPost2010Prop53
 90
        2
102
RTVSPost2010PropOp53
 70
     1
102
RTVSPost2010Prop54
  1
strokes_ogs.tif
102
RTVSPost2010PropOp54
 70
     1
102
RTVSPost2010Prop55
280
     0
102
RTVSPost2010PropOp55
 70
     1
102
RTVSPost2010Prop56
140
1.0
102
RTVSPost2010PropOp56
 70
     1
102
RTVSPost2010Prop57
140
1.0
102
RTVSPost2010PropOp57
 70
     1
102
RTVSPropertyOp28
 70
     1
102
RTVSPropertyOp29
 70
     1
102
RTVSPropertyOp30
 70
     1
102
RTVSPropertyOp31
 70
     1
102
RTVSPropertyOp32
 70
     1
102
RTVSPropertyOp33
 70
     1
102
RTVSPropertyOp34
 70
     1
102
RTVSPropertyOp35
 70
     1
102
RTVSPropertyOp36
 70
     1
102
RTVSPropertyOp37
 70
     1
102
RTVSPropertyOp38
 70
     1
102
RTVSPropertyOp39
 70
     1
102
RTVSPropertyOp40
 70
     1
102
RTVSPropertyOp41
 70
     1
102
RTVSPropertyOp42
 70
     1
102
RTVSPropertyOp43
 70
     1
102
RTVSPropertyOp44
 70
     1
102
RTVSPropertyOp45
 70
     1
102
RTVSPropertyOp46
 70
     1
102
RTVSPropertyOp47
 70
     1
102
RTVSPropertyOp48
 70
     1
102
RTVSPropertyOp49
 70
     1
102
RTVSPropertyOp50
 70
     1
102
RTVSPropertyOp51
 70
     0
102
RTVSPropertyOp52
 70
     0
102
RTVSPropertyOp53
 70
     1
102
RTVSPropertyOp54
 70
     1
102
RTVSPropertyOp55
 70
     1
102
RTVSPropertyOp56
 70
     1
102
RTVSPropertyOp57
 70
     1
102
RTVSPropertyOp58
 70
     1
102
RTVSPropertyOp59
 70
     1
102
RTVSPropertyOp60
 70
     1
102
RTVSPropertyOp61
 70
     1
102
RTVSPropertyOp62
 70
     1
102
RTVSPropertyOp0
 70
     1
102
RTVSPropertyOp1
 70
     1
102
RTVSPropertyOp2
 70
     1
102
RTVSPropertyOp3
 70
     1
102
RTVSPropertyOp4
 70
     1
102
RTVSPropertyOp5
 70
     1
102
RTVSPropertyOp6
 70
     1
102
RTVSPropertyOp7
 70
     1
102
RTVSPropertyOp8
 70
     1
102
RTVSPropertyOp9
 70
     1
102
RTVSPropertyOp10
 70
     1
102
RTVSPropertyOp11
 70
     1
102
RTVSPropertyOp12
 70
     1
102
RTVSPropertyOp13
 70
     1
102
RTVSPropertyOp14
 70
     1
102
RTVSPropertyOp15
 70
     1
102
RTVSPropertyOp16
 70
     1
102
RTVSPropertyOp17
 70
     1
102
RTVSPropertyOp18
 70
     1
102
RTVSPropertyOp19
 70
     1
102
RTVSPropertyOp20
 70
     1
102
RTVSPropertyOp21
 70
     1
102
RTVSPropertyOp22
 70
     1
102
RTVSPropertyOp23
 70
     1
102
RTVSPropertyOp24
 70
     1
102
RTVSPropertyOp25
 70
     1
102
RTVSPropertyOp26
 70
     1
102
RTVSPropertyOp27
 70
     1
  0
XRECORD
  5
3493
102
{ACAD_REACTORS
330
3492
102
}
330
3492
100
AcDbXrecord
280
     1
102
RTVSPost2010Prop28
280
     0
102
RTVSPost2010PropOp28
 70
     1
102
RTVSPost2010Prop29
280
     1
102
RTVSPost2010PropOp29
 70
     1
102
RTVSPost2010Prop30
280
     1
102
RTVSPost2010PropOp30
 70
     1
102
RTVSPost2010Prop31
280
     0
102
RTVSPost2010PropOp31
 70
     1
102
RTVSPost2010Prop32
280
     0
102
RTVSPost2010PropOp32
 70
     1
102
RTVSPost2010Prop33
280
     0
102
RTVSPost2010PropOp33
 70
     1
102
RTVSPost2010Prop34
280
     0
102
RTVSPost2010PropOp34
 70
     1
102
RTVSPost2010Prop35
280
     0
102
RTVSPost2010PropOp35
 70
     1
102
RTVSPost2010Prop36
280
     0
102
RTVSPost2010PropOp36
 70
     1
102
RTVSPost2010Prop37
 90
       50
102
RTVSPost2010PropOp37
 70
     1
102
RTVSPost2010Prop38
140
0.0
102
RTVSPost2010PropOp38
 70
     1
102
RTVSPost2010Prop39
140
1.0
102
RTVSPost2010PropOp39
 70
     1
102
RTVSPost2010Prop40
 90
        0
102
RTVSPost2010PropOp40
 70
     1
102
RTVSPost2010Prop41ColorIndex
 90
       18
102
RTVSPost2010Prop41ColorRGB
 90
        0
102
RTVSPost2010PropOp41
 70
     1
102
RTVSPost2010Prop42
 90
       50
102
RTVSPost2010PropOp42
 70
     1
102
RTVSPost2010Prop43
 90
        3
102
RTVSPost2010PropOp43
 70
     1
102
RTVSPost2010Prop44ColorIndex
 90
        5
102
RTVSPost2010Prop44ColorRGB
 90
      255
102
RTVSPost2010PropOp44
 70
     1
102
RTVSPost2010Prop45
280
     0
102
RTVSPost2010PropOp45
 70
     1
102
RTVSPost2010Prop46
 90
       50
102
RTVSPost2010PropOp46
 70
     1
102
RTVSPost2010Prop47
 90
       50
102
RTVSPost2010PropOp47
 70
     1
102
RTVSPost2010Prop48
 90
       50
102
RTVSPost2010PropOp48
 70
     1
102
RTVSPost2010Prop49
280
     0
102
RTVSPost2010PropOp49
 70
     1
102
RTVSPost2010Prop50
 90
       50
102
RTVSPost2010PropOp50
 70
     1
102
RTVSPost2010Prop51ColorIndex
 90
      256
102
RTVSPost2010Prop51ColorRGB
 90
-16777216
102
RTVSPost2010PropOp51
 70
     0
102
RTVSPost2010Prop52
140
1.0
102
RTVSPost2010PropOp52
 70
     0
102
RTVSPost2010Prop53
 90
        2
102
RTVSPost2010PropOp53
 70
     1
102
RTVSPost2010Prop54
  1
strokes_ogs.tif
102
RTVSPost2010PropOp54
 70
     1
102
RTVSPost2010Prop55
280
     0
102
RTVSPost2010PropOp55
 70
     1
102
RTVSPost2010Prop56
140
1.0
102
RTVSPost2010PropOp56
 70
     1
102
RTVSPost2010Prop57
140
1.0
102
RTVSPost2010PropOp57
 70
     1
102
RTVSPropertyOp28
 70
     1
102
RTVSPropertyOp29
 70
     1
102
RTVSPropertyOp30
 70
     1
102
RTVSPropertyOp31
 70
     1
102
RTVSPropertyOp32
 70
     1
102
RTVSPropertyOp33
 70
     1
102
RTVSPropertyOp34
 70
     1
102
RTVSPropertyOp35
 70
     1
102
RTVSPropertyOp36
 70
     1
102
RTVSPropertyOp37
 70
     1
102
RTVSPropertyOp38
 70
     1
102
RTVSPropertyOp39
 70
     1
102
RTVSPropertyOp40
 70
     1
102
RTVSPropertyOp41
 70
     1
102
RTVSPropertyOp42
 70
     1
102
RTVSPropertyOp43
 70
     1
102
RTVSPropertyOp44
 70
     1
102
RTVSPropertyOp45
 70
     1
102
RTVSPropertyOp46
 70
     1
102
RTVSPropertyOp47
 70
     1
102
RTVSPropertyOp48
 70
     1
102
RTVSPropertyOp49
 70
     1
102
RTVSPropertyOp50
 70
     1
102
RTVSPropertyOp51
 70
     0
102
RTVSPropertyOp52
 70
     0
102
RTVSPropertyOp53
 70
     1
102
RTVSPropertyOp54
 70
     1
102
RTVSPropertyOp55
 70
     1
102
RTVSPropertyOp56
 70
     1
102
RTVSPropertyOp57
 70
     1
102
RTVSPropertyOp58
 70
     1
102
RTVSPropertyOp59
 70
     1
102
RTVSPropertyOp60
 70
     1
102
RTVSPropertyOp61
 70
     1
102
RTVSPropertyOp62
 70
     1
102
RTVSPropertyOp0
 70
     1
102
RTVSPropertyOp1
 70
     1
102
RTVSPropertyOp2
 70
     1
102
RTVSPropertyOp3
 70
     1
102
RTVSPropertyOp4
 70
     1
102
RTVSPropertyOp5
 70
     1
102
RTVSPropertyOp6
 70
     1
102
RTVSPropertyOp7
 70
     1
102
RTVSPropertyOp8
 70
     1
102
RTVSPropertyOp9
 70
     1
102
RTVSPropertyOp10
 70
     1
102
RTVSPropertyOp11
 70
     1
102
RTVSPropertyOp12
 70
     1
102
RTVSPropertyOp13
 70
     1
102
RTVSPropertyOp14
 70
     1
102
RTVSPropertyOp15
 70
     1
102
RTVSPropertyOp16
 70
     1
102
RTVSPropertyOp17
 70
     1
102
RTVSPropertyOp18
 70
     1
102
RTVSPropertyOp19
 70
     1
102
RTVSPropertyOp20
 70
     1
102
RTVSPropertyOp21
 70
     1
102
RTVSPropertyOp22
 70
     1
102
RTVSPropertyOp23
 70
     1
102
RTVSPropertyOp24
 70
     1
102
RTVSPropertyOp25
 70
     1
102
RTVSPropertyOp26
 70
     1
102
RTVSPropertyOp27
 70
     1
  0
XRECORD
  5
3491
102
{ACAD_REACTORS
330
3490
102
}
330
3490
100
AcDbXrecord
280
     1
102
RTVSPost2010Prop28
280
     0
102
RTVSPost2010PropOp28
 70
     1
102
RTVSPost2010Prop29
280
     1
102
RTVSPost2010PropOp29
 70
     1
102
RTVSPost2010Prop30
280
     1
102
RTVSPost2010PropOp30
 70
     1
102
RTVSPost2010Prop31
280
     0
102
RTVSPost2010PropOp31
 70
     1
102
RTVSPost2010Prop32
280
     0
102
RTVSPost2010PropOp32
 70
     1
102
RTVSPost2010Prop33
280
     0
102
RTVSPost2010PropOp33
 70
     1
102
RTVSPost2010Prop34
280
     0
102
RTVSPost2010PropOp34
 70
     1
102
RTVSPost2010Prop35
280
     0
102
RTVSPost2010PropOp35
 70
     1
102
RTVSPost2010Prop36
280
     0
102
RTVSPost2010PropOp36
 70
     1
102
RTVSPost2010Prop37
 90
       50
102
RTVSPost2010PropOp37
 70
     1
102
RTVSPost2010Prop38
140
0.0
102
RTVSPost2010PropOp38
 70
     1
102
RTVSPost2010Prop39
140
1.0
102
RTVSPost2010PropOp39
 70
     1
102
RTVSPost2010Prop40
 90
        0
102
RTVSPost2010PropOp40
 70
     1
102
RTVSPost2010Prop41ColorIndex
 90
       18
102
RTVSPost2010Prop41ColorRGB
 90
        0
102
RTVSPost2010PropOp41
 70
     1
102
RTVSPost2010Prop42
 90
       50
102
RTVSPost2010PropOp42
 70
     1
102
RTVSPost2010Prop43
 90
        3
102
RTVSPost2010PropOp43
 70
     1
102
RTVSPost2010Prop44ColorIndex
 90
        5
102
RTVSPost2010Prop44ColorRGB
 90
      255
102
RTVSPost2010PropOp44
 70
     1
102
RTVSPost2010Prop45
280
     0
102
RTVSPost2010PropOp45
 70
     1
102
RTVSPost2010Prop46
 90
       50
102
RTVSPost2010PropOp46
 70
     1
102
RTVSPost2010Prop47
 90
       50
102
RTVSPost2010PropOp47
 70
     1
102
RTVSPost2010Prop48
 90
       50
102
RTVSPost2010PropOp48
 70
     1
102
RTVSPost2010Prop49
280
     0
102
RTVSPost2010PropOp49
 70
     1
102
RTVSPost2010Prop50
 90
       50
102
RTVSPost2010PropOp50
 70
     1
102
RTVSPost2010Prop51ColorIndex
 90
      256
102
RTVSPost2010Prop51ColorRGB
 90
-16777216
102
RTVSPost2010PropOp51
 70
     0
102
RTVSPost2010Prop52
140
1.0
102
RTVSPost2010PropOp52
 70
     0
102
RTVSPost2010Prop53
 90
        2
102
RTVSPost2010PropOp53
 70
     1
102
RTVSPost2010Prop54
  1
strokes_ogs.tif
102
RTVSPost2010PropOp54
 70
     1
102
RTVSPost2010Prop55
280
     0
102
RTVSPost2010PropOp55
 70
     1
102
RTVSPost2010Prop56
140
1.0
102
RTVSPost2010PropOp56
 70
     1
102
RTVSPost2010Prop57
140
1.0
102
RTVSPost2010PropOp57
 70
     1
102
RTVSPropertyOp28
 70
     1
102
RTVSPropertyOp29
 70
     1
102
RTVSPropertyOp30
 70
     1
102
RTVSPropertyOp31
 70
     1
102
RTVSPropertyOp32
 70
     1
102
RTVSPropertyOp33
 70
     1
102
RTVSPropertyOp34
 70
     1
102
RTVSPropertyOp35
 70
     1
102
RTVSPropertyOp36
 70
     1
102
RTVSPropertyOp37
 70
     1
102
RTVSPropertyOp38
 70
     1
102
RTVSPropertyOp39
 70
     1
102
RTVSPropertyOp40
 70
     1
102
RTVSPropertyOp41
 70
     1
102
RTVSPropertyOp42
 70
     1
102
RTVSPropertyOp43
 70
     1
102
RTVSPropertyOp44
 70
     1
102
RTVSPropertyOp45
 70
     1
102
RTVSPropertyOp46
 70
     1
102
RTVSPropertyOp47
 70
     1
102
RTVSPropertyOp48
 70
     1
102
RTVSPropertyOp49
 70
     1
102
RTVSPropertyOp50
 70
     1
102
RTVSPropertyOp51
 70
     0
102
RTVSPropertyOp52
 70
     0
102
RTVSPropertyOp53
 70
     1
102
RTVSPropertyOp54
 70
     1
102
RTVSPropertyOp55
 70
     1
102
RTVSPropertyOp56
 70
     1
102
RTVSPropertyOp57
 70
     1
102
RTVSPropertyOp58
 70
     1
102
RTVSPropertyOp59
 70
     1
102
RTVSPropertyOp60
 70
     1
102
RTVSPropertyOp61
 70
     1
102
RTVSPropertyOp62
 70
     1
102
RTVSPropertyOp0
 70
     1
102
RTVSPropertyOp1
 70
     1
102
RTVSPropertyOp2
 70
     1
102
RTVSPropertyOp3
 70
     1
102
RTVSPropertyOp4
 70
     1
102
RTVSPropertyOp5
 70
     1
102
RTVSPropertyOp6
 70
     1
102
RTVSPropertyOp7
 70
     1
102
RTVSPropertyOp8
 70
     1
102
RTVSPropertyOp9
 70
     1
102
RTVSPropertyOp10
 70
     1
102
RTVSPropertyOp11
 70
     1
102
RTVSPropertyOp12
 70
     1
102
RTVSPropertyOp13
 70
     1
102
RTVSPropertyOp14
 70
     1
102
RTVSPropertyOp15
 70
     1
102
RTVSPropertyOp16
 70
     1
102
RTVSPropertyOp17
 70
     1
102
RTVSPropertyOp18
 70
     1
102
RTVSPropertyOp19
 70
     1
102
RTVSPropertyOp20
 70
     1
102
RTVSPropertyOp21
 70
     1
102
RTVSPropertyOp22
 70
     1
102
RTVSPropertyOp23
 70
     1
102
RTVSPropertyOp24
 70
     1
102
RTVSPropertyOp25
 70
     1
102
RTVSPropertyOp26
 70
     1
102
RTVSPropertyOp27
 70
     1
  0
XRECORD
  5
348B
102
{ACAD_REACTORS
330
348A
102
}
330
348A
100
AcDbXrecord
280
     1
102
RTVSPost2010Prop28
280
     0
102
RTVSPost2010PropOp28
 70
     1
102
RTVSPost2010Prop29
280
     1
102
RTVSPost2010PropOp29
 70
     1
102
RTVSPost2010Prop30
280
     1
102
RTVSPost2010PropOp30
 70
     1
102
RTVSPost2010Prop31
280
     0
102
RTVSPost2010PropOp31
 70
     1
102
RTVSPost2010Prop32
280
     0
102
RTVSPost2010PropOp32
 70
     1
102
RTVSPost2010Prop33
280
     0
102
RTVSPost2010PropOp33
 70
     1
102
RTVSPost2010Prop34
280
     0
102
RTVSPost2010PropOp34
 70
     1
102
RTVSPost2010Prop35
280
     0
102
RTVSPost2010PropOp35
 70
     1
102
RTVSPost2010Prop36
280
     0
102
RTVSPost2010PropOp36
 70
     1
102
RTVSPost2010Prop37
 90
       50
102
RTVSPost2010PropOp37
 70
     1
102
RTVSPost2010Prop38
140
0.0
102
RTVSPost2010PropOp38
 70
     1
102
RTVSPost2010Prop39
140
1.0
102
RTVSPost2010PropOp39
 70
     1
102
RTVSPost2010Prop40
 90
        0
102
RTVSPost2010PropOp40
 70
     1
102
RTVSPost2010Prop41ColorIndex
 90
       18
102
RTVSPost2010Prop41ColorRGB
 90
        0
102
RTVSPost2010PropOp41
 70
     1
102
RTVSPost2010Prop42
 90
       50
102
RTVSPost2010PropOp42
 70
     1
102
RTVSPost2010Prop43
 90
        3
102
RTVSPost2010PropOp43
 70
     1
102
RTVSPost2010Prop44ColorIndex
 90
        5
102
RTVSPost2010Prop44ColorRGB
 90
      255
102
RTVSPost2010PropOp44
 70
     1
102
RTVSPost2010Prop45
280
     0
102
RTVSPost2010PropOp45
 70
     1
102
RTVSPost2010Prop46
 90
       50
102
RTVSPost2010PropOp46
 70
     1
102
RTVSPost2010Prop47
 90
       50
102
RTVSPost2010PropOp47
 70
     1
102
RTVSPost2010Prop48
 90
       50
102
RTVSPost2010PropOp48
 70
     1
102
RTVSPost2010Prop49
280
     0
102
RTVSPost2010PropOp49
 70
     1
102
RTVSPost2010Prop50
 90
       50
102
RTVSPost2010PropOp50
 70
     1
102
RTVSPost2010Prop51ColorIndex
 90
      256
102
RTVSPost2010Prop51ColorRGB
 90
-16777216
102
RTVSPost2010PropOp51
 70
     0
102
RTVSPost2010Prop52
140
1.0
102
RTVSPost2010PropOp52
 70
     0
102
RTVSPost2010Prop53
 90
        2
102
RTVSPost2010PropOp53
 70
     1
102
RTVSPost2010Prop54
  1
strokes_ogs.tif
102
RTVSPost2010PropOp54
 70
     1
102
RTVSPost2010Prop55
280
     0
102
RTVSPost2010PropOp55
 70
     1
102
RTVSPost2010Prop56
140
1.0
102
RTVSPost2010PropOp56
 70
     1
102
RTVSPost2010Prop57
140
1.0
102
RTVSPost2010PropOp57
 70
     1
102
RTVSPropertyOp28
 70
     1
102
RTVSPropertyOp29
 70
     1
102
RTVSPropertyOp30
 70
     1
102
RTVSPropertyOp31
 70
     1
102
RTVSPropertyOp32
 70
     1
102
RTVSPropertyOp33
 70
     1
102
RTVSPropertyOp34
 70
     1
102
RTVSPropertyOp35
 70
     1
102
RTVSPropertyOp36
 70
     1
102
RTVSPropertyOp37
 70
     1
102
RTVSPropertyOp38
 70
     1
102
RTVSPropertyOp39
 70
     1
102
RTVSPropertyOp40
 70
     1
102
RTVSPropertyOp41
 70
     1
102
RTVSPropertyOp42
 70
     1
102
RTVSPropertyOp43
 70
     1
102
RTVSPropertyOp44
 70
     1
102
RTVSPropertyOp45
 70
     1
102
RTVSPropertyOp46
 70
     1
102
RTVSPropertyOp47
 70
     1
102
RTVSPropertyOp48
 70
     1
102
RTVSPropertyOp49
 70
     1
102
RTVSPropertyOp50
 70
     1
102
RTVSPropertyOp51
 70
     0
102
RTVSPropertyOp52
 70
     0
102
RTVSPropertyOp53
 70
     1
102
RTVSPropertyOp54
 70
     1
102
RTVSPropertyOp55
 70
     1
102
RTVSPropertyOp56
 70
     1
102
RTVSPropertyOp57
 70
     1
102
RTVSPropertyOp58
 70
     1
102
RTVSPropertyOp59
 70
     1
102
RTVSPropertyOp60
 70
     1
102
RTVSPropertyOp61
 70
     1
102
RTVSPropertyOp62
 70
     1
102
RTVSPropertyOp0
 70
     1
102
RTVSPropertyOp1
 70
     1
102
RTVSPropertyOp2
 70
     1
102
RTVSPropertyOp3
 70
     1
102
RTVSPropertyOp4
 70
     1
102
RTVSPropertyOp5
 70
     1
102
RTVSPropertyOp6
 70
     1
102
RTVSPropertyOp7
 70
     1
102
RTVSPropertyOp8
 70
     1
102
RTVSPropertyOp9
 70
     1
102
RTVSPropertyOp10
 70
     1
102
RTVSPropertyOp11
 70
     1
102
RTVSPropertyOp12
 70
     1
102
RTVSPropertyOp13
 70
     1
102
RTVSPropertyOp14
 70
     1
102
RTVSPropertyOp15
 70
     1
102
RTVSPropertyOp16
 70
     1
102
RTVSPropertyOp17
 70
     1
102
RTVSPropertyOp18
 70
     1
102
RTVSPropertyOp19
 70
     1
102
RTVSPropertyOp20
 70
     1
102
RTVSPropertyOp21
 70
     1
102
RTVSPropertyOp22
 70
     1
102
RTVSPropertyOp23
 70
     1
102
RTVSPropertyOp24
 70
     1
102
RTVSPropertyOp25
 70
     1
102
RTVSPropertyOp26
 70
     1
102
RTVSPropertyOp27
 70
     1
  0
XRECORD
  5
348D
102
{ACAD_REACTORS
330
348C
102
}
330
348C
100
AcDbXrecord
280
     1
102
RTVSPost2010Prop28
280
     0
102
RTVSPost2010PropOp28
 70
     1
102
RTVSPost2010Prop29
280
     1
102
RTVSPost2010PropOp29
 70
     1
102
RTVSPost2010Prop30
280
     1
102
RTVSPost2010PropOp30
 70
     1
102
RTVSPost2010Prop31
280
     0
102
RTVSPost2010PropOp31
 70
     1
102
RTVSPost2010Prop32
280
     0
102
RTVSPost2010PropOp32
 70
     1
102
RTVSPost2010Prop33
280
     0
102
RTVSPost2010PropOp33
 70
     1
102
RTVSPost2010Prop34
280
     0
102
RTVSPost2010PropOp34
 70
     1
102
RTVSPost2010Prop35
280
     0
102
RTVSPost2010PropOp35
 70
     1
102
RTVSPost2010Prop36
280
     0
102
RTVSPost2010PropOp36
 70
     1
102
RTVSPost2010Prop37
 90
       50
102
RTVSPost2010PropOp37
 70
     1
102
RTVSPost2010Prop38
140
0.0
102
RTVSPost2010PropOp38
 70
     1
102
RTVSPost2010Prop39
140
1.0
102
RTVSPost2010PropOp39
 70
     1
102
RTVSPost2010Prop40
 90
        0
102
RTVSPost2010PropOp40
 70
     1
102
RTVSPost2010Prop41ColorIndex
 90
       18
102
RTVSPost2010Prop41ColorRGB
 90
        0
102
RTVSPost2010PropOp41
 70
     1
102
RTVSPost2010Prop42
 90
       50
102
RTVSPost2010PropOp42
 70
     1
102
RTVSPost2010Prop43
 90
        3
102
RTVSPost2010PropOp43
 70
     1
102
RTVSPost2010Prop44ColorIndex
 90
        5
102
RTVSPost2010Prop44ColorRGB
 90
      255
102
RTVSPost2010PropOp44
 70
     1
102
RTVSPost2010Prop45
280
     0
102
RTVSPost2010PropOp45
 70
     1
102
RTVSPost2010Prop46
 90
       50
102
RTVSPost2010PropOp46
 70
     1
102
RTVSPost2010Prop47
 90
       50
102
RTVSPost2010PropOp47
 70
     1
102
RTVSPost2010Prop48
 90
       50
102
RTVSPost2010PropOp48
 70
     1
102
RTVSPost2010Prop49
280
     0
102
RTVSPost2010PropOp49
 70
     1
102
RTVSPost2010Prop50
 90
       50
102
RTVSPost2010PropOp50
 70
     1
102
RTVSPost2010Prop51ColorIndex
 90
      256
102
RTVSPost2010Prop51ColorRGB
 90
-16777216
102
RTVSPost2010PropOp51
 70
     0
102
RTVSPost2010Prop52
140
1.0
102
RTVSPost2010PropOp52
 70
     0
102
RTVSPost2010Prop53
 90
        2
102
RTVSPost2010PropOp53
 70
     1
102
RTVSPost2010Prop54
  1
strokes_ogs.tif
102
RTVSPost2010PropOp54
 70
     1
102
RTVSPost2010Prop55
280
     0
102
RTVSPost2010PropOp55
 70
     1
102
RTVSPost2010Prop56
140
1.0
102
RTVSPost2010PropOp56
 70
     1
102
RTVSPost2010Prop57
140
1.0
102
RTVSPost2010PropOp57
 70
     1
102
RTVSPropertyOp28
 70
     1
102
RTVSPropertyOp29
 70
     1
102
RTVSPropertyOp30
 70
     1
102
RTVSPropertyOp31
 70
     1
102
RTVSPropertyOp32
 70
     1
102
RTVSPropertyOp33
 70
     1
102
RTVSPropertyOp34
 70
     1
102
RTVSPropertyOp35
 70
     1
102
RTVSPropertyOp36
 70
     1
102
RTVSPropertyOp37
 70
     1
102
RTVSPropertyOp38
 70
     1
102
RTVSPropertyOp39
 70
     1
102
RTVSPropertyOp40
 70
     1
102
RTVSPropertyOp41
 70
     1
102
RTVSPropertyOp42
 70
     1
102
RTVSPropertyOp43
 70
     1
102
RTVSPropertyOp44
 70
     1
102
RTVSPropertyOp45
 70
     1
102
RTVSPropertyOp46
 70
     1
102
RTVSPropertyOp47
 70
     1
102
RTVSPropertyOp48
 70
     1
102
RTVSPropertyOp49
 70
     1
102
RTVSPropertyOp50
 70
     1
102
RTVSPropertyOp51
 70
     0
102
RTVSPropertyOp52
 70
     0
102
RTVSPropertyOp53
 70
     1
102
RTVSPropertyOp54
 70
     1
102
RTVSPropertyOp55
 70
     1
102
RTVSPropertyOp56
 70
     1
102
RTVSPropertyOp57
 70
     1
102
RTVSPropertyOp58
 70
     1
102
RTVSPropertyOp59
 70
     1
102
RTVSPropertyOp60
 70
     1
102
RTVSPropertyOp61
 70
     1
102
RTVSPropertyOp62
 70
     1
102
RTVSPropertyOp0
 70
     1
102
RTVSPropertyOp1
 70
     1
102
RTVSPropertyOp2
 70
     1
102
RTVSPropertyOp3
 70
     1
102
RTVSPropertyOp4
 70
     1
102
RTVSPropertyOp5
 70
     1
102
RTVSPropertyOp6
 70
     1
102
RTVSPropertyOp7
 70
     1
102
RTVSPropertyOp8
 70
     1
102
RTVSPropertyOp9
 70
     1
102
RTVSPropertyOp10
 70
     1
102
RTVSPropertyOp11
 70
     1
102
RTVSPropertyOp12
 70
     1
102
RTVSPropertyOp13
 70
     1
102
RTVSPropertyOp14
 70
     1
102
RTVSPropertyOp15
 70
     1
102
RTVSPropertyOp16
 70
     1
102
RTVSPropertyOp17
 70
     1
102
RTVSPropertyOp18
 70
     1
102
RTVSPropertyOp19
 70
     1
102
RTVSPropertyOp20
 70
     1
102
RTVSPropertyOp21
 70
     1
102
RTVSPropertyOp22
 70
     1
102
RTVSPropertyOp23
 70
     1
102
RTVSPropertyOp24
 70
     1
102
RTVSPropertyOp25
 70
     1
102
RTVSPropertyOp26
 70
     1
102
RTVSPropertyOp27
 70
     1
  0
XRECORD
  5
347E
102
{ACAD_REACTORS
330
347D
102
}
330
347D
100
AcDbXrecord
280
     1
102
RTVSPost2010Prop28
280
     0
102
RTVSPost2010PropOp28
 70
     1
102
RTVSPost2010Prop29
280
     1
102
RTVSPost2010PropOp29
 70
     1
102
RTVSPost2010Prop30
280
     1
102
RTVSPost2010PropOp30
 70
     1
102
RTVSPost2010Prop31
280
     0
102
RTVSPost2010PropOp31
 70
     1
102
RTVSPost2010Prop32
280
     0
102
RTVSPost2010PropOp32
 70
     1
102
RTVSPost2010Prop33
280
     0
102
RTVSPost2010PropOp33
 70
     1
102
RTVSPost2010Prop34
280
     0
102
RTVSPost2010PropOp34
 70
     1
102
RTVSPost2010Prop35
280
     0
102
RTVSPost2010PropOp35
 70
     1
102
RTVSPost2010Prop36
280
     0
102
RTVSPost2010PropOp36
 70
     1
102
RTVSPost2010Prop37
 90
       50
102
RTVSPost2010PropOp37
 70
     1
102
RTVSPost2010Prop38
140
0.0
102
RTVSPost2010PropOp38
 70
     1
102
RTVSPost2010Prop39
140
1.0
102
RTVSPost2010PropOp39
 70
     1
102
RTVSPost2010Prop40
 90
        0
102
RTVSPost2010PropOp40
 70
     1
102
RTVSPost2010Prop41ColorIndex
 90
       18
102
RTVSPost2010Prop41ColorRGB
 90
        0
102
RTVSPost2010PropOp41
 70
     1
102
RTVSPost2010Prop42
 90
       50
102
RTVSPost2010PropOp42
 70
     1
102
RTVSPost2010Prop43
 90
        3
102
RTVSPost2010PropOp43
 70
     1
102
RTVSPost2010Prop44ColorIndex
 90
        5
102
RTVSPost2010Prop44ColorRGB
 90
      255
102
RTVSPost2010PropOp44
 70
     1
102
RTVSPost2010Prop45
280
     0
102
RTVSPost2010PropOp45
 70
     1
102
RTVSPost2010Prop46
 90
       50
102
RTVSPost2010PropOp46
 70
     1
102
RTVSPost2010Prop47
 90
       50
102
RTVSPost2010PropOp47
 70
     1
102
RTVSPost2010Prop48
 90
       50
102
RTVSPost2010PropOp48
 70
     1
102
RTVSPost2010Prop49
280
     0
102
RTVSPost2010PropOp49
 70
     1
102
RTVSPost2010Prop50
 90
       50
102
RTVSPost2010PropOp50
 70
     1
102
RTVSPost2010Prop51ColorIndex
 90
      256
102
RTVSPost2010Prop51ColorRGB
 90
-16777216
102
RTVSPost2010PropOp51
 70
     0
102
RTVSPost2010Prop52
140
1.0
102
RTVSPost2010PropOp52
 70
     0
102
RTVSPost2010Prop53
 90
        2
102
RTVSPost2010PropOp53
 70
     1
102
RTVSPost2010Prop54
  1
strokes_ogs.tif
102
RTVSPost2010PropOp54
 70
     1
102
RTVSPost2010Prop55
280
     0
102
RTVSPost2010PropOp55
 70
     1
102
RTVSPost2010Prop56
140
1.0
102
RTVSPost2010PropOp56
 70
     1
102
RTVSPost2010Prop57
140
1.0
102
RTVSPost2010PropOp57
 70
     1
102
RTVSPropertyOp28
 70
     1
102
RTVSPropertyOp29
 70
     1
102
RTVSPropertyOp30
 70
     1
102
RTVSPropertyOp31
 70
     1
102
RTVSPropertyOp32
 70
     1
102
RTVSPropertyOp33
 70
     1
102
RTVSPropertyOp34
 70
     1
102
RTVSPropertyOp35
 70
     1
102
RTVSPropertyOp36
 70
     1
102
RTVSPropertyOp37
 70
     1
102
RTVSPropertyOp38
 70
     1
102
RTVSPropertyOp39
 70
     1
102
RTVSPropertyOp40
 70
     1
102
RTVSPropertyOp41
 70
     1
102
RTVSPropertyOp42
 70
     1
102
RTVSPropertyOp43
 70
     1
102
RTVSPropertyOp44
 70
     1
102
RTVSPropertyOp45
 70
     1
102
RTVSPropertyOp46
 70
     1
102
RTVSPropertyOp47
 70
     1
102
RTVSPropertyOp48
 70
     1
102
RTVSPropertyOp49
 70
     1
102
RTVSPropertyOp50
 70
     1
102
RTVSPropertyOp51
 70
     0
102
RTVSPropertyOp52
 70
     0
102
RTVSPropertyOp53
 70
     1
102
RTVSPropertyOp54
 70
     1
102
RTVSPropertyOp55
 70
     1
102
RTVSPropertyOp56
 70
     1
102
RTVSPropertyOp57
 70
     1
102
RTVSPropertyOp58
 70
     1
102
RTVSPropertyOp59
 70
     1
102
RTVSPropertyOp60
 70
     1
102
RTVSPropertyOp61
 70
     1
102
RTVSPropertyOp62
 70
     1
102
RTVSPropertyOp0
 70
     1
102
RTVSPropertyOp1
 70
     1
102
RTVSPropertyOp2
 70
     1
102
RTVSPropertyOp3
 70
     1
102
RTVSPropertyOp4
 70
     1
102
RTVSPropertyOp5
 70
     1
102
RTVSPropertyOp6
 70
     1
102
RTVSPropertyOp7
 70
     1
102
RTVSPropertyOp8
 70
     1
102
RTVSPropertyOp9
 70
     1
102
RTVSPropertyOp10
 70
     1
102
RTVSPropertyOp11
 70
     1
102
RTVSPropertyOp12
 70
     1
102
RTVSPropertyOp13
 70
     1
102
RTVSPropertyOp14
 70
     1
102
RTVSPropertyOp15
 70
     1
102
RTVSPropertyOp16
 70
     1
102
RTVSPropertyOp17
 70
     1
102
RTVSPropertyOp18
 70
     1
102
RTVSPropertyOp19
 70
     1
102
RTVSPropertyOp20
 70
     1
102
RTVSPropertyOp21
 70
     1
102
RTVSPropertyOp22
 70
     1
102
RTVSPropertyOp23
 70
     1
102
RTVSPropertyOp24
 70
     1
102
RTVSPropertyOp25
 70
     1
102
RTVSPropertyOp26
 70
     1
102
RTVSPropertyOp27
 70
     1
  0
XRECORD
  5
3487
102
{ACAD_REACTORS
330
3486
102
}
330
3486
100
AcDbXrecord
280
     1
102
RTVSPost2010Prop28
280
     0
102
RTVSPost2010PropOp28
 70
     1
102
RTVSPost2010Prop29
280
     1
102
RTVSPost2010PropOp29
 70
     1
102
RTVSPost2010Prop30
280
     1
102
RTVSPost2010PropOp30
 70
     1
102
RTVSPost2010Prop31
280
     0
102
RTVSPost2010PropOp31
 70
     1
102
RTVSPost2010Prop32
280
     0
102
RTVSPost2010PropOp32
 70
     1
102
RTVSPost2010Prop33
280
     0
102
RTVSPost2010PropOp33
 70
     1
102
RTVSPost2010Prop34
280
     0
102
RTVSPost2010PropOp34
 70
     1
102
RTVSPost2010Prop35
280
     0
102
RTVSPost2010PropOp35
 70
     1
102
RTVSPost2010Prop36
280
     0
102
RTVSPost2010PropOp36
 70
     1
102
RTVSPost2010Prop37
 90
       50
102
RTVSPost2010PropOp37
 70
     1
102
RTVSPost2010Prop38
140
0.0
102
RTVSPost2010PropOp38
 70
     1
102
RTVSPost2010Prop39
140
1.0
102
RTVSPost2010PropOp39
 70
     1
102
RTVSPost2010Prop40
 90
        0
102
RTVSPost2010PropOp40
 70
     1
102
RTVSPost2010Prop41ColorIndex
 90
       18
102
RTVSPost2010Prop41ColorRGB
 90
        0
102
RTVSPost2010PropOp41
 70
     1
102
RTVSPost2010Prop42
 90
       50
102
RTVSPost2010PropOp42
 70
     1
102
RTVSPost2010Prop43
 90
        3
102
RTVSPost2010PropOp43
 70
     1
102
RTVSPost2010Prop44ColorIndex
 90
        5
102
RTVSPost2010Prop44ColorRGB
 90
      255
102
RTVSPost2010PropOp44
 70
     1
102
RTVSPost2010Prop45
280
     0
102
RTVSPost2010PropOp45
 70
     1
102
RTVSPost2010Prop46
 90
       50
102
RTVSPost2010PropOp46
 70
     1
102
RTVSPost2010Prop47
 90
       50
102
RTVSPost2010PropOp47
 70
     1
102
RTVSPost2010Prop48
 90
       50
102
RTVSPost2010PropOp48
 70
     1
102
RTVSPost2010Prop49
280
     0
102
RTVSPost2010PropOp49
 70
     1
102
RTVSPost2010Prop50
 90
       50
102
RTVSPost2010PropOp50
 70
     1
102
RTVSPost2010Prop51ColorIndex
 90
      256
102
RTVSPost2010Prop51ColorRGB
 90
-16777216
102
RTVSPost2010PropOp51
 70
     0
102
RTVSPost2010Prop52
140
1.0
102
RTVSPost2010PropOp52
 70
     0
102
RTVSPost2010Prop53
 90
        2
102
RTVSPost2010PropOp53
 70
     1
102
RTVSPost2010Prop54
  1
strokes_ogs.tif
102
RTVSPost2010PropOp54
 70
     1
102
RTVSPost2010Prop55
280
     0
102
RTVSPost2010PropOp55
 70
     1
102
RTVSPost2010Prop56
140
1.0
102
RTVSPost2010PropOp56
 70
     1
102
RTVSPost2010Prop57
140
1.0
102
RTVSPost2010PropOp57
 70
     1
102
RTVSPropertyOp28
 70
     1
102
RTVSPropertyOp29
 70
     1
102
RTVSPropertyOp30
 70
     1
102
RTVSPropertyOp31
 70
     1
102
RTVSPropertyOp32
 70
     1
102
RTVSPropertyOp33
 70
     1
102
RTVSPropertyOp34
 70
     1
102
RTVSPropertyOp35
 70
     1
102
RTVSPropertyOp36
 70
     1
102
RTVSPropertyOp37
 70
     1
102
RTVSPropertyOp38
 70
     1
102
RTVSPropertyOp39
 70
     1
102
RTVSPropertyOp40
 70
     1
102
RTVSPropertyOp41
 70
     1
102
RTVSPropertyOp42
 70
     1
102
RTVSPropertyOp43
 70
     1
102
RTVSPropertyOp44
 70
     1
102
RTVSPropertyOp45
 70
     1
102
RTVSPropertyOp46
 70
     1
102
RTVSPropertyOp47
 70
     1
102
RTVSPropertyOp48
 70
     1
102
RTVSPropertyOp49
 70
     1
102
RTVSPropertyOp50
 70
     1
102
RTVSPropertyOp51
 70
     0
102
RTVSPropertyOp52
 70
     0
102
RTVSPropertyOp53
 70
     1
102
RTVSPropertyOp54
 70
     1
102
RTVSPropertyOp55
 70
     1
102
RTVSPropertyOp56
 70
     1
102
RTVSPropertyOp57
 70
     1
102
RTVSPropertyOp58
 70
     1
102
RTVSPropertyOp59
 70
     1
102
RTVSPropertyOp60
 70
     1
102
RTVSPropertyOp61
 70
     1
102
RTVSPropertyOp62
 70
     1
102
RTVSPropertyOp0
 70
     1
102
RTVSPropertyOp1
 70
     1
102
RTVSPropertyOp2
 70
     1
102
RTVSPropertyOp3
 70
     1
102
RTVSPropertyOp4
 70
     1
102
RTVSPropertyOp5
 70
     1
102
RTVSPropertyOp6
 70
     1
102
RTVSPropertyOp7
 70
     1
102
RTVSPropertyOp8
 70
     1
102
RTVSPropertyOp9
 70
     1
102
RTVSPropertyOp10
 70
     1
102
RTVSPropertyOp11
 70
     1
102
RTVSPropertyOp12
 70
     1
102
RTVSPropertyOp13
 70
     1
102
RTVSPropertyOp14
 70
     1
102
RTVSPropertyOp15
 70
     1
102
RTVSPropertyOp16
 70
     1
102
RTVSPropertyOp17
 70
     1
102
RTVSPropertyOp18
 70
     1
102
RTVSPropertyOp19
 70
     1
102
RTVSPropertyOp20
 70
     1
102
RTVSPropertyOp21
 70
     1
102
RTVSPropertyOp22
 70
     1
102
RTVSPropertyOp23
 70
     1
102
RTVSPropertyOp24
 70
     1
102
RTVSPropertyOp25
 70
     1
102
RTVSPropertyOp26
 70
     1
102
RTVSPropertyOp27
 70
     1
  0
XRECORD
  5
348F
102
{ACAD_REACTORS
330
348E
102
}
330
348E
100
AcDbXrecord
280
     1
102
RTVSPost2010Prop28
280
     0
102
RTVSPost2010PropOp28
 70
     1
102
RTVSPost2010Prop29
280
     1
102
RTVSPost2010PropOp29
 70
     1
102
RTVSPost2010Prop30
280
     1
102
RTVSPost2010PropOp30
 70
     1
102
RTVSPost2010Prop31
280
     0
102
RTVSPost2010PropOp31
 70
     1
102
RTVSPost2010Prop32
280
     0
102
RTVSPost2010PropOp32
 70
     1
102
RTVSPost2010Prop33
280
     0
102
RTVSPost2010PropOp33
 70
     1
102
RTVSPost2010Prop34
280
     0
102
RTVSPost2010PropOp34
 70
     1
102
RTVSPost2010Prop35
280
     0
102
RTVSPost2010PropOp35
 70
     1
102
RTVSPost2010Prop36
280
     0
102
RTVSPost2010PropOp36
 70
     1
102
RTVSPost2010Prop37
 90
       50
102
RTVSPost2010PropOp37
 70
     1
102
RTVSPost2010Prop38
140
0.0
102
RTVSPost2010PropOp38
 70
     1
102
RTVSPost2010Prop39
140
1.0
102
RTVSPost2010PropOp39
 70
     1
102
RTVSPost2010Prop40
 90
        0
102
RTVSPost2010PropOp40
 70
     1
102
RTVSPost2010Prop41ColorIndex
 90
       18
102
RTVSPost2010Prop41ColorRGB
 90
        0
102
RTVSPost2010PropOp41
 70
     1
102
RTVSPost2010Prop42
 90
       50
102
RTVSPost2010PropOp42
 70
     1
102
RTVSPost2010Prop43
 90
        3
102
RTVSPost2010PropOp43
 70
     1
102
RTVSPost2010Prop44ColorIndex
 90
        5
102
RTVSPost2010Prop44ColorRGB
 90
      255
102
RTVSPost2010PropOp44
 70
     1
102
RTVSPost2010Prop45
280
     0
102
RTVSPost2010PropOp45
 70
     1
102
RTVSPost2010Prop46
 90
       50
102
RTVSPost2010PropOp46
 70
     1
102
RTVSPost2010Prop47
 90
       50
102
RTVSPost2010PropOp47
 70
     1
102
RTVSPost2010Prop48
 90
       50
102
RTVSPost2010PropOp48
 70
     1
102
RTVSPost2010Prop49
280
     0
102
RTVSPost2010PropOp49
 70
     1
102
RTVSPost2010Prop50
 90
       50
102
RTVSPost2010PropOp50
 70
     1
102
RTVSPost2010Prop51ColorIndex
 90
      256
102
RTVSPost2010Prop51ColorRGB
 90
-16777216
102
RTVSPost2010PropOp51
 70
     0
102
RTVSPost2010Prop52
140
1.0
102
RTVSPost2010PropOp52
 70
     0
102
RTVSPost2010Prop53
 90
        2
102
RTVSPost2010PropOp53
 70
     1
102
RTVSPost2010Prop54
  1
strokes_ogs.tif
102
RTVSPost2010PropOp54
 70
     1
102
RTVSPost2010Prop55
280
     0
102
RTVSPost2010PropOp55
 70
     1
102
RTVSPost2010Prop56
140
1.0
102
RTVSPost2010PropOp56
 70
     1
102
RTVSPost2010Prop57
140
1.0
102
RTVSPost2010PropOp57
 70
     1
102
RTVSPropertyOp28
 70
     1
102
RTVSPropertyOp29
 70
     1
102
RTVSPropertyOp30
 70
     1
102
RTVSPropertyOp31
 70
     1
102
RTVSPropertyOp32
 70
     1
102
RTVSPropertyOp33
 70
     1
102
RTVSPropertyOp34
 70
     1
102
RTVSPropertyOp35
 70
     1
102
RTVSPropertyOp36
 70
     1
102
RTVSPropertyOp37
 70
     1
102
RTVSPropertyOp38
 70
     1
102
RTVSPropertyOp39
 70
     1
102
RTVSPropertyOp40
 70
     1
102
RTVSPropertyOp41
 70
     1
102
RTVSPropertyOp42
 70
     1
102
RTVSPropertyOp43
 70
     1
102
RTVSPropertyOp44
 70
     1
102
RTVSPropertyOp45
 70
     1
102
RTVSPropertyOp46
 70
     1
102
RTVSPropertyOp47
 70
     1
102
RTVSPropertyOp48
 70
     1
102
RTVSPropertyOp49
 70
     1
102
RTVSPropertyOp50
 70
     1
102
RTVSPropertyOp51
 70
     0
102
RTVSPropertyOp52
 70
     0
102
RTVSPropertyOp53
 70
     1
102
RTVSPropertyOp54
 70
     1
102
RTVSPropertyOp55
 70
     1
102
RTVSPropertyOp56
 70
     1
102
RTVSPropertyOp57
 70
     1
102
RTVSPropertyOp58
 70
     1
102
RTVSPropertyOp59
 70
     1
102
RTVSPropertyOp60
 70
     1
102
RTVSPropertyOp61
 70
     1
102
RTVSPropertyOp62
 70
     1
102
RTVSPropertyOp0
 70
     1
102
RTVSPropertyOp1
 70
     1
102
RTVSPropertyOp2
 70
     1
102
RTVSPropertyOp3
 70
     1
102
RTVSPropertyOp4
 70
     1
102
RTVSPropertyOp5
 70
     1
102
RTVSPropertyOp6
 70
     1
102
RTVSPropertyOp7
 70
     1
102
RTVSPropertyOp8
 70
     1
102
RTVSPropertyOp9
 70
     1
102
RTVSPropertyOp10
 70
     1
102
RTVSPropertyOp11
 70
     1
102
RTVSPropertyOp12
 70
     1
102
RTVSPropertyOp13
 70
     1
102
RTVSPropertyOp14
 70
     1
102
RTVSPropertyOp15
 70
     1
102
RTVSPropertyOp16
 70
     1
102
RTVSPropertyOp17
 70
     1
102
RTVSPropertyOp18
 70
     1
102
RTVSPropertyOp19
 70
     1
102
RTVSPropertyOp20
 70
     1
102
RTVSPropertyOp21
 70
     1
102
RTVSPropertyOp22
 70
     1
102
RTVSPropertyOp23
 70
     1
102
RTVSPropertyOp24
 70
     1
102
RTVSPropertyOp25
 70
     1
102
RTVSPropertyOp26
 70
     1
102
RTVSPropertyOp27
 70
     1
  0
ENDSEC
  0
EOF
