  0
SECTION
  2
HEADER
  9
$ACADVER
  1
AC1014
  9
$ACADMAINTVER
 70
     9
  9
$DWGCODEPAGE
  3
ANSI_932
  9
$INSBASE
 10
0.0
 20
0.0
 30
0.0
  9
$EXTMIN
 10
26.25780958387531
 20
24.16768655801875
 30
0.0
  9
$EXTMAX
 10
404.1829263702912
 20
365.4143057546582
 30
0.0
  9
$LIMMIN
 10
0.0
 20
0.0
  9
$LIMMAX
 10
297.0
 20
210.0
  9
$ORTHOMODE
 70
     1
  9
$REGENMODE
 70
     1
  9
$FILLMODE
 70
     1
  9
$QTEXTMODE
 70
     0
  9
$MIRRTEXT
 70
     0
  9
$DRAGMODE
 70
     2
  9
$LTSCALE
 40
2.0
  9
$OSMODE
 70
    37
  9
$ATTMODE
 70
     1
  9
$TEXTSIZE
 40
6.0
  9
$TRACEWID
 40
1.0
  9
$TEXTSTYLE
  7
STANDARD
  9
$CLAYER
  8
0
  9
$CELTYPE
  6
BYLAYER
  9
$CECOLOR
 62
   256
  9
$CELTSCALE
 40
1.0
  9
$DELOBJ
 70
     1
  9
$DISPSILH
 70
     0
  9
$DIMSCALE
 40
2.0
  9
$DIMASZ
 40
1.8
  9
$DIMEXO
 40
0.625
  9
$DIMDLI
 40
3.75
  9
$DIMRND
 40
0.0
  9
$DIMDLE
 40
0.0
  9
$DIMEXE
 40
0.8
  9
$DIMTP
 40
0.0
  9
$DIMTM
 40
0.0
  9
$DIMTXT
 40
1.8
  9
$DIMCEN
 40
2.5
  9
$DIMTSZ
 40
0.0
  9
$DIMTOL
 70
     0
  9
$DIMLIM
 70
     0
  9
$DIMTIH
 70
     0
  9
$DIMTOH
 70
     0
  9
$DIMSE1
 70
     0
  9
$DIMSE2
 70
     0
  9
$DIMTAD
 70
     1
  9
$DIMZIN
 70
     8
  9
$DIMBLK
  1

  9
$DIMASO
 70
     1
  9
$DIMSHO
 70
     1
  9
$DIMPOST
  1

  9
$DIMAPOST
  1

  9
$DIMALT
 70
     0
  9
$DIMALTD
 70
     4
  9
$DIMALTF
 40
0.0394
  9
$DIMLFAC
 40
1.0
  9
$DIMTOFL
 70
     1
  9
$DIMTVP
 40
0.0
  9
$DIMTIX
 70
     0
  9
$DIMSOXD
 70
     0
  9
$DIMSAH
 70
     0
  9
$DIMBLK1
  1

  9
$DIMBLK2
  1

  9
$DIMSTYLE
  2
STANDARD
  9
$DIMCLRD
 70
     0
  9
$DIMCLRE
 70
     0
  9
$DIMCLRT
 70
     0
  9
$DIMTFAC
 40
1.0
  9
$DIMGAP
 40
0.75
  9
$DIMJUST
 70
     0
  9
$DIMSD1
 70
     0
  9
$DIMSD2
 70
     0
  9
$DIMTOLJ
 70
     1
  9
$DIMTZIN
 70
     0
  9
$DIMALTZ
 70
     0
  9
$DIMALTTZ
 70
     0
  9
$DIMFIT
 70
     3
  9
$DIMUPT
 70
     0
  9
$DIMUNIT
 70
     8
  9
$DIMDEC
 70
     2
  9
$DIMTDEC
 70
     2
  9
$DIMALTU
 70
     8
  9
$DIMALTTD
 70
     4
  9
$DIMTXSTY
  7
STANDARD
  9
$DIMAUNIT
 70
     0
  9
$LUNITS
 70
     2
  9
$LUPREC
 70
     3
  9
$SKETCHINC
 40
1.0
  9
$FILLETRAD
 40
10.0
  9
$AUNITS
 70
     0
  9
$AUPREC
 70
     2
  9
$MENU
  1
.
  9
$ELEVATION
 40
0.0
  9
$PELEVATION
 40
0.0
  9
$THICKNESS
 40
0.0
  9
$LIMCHECK
 70
     0
  9
$BLIPMODE
 70
     0
  9
$CHAMFERA
 40
0.0
  9
$CHAMFERB
 40
0.0
  9
$CHAMFERC
 40
20.0
  9
$CHAMFERD
 40
0.0
  9
$SKPOLY
 70
     0
  9
$TDCREATE
 40
2453692.677007557
  9
$TDUPDATE
 40
2453928.619735961
  9
$TDINDWG
 40
0.0669668519
  9
$TDUSRTIMER
 40
0.0669666667
  9
$USRTIMER
 70
     1
  9
$ANGBASE
 50
0.0
  9
$ANGDIR
 70
     0
  9
$PDMODE
 70
     0
  9
$PDSIZE
 40
-10.0
  9
$PLINEWID
 40
0.0
  9
$COORDS
 70
     0
  9
$SPLFRAME
 70
     0
  9
$SPLINETYPE
 70
     6
  9
$SPLINESEGS
 70
     8
  9
$ATTDIA
 70
     0
  9
$ATTREQ
 70
     1
  9
$HANDLING
 70
-16383
  9
$HANDSEED
  5
2D5A
  9
$SURFTAB1
 70
     6
  9
$SURFTAB2
 70
     6
  9
$SURFTYPE
 70
     6
  9
$SURFU
 70
     6
  9
$SURFV
 70
     6
  9
$UCSNAME
  2

  9
$UCSORG
 10
0.0
 20
0.0
 30
0.0
  9
$UCSXDIR
 10
1.0
 20
0.0
 30
0.0
  9
$UCSYDIR
 10
0.0
 20
1.0
 30
0.0
  9
$PUCSNAME
  2

  9
$PUCSORG
 10
0.0
 20
0.0
 30
0.0
  9
$PUCSXDIR
 10
1.0
 20
0.0
 30
0.0
  9
$PUCSYDIR
 10
0.0
 20
1.0
 30
0.0
  9
$USERI1
 70
     0
  9
$USERI2
 70
     0
  9
$USERI3
 70
     0
  9
$USERI4
 70
     0
  9
$USERI5
 70
     0
  9
$USERR1
 40
0.0
  9
$USERR2
 40
0.0
  9
$USERR3
 40
0.0
  9
$USERR4
 40
0.0
  9
$USERR5
 40
0.0
  9
$WORLDVIEW
 70
     1
  9
$SHADEDGE
 70
     3
  9
$SHADEDIF
 70
    70
  9
$TILEMODE
 70
     1
  9
$MAXACTVP
 70
    48
  9
$PINSBASE
 10
0.0
 20
0.0
 30
0.0
  9
$PLIMCHECK
 70
     0
  9
$PEXTMIN
 10
0.0
 20
0.0
 30
0.0
  9
$PEXTMAX
 10
0.0
 20
0.0
 30
0.0
  9
$PLIMMIN
 10
0.0
 20
0.0
  9
$PLIMMAX
 10
12.0
 20
9.0
  9
$UNITMODE
 70
     0
  9
$VISRETAIN
 70
     1
  9
$PLINEGEN
 70
     0
  9
$PSLTSCALE
 70
     1
  9
$TREEDEPTH
 70
  3020
  9
$PICKSTYLE
 70
     1
  9
$CMLSTYLE
  2
STANDARD
  9
$CMLJUST
 70
     0
  9
$CMLSCALE
 40
1.0
  9
$PROXYGRAPHICS
 70
     1
  9
$MEASUREMENT
 70
     0
  0
ENDSEC
  0
SECTION
  2
CLASSES
  0
CLASS
  1
DICTIONARYVAR
  2
AcDbDictionaryVar
  3
AutoCAD 2000
 90
        0
280
     0
281
     0
  0
CLASS
  1
ACDBDICTIONARYWDFLT
  2
AcDbDictionaryWithDefault
  3
AutoCAD 2000
 90
        0
280
     0
281
     0
  0
CLASS
  1
ACDBPLACEHOLDER
  2
AcDbPlaceHolder
  3
AutoCAD 2000
 90
        0
280
     0
281
     0
  0
CLASS
  1
LAYOUT
  2
AcDbLayout
  3
AutoCAD 2000
 90
        0
280
     0
281
     0
  0
CLASS
  1
LONG_TRANSACTION
  2
AcDbLongTransaction
  3
AutoCAD 2000
 90
        0
280
     0
281
     0
  0
CLASS
  1
LWPOLYLINE
  2
AcDbPolyline
  3
AutoCAD 2000
 90
        0
280
     0
281
     1
  0
CLASS
  1
HATCH
  2
AcDbHatch
  3
AutoCAD 2000
 90
        0
280
     0
281
     1
  0
CLASS
  1
XRECORD
  2
AcDbXrecord
  3
AutoCAD 2000
 90
        0
280
     0
281
     0
  0
ENDSEC
  0
SECTION
  2
TABLES
  0
TABLE
  2
VPORT
  5
6E
330
0
100
AcDbSymbolTable
 70
     2
  0
VPORT
  5
2D34
330
6E
100
AcDbSymbolTableRecord
100
AcDbViewportTableRecord
  2
*ACTIVE
 70
     0
 10
0.0
 20
0.0
 11
1.0
 21
1.0
 12
238.4026764917018
 22
194.7926564845536
 13
0.0
 23
0.0
 14
10.0
 24
10.0
 15
10.0
 25
10.0
 16
0.0
 26
0.0
 36
1.0
 17
0.0
 27
0.0
 37
0.0
 40
343.9248158547983
 41
1.566970091027308
 42
50.0
 43
0.0
 44
0.0
 50
0.0
 51
0.0
 71
     0
 72
   100
 73
     1
 74
     3
 75
     0
 76
     0
 77
     0
 78
     0
  0
ENDTAB
  0
TABLE
  2
LTYPE
  5
69
330
0
100
AcDbSymbolTable
 70
     4
  0
LTYPE
  5
6A
330
69
100
AcDbSymbolTableRecord
100
AcDbLinetypeTableRecord
  2
BYBLOCK
 70
     0
  3

 72
    65
 73
     0
 40
0.0
  0
LTYPE
  5
6B
330
69
100
AcDbSymbolTableRecord
100
AcDbLinetypeTableRecord
  2
BYLAYER
 70
     0
  3

 72
    65
 73
     0
 40
0.0
  0
LTYPE
  5
8
330
69
100
AcDbSymbolTableRecord
100
AcDbLinetypeTableRecord
  2
CONTINUOUS
 70
     0
  3
Solid line
 72
    65
 73
     0
 40
0.0
  0
LTYPE
  5
27C
330
69
100
AcDbSymbolTableRecord
100
AcDbLinetypeTableRecord
  2
SEKKEI_A2_
 70
     0
  3
center(A2)  ____ _ ____ _ ____ _ ____ _ ____ _ 
 72
    65
 73
     4
 40
14.28749999999999
 49
9.525
 74
     0
 49
-1.587499999999999
 74
     0
 49
1.587499999999999
 74
     0
 49
-1.587499999999999
 74
     0
  0
LTYPE
  5
2B4
330
69
100
AcDbSymbolTableRecord
100
AcDbLinetypeTableRecord
  2
HIDDEN2
 70
     0
  3
Hidden (.5x) _ _ _ _ _ _ _ _ _ _ _ _ _ _ _ _ _
 72
    65
 73
     2
 40
4.762499999999999
 49
3.174999999999999
 74
     0
 49
-1.587499999999999
 74
     0
  0
LTYPE
  5
48F
330
69
100
AcDbSymbolTableRecord
100
AcDbLinetypeTableRecord
  2
SEKKEI_H
 70
     0
  3
Hidden-S _ _ _ _ _ _ _ _ _ _ _ _ _ _ _ _ _
 72
    65
 73
     2
 40
2.381249999999999
 49
1.587499999999999
 74
     0
 49
-0.79375
 74
     0
  0
ENDTAB
  0
TABLE
  2
LAYER
  5
66
330
0
100
AcDbSymbolTable
 70
     9
  0
LAYER
  5
5E
330
66
100
AcDbSymbolTableRecord
100
AcDbLayerTableRecord
  2
0
 70
     0
 62
     7
  6
CONTINUOUS
  0
LAYER
  5
3E
330
66
100
AcDbSymbolTableRecord
100
AcDbLayerTableRecord
  2
CENTER
 70
     0
 62
     3
  6
SEKKEI_A2_
  0
LAYER
  5
2B5
330
66
100
AcDbSymbolTableRecord
100
AcDbLayerTableRecord
  2
HIDS
 70
     0
 62
     1
  6
HIDDEN2
  0
LAYER
  5
2BA
330
66
100
AcDbSymbolTableRecord
100
AcDbLayerTableRecord
  2
HOJO
 70
     0
 62
     4
  6
CONTINUOUS
  0
LAYER
  5
3FA
330
66
100
AcDbSymbolTableRecord
100
AcDbLayerTableRecord
  2
TITLE
 70
     0
 62
     4
  6
CONTINUOUS
  0
ENDTAB
  0
TABLE
  2
STYLE
  5
67
330
0
100
AcDbSymbolTable
 70
     1
  0
STYLE
  5
16
330
67
100
AcDbSymbolTableRecord
100
AcDbTextStyleTableRecord
  2
STANDARD
 70
     0
 40
0.0
 41
1.0
 50
0.0
 71
     0
 42
6.0
  3
simplex.shx
  4
extfont.shx
  0
ENDTAB
  0
TABLE
  2
VIEW
  5
6C
330
0
100
AcDbSymbolTable
 70
     0
  0
ENDTAB
  0
TABLE
  2
UCS
  5
6D
330
0
100
AcDbSymbolTable
 70
     0
  0
ENDTAB
  0
TABLE
  2
APPID
  5
70
330
0
100
AcDbSymbolTable
 70
     1
  0
APPID
  5
71
330
70
100
AcDbSymbolTableRecord
100
AcDbRegAppTableRecord
  2
ACAD
 70
     0
  0
ENDTAB
  0
TABLE
  2
DIMSTYLE
  5
72
330
0
100
AcDbSymbolTable
 70
     1
  0
DIMSTYLE
105
73
102
{ACAD_REACTORS
330
1FF3
102
}
330
72
100
AcDbSymbolTableRecord
100
AcDbDimStyleTableRecord
  2
STANDARD
 70
     0
  3

  4

  5

  6

  7

 40
2.0
 41
1.8
 42
0.625
 43
3.75
 44
0.8
 45
0.0
 46
0.0
 47
0.0
 48
0.0
140
1.8
141
2.5
142
0.0
143
0.0394
144
1.0
145
0.0
146
1.0
147
0.75
 71
     0
 72
     0
 73
     0
 74
     0
 75
     0
 76
     0
 77
     1
 78
     8
170
     0
171
     4
172
     1
173
     0
174
     0
175
     0
176
     0
177
     0
178
     0
270
     8
271
     2
272
     2
273
     8
274
     4
340
16
275
     0
280
     0
281
     0
282
     0
283
     1
284
     0
285
     0
286
     0
287
     3
288
     0
  0
ENDTAB
  0
TABLE
  2
BLOCK_RECORD
  5
1
330
0
100
AcDbSymbolTable
 70
    35
  0
BLOCK_RECORD
  5
2
102
{ACAD_XDICTIONARY
360
2D56
102
}
330
1
100
AcDbSymbolTableRecord
100
AcDbBlockTableRecord
  2
*MODEL_SPACE
  0
BLOCK_RECORD
  5
2D2F
102
{ACAD_XDICTIONARY
360
2D58
102
}
330
1
100
AcDbSymbolTableRecord
100
AcDbBlockTableRecord
  2
*PAPER_SPACE
  0
ENDTAB
  0
ENDSEC
  0
SECTION
  2
BLOCKS
  0
BLOCK
  5
5D
330
2
100
AcDbEntity
  8
0
100
AcDbBlockBegin
  2
*MODEL_SPACE
 70
     0
 10
0.0
 20
0.0
 30
0.0
  3
*MODEL_SPACE
  1

  0
ENDBLK
  5
5F
330
2
100
AcDbEntity
  8
0
100
AcDbBlockEnd
  0
BLOCK
  5
2D31
330
2D2F
100
AcDbEntity
 67
     1
  8
0
100
AcDbBlockBegin
  2
*PAPER_SPACE
 70
     0
 10
0.0
 20
0.0
 30
0.0
  3
*PAPER_SPACE
  1

  0
ENDBLK
  5
2D32
330
2D2F
100
AcDbEntity
 67
     1
  8
0
100
AcDbBlockEnd
  0
ENDSEC
  0
SECTION
  2
ENTITIES
  0
LINE
  5
6AD
330
2
100
AcDbEntity
  8
0
100
AcDbLine
 10
146.1303367848639
 20
71.81114407031668
 30
0.0
 11
89.13030578486393
 21
71.81114407031668
 31
0.0
  0
LINE
  5
6AF
330
2
100
AcDbEntity
  8
0
100
AcDbLine
 10
204.1303057848639
 20
140.6297480703166
 30
0.0
 11
89.13031578486391
 21
140.6297480703166
 31
0.0
  0
LINE
  5
6B0
330
2
100
AcDbEntity
  8
0
100
AcDbLine
 10
89.13030578486393
 20
151.2204460703166
 30
0.0
 11
204.1303057848639
 21
151.2204460703166
 31
0.0
  0
LINE
  5
6B1
330
2
100
AcDbEntity
  8
CENTER
100
AcDbLine
 10
26.25780958387531
 20
106.2204460703166
 30
0.0
 11
213.1303057848639
 21
106.2204460703166
 31
0.0
  0
LINE
  5
6B2
330
2
100
AcDbEntity
  8
0
100
AcDbLine
 10
89.13030578486393
 20
61.22044607031665
 30
0.0
 11
148.1303057848639
 21
61.22044607031665
 31
0.0
  0
LINE
  5
6B6
330
2
100
AcDbEntity
  8
0
100
AcDbLine
 10
89.13030578486393
 20
151.2204460703166
 30
0.0
 11
89.13030578486393
 21
61.22044607031665
 31
0.0
  0
LINE
  5
712
330
2
100
AcDbEntity
  8
0
100
AcDbLine
 10
208.1303057848639
 20
100.2204460703166
 30
0.0
 11
208.1303057848639
 21
138.2204460703166
 31
0.0
  0
LINE
  5
713
330
2
100
AcDbEntity
  8
0
100
AcDbLine
 10
204.1303057848639
 20
151.2204460703166
 30
0.0
 11
204.1303057848639
 21
54.22044607031665
 31
0.0
  0
LINE
  5
714
330
2
100
AcDbEntity
  8
0
100
AcDbLine
 10
185.5053057848639
 20
78.65304607031669
 30
0.0
 11
166.6303057848639
 21
78.65304607031669
 31
0.0
  0
LINE
  5
715
330
2
100
AcDbEntity
  8
0
100
AcDbLine
 10
150.1303287848639
 20
62.22044607031666
 30
0.0
 11
202.1303057848639
 21
62.22044607031666
 31
0.0
  0
LINE
  5
716
330
2
100
AcDbEntity
  8
0
100
AcDbLine
 10
148.1303057848639
 20
54.22044607031665
 30
0.0
 11
204.1303057848639
 21
54.22044607031665
 31
0.0
  0
LINE
  5
717
330
2
100
AcDbEntity
  8
HIDS
  6
SEKKEI_H
100
AcDbLine
 10
159.3803057848639
 20
62.22044607031666
 30
0.0
 11
159.3803057848639
 21
54.22044607031665
 31
0.0
  0
LINE
  5
718
330
2
100
AcDbEntity
  8
CENTER
100
AcDbLine
 10
156.1303057848639
 20
64.72044607031666
 30
0.0
 11
156.1303057848639
 21
51.72044607031665
 31
0.0
  0
LINE
  5
719
330
2
100
AcDbEntity
  8
HIDS
  6
SEKKEI_H
100
AcDbLine
 10
152.8803057848639
 20
62.22044607031666
 30
0.0
 11
152.8803057848639
 21
54.22044607031665
 31
0.0
  0
LINE
  5
71A
330
2
100
AcDbEntity
  8
0
100
AcDbLine
 10
148.1303057848639
 20
69.81114407031668
 30
0.0
 11
148.1303057848639
 21
54.22044607031665
 31
0.0
  0
ARC
  5
71B
330
2
100
AcDbEntity
  8
0
100
AcDbCircle
 10
164.1303057848639
 20
79.22044607031665
 30
0.0
 40
2.0
100
AcDbArc
 50
0.0
 51
90.0
  0
LINE
  5
71C
330
2
100
AcDbEntity
  8
0
100
AcDbLine
 10
165.5053057848639
 20
71.81114407031668
 30
0.0
 11
147.8178057848639
 21
71.81114407031668
 31
0.0
  0
ARC
  5
71D
330
2
100
AcDbEntity
  8
0
100
AcDbCircle
 10
150.1303287848639
 20
60.22044607031665
 30
0.0
 40
2.0
100
AcDbArc
 50
90.0
 51
180.0
  0
ARC
  5
71E
330
2
100
AcDbEntity
  8
0
100
AcDbCircle
 10
146.1303367848639
 20
69.81114407031668
 30
0.0
 40
2.0
100
AcDbArc
 50
0.0
 51
90.0
  0
LINE
  5
71F
330
2
100
AcDbEntity
  8
0
100
AcDbLine
 10
166.1303057848639
 20
64.22044607031665
 30
0.0
 11
166.1303057848639
 21
79.22044607031665
 31
0.0
  0
ARC
  5
720
330
2
100
AcDbEntity
  8
0
100
AcDbCircle
 10
164.1303057848639
 20
64.22044607031665
 30
0.0
 40
2.0
100
AcDbArc
 50
270.0
 51
0.0
  0
LINE
  5
721
330
2
100
AcDbEntity
  8
HIDS
  6
SEKKEI_H
100
AcDbLine
 10
199.3803057848639
 20
62.22044607031666
 30
0.0
 11
199.3803057848639
 21
54.22044607031665
 31
0.0
  0
LINE
  5
722
330
2
100
AcDbEntity
  8
HIDS
  6
SEKKEI_H
100
AcDbLine
 10
192.8803057848639
 20
62.22044607031666
 30
0.0
 11
192.8803057848639
 21
54.22044607031665
 31
0.0
  0
LINE
  5
723
330
2
100
AcDbEntity
  8
CENTER
100
AcDbLine
 10
196.1303057848639
 20
64.72044607031666
 30
0.0
 11
196.1303057848639
 21
51.72044607031665
 31
0.0
  0
ARC
  5
724
330
2
100
AcDbEntity
  8
0
100
AcDbCircle
 10
188.1303057848639
 20
79.22044607031665
 30
0.0
 40
2.0
100
AcDbArc
 50
90.0
 51
180.0
  0
LINE
  5
725
330
2
100
AcDbEntity
  8
0
100
AcDbLine
 10
204.1303057848639
 20
71.81114407031668
 30
0.0
 11
187.1303057848639
 21
71.81114407031668
 31
0.0
  0
LINE
  5
726
330
2
100
AcDbEntity
  8
0
100
AcDbLine
 10
186.1303057848639
 20
64.22044607031665
 30
0.0
 11
186.1303057848639
 21
79.22044607031665
 31
0.0
  0
ARC
  5
727
330
2
100
AcDbEntity
  8
0
100
AcDbCircle
 10
188.1303057848639
 20
64.22044607031665
 30
0.0
 40
2.0
100
AcDbArc
 50
180.0
 51
270.0
  0
ARC
  5
728
330
2
100
AcDbEntity
  8
0
100
AcDbCircle
 10
202.1303057848639
 20
60.22044607031665
 30
0.0
 40
2.0
100
AcDbArc
 50
0.0
 51
90.0
  0
LINE
  5
729
330
2
100
AcDbEntity
  8
0
100
AcDbLine
 10
207.1303057848639
 20
99.22044607031665
 30
0.0
 11
204.1303057848639
 21
99.22044607031665
 31
0.0
  0
ARC
  5
72A
330
2
100
AcDbEntity
  8
0
100
AcDbCircle
 10
207.1303057848639
 20
100.2204460703166
 30
0.0
 40
1.0
100
AcDbArc
 50
270.0
 51
0.0
  0
LINE
  5
7C9
330
2
100
AcDbEntity
  8
0
100
AcDbLine
 10
208.1303057848639
 20
127.7204460703166
 30
0.0
 11
210.1303057848639
 21
127.7204460703166
 31
0.0
  0
LINE
  5
7CA
330
2
100
AcDbEntity
  8
CENTER
100
AcDbLine
 10
199.1303057848639
 20
119.2204460703166
 30
0.0
 11
242.1303057848639
 21
119.2204460703166
 31
0.0
  0
LINE
  5
7CB
330
2
100
AcDbEntity
  8
0
100
AcDbLine
 10
208.1303057848639
 20
110.7204460703166
 30
0.0
 11
210.1303057848639
 21
110.7204460703166
 31
0.0
  0
LINE
  5
7CC
330
2
100
AcDbEntity
  8
0
100
AcDbLine
 10
207.1303057848639
 20
139.2204460703166
 30
0.0
 11
204.1303057848639
 21
139.2204460703166
 31
0.0
  0
ARC
  5
7CD
330
2
100
AcDbEntity
  8
0
100
AcDbCircle
 10
207.1303057848639
 20
138.2204460703166
 30
0.0
 40
1.0
100
AcDbArc
 50
0.0
 51
90.0
  0
LINE
  5
7CE
330
2
100
AcDbEntity
  8
0
100
AcDbLine
 10
210.1303057848639
 20
127.7204460703166
 30
0.0
 11
210.1303057848639
 21
110.7204460703166
 31
0.0
  0
LINE
  5
7CF
330
2
100
AcDbEntity
  8
0
100
AcDbLine
 10
237.1303057848639
 20
126.7204460703166
 30
0.0
 11
237.1303057848639
 21
111.7204460703166
 31
0.0
  0
LINE
  5
7D0
330
2
100
AcDbEntity
  8
0
100
AcDbLine
 10
215.6303057848639
 20
116.7204460703166
 30
0.0
 11
237.1303057848639
 21
116.7204460703166
 31
0.0
  0
LINE
  5
7D1
330
2
100
AcDbEntity
  8
0
100
AcDbLine
 10
215.6303057848639
 20
121.7204460703166
 30
0.0
 11
237.1303057848639
 21
121.7204460703166
 31
0.0
  0
LINE
  5
7D2
330
2
100
AcDbEntity
  8
0
100
AcDbLine
 10
210.1303057848639
 20
111.7204460703166
 30
0.0
 11
237.1303057848639
 21
111.7204460703166
 31
0.0
  0
ARC
  5
7D3
330
2
100
AcDbEntity
  8
0
100
AcDbCircle
 10
215.6303057848639
 20
119.2204460703166
 30
0.0
 40
2.5
100
AcDbArc
 50
90.0
 51
180.0
  0
ARC
  5
7D4
330
2
100
AcDbEntity
  8
0
100
AcDbCircle
 10
215.6303057848639
 20
119.2204460703166
 30
0.0
 40
2.5
100
AcDbArc
 50
180.0
 51
270.0
  0
LINE
  5
7D5
330
2
100
AcDbEntity
  8
0
100
AcDbLine
 10
210.1303057848639
 20
126.7204460703166
 30
0.0
 11
237.1303057848639
 21
126.7204460703166
 31
0.0
  0
ARC
  5
7DF
330
2
100
AcDbEntity
  8
0
100
AcDbCircle
 10
351.7687128079181
 20
106.2204460703166
 30
0.0
 40
45.0
100
AcDbArc
 50
321.0575900000006
 51
49.87591199999904
  0
LINE
  5
7E0
330
2
100
AcDbEntity
  8
0
100
AcDbLine
 10
391.7687128079181
 20
120.5818460703166
 30
0.0
 11
391.7687128079181
 21
91.85934607031663
 31
0.0
  0
ARC
  5
7E1
330
2
100
AcDbEntity
  8
0
100
AcDbCircle
 10
351.7687128079181
 20
106.2204460703166
 30
0.0
 40
45.0
100
AcDbArc
 50
130.1240999999987
 51
218.9423980000011
  0
LINE
  5
7E2
330
2
100
AcDbEntity
  8
0
100
AcDbLine
 10
311.7687128079182
 20
120.5818460703166
 30
0.0
 11
311.7687128079182
 21
91.85934607031663
 31
0.0
  0
CIRCLE
  5
7E3
330
2
100
AcDbEntity
  8
0
100
AcDbCircle
 10
351.7687128079181
 20
119.2204460703166
 30
0.0
 40
20.0
  0
LINE
  5
7E4
330
2
100
AcDbEntity
  8
CENTER
100
AcDbLine
 10
351.7687128079181
 20
50.22044607031665
 30
0.0
 11
351.7687128079181
 21
174.8216456894361
 31
0.0
  0
LINE
  5
7E5
330
2
100
AcDbEntity
  8
0
100
AcDbLine
 10
355.2687128079181
 20
91.22044607031666
 30
0.0
 11
348.2687128079181
 21
91.22044607031666
 31
0.0
  0
LINE
  5
7E6
330
2
100
AcDbEntity
  8
0
100
AcDbLine
 10
353.5187128079182
 20
87.72044607031665
 30
0.0
 11
355.2687128079181
 21
87.72044607031665
 31
0.0
  0
LINE
  5
7E7
330
2
100
AcDbEntity
  8
0
100
AcDbLine
 10
383.7687128079181
 20
55.22044607031665
 30
0.0
 11
351.7687128079181
 21
55.22044607031665
 31
0.0
  0
ARC
  5
7E8
330
2
100
AcDbEntity
  8
0
100
AcDbCircle
 10
351.7687128079181
 20
106.2204460703166
 30
0.0
 40
42.5
100
AcDbArc
 50
270.0
 51
340.2500920000018
  0
LINE
  5
7E9
330
2
100
AcDbEntity
  8
HIDS
  6
SEKKEI_H
100
AcDbLine
 10
310.0187128079181
 20
62.22044607031666
 30
0.0
 11
310.0187128079181
 21
54.22044607031665
 31
0.0
  0
LINE
  5
7EA
330
2
100
AcDbEntity
  8
HIDS
  6
SEKKEI_H
100
AcDbLine
 10
303.5187128079182
 20
62.22044607031666
 30
0.0
 11
303.5187128079182
 21
54.22044607031665
 31
0.0
  0
LINE
  5
7EB
330
2
100
AcDbEntity
  8
0
100
AcDbLine
 10
299.7687128079181
 20
60.22044607031665
 30
0.0
 11
299.7687128079181
 21
54.22044607031665
 31
0.0
  0
LINE
  5
7EC
330
2
100
AcDbEntity
  8
CENTER
100
AcDbLine
 10
306.7687128079181
 20
64.72044607031666
 30
0.0
 11
306.7687128079181
 21
51.72044607031665
 31
0.0
  0
LINE
  5
7ED
330
2
100
AcDbEntity
  8
0
100
AcDbLine
 10
319.7687128079181
 20
55.22044607031665
 30
0.0
 11
351.7687128079181
 21
55.22044607031665
 31
0.0
  0
LINE
  5
7EE
330
2
100
AcDbEntity
  8
0
100
AcDbLine
 10
318.7687128079181
 20
54.22044607031665
 30
0.0
 11
299.7687128079181
 21
54.22044607031665
 31
0.0
  0
LINE
  5
7EF
330
2
100
AcDbEntity
  8
0
100
AcDbLine
 10
318.7687128079181
 20
54.22044607031665
 30
0.0
 11
319.7687128079181
 21
55.22044607031665
 31
0.0
  0
ARC
  5
7F0
330
2
100
AcDbEntity
  8
0
100
AcDbCircle
 10
351.7687128079181
 20
106.2204460703166
 30
0.0
 40
42.5
100
AcDbArc
 50
199.7498929999988
 51
270.0
  0
LINE
  5
7F1
330
2
100
AcDbEntity
  8
0
100
AcDbLine
 10
301.7687128079181
 20
62.22044607031666
 30
0.0
 11
313.7687128079182
 21
62.22044607031666
 31
0.0
  0
LINE
  5
7F2
330
2
100
AcDbEntity
  8
0
100
AcDbLine
 10
300.3545128079182
 20
61.63464607031665
 30
0.0
 11
316.7183128079181
 21
77.99864607031668
 31
0.0
  0
ARC
  5
7F3
330
2
100
AcDbEntity
  8
0
100
AcDbCircle
 10
301.7687128079181
 20
60.22044607031665
 30
0.0
 40
2.0
100
AcDbArc
 50
90.0
 51
180.0
  0
LINE
  5
7F4
330
2
100
AcDbEntity
  8
0
100
AcDbLine
 10
316.7687128079181
 20
65.22044607031665
 30
0.0
 11
316.7687128079181
 21
77.93614607031668
 31
0.0
  0
ARC
  5
7F5
330
2
100
AcDbEntity
  8
0
100
AcDbCircle
 10
313.7687128079182
 20
65.22044607031665
 30
0.0
 40
3.0
100
AcDbArc
 50
270.0
 51
0.0
  0
LINE
  5
7F6
330
2
100
AcDbEntity
  8
0
100
AcDbLine
 10
337.2687128079181
 20
81.22044607031666
 30
0.0
 11
347.0187128079182
 21
81.22044607031666
 31
0.0
  0
ARC
  5
7F7
330
2
100
AcDbEntity
  8
0
100
AcDbCircle
 10
342.379006925565
 20
85.00721077619898
 30
0.0
 40
6.360400373134885
100
AcDbArc
 50
109.330727832983
 51
216.5387118574264
  0
ARC
  5
7F8
330
2
100
AcDbEntity
  8
0
100
AcDbCircle
 10
341.514910869634
 20
87.47044607031666
 30
0.0
 40
3.75
100
AcDbArc
 50
90.0
 51
109.330727832983
  0
LINE
  5
7F9
330
2
100
AcDbEntity
  8
0
100
AcDbLine
 10
347.0187128079182
 20
91.22044607031666
 30
0.0
 11
347.0187128079182
 21
87.72044607031665
 31
0.0
  0
LINE
  5
7FA
330
2
100
AcDbEntity
  8
0
100
AcDbLine
 10
348.2687128079181
 20
91.22044607031666
 30
0.0
 11
348.2687128079181
 21
87.72044607031665
 31
0.0
  0
LINE
  5
7FB
330
2
100
AcDbEntity
  8
0
100
AcDbLine
 10
347.0187128079182
 20
87.72044607031665
 30
0.0
 11
342.0599122494467
 21
87.72044607031665
 31
0.0
  0
LINE
  5
7FC
330
2
100
AcDbEntity
  8
0
100
AcDbLine
 10
347.0187128079182
 20
86.22044607031666
 30
0.0
 11
343.7687128079181
 21
86.22044607031666
 31
0.0
  0
ARC
  5
7FD
330
2
100
AcDbEntity
  8
0
100
AcDbCircle
 10
343.5759397525856
 20
84.85097356226452
 30
0.0
 40
4.060400373134885
100
AcDbArc
 50
166.3033947545365
 51
214.615505381436
  0
LINE
  5
7FE
330
2
100
AcDbEntity
  8
0
100
AcDbLine
 10
343.7687128079181
 20
86.22044607031666
 30
0.0
 11
343.7687128079181
 21
82.22044607031666
 31
0.0
  0
LINE
  5
7FF
330
2
100
AcDbEntity
  8
0
100
AcDbLine
 10
343.7687128079181
 20
82.22044607031666
 30
0.0
 11
340.8515376195517
 21
82.22044607031666
 31
0.0
  0
ARC
  5
800
330
2
100
AcDbEntity
  8
0
100
AcDbCircle
 10
340.8515376195517
 20
82.97044607031665
 30
0.0
 40
0.75
100
AcDbArc
 50
214.615505381436
 51
270.0
  0
ARC
  5
801
330
2
100
AcDbEntity
  8
0
100
AcDbCircle
 10
342.0599122494467
 20
85.22044607031665
 30
0.0
 40
2.5
100
AcDbArc
 50
90.0
 51
166.3033947545365
  0
LINE
  5
802
330
2
100
AcDbEntity
  8
0
100
AcDbLine
 10
347.0187128079182
 20
81.22044607031666
 30
0.0
 11
347.0187128079182
 21
86.22044607031666
 31
0.0
  0
LINE
  5
803
330
2
100
AcDbEntity
  8
0
100
AcDbLine
 10
350.0187128079181
 20
87.72044607031665
 30
0.0
 11
350.0187128079181
 21
81.22044607031666
 31
0.0
  0
LINE
  5
804
330
2
100
AcDbEntity
  8
0
100
AcDbLine
 10
350.0187128079181
 20
87.72044607031665
 30
0.0
 11
350.0187128079181
 21
81.22044607031666
 31
0.0
  0
LINE
  5
805
330
2
100
AcDbEntity
  8
0
100
AcDbLine
 10
353.5187128079182
 20
81.22044607031666
 30
0.0
 11
353.5187128079182
 21
87.72044607031665
 31
0.0
  0
LINE
  5
806
330
2
100
AcDbEntity
  8
0
100
AcDbLine
 10
353.5187128079182
 20
87.72044607031665
 30
0.0
 11
353.5187128079182
 21
81.22044607031666
 31
0.0
  0
LINE
  5
807
330
2
100
AcDbEntity
  8
0
100
AcDbLine
 10
353.5187128079182
 20
87.72044607031665
 30
0.0
 11
353.5187128079182
 21
81.22044607031666
 31
0.0
  0
LINE
  5
808
330
2
100
AcDbEntity
  8
0
100
AcDbLine
 10
353.5187128079182
 20
87.72044607031665
 30
0.0
 11
353.5187128079182
 21
81.22044607031666
 31
0.0
  0
LINE
  5
809
330
2
100
AcDbEntity
  8
0
100
AcDbLine
 10
350.0187128079181
 20
81.22044607031666
 30
0.0
 11
353.5187128079182
 21
81.22044607031666
 31
0.0
  0
LINE
  5
80A
330
2
100
AcDbEntity
  8
0
100
AcDbLine
 10
348.2687128079181
 20
87.72044607031665
 30
0.0
 11
350.0187128079181
 21
87.72044607031665
 31
0.0
  0
LINE
  5
80B
330
2
100
AcDbEntity
  8
0
100
AcDbLine
 10
341.514910869634
 20
91.22044607031666
 30
0.0
 11
347.0187128079182
 21
91.22044607031666
 31
0.0
  0
LINE
  5
80C
330
2
100
AcDbEntity
  8
HIDS
  6
SEKKEI_H
100
AcDbLine
 10
400.0187128079181
 20
62.22044607031666
 30
0.0
 11
400.0187128079181
 21
54.22044607031665
 31
0.0
  0
LINE
  5
80D
330
2
100
AcDbEntity
  8
0
100
AcDbLine
 10
403.7687128079181
 20
60.22044607031665
 30
0.0
 11
403.7687128079181
 21
54.22044607031665
 31
0.0
  0
LINE
  5
80E
330
2
100
AcDbEntity
  8
CENTER
100
AcDbLine
 10
396.7687128079181
 20
64.72044607031666
 30
0.0
 11
396.7687128079181
 21
51.72044607031665
 31
0.0
  0
LINE
  5
80F
330
2
100
AcDbEntity
  8
HIDS
  6
SEKKEI_H
100
AcDbLine
 10
393.5187128079181
 20
62.22044607031666
 30
0.0
 11
393.5187128079181
 21
54.22044607031665
 31
0.0
  0
LINE
  5
810
330
2
100
AcDbEntity
  8
0
100
AcDbLine
 10
384.7687128079181
 20
54.22044607031665
 30
0.0
 11
403.7687128079181
 21
54.22044607031665
 31
0.0
  0
LINE
  5
811
330
2
100
AcDbEntity
  8
0
100
AcDbLine
 10
384.7687128079181
 20
54.22044607031665
 30
0.0
 11
383.7687128079181
 21
55.22044607031665
 31
0.0
  0
ARC
  5
812
330
2
100
AcDbEntity
  8
0
100
AcDbCircle
 10
389.7687128079181
 20
65.22044607031665
 30
0.0
 40
3.0
100
AcDbArc
 50
180.0
 51
270.0
  0
LINE
  5
813
330
2
100
AcDbEntity
  8
0
100
AcDbLine
 10
403.1829278079182
 20
61.63464607031665
 30
0.0
 11
386.8361258079181
 21
77.98153507031668
 31
0.0
  0
LINE
  5
814
330
2
100
AcDbEntity
  8
0
100
AcDbLine
 10
386.7687128079182
 20
77.93614607031668
 30
0.0
 11
386.7687128079182
 21
65.22044607031665
 31
0.0
  0
ARC
  5
815
330
2
100
AcDbEntity
  8
0
100
AcDbCircle
 10
364.5375852692167
 20
88.72044607031666
 30
0.0
 40
2.5
100
AcDbArc
 50
49.34908835590179
 51
90.0
  0
LINE
  5
816
330
2
100
AcDbEntity
  8
0
100
AcDbLine
 10
355.2687128079181
 20
87.72044607031665
 30
0.0
 11
355.2687128079181
 21
91.22044607031666
 31
0.0
  0
LINE
  5
817
330
2
100
AcDbEntity
  8
0
100
AcDbLine
 10
356.5187128079181
 20
81.22044607031666
 30
0.0
 11
356.5187128079181
 21
91.22044607031666
 31
0.0
  0
LINE
  5
818
330
2
100
AcDbEntity
  8
0
100
AcDbLine
 10
359.7687128079182
 20
87.72044607031665
 30
0.0
 11
363.2937128079182
 21
87.72044607031665
 31
0.0
  0
LINE
  5
819
330
2
100
AcDbEntity
  8
0
100
AcDbLine
 10
361.0187128079181
 20
86.22044607031666
 30
0.0
 11
363.2937128079182
 21
86.22044607031666
 31
0.0
  0
LINE
  5
81A
330
2
100
AcDbEntity
  8
0
100
AcDbLine
 10
364.0187128079181
 20
81.22044607031666
 30
0.0
 11
361.0187128079181
 21
86.22044607031666
 31
0.0
  0
LINE
  5
81B
330
2
100
AcDbEntity
  8
0
100
AcDbLine
 10
359.7687128079182
 20
81.22044607031666
 30
0.0
 11
359.7687128079182
 21
87.72044607031665
 31
0.0
  0
LINE
  5
81C
330
2
100
AcDbEntity
  8
0
100
AcDbLine
 10
356.5187128079181
 20
81.22044607031666
 30
0.0
 11
359.7687128079182
 21
81.22044607031666
 31
0.0
  0
ARC
  5
81D
330
2
100
AcDbEntity
  8
0
100
AcDbCircle
 10
363.1663421182628
 20
87.12346331169596
 30
0.0
 40
4.60491370615741
100
AcDbArc
 50
312.3794094338184
 51
49.34908835590179
  0
LINE
  5
81E
330
2
100
AcDbEntity
  8
0
100
AcDbLine
 10
367.8187128079183
 20
81.22044607031666
 30
0.0
 11
366.2697655277614
 21
83.71869153724475
 31
0.0
  0
LINE
  5
81F
330
2
100
AcDbEntity
  8
0
100
AcDbLine
 10
367.8187128079183
 20
81.22044607031666
 30
0.0
 11
364.0187128079181
 21
81.22044607031666
 31
0.0
  0
ARC
  5
820
330
2
100
AcDbEntity
  8
0
100
AcDbCircle
 10
366.2719092600758
 20
83.71997777663336
 30
0.0
 40
0.0025
100
AcDbArc
 50
132.3794094338536
 51
210.963756532034
  0
LINE
  5
821
330
2
100
AcDbEntity
  8
0
100
AcDbLine
 10
364.0187128079181
 20
86.99544607031663
 30
0.0
 11
364.0187128079181
 21
86.94544607031668
 31
0.0
  0
ARC
  5
822
330
2
100
AcDbEntity
  8
0
100
AcDbCircle
 10
363.2937128079182
 20
86.94544607031668
 30
0.0
 40
0.7250000000000001
100
AcDbArc
 50
270.0
 51
0.0
  0
ARC
  5
823
330
2
100
AcDbEntity
  8
0
100
AcDbCircle
 10
363.2937128079182
 20
86.99544607031663
 30
0.0
 40
0.7250000000000001
100
AcDbArc
 50
359.9999999999967
 51
90.0
  0
LINE
  5
824
330
2
100
AcDbEntity
  8
0
100
AcDbLine
 10
356.5187128079181
 20
91.22044607031666
 30
0.0
 11
364.5375852692167
 21
91.22044607031666
 31
0.0
  0
ARC
  5
825
330
2
100
AcDbEntity
  8
0
100
AcDbCircle
 10
401.7687128079181
 20
60.22044607031665
 30
0.0
 40
2.0
100
AcDbArc
 50
0.0
 51
90.0
  0
LINE
  5
826
330
2
100
AcDbEntity
  8
0
100
AcDbLine
 10
401.7687128079181
 20
62.22044607031666
 30
0.0
 11
389.7687128079181
 21
62.22044607031666
 31
0.0
  0
LINE
  5
827
330
2
100
AcDbEntity
  8
HOJO
100
AcDbLine
 10
353.2683163081695
 20
173.0600324300197
 30
0.0
 11
354.3972080994821
 21
172.5846895688844
 31
0.0
  0
LINE
  5
828
330
2
100
AcDbEntity
  8
0
100
AcDbLine
 10
362.7687128079181
 20
155.2204460703166
 30
0.0
 11
340.7687128079182
 21
155.2204460703166
 31
0.0
  0
ARC
  5
829
330
2
100
AcDbEntity
  8
0
100
AcDbCircle
 10
351.7687128079181
 20
119.2204460703166
 30
0.0
 40
7.5
100
AcDbArc
 50
199.4712070000018
 51
160.528792999998
  0
ARC
  5
82A
330
2
100
AcDbEntity
  8
0
100
AcDbCircle
 10
351.7687128079181
 20
106.2204460703166
 30
0.0
 40
42.5
100
AcDbArc
 50
19.74990099999923
 51
90.0
  0
LINE
  5
82B
330
2
100
AcDbEntity
  8
CENTER
100
AcDbLine
 10
327.7917999447148
 20
119.2204460703166
 30
0.0
 11
375.7456256711215
 21
119.2204460703166
 31
0.0
  0
LINE
  5
82C
330
2
100
AcDbEntity
  8
CENTER
100
AcDbLine
 10
301.7687128079181
 20
106.2204460703166
 30
0.0
 11
401.7687128079181
 21
106.2204460703166
 31
0.0
  0
LINE
  5
82D
330
2
100
AcDbEntity
  8
0
100
AcDbLine
 10
378.8036248079182
 20
150.7485570703166
 30
0.0
 11
351.7687128079181
 21
151.2204460703166
 31
0.0
  0
ARC
  5
82E
330
2
100
AcDbEntity
  8
0
100
AcDbCircle
 10
324.7687128079181
 20
148.7488460703166
 30
0.0
 40
2.0
100
AcDbArc
 50
90.99980900000012
 51
180.0
  0
ARC
  5
82F
330
2
100
AcDbEntity
  8
0
100
AcDbCircle
 10
351.7687128079181
 20
106.2204460703166
 30
0.0
 40
42.5
100
AcDbArc
 50
90.0
 51
160.2501070000011
  0
LINE
  5
830
330
2
100
AcDbEntity
  8
0
100
AcDbLine
 10
342.2687128079181
 20
116.7204460703166
 30
0.0
 11
347.2687128079182
 21
116.7204460703166
 31
0.0
  0
LINE
  5
831
330
2
100
AcDbEntity
  8
0
100
AcDbLine
 10
342.2687128079181
 20
121.7204460703166
 30
0.0
 11
347.2687128079182
 21
121.7204460703166
 31
0.0
  0
LINE
  5
832
330
2
100
AcDbEntity
  8
0
100
AcDbLine
 10
342.2687128079181
 20
116.7204460703166
 30
0.0
 11
342.2687128079181
 21
121.7204460703166
 31
0.0
  0
LINE
  5
833
330
2
100
AcDbEntity
  8
0
100
AcDbLine
 10
347.2687128079182
 20
121.7204460703166
 30
0.0
 11
347.2687128079182
 21
116.7204460703166
 31
0.0
  0
LINE
  5
834
330
2
100
AcDbEntity
  8
0
100
AcDbLine
 10
322.7687128079181
 20
148.7488460703166
 30
0.0
 11
322.7687128079181
 21
140.6297480703166
 31
0.0
  0
LINE
  5
835
330
2
100
AcDbEntity
  8
0
100
AcDbLine
 10
344.2683163081698
 20
173.0599874962467
 30
0.0
 11
344.2683163081698
 21
155.2204460703163
 31
0.0
  0
LINE
  5
836
330
2
100
AcDbEntity
  8
0
100
AcDbLine
 10
353.2683163081695
 20
173.0600324300197
 30
0.0
 11
353.2683163081695
 21
155.2204460703163
 31
0.0
  0
LINE
  5
837
330
2
100
AcDbEntity
  8
0
100
AcDbLine
 10
350.2683163081698
 20
173.0599860855054
 30
0.0
 11
350.2683163081698
 21
155.2204460703163
 31
0.0
  0
LINE
  5
838
330
2
100
AcDbEntity
  8
0
100
AcDbLine
 10
333.7420098079181
 20
152.5854550703166
 30
0.0
 11
340.7687128079182
 21
155.2204460703166
 31
0.0
  0
LINE
  5
839
330
2
100
AcDbEntity
  8
0
100
AcDbLine
 10
324.733800807918
 20
150.7485570703166
 30
0.0
 11
351.7687128079181
 21
151.2204460703166
 31
0.0
  0
ARC
  5
83A
330
2
100
AcDbEntity
  8
0
100
AcDbCircle
 10
334.2687128079181
 20
151.1809370703166
 30
0.0
 40
1.5
100
AcDbArc
 50
110.5565029999995
 51
180.0005040000005
  0
LINE
  5
83B
330
2
100
AcDbEntity
  8
0
100
AcDbLine
 10
332.7687128079181
 20
151.1809370703166
 30
0.0
 11
332.7687128079181
 21
150.8888460703166
 31
0.0
  0
LINE
  5
83C
330
2
100
AcDbEntity
  8
0
100
AcDbLine
 10
340.7687128079182
 20
155.2204460703166
 30
0.0
 11
340.7687128079182
 21
151.0284450703166
 31
0.0
  0
ARC
  5
83D
330
2
100
AcDbEntity
  8
HOJO
100
AcDbCircle
 10
345.5183163081695
 20
172.0599859904858
 30
0.0
 40
1.600781999999999
100
AcDbArc
 50
67.16467299999876
 51
141.3401949999988
  0
ARC
  5
83E
330
2
100
AcDbEntity
  8
HOJO
100
AcDbCircle
 10
349.0183163081695
 20
174.0599859904858
 30
0.0
 40
1.600781
100
AcDbArc
 50
247.1647030000009
 51
321.3401944016234
  0
LINE
  5
83F
330
2
100
AcDbEntity
  8
HOJO
100
AcDbLine
 10
346.1396083081698
 20
173.5352979904859
 30
0.0
 11
348.3972073081698
 21
172.5846899904858
 31
0.0
  0
ARC
  5
840
330
2
100
AcDbEntity
  8
0
100
AcDbCircle
 10
378.7687128079181
 20
148.7488460703166
 30
0.0
 40
2.0
100
AcDbArc
 50
0.0
 51
89.00019099999987
  0
LINE
  5
841
330
2
100
AcDbEntity
  8
0
100
AcDbLine
 10
380.7687128079182
 20
148.7488460703166
 30
0.0
 11
380.7687128079182
 21
140.6297480703166
 31
0.0
  0
LINE
  5
842
330
2
100
AcDbEntity
  8
0
100
AcDbLine
 10
376.3470172837336
 20
150.7913181863262
 30
0.0
 11
389.2186054995273
 21
173.0855629501858
 31
0.0
  0
LINE
  5
843
330
2
100
AcDbEntity
  8
0
100
AcDbLine
 10
378.6333711884607
 20
150.7513993133969
 30
0.0
 11
390.7400979600805
 21
171.7208651951967
 31
0.0
  0
LINE
  5
844
330
2
100
AcDbEntity
  8
0
100
AcDbLine
 10
377.4902651071335
 20
150.7714815020974
 30
0.0
 11
390.1646421266324
 21
172.7241464541529
 31
0.0
  0
LINE
  5
845
330
2
100
AcDbEntity
  8
0
100
AcDbLine
 10
348.2691093076667
 20
172.6386282603302
 30
0.0
 11
348.2691093076667
 21
155.2204460703163
 31
0.0
  0
LINE
  5
846
330
2
100
AcDbEntity
  8
0
100
AcDbLine
 10
346.2691093076667
 20
173.4807689593649
 30
0.0
 11
346.2691093076667
 21
155.2204460703163
 31
0.0
  0
LINE
  5
847
330
2
100
AcDbEntity
  8
0
100
AcDbLine
 10
359.2683163081695
 20
173.0600324300195
 30
0.0
 11
359.2683163081697
 21
155.2204460703163
 31
0.0
  0
ARC
  5
848
330
2
100
AcDbEntity
  8
0
100
AcDbCircle
 10
369.2687128079181
 20
151.1809370703166
 30
0.0
 40
1.5
100
AcDbArc
 50
0.0001300000000561
 51
69.4441989999993
  0
LINE
  5
849
330
2
100
AcDbEntity
  8
0
100
AcDbLine
 10
362.7687128079181
 20
155.2204460703166
 30
0.0
 11
362.7687128079181
 21
151.0284450703166
 31
0.0
  0
LINE
  5
84A
330
2
100
AcDbEntity
  8
0
100
AcDbLine
 10
369.7953238079181
 20
152.5854550703166
 30
0.0
 11
362.7687128079181
 21
155.2204460703166
 31
0.0
  0
LINE
  5
84B
330
2
100
AcDbEntity
  8
0
100
AcDbLine
 10
370.7687128079181
 20
151.1809370703166
 30
0.0
 11
370.7687128079181
 21
150.8888460703166
 31
0.0
  0
LINE
  5
84C
330
2
100
AcDbEntity
  8
HOJO
100
AcDbLine
 10
358.139609099482
 20
173.5352975688844
 30
0.0
 11
359.2683163081695
 21
173.0600324300195
 31
0.0
  0
ARC
  5
84D
330
2
100
AcDbEntity
  8
HOJO
100
AcDbCircle
 10
357.5183170994822
 20
172.0599855688843
 30
0.0
 40
1.600781999999999
100
AcDbArc
 50
67.16467299999876
 51
141.3401949999988
  0
ARC
  5
84E
330
2
100
AcDbEntity
  8
HOJO
100
AcDbCircle
 10
355.0183170994822
 20
174.0599855688844
 30
0.0
 40
1.600781
100
AcDbArc
 50
247.1647030000009
 51
321.3401944016234
  0
ARC
  5
84F
330
2
100
AcDbEntity
  8
HOJO
100
AcDbCircle
 10
389.1575652617426
 20
171.4798397396616
 30
0.0
 40
1.600781999999999
100
AcDbArc
 50
8.659805000000465
 51
82.83532700000156
  0
LINE
  5
850
330
2
100
AcDbEntity
  8
HOJO
100
AcDbLine
 10
389.3571666065746
 20
173.0681434101696
 30
0.0
 11
389.2186054995273
 21
173.0855629501858
 31
0.0
  0
TEXT
  5
851
330
2
100
AcDbEntity
  8
TITLE
100
AcDbText
 10
38.65243693581863
 20
27.46510198802218
 30
0.0
 40
6.0
  1
VGLD15-5～60N100
100
AcDbText
  0
MTEXT
  5
A10
330
2
100
AcDbEntity
  8
TITLE
100
AcDbMText
 10
126.6056587826764
 20
36.42408655801876
 30
0.0
 40
2.8284
 41
11.6777565
 71
     1
 72
     5
  1
L1\PL2\PL4
1001
ACAD
1000
MTEXTBEGIN
1070
    73
1070
     1
1070
    44
1040
1.0
1070
    74
1070
     0
1000
MTEXTEND
  0
LINE
  5
A51
330
2
100
AcDbEntity
  8
0
100
AcDbLine
 10
204.1303057848639
 20
361.7929854110986
 30
0.0
 11
204.1303057848639
 21
263.7929854110986
 31
0.0
  0
LINE
  5
A52
330
2
100
AcDbEntity
  8
0
100
AcDbLine
 10
89.13030578486393
 20
267.7929854110986
 30
0.0
 11
204.1303057848639
 21
267.7929854110986
 31
0.0
  0
LINE
  5
A53
330
2
100
AcDbEntity
  8
0
100
AcDbLine
 10
151.1303057848639
 20
260.7929854110986
 30
0.0
 11
201.1303057848639
 21
260.7929854110986
 31
0.0
  0
ARC
  5
A54
330
2
100
AcDbEntity
  8
0
100
AcDbCircle
 10
151.1303057848639
 20
263.7929854110986
 30
0.0
 40
3.0
100
AcDbArc
 50
180.0
 51
270.0
  0
LINE
  5
A55
330
2
100
AcDbEntity
  8
0
100
AcDbLine
 10
148.1303057848639
 20
263.7929854110986
 30
0.0
 11
148.1303057848639
 21
267.7929854110986
 31
0.0
  0
LINE
  5
A56
330
2
100
AcDbEntity
  8
CENTER
100
AcDbLine
 10
156.1303057848639
 20
273.5740834110986
 30
0.0
 11
156.1303057848639
 21
262.0118874110985
 31
0.0
  0
ARC
  5
A57
330
2
100
AcDbEntity
  8
HIDS
100
AcDbCircle
 10
156.1303057848639
 20
267.7929854110986
 30
0.0
 40
3.25
100
AcDbArc
 50
0.0
 51
180.0
  0
LINE
  5
A58
330
2
100
AcDbEntity
  8
CENTER
100
AcDbLine
 10
150.3492077848638
 20
267.7929854110986
 30
0.0
 11
161.9114037848639
 21
267.7929854110986
 31
0.0
  0
ARC
  5
A59
330
2
100
AcDbEntity
  8
0
100
AcDbCircle
 10
156.1303057848639
 20
267.7929854110986
 30
0.0
 40
3.25
100
AcDbArc
 50
180.0
 51
0.0
  0
ARC
  5
A5A
330
2
100
AcDbEntity
  8
0
100
AcDbCircle
 10
201.1303057848639
 20
263.7929854110986
 30
0.0
 40
3.0
100
AcDbArc
 50
270.0
 51
0.0
  0
LINE
  5
A5B
330
2
100
AcDbEntity
  8
CENTER
100
AcDbLine
 10
190.3492077848639
 20
267.7929854110986
 30
0.0
 11
201.9114037848639
 21
267.7929854110986
 31
0.0
  0
ARC
  5
A5C
330
2
100
AcDbEntity
  8
0
100
AcDbCircle
 10
196.1303057848639
 20
267.7929854110986
 30
0.0
 40
3.25
100
AcDbArc
 50
180.0
 51
0.0
  0
ARC
  5
A5D
330
2
100
AcDbEntity
  8
HIDS
100
AcDbCircle
 10
196.1303057848639
 20
267.7929854110986
 30
0.0
 40
3.25
100
AcDbArc
 50
0.0
 51
180.0
  0
LINE
  5
A5E
330
2
100
AcDbEntity
  8
CENTER
100
AcDbLine
 10
196.1303057848639
 20
273.5740834110986
 30
0.0
 11
196.1303057848639
 21
262.0118874110985
 31
0.0
  0
LINE
  5
A5F
330
2
100
AcDbEntity
  8
0
100
AcDbLine
 10
89.13030578486393
 20
341.7929854110986
 30
0.0
 11
204.1303057848639
 21
341.7929854110986
 31
0.0
  0
LINE
  5
A60
330
2
100
AcDbEntity
  8
0
100
AcDbLine
 10
89.13030578486393
 20
357.7929854110986
 30
0.0
 11
204.1303057848639
 21
357.7929854110986
 31
0.0
  0
LINE
  5
A61
330
2
100
AcDbEntity
  8
CENTER
100
AcDbLine
 10
26.25780958387531
 20
312.7929854110986
 30
0.0
 11
242.1303057848639
 21
312.7929854110986
 31
0.0
  0
LINE
  5
A62
330
2
100
AcDbEntity
  8
0
100
AcDbLine
 10
89.13030578486393
 20
283.7929854110986
 30
0.0
 11
204.1303057848639
 21
283.7929854110986
 31
0.0
  0
LINE
  5
A63
330
2
100
AcDbEntity
  8
0
100
AcDbLine
 10
210.1303057848639
 20
321.2929854110986
 30
0.0
 11
210.1303057848639
 21
304.2929854110986
 31
0.0
  0
LINE
  5
A64
330
2
100
AcDbEntity
  8
0
100
AcDbLine
 10
237.1303057848639
 20
320.2929854110986
 30
0.0
 11
237.1303057848639
 21
303.2929854110986
 31
0.0
  0
LINE
  5
A65
330
2
100
AcDbEntity
  8
0
100
AcDbLine
 10
208.1303057848639
 20
293.7929854110986
 30
0.0
 11
208.1303057848639
 21
331.7929854110986
 31
0.0
  0
LINE
  5
A66
330
2
100
AcDbEntity
  8
0
100
AcDbLine
 10
210.1303057848639
 20
305.2929854110986
 30
0.0
 11
213.1303057848639
 21
305.2929854110986
 31
0.0
  0
LINE
  5
A67
330
2
100
AcDbEntity
  8
0
100
AcDbLine
 10
207.1303057848639
 20
292.7929854110986
 30
0.0
 11
204.1303057848639
 21
292.7929854110986
 31
0.0
  0
ARC
  5
A68
330
2
100
AcDbEntity
  8
0
100
AcDbCircle
 10
207.1303057848639
 20
293.7929854110986
 30
0.0
 40
1.0
100
AcDbArc
 50
270.0
 51
0.0
  0
LINE
  5
A69
330
2
100
AcDbEntity
  8
0
100
AcDbLine
 10
208.1303057848639
 20
304.2929854110986
 30
0.0
 11
210.1303057848639
 21
304.2929854110986
 31
0.0
  0
LINE
  5
A6A
330
2
100
AcDbEntity
  8
0
100
AcDbLine
 10
213.1303057848639
 20
305.7219864110986
 30
0.0
 11
237.1303057848639
 21
305.7219864110986
 31
0.0
  0
LINE
  5
A6B
330
2
100
AcDbEntity
  8
0
100
AcDbLine
 10
213.1303057848639
 20
303.2929854110986
 30
0.0
 11
237.1303057848639
 21
303.2929854110986
 31
0.0
  0
LINE
  5
A6C
330
2
100
AcDbEntity
  8
0
100
AcDbLine
 10
213.1303057848639
 20
305.7219864110986
 30
0.0
 11
213.1303057848639
 21
303.2929854110986
 31
0.0
  0
LINE
  5
A6D
330
2
100
AcDbEntity
  8
0
100
AcDbLine
 10
210.1303057848639
 20
320.2929854110986
 30
0.0
 11
237.1303057848639
 21
320.2929854110986
 31
0.0
  0
LINE
  5
A6E
330
2
100
AcDbEntity
  8
0
100
AcDbLine
 10
208.1303057848639
 20
321.2929854110986
 30
0.0
 11
210.1303057848639
 21
321.2929854110986
 31
0.0
  0
LINE
  5
A6F
330
2
100
AcDbEntity
  8
0
100
AcDbLine
 10
207.1303057848639
 20
332.7929854110986
 30
0.0
 11
204.1303057848639
 21
332.7929854110986
 31
0.0
  0
ARC
  5
A70
330
2
100
AcDbEntity
  8
0
100
AcDbCircle
 10
207.1303057848639
 20
331.7929854110986
 30
0.0
 40
1.0
100
AcDbArc
 50
0.0
 51
90.0
  0
LINE
  5
A71
330
2
100
AcDbEntity
  8
0
100
AcDbLine
 10
151.1303057848639
 20
364.7929854110986
 30
0.0
 11
201.1303057848639
 21
364.7929854110986
 31
0.0
  0
ARC
  5
A72
330
2
100
AcDbEntity
  8
0
100
AcDbCircle
 10
151.1303057848639
 20
361.7929854110986
 30
0.0
 40
3.0
100
AcDbArc
 50
90.0
 51
180.0
  0
LINE
  5
A73
330
2
100
AcDbEntity
  8
0
100
AcDbLine
 10
148.1303057848639
 20
361.7929854110986
 30
0.0
 11
148.1303057848639
 21
357.7929854110986
 31
0.0
  0
ARC
  5
A74
330
2
100
AcDbEntity
  8
0
100
AcDbCircle
 10
156.1303057848639
 20
357.7929854110986
 30
0.0
 40
3.25
100
AcDbArc
 50
0.0
 51
180.0
  0
LINE
  5
A75
330
2
100
AcDbEntity
  8
CENTER
100
AcDbLine
 10
156.1303057848639
 20
363.5740834110986
 30
0.0
 11
156.1303057848639
 21
352.0118874110985
 31
0.0
  0
LINE
  5
A76
330
2
100
AcDbEntity
  8
CENTER
100
AcDbLine
 10
150.3492077848638
 20
357.7929854110986
 30
0.0
 11
161.9114037848639
 21
357.7929854110986
 31
0.0
  0
ARC
  5
A77
330
2
100
AcDbEntity
  8
HIDS
100
AcDbCircle
 10
156.1303057848639
 20
357.7929854110986
 30
0.0
 40
3.25
100
AcDbArc
 50
180.0
 51
0.0
  0
ARC
  5
A78
330
2
100
AcDbEntity
  8
0
100
AcDbCircle
 10
196.1303057848639
 20
357.7929854110986
 30
0.0
 40
3.25
100
AcDbArc
 50
0.0
 51
180.0
  0
LINE
  5
A79
330
2
100
AcDbEntity
  8
CENTER
100
AcDbLine
 10
196.1303057848639
 20
363.5740834110986
 30
0.0
 11
196.1303057848639
 21
352.0118874110985
 31
0.0
  0
LINE
  5
A7A
330
2
100
AcDbEntity
  8
CENTER
100
AcDbLine
 10
190.3492077848639
 20
357.7929854110986
 30
0.0
 11
201.9114037848639
 21
357.7929854110986
 31
0.0
  0
ARC
  5
A7B
330
2
100
AcDbEntity
  8
HIDS
100
AcDbCircle
 10
196.1303057848639
 20
357.7929854110986
 30
0.0
 40
3.25
100
AcDbArc
 50
180.0
 51
0.0
  0
ARC
  5
A7C
330
2
100
AcDbEntity
  8
0
100
AcDbCircle
 10
201.1303057848639
 20
361.7929854110986
 30
0.0
 40
3.0
100
AcDbArc
 50
0.0
 51
90.0
  0
LINE
  5
1E72
330
2
100
AcDbEntity
  8
0
100
AcDbLine
 10
138.8082224852692
 20
194.052307153168
 30
0.0
 11
144.8503468180251
 21
195.1176966938282
 31
0.0
  0
LINE
  5
1E73
330
2
100
AcDbEntity
  8
0
100
AcDbLine
 10
145.1438111123616
 20
187.9976476717489
 30
0.0
 11
138.8112609346667
 21
188.5516740235063
 31
0.0
  0
LINE
  5
1E74
330
2
100
AcDbEntity
  8
0
100
AcDbLine
 10
138.8112609346667
 20
186.8087522876544
 30
0.0
 11
144.9553332142568
 21
185.7253865733397
 31
0.0
  0
LINE
  5
1E75
330
2
100
AcDbEntity
  8
0
100
AcDbLine
 10
138.8082224852692
 20
185.5907761139999
 30
0.0
 11
144.8503468180251
 21
184.5253865733398
 31
0.0
  0
LINE
  5
1E76
330
2
100
AcDbEntity
  8
0
100
AcDbLine
 10
145.0914179808705
 20
186.797647671749
 30
0.0
 11
138.8112609346667
 21
187.3470902184543
 31
0.0
  0
LINE
  5
1E77
330
2
100
AcDbEntity
  8
0
100
AcDbLine
 10
145.1438111123575
 20
191.6454355954187
 30
0.0
 11
138.8112609346667
 21
191.0914092436618
 31
0.0
  0
LINE
  5
1E78
330
2
100
AcDbEntity
  8
0
100
AcDbLine
 10
145.0914179808678
 20
192.8454355954187
 30
0.0
 11
138.8112609346667
 21
192.2959930487137
 31
0.0
  0
LINE
  5
1E79
330
2
100
AcDbEntity
  8
0
100
AcDbLine
 10
138.8112609346667
 20
192.8343309795134
 30
0.0
 11
144.9553332142563
 21
193.917696693828
 31
0.0
  0
LINE
  5
1E7A
330
2
100
AcDbEntity
  8
0
100
AcDbLine
 10
154.6895279230179
 20
190.4215416335839
 30
0.0
 11
138.8112609346667
 21
190.4215416335839
 31
0.0
  0
LINE
  5
1E7B
330
2
100
AcDbEntity
  8
0
100
AcDbLine
 10
154.6895279230179
 20
189.221541633584
 30
0.0
 11
138.8112609346667
 21
189.2215416335838
 31
0.0
  0
LINE
  5
1E7C
330
2
100
AcDbEntity
  8
0
100
AcDbLine
 10
160.8266745974628
 20
173.1864149186157
 30
0.0
 11
130.9360301602041
 21
173.1864149186157
 31
0.0
  0
LINE
  5
1E7D
330
2
100
AcDbEntity
  8
0
100
AcDbLine
 10
160.8266745974628
 20
175.1864149186157
 30
0.0
 11
130.9360301602046
 21
175.1864149186157
 31
0.0
  0
LINE
  5
1E7E
330
2
100
AcDbEntity
  8
0
100
AcDbLine
 10
131.3266745974629
 20
171.1864149186157
 30
0.0
 11
160.7076896059079
 21
168.6159091824916
 31
0.0
  0
LINE
  5
1E7F
330
2
100
AcDbEntity
  8
0
100
AcDbLine
 10
131.4139964832802
 20
173.1864149186157
 30
0.0
 11
160.8820010914032
 21
170.6082985786752
 31
0.0
  0
LINE
  5
1E80
330
2
100
AcDbEntity
  8
0
100
AcDbLine
 10
131.4139964832802
 20
175.1864149186157
 30
0.0
 11
160.8887296766647
 21
177.7651199334881
 31
0.0
  0
LINE
  5
1E81
330
2
100
AcDbEntity
  8
0
100
AcDbLine
 10
131.3266745974629
 20
177.1864149186157
 30
0.0
 11
160.7144181911694
 21
179.7575093296716
 31
0.0
  0
LINE
  5
1E82
330
2
100
AcDbEntity
  8
0
100
AcDbLine
 10
83.63031538101029
 20
172.6458263260652
 30
0.0
 11
83.63031538101029
 21
155.2204460703167
 31
0.0
  0
LINE
  5
1E83
330
2
100
AcDbEntity
  8
0
100
AcDbLine
 10
79.63031538101029
 20
173.0600599062741
 30
0.0
 11
79.63031538101029
 21
155.2204460703167
 31
0.0
  0
LINE
  5
1E84
330
2
100
AcDbEntity
  8
0
100
AcDbLine
 10
81.63031538101041
 20
173.4811534205031
 30
0.0
 11
81.63031538101028
 21
155.2204460703167
 31
0.0
  0
LINE
  5
1E85
330
2
100
AcDbEntity
  8
0
100
AcDbLine
 10
66.13030578486394
 20
146.6200870907229
 30
0.0
 11
66.13030578486394
 21
173.4742544475284
 31
0.0
  0
LINE
  5
1E86
330
2
100
AcDbEntity
  8
0
100
AcDbLine
 10
64.13030578486393
 20
146.6026333551413
 30
0.0
 11
64.13030578486393
 21
173.0599879156024
 31
0.0
  0
LINE
  5
1E87
330
2
100
AcDbEntity
  8
0
100
AcDbLine
 10
65.13030578486393
 20
146.6113602229321
 30
0.0
 11
65.13030578486393
 21
173.6411589496443
 31
0.0
  0
LINE
  5
1E88
330
2
100
AcDbEntity
  8
0
100
AcDbLine
 10
85.63031538101029
 20
173.0599865071072
 30
0.0
 11
85.63031538101029
 21
155.2204460703167
 31
0.0
  0
LINE
  5
1E8A
330
2
100
AcDbEntity
  8
CENTER
100
AcDbLine
 10
72.03030978486402
 20
66.22044607031665
 30
0.0
 11
81.13030978486392
 21
66.22044607031665
 31
0.0
  0
LINE
  5
1E8B
330
2
100
AcDbEntity
  8
0
100
AcDbLine
 10
74.54754964397181
 20
65.74734887558634
 30
0.0
 11
37.10412617836652
 21
66.07411268180624
 31
0.0
  0
LINE
  5
1E8C
330
2
100
AcDbEntity
  8
CENTER
100
AcDbLine
 10
72.03030978486402
 20
146.2204460703166
 30
0.0
 11
81.13030978486392
 21
146.2204460703166
 31
0.0
  0
LINE
  5
1E8D
330
2
100
AcDbEntity
  8
0
100
AcDbLine
 10
74.54754964397159
 20
146.6935432650439
 30
0.0
 11
37.1041261783688
 21
146.3667794588262
 31
0.0
  0
LINE
  5
1E8E
330
2
100
AcDbEntity
  8
0
100
AcDbLine
 10
34.13030578486393
 20
143.366893689633
 30
0.0
 11
34.13030578486393
 21
69.07399845099956
 31
0.0
  0
ARC
  5
1E8F
330
2
100
AcDbEntity
  8
0
100
AcDbCircle
 10
37.13030578486189
 20
69.07399845099871
 30
0.0
 40
3.0
100
AcDbArc
 50
179.9999999999967
 51
269.4999999999954
  0
POINT
  5
1E90
330
2
100
AcDbEntity
  8
0
100
AcDbPoint
 10
34.13030578486393
 20
140.5204460703166
 30
0.0
  0
ARC
  5
1E91
330
2
100
AcDbEntity
  8
0
100
AcDbCircle
 10
37.13030578486393
 20
143.3668936896337
 30
0.0
 40
3.0
100
AcDbArc
 50
90.49999999999805
 51
180.0
  0
LINE
  5
1E93
330
2
100
AcDbEntity
  8
0
100
AcDbLine
 10
77.1303057848653
 20
142.2204460703166
 30
0.0
 11
77.13030578486416
 21
70.22044607031665
 31
0.0
  0
LINE
  5
1E94
330
2
100
AcDbEntity
  8
0
100
AcDbLine
 10
77.63030978486392
 20
139.4883450703166
 30
0.0
 11
77.63019978486397
 21
72.95254707031666
 31
0.0
  0
LINE
  5
1E95
330
2
100
AcDbEntity
  8
0
100
AcDbLine
 10
77.63030978486392
 20
70.22044607031665
 30
0.0
 11
77.63030978486392
 21
62.22044607031666
 31
0.0
  0
ARC
  5
1E96
330
2
100
AcDbEntity
  8
0
100
AcDbCircle
 10
81.03030978486401
 20
66.22044607031665
 30
0.0
 40
6.5
100
AcDbArc
 50
146.9443049999971
 51
213.0556950000028
  0
LINE
  5
1E97
330
2
100
AcDbEntity
  8
0
100
AcDbLine
 10
78.63030978486392
 20
71.22044607031665
 30
0.0
 11
78.63030978486392
 21
62.22044607031666
 31
0.0
  0
LINE
  5
1E98
330
2
100
AcDbEntity
  8
0
100
AcDbLine
 10
89.13030578486393
 20
61.22044607031665
 30
0.0
 11
80.06850978486397
 21
61.22044607031665
 31
0.0
  0
LINE
  5
1E99
330
2
100
AcDbEntity
  8
0
100
AcDbLine
 10
77.63030978486392
 20
62.22044607031666
 30
0.0
 11
76.42051478486393
 21
62.22044607031666
 31
0.0
  0
ARC
  5
1E9A
330
2
100
AcDbEntity
  8
0
100
AcDbCircle
 10
76.42051478486393
 20
63.22044607031665
 30
0.0
 40
1.0
100
AcDbArc
 50
213.0556950000028
 51
270.0
  0
LINE
  5
1E9B
330
2
100
AcDbEntity
  8
0
100
AcDbLine
 10
78.63030978486392
 20
62.42044707031664
 30
0.0
 11
77.63030978486392
 21
62.42044707031664
 31
0.0
  0
ARC
  5
1E9C
330
2
100
AcDbEntity
  8
0
100
AcDbCircle
 10
80.06850978486397
 20
62.75264607031664
 30
0.0
 40
1.533470999999999
100
AcDbArc
 50
200.3083040000001
 51
272.3116150000011
  0
LINE
  5
1E9D
330
2
100
AcDbEntity
  8
0
100
AcDbLine
 10
89.13030578486393
 20
71.81125507031663
 30
0.0
 11
78.43711978486396
 21
71.81125507031663
 31
0.0
  0
LINE
  5
1E9E
330
2
100
AcDbEntity
  8
0
100
AcDbLine
 10
77.63030978486392
 20
70.22044607031665
 30
0.0
 11
76.42051478486393
 21
70.22044607031665
 31
0.0
  0
ARC
  5
1E9F
330
2
100
AcDbEntity
  8
0
100
AcDbCircle
 10
76.42051478486393
 20
69.22044607031665
 30
0.0
 40
1.0
100
AcDbArc
 50
90.0
 51
146.9443049999971
  0
LINE
  5
1EA0
330
2
100
AcDbEntity
  8
0
100
AcDbLine
 10
77.13030978486393
 20
72.22044607031666
 30
0.0
 11
77.63030978486392
 21
72.22044607031666
 31
0.0
  0
ARC
  5
1EA1
330
2
100
AcDbEntity
  8
0
100
AcDbCircle
 10
77.63030978486392
 20
71.22044607031665
 30
0.0
 40
1.0
100
AcDbArc
 50
0.0
 51
90.0
  0
ARC
  5
1EA2
330
2
100
AcDbEntity
  8
0
100
AcDbCircle
 10
78.63030978486392
 20
72.95254707031666
 30
0.0
 40
1.0
100
AcDbArc
 50
180.0
 51
240.0001979999968
  0
LINE
  5
1EA3
330
2
100
AcDbEntity
  8
0
100
AcDbLine
 10
77.63030978486392
 20
70.02044507031667
 30
0.0
 11
78.63030978486392
 21
70.02044507031667
 31
0.0
  0
LINE
  5
1EA4
330
2
100
AcDbEntity
  8
0
100
AcDbLine
 10
77.63030978486392
 20
150.2204460703166
 30
0.0
 11
77.63030978486392
 21
142.2204460703166
 31
0.0
  0
ARC
  5
1EA5
330
2
100
AcDbEntity
  8
0
100
AcDbCircle
 10
81.03030978486401
 20
146.2204460703166
 30
0.0
 40
6.5
100
AcDbArc
 50
146.9443049999971
 51
213.0556950000028
  0
LINE
  5
1EA6
330
2
100
AcDbEntity
  8
0
100
AcDbLine
 10
78.63030978486392
 20
141.2204460703166
 30
0.0
 11
78.63030978486392
 21
150.2204460703166
 31
0.0
  0
LINE
  5
1EA7
330
2
100
AcDbEntity
  8
0
100
AcDbLine
 10
89.13030578486393
 20
140.6296370703166
 30
0.0
 11
78.43711978486396
 21
140.6296370703166
 31
0.0
  0
ARC
  5
1EA8
330
2
100
AcDbEntity
  8
0
100
AcDbCircle
 10
77.63030978486392
 20
141.2204460703166
 30
0.0
 40
1.0
100
AcDbArc
 50
270.0
 51
0.0
  0
LINE
  5
1EA9
330
2
100
AcDbEntity
  8
0
100
AcDbLine
 10
77.13030978486393
 20
140.2204460703166
 30
0.0
 11
77.63030978486392
 21
140.2204460703166
 31
0.0
  0
ARC
  5
1EAA
330
2
100
AcDbEntity
  8
0
100
AcDbCircle
 10
78.63030978486392
 20
139.4883450703166
 30
0.0
 40
1.0
100
AcDbArc
 50
120.000297999996
 51
180.0
  0
LINE
  5
1EAB
330
2
100
AcDbEntity
  8
0
100
AcDbLine
 10
77.63030978486392
 20
142.2204460703166
 30
0.0
 11
76.42051478486393
 21
142.2204460703166
 31
0.0
  0
ARC
  5
1EAC
330
2
100
AcDbEntity
  8
0
100
AcDbCircle
 10
76.42051478486393
 20
143.2204460703166
 30
0.0
 40
1.0
100
AcDbArc
 50
213.0556950000028
 51
270.0
  0
LINE
  5
1EAD
330
2
100
AcDbEntity
  8
0
100
AcDbLine
 10
78.63030978486392
 20
142.4204470703166
 30
0.0
 11
77.63030978486392
 21
142.4204470703166
 31
0.0
  0
LINE
  5
1EAE
330
2
100
AcDbEntity
  8
0
100
AcDbLine
 10
78.1303113810103
 20
155.2204460703167
 30
0.0
 11
87.13031538101029
 21
155.2204460703167
 31
0.0
  0
LINE
  5
1EAF
330
2
100
AcDbEntity
  8
0
100
AcDbLine
 10
89.13030578486393
 20
151.2204460703166
 30
0.0
 11
80.06850978486397
 21
151.2204460703166
 31
0.0
  0
LINE
  5
1EB0
330
2
100
AcDbEntity
  8
0
100
AcDbLine
 10
77.13029138101035
 20
154.2204460703167
 30
0.0
 11
77.13033301985035
 21
150.2204702703805
 31
0.0
  0
LINE
  5
1EB1
330
2
100
AcDbEntity
  8
0
100
AcDbLine
 10
77.63030978486392
 20
150.2204460703166
 30
0.0
 11
76.42051478486393
 21
150.2204460703166
 31
0.0
  0
ARC
  5
1EB2
330
2
100
AcDbEntity
  8
0
100
AcDbCircle
 10
76.42051478486393
 20
149.2204460703166
 30
0.0
 40
1.0
100
AcDbArc
 50
90.0
 51
146.9443049999971
  0
LINE
  5
1EB3
330
2
100
AcDbEntity
  8
0
100
AcDbLine
 10
77.63030978486392
 20
150.0204450703166
 30
0.0
 11
78.63030978486392
 21
150.0204450703166
 31
0.0
  0
ARC
  5
1EB4
330
2
100
AcDbEntity
  8
0
100
AcDbCircle
 10
80.06850978486397
 20
149.6882460703166
 30
0.0
 40
1.533470999999999
100
AcDbArc
 50
87.68839299999999
 51
159.6916959999998
  0
ARC
  5
1EB5
330
2
100
AcDbEntity
  8
0
100
AcDbCircle
 10
78.1303113810103
 20
154.2204460703167
 30
0.0
 40
1.0
100
AcDbArc
 50
90.0
 51
180.0
  0
LINE
  5
1EB6
330
2
100
AcDbEntity
  8
0
100
AcDbLine
 10
88.13031538101029
 20
154.2204460703167
 30
0.0
 11
88.13031538101029
 21
151.2204460703166
 31
0.0
  0
ARC
  5
1EB7
330
2
100
AcDbEntity
  8
0
100
AcDbCircle
 10
87.13031538101029
 20
154.2204460703167
 30
0.0
 40
1.0
100
AcDbArc
 50
0.0
 51
90.0
  0
ARC
  5
1EB8
330
2
100
AcDbEntity
  8
0
100
AcDbCircle
 10
59.13030578486393
 20
185.8222020703166
 30
0.0
 40
5.0
100
AcDbArc
 50
0.0
 51
90.0
  0
ARC
  5
1EB9
330
2
100
AcDbEntity
  8
0
100
AcDbCircle
 10
59.13030578486393
 20
185.8222020703166
 30
0.0
 40
6.0
100
AcDbArc
 50
0.0
 51
90.0
  0
ARC
  5
1EBA
330
2
100
AcDbEntity
  8
0
100
AcDbCircle
 10
59.13030578486393
 20
185.8222020703166
 30
0.0
 40
7.0
100
AcDbArc
 50
0.0
 51
89.62889052766097
  0
ARC
  5
1EBB
330
2
100
AcDbEntity
  8
HOJO
100
AcDbCircle
 10
65.38033578486409
 20
172.0600239109383
 30
0.0
 40
1.600781999999999
100
AcDbArc
 50
62.06288054473443
 51
141.3418685641826
  0
LINE
  5
1EBC
330
2
100
AcDbEntity
  8
0
100
AcDbLine
 10
64.13030578486393
 20
175.0599879156023
 30
0.0
 11
64.13030578486393
 21
185.8222020703166
 31
0.0
  0
LINE
  5
1EBD
330
2
100
AcDbEntity
  8
0
100
AcDbLine
 10
66.13030578486394
 20
175.4742544475283
 30
0.0
 11
66.13030578486394
 21
185.8222020703166
 31
0.0
  0
LINE
  5
1EBE
330
2
100
AcDbEntity
  8
0
100
AcDbLine
 10
65.13030578486393
 20
175.6411589496442
 30
0.0
 11
65.13030578486393
 21
185.8222020703166
 31
0.0
  0
ARC
  5
1EBF
330
2
100
AcDbEntity
  8
HOJO
100
AcDbCircle
 10
65.38033578486409
 20
174.0600239109381
 30
0.0
 40
1.600781999999999
100
AcDbArc
 50
62.06288054473443
 51
141.3418685642105
  0
LINE
  5
1EC0
330
2
100
AcDbEntity
  8
HOJO
100
AcDbLine
 10
66.0016277848639
 20
173.5353359109383
 30
0.0
 11
66.13030578486394
 21
173.4811534205031
 31
0.0
  0
LINE
  5
1EC1
330
2
100
AcDbEntity
  8
HOJO
100
AcDbLine
 10
66.0016277848639
 20
175.5353359109382
 30
0.0
 11
66.13030578486394
 21
175.4811534205031
 31
0.0
  0
LINE
  5
1EC2
330
2
100
AcDbEntity
  8
0
100
AcDbLine
 10
59.13030578486393
 20
190.8222020703166
 30
0.0
 11
51.05693766884986
 21
190.8222020703166
 31
0.0
  0
LINE
  5
1EC3
330
2
100
AcDbEntity
  8
0
100
AcDbLine
 10
59.17564504308927
 20
192.8220552367525
 30
0.0
 11
51.17481501469535
 21
193.5220371630348
 31
0.0
  0
LINE
  5
1EC4
330
2
100
AcDbEntity
  8
0
100
AcDbLine
 10
59.13030578486393
 20
191.8222020703166
 30
0.0
 11
51.0876592719477
 21
192.525842464943
 31
0.0
  0
LINE
  5
1EC5
330
2
100
AcDbEntity
  8
0
100
AcDbLine
 10
59.13030578486393
 20
191.8222020703166
 30
0.0
 11
51.05693766884986
 21
191.8222020703166
 31
0.0
  0
LINE
  5
1EC6
330
2
100
AcDbEntity
  8
0
100
AcDbLine
 10
41.19543688522833
 20
194.194355650893
 30
0.0
 11
51.15738386614601
 21
193.3227982234164
 31
0.0
  0
LINE
  5
1EC7
330
2
100
AcDbEntity
  8
0
100
AcDbLine
 10
51.05693766884986
 20
191.3222020703166
 30
0.0
 11
41.05693766884985
 21
191.3222020703166
 31
0.0
  0
LINE
  5
1EC8
330
2
100
AcDbEntity
  8
0
100
AcDbLine
 10
51.05693766884986
 20
191.6222020703165
 30
0.0
 11
41.05693766884985
 21
191.6222020703165
 31
0.0
  0
LINE
  5
1EC9
330
2
100
AcDbEntity
  8
0
100
AcDbLine
 10
51.05693766884986
 20
191.0222020703165
 30
0.0
 11
41.05693766884985
 21
191.0222020703165
 31
0.0
  0
LINE
  5
1ECA
330
2
100
AcDbEntity
  8
0
100
AcDbLine
 10
41.16929016240407
 20
193.8954972414656
 30
0.0
 11
51.13123714332153
 21
193.0239398139889
 31
0.0
  0
LINE
  5
1ECB
330
2
100
AcDbEntity
  8
0
100
AcDbLine
 10
41.14314343957983
 20
193.596638832038
 30
0.0
 11
51.10509042049727
 21
192.7250814045614
 31
0.0
  0
LINE
  5
1ECC
330
2
100
AcDbEntity
  8
0
100
AcDbLine
 10
51.0876592719477
 20
192.5258424649431
 30
0.0
 11
51.17481501469535
 21
193.5220371630348
 31
0.0
  0
LINE
  5
1ECD
330
2
100
AcDbEntity
  8
0
100
AcDbLine
 10
51.05693766884986
 20
190.8222020703165
 30
0.0
 11
51.05693766884986
 21
191.8222020703166
 31
0.0
  0
LINE
  5
1ECE
330
2
100
AcDbEntity
  8
0
100
AcDbLine
 10
105.0405567348466
 20
179.6657234393762
 30
0.0
 11
116.2925844302253
 21
175.6946145581482
 31
0.0
  0
LINE
  5
1ECF
330
2
100
AcDbEntity
  8
0
100
AcDbLine
 10
104.3749455653023
 20
177.7797325139005
 30
0.0
 11
115.6269732606806
 21
173.8086236326724
 31
0.0
  0
LINE
  5
1ED0
330
2
100
AcDbEntity
  8
0
100
AcDbLine
 10
106.3717790739365
 20
183.4377052903279
 30
0.0
 11
117.6238067693152
 21
179.4665964090999
 31
0.0
  0
LINE
  5
1ED1
330
2
100
AcDbEntity
  8
0
100
AcDbLine
 10
105.7061679043922
 20
181.551714364852
 30
0.0
 11
116.9581955997705
 21
177.580605483624
 31
0.0
  0
LINE
  5
1ED2
330
2
100
AcDbEntity
  8
0
100
AcDbLine
 10
90.63034538101044
 20
186.8222020703166
 30
0.0
 11
129.0504677081503
 21
186.8222020703166
 31
0.0
  0
LINE
  5
1ED3
330
2
100
AcDbEntity
  8
0
100
AcDbLine
 10
90.63036538101039
 20
192.8222020703166
 30
0.0
 11
129.0509911115482
 21
192.8222020703166
 31
0.0
  0
ARC
  5
1ED4
330
2
100
AcDbEntity
  8
0
100
AcDbCircle
 10
90.63036659419537
 20
175.0599727927985
 30
0.0
 40
11.00005121320405
100
AcDbArc
 50
90.0002430827012
 51
179.9998428472075
  0
ARC
  5
1ED5
330
2
100
AcDbEntity
  8
0
100
AcDbCircle
 10
91.06272217440425
 20
140.0599140043844
 30
0.0
 40
46.0
100
AcDbArc
 50
70.56084818740743
 51
90.0
  0
ARC
  5
1ED6
330
2
100
AcDbEntity
  8
0
100
AcDbCircle
 10
90.63036538101039
 20
181.8222020703166
 30
0.0
 40
11.0
100
AcDbArc
 50
90.0
 51
180.0
  0
ARC
  5
1ED7
330
2
100
AcDbEntity
  8
0
100
AcDbCircle
 10
90.63034538101044
 20
181.8222020703166
 30
0.0
 40
5.0
100
AcDbArc
 50
90.0
 51
131.9745634210959
  0
ARC
  5
1ED8
330
2
100
AcDbEntity
  8
0
100
AcDbCircle
 10
90.63036659419537
 20
175.0599727927985
 30
0.0
 40
9.000051213204052
100
AcDbArc
 50
90.0002430827012
 51
177.3934051283438
  0
ARC
  5
1ED9
330
2
100
AcDbEntity
  8
0
100
AcDbCircle
 10
90.63036659419537
 20
175.0599727927985
 30
0.0
 40
7.000051213204053
100
AcDbArc
 50
90.0002430827012
 51
179.9998428472075
  0
ARC
  5
1EDA
330
2
100
AcDbEntity
  8
0
100
AcDbCircle
 10
90.63036659419537
 20
175.0599727927985
 30
0.0
 40
5.000051213204053
100
AcDbArc
 50
90.0002430827012
 51
179.9998428472075
  0
LINE
  5
1EDB
330
2
100
AcDbEntity
  8
HOJO
100
AcDbLine
 10
81.50163738101047
 20
173.5353359109382
 30
0.0
 11
83.75923638101051
 21
172.5847279109382
 31
0.0
  0
ARC
  5
1EDC
330
2
100
AcDbEntity
  8
HOJO
100
AcDbCircle
 10
80.88034538101045
 20
172.0600239109382
 30
0.0
 40
1.600781999999999
100
AcDbArc
 50
67.16467299999876
 51
141.3418685641826
  0
ARC
  5
1EDD
330
2
100
AcDbEntity
  8
HOJO
100
AcDbCircle
 10
84.38034538101044
 20
174.0600239109382
 30
0.0
 40
1.600781
100
AcDbArc
 50
247.1647030000001
 51
321.3401944016193
  0
ARC
  5
1EDE
330
2
100
AcDbEntity
  8
HOJO
100
AcDbCircle
 10
80.88034538101045
 20
174.0600239109381
 30
0.0
 40
1.600781999999999
100
AcDbArc
 50
67.16467299999876
 51
141.3418685642105
  0
LINE
  5
1EDF
330
2
100
AcDbEntity
  8
0
100
AcDbLine
 10
79.63031538101029
 20
181.8222020703166
 30
0.0
 11
79.63031538101029
 21
175.0599879156023
 31
0.0
  0
LINE
  5
1EE0
330
2
100
AcDbEntity
  8
0
100
AcDbLine
 10
79.63031538101029
 20
175.0599727927985
 30
0.0
 11
79.63031538101029
 21
175.0599727927985
 31
0.0
  0
ARC
  5
1EE1
330
2
100
AcDbEntity
  8
HOJO
100
AcDbCircle
 10
84.38034538101044
 20
176.0600239109381
 30
0.0
 40
1.600781
100
AcDbArc
 50
247.1647030000001
 51
321.3384755602879
  0
LINE
  5
1EE2
330
2
100
AcDbEntity
  8
0
100
AcDbLine
 10
83.63031538101029
 20
175.0599727927985
 30
0.0
 11
83.63031538101029
 21
174.6390127214685
 31
0.0
  0
LINE
  5
1EE3
330
2
100
AcDbEntity
  8
HOJO
100
AcDbLine
 10
81.50163738101047
 20
175.5353359109382
 30
0.0
 11
83.75923638101051
 21
174.5847279109382
 31
0.0
  0
ARC
  5
1EE4
330
2
100
AcDbEntity
  8
0
100
AcDbCircle
 10
91.06272217440425
 20
140.0599140043844
 30
0.0
 40
44.0
100
AcDbArc
 50
70.56084818740743
 51
90.0
  0
ARC
  5
1EE5
330
2
100
AcDbEntity
  8
0
100
AcDbCircle
 10
91.06272217440425
 20
140.0599140043844
 30
0.0
 40
40.0
100
AcDbArc
 50
70.56084818740743
 51
90.0
  0
ARC
  5
1EE6
330
2
100
AcDbEntity
  8
0
100
AcDbCircle
 10
91.06272217440425
 20
140.0599140043844
 30
0.0
 40
42.0
100
AcDbArc
 50
70.56084818740743
 51
90.0
  0
LINE
  5
1EE7
330
2
100
AcDbEntity
  8
0
100
AcDbLine
 10
90.63017934636548
 20
182.0599140043844
 30
0.0
 11
91.06272217440425
 21
182.0599140043844
 31
0.0
  0
LINE
  5
1EE8
330
2
100
AcDbEntity
  8
0
100
AcDbLine
 10
90.63017934636548
 20
184.0599140043845
 30
0.0
 11
91.06272217440425
 21
184.0599140043845
 31
0.0
  0
LINE
  5
1EE9
330
2
100
AcDbEntity
  8
0
100
AcDbLine
 10
90.63017934636548
 20
186.0599140043845
 30
0.0
 11
91.06272217440425
 21
186.0599140043845
 31
0.0
  0
LINE
  5
1EEA
330
2
100
AcDbEntity
  8
0
100
AcDbLine
 10
90.63017934636548
 20
180.0599140043845
 30
0.0
 11
91.06272217440425
 21
180.0599140043845
 31
0.0
  0
LINE
  5
1EEB
330
2
100
AcDbEntity
  8
0
100
AcDbLine
 10
138.8112609346667
 20
185.6255057495333
 30
0.0
 11
138.8112609346667
 21
194.0175775176347
 31
0.0
  0
LINE
  5
1EEC
330
2
100
AcDbEntity
  8
0
100
AcDbLine
 10
136.0217558467988
 20
185.6384637232618
 30
0.0
 11
131.9546701747717
 21
186.5722020703166
 31
0.0
  0
ARC
  5
1EED
330
2
100
AcDbEntity
  8
0
100
AcDbCircle
 10
130.9360301602132
 20
217.1864149186157
 30
0.0
 40
42.0
100
AcDbArc
 50
250.5608481874074
 51
270.0
  0
ARC
  5
1EEE
330
2
100
AcDbEntity
  8
0
100
AcDbCircle
 10
130.9360301602132
 20
217.1864149186157
 30
0.0
 40
44.0
100
AcDbArc
 50
250.5608481874074
 51
270.0
  0
ARC
  5
1EEF
330
2
100
AcDbEntity
  8
0
100
AcDbCircle
 10
130.9360301602132
 20
217.1864149186157
 30
0.0
 40
46.0
100
AcDbArc
 50
250.5608481874074
 51
270.0
  0
ARC
  5
1EF0
330
2
100
AcDbEntity
  8
0
100
AcDbCircle
 10
130.9360301602132
 20
217.1864149186157
 30
0.0
 40
40.0
100
AcDbArc
 50
250.5608481874074
 51
270.0
  0
LINE
  5
1EF1
330
2
100
AcDbEntity
  8
0
100
AcDbLine
 10
131.3266745974629
 20
171.1864149186157
 30
0.0
 11
130.9360301602036
 21
171.1864149186157
 31
0.0
  0
LINE
  5
1EF2
330
2
100
AcDbEntity
  8
0
100
AcDbLine
 10
131.3266745974629
 20
177.1864149186157
 30
0.0
 11
130.9360301602132
 21
177.1864149186157
 31
0.0
  0
LINE
  5
1EF3
330
2
100
AcDbEntity
  8
0
100
AcDbLine
 10
136.4429489896719
 20
185.8047523256511
 30
0.0
 11
138.5765312991334
 21
185.4285441989308
 31
0.0
  0
ARC
  5
1EF4
330
2
100
AcDbEntity
  8
0
100
AcDbCircle
 10
136.1112609346669
 20
186.0283211834261
 30
0.0
 40
0.4
100
AcDbArc
 50
257.0698677002801
 51
326.0187104207608
  0
ARC
  5
1EF5
330
2
100
AcDbEntity
  8
0
100
AcDbCircle
 10
138.6112609346669
 20
185.6255057495333
 30
0.0
 40
0.2
100
AcDbArc
 50
260.0000000000013
 51
0.0
  0
LINE
  5
1EF6
330
2
100
AcDbEntity
  8
0
100
AcDbLine
 10
137.0251862959994
 20
194.1839707244208
 30
0.0
 11
131.9796899120469
 21
193.0722020703166
 31
0.0
  0
LINE
  5
1EF7
330
2
100
AcDbEntity
  8
0
100
AcDbLine
 10
129.0446402788584
 20
186.7722020703166
 30
0.0
 11
129.0446402788588
 21
192.8722020703166
 31
0.0
  0
LINE
  5
1EF8
330
2
100
AcDbEntity
  8
0
100
AcDbLine
 10
129.2446402788586
 20
186.5722020703166
 30
0.0
 11
131.9546701747717
 21
186.5722020703166
 31
0.0
  0
ARC
  5
1EF9
330
2
100
AcDbEntity
  8
0
100
AcDbCircle
 10
129.2446402788586
 20
186.7722020703166
 30
0.0
 40
0.2
100
AcDbArc
 50
180.0
 51
270.0
  0
LINE
  5
1EFA
330
2
100
AcDbEntity
  8
0
100
AcDbLine
 10
129.2446402788586
 20
193.0722020703167
 30
0.0
 11
131.9796899120469
 21
193.0722020703166
 31
0.0
  0
ARC
  5
1EFB
330
2
100
AcDbEntity
  8
0
100
AcDbCircle
 10
129.2446402788586
 20
192.8722020703166
 30
0.0
 40
0.2
100
AcDbArc
 50
90.0
 51
180.0
  0
LINE
  5
1EFC
330
2
100
AcDbEntity
  8
0
100
AcDbLine
 10
137.4442980397516
 20
194.0148957961526
 30
0.0
 11
138.5765312991334
 21
194.2145390682372
 31
0.0
  0
ARC
  5
1EFD
330
2
100
AcDbEntity
  8
0
100
AcDbCircle
 10
137.1112609346669
 20
193.7933415440229
 30
0.0
 40
0.4
100
AcDbArc
 50
33.63399402201179
 51
102.4264747477321
  0
ARC
  5
1EFE
330
2
100
AcDbEntity
  8
0
100
AcDbCircle
 10
138.6112609346669
 20
194.0175775176347
 30
0.0
 40
0.2
100
AcDbArc
 50
0.0
 51
99.99999999999861
  0
LINE
  5
1EFF
330
2
100
AcDbEntity
  8
0
100
AcDbLine
 10
164.1895279230179
 20
186.0715416335839
 30
0.0
 11
164.1895279230179
 21
186.4215416335839
 31
0.0
  0
LINE
  5
1F00
330
2
100
AcDbEntity
  8
0
100
AcDbLine
 10
159.1895279230179
 20
186.0715416335839
 30
0.0
 11
159.1895279230179
 21
186.2215416335839
 31
0.0
  0
LINE
  5
1F01
330
2
100
AcDbEntity
  8
0
100
AcDbLine
 10
154.6895279230179
 20
196.071541633584
 30
0.0
 11
154.6895279230179
 21
183.5715416335839
 31
0.0
  0
LINE
  5
1F02
330
2
100
AcDbEntity
  8
0
100
AcDbLine
 10
156.6895279230179
 20
196.071541633584
 30
0.0
 11
156.6895279230179
 21
183.5715416335839
 31
0.0
  0
LINE
  5
1F03
330
2
100
AcDbEntity
  8
0
100
AcDbLine
 10
166.1895279230179
 20
196.071541633584
 30
0.0
 11
166.1895279230179
 21
183.5715416335839
 31
0.0
  0
LINE
  5
1F04
330
2
100
AcDbEntity
  8
0
100
AcDbLine
 10
166.1895279230179
 20
183.5715416335839
 30
0.0
 11
154.6895279230179
 21
183.5715416335839
 31
0.0
  0
LINE
  5
1F05
330
2
100
AcDbEntity
  8
0
100
AcDbLine
 10
162.589527923018
 20
183.8215416335839
 30
0.0
 11
159.2895279230178
 21
183.8215416335839
 31
0.0
  0
LINE
  5
1F06
330
2
100
AcDbEntity
  8
0
100
AcDbLine
 10
162.589527923018
 20
185.8215416335839
 30
0.0
 11
159.2895279230178
 21
185.8215416335839
 31
0.0
  0
LINE
  5
1F07
330
2
100
AcDbEntity
  8
0
100
AcDbLine
 10
154.6895279230179
 20
184.221541633584
 30
0.0
 11
148.3233103713641
 21
184.2215416335839
 31
0.0
  0
LINE
  5
1F08
330
2
100
AcDbEntity
  8
0
100
AcDbLine
 10
154.6895279230179
 20
185.4215416335839
 30
0.0
 11
148.4282967675958
 21
185.4215416335838
 31
0.0
  0
ARC
  5
1F09
330
2
100
AcDbEntity
  8
0
100
AcDbCircle
 10
148.4282967675958
 20
205.4215416335838
 30
0.0
 40
20.0
100
AcDbArc
 50
260.0000000000013
 51
270.0
  0
ARC
  5
1F0A
330
2
100
AcDbEntity
  8
0
100
AcDbCircle
 10
148.3233103713641
 20
204.2215416335841
 30
0.0
 40
20.0
100
AcDbArc
 50
260.0000000000013
 51
270.0
  0
LINE
  5
1F0B
330
2
100
AcDbEntity
  8
0
100
AcDbLine
 10
159.1895279230179
 20
186.0715416335839
 30
0.0
 11
159.1895279230179
 21
185.9215416335839
 31
0.0
  0
ARC
  5
1F0C
330
2
100
AcDbEntity
  8
0
100
AcDbCircle
 10
159.2895279230178
 20
185.9215416335839
 30
0.0
 40
0.1
100
AcDbArc
 50
180.0
 51
270.0
  0
LINE
  5
1F0D
330
2
100
AcDbEntity
  8
0
100
AcDbLine
 10
159.1895279230179
 20
183.7215416335839
 30
0.0
 11
159.1895279230179
 21
183.5715416335839
 31
0.0
  0
ARC
  5
1F0E
330
2
100
AcDbEntity
  8
0
100
AcDbCircle
 10
159.2895279230178
 20
183.7215416335839
 30
0.0
 40
0.1
100
AcDbArc
 50
90.0
 51
180.0
  0
LINE
  5
1F0F
330
2
100
AcDbEntity
  8
0
100
AcDbLine
 10
160.8266745974628
 20
173.1864149186157
 30
0.0
 11
160.8266745974628
 21
175.1864149186157
 31
0.0
  0
LINE
  5
1F10
330
2
100
AcDbEntity
  8
0
100
AcDbLine
 10
165.7215384044525
 20
168.4784002032489
 30
0.0
 11
160.7405649139936
 21
168.9141789169872
 31
0.0
  0
LINE
  5
1F11
330
2
100
AcDbEntity
  8
0
100
AcDbLine
 10
165.7520429144142
 20
168.827068347581
 30
0.0
 11
160.7710694239553
 21
169.2628470613193
 31
0.0
  0
LINE
  5
1F12
330
2
100
AcDbEntity
  8
0
100
AcDbLine
 10
165.7825474243754
 20
169.1757364919132
 30
0.0
 11
160.8015739339171
 21
169.6115152056514
 31
0.0
  0
LINE
  5
1F13
330
2
100
AcDbEntity
  8
0
100
AcDbLine
 10
165.8130519343371
 20
169.5244046362453
 30
0.0
 11
160.8320784438788
 21
169.9601833499835
 31
0.0
  0
LINE
  5
1F14
330
2
100
AcDbEntity
  8
0
100
AcDbLine
 10
165.8604382911353
 20
169.8715958103598
 30
0.0
 11
160.8625829538405
 21
170.3088514943156
 31
0.0
  0
LINE
  5
1F15
330
2
100
AcDbEntity
  8
0
100
AcDbLine
 10
160.7076896059079
 20
168.6159091824916
 30
0.0
 11
160.8820010914032
 21
170.6082985786751
 31
0.0
  0
LINE
  5
1F16
330
2
100
AcDbEntity
  8
0
100
AcDbLine
 10
160.7144181911694
 20
179.7575093296716
 30
0.0
 11
160.8887296766647
 21
177.7651199334881
 31
0.0
  0
LINE
  5
1F17
330
2
100
AcDbEntity
  8
0
100
AcDbLine
 10
165.7215384044525
 20
179.8944296339823
 30
0.0
 11
160.7405649139936
 21
179.458650920244
 31
0.0
  0
LINE
  5
1F18
330
2
100
AcDbEntity
  8
0
100
AcDbLine
 10
165.8266745974628
 20
174.1864149186157
 30
0.0
 11
160.8266745974628
 21
174.1864149186157
 31
0.0
  0
LINE
  5
1F19
330
2
100
AcDbEntity
  8
0
100
AcDbLine
 10
165.8266745974628
 20
174.5364149186156
 30
0.0
 11
160.8266745974628
 21
174.5364149186156
 31
0.0
  0
LINE
  5
1F1A
330
2
100
AcDbEntity
  8
0
100
AcDbLine
 10
165.8266745974628
 20
174.8864149186156
 30
0.0
 11
160.8266745974628
 21
174.8864149186156
 31
0.0
  0
LINE
  5
1F1B
330
2
100
AcDbEntity
  8
0
100
AcDbLine
 10
165.8266745974628
 20
173.8364149186156
 30
0.0
 11
160.8266745974628
 21
173.8364149186156
 31
0.0
  0
LINE
  5
1F1C
330
2
100
AcDbEntity
  8
0
100
AcDbLine
 10
165.8266745974628
 20
173.4864149186156
 30
0.0
 11
160.8266745974628
 21
173.4864149186156
 31
0.0
  0
LINE
  5
1F1D
330
2
100
AcDbEntity
  8
0
100
AcDbLine
 10
165.8130519343371
 20
178.8484252009859
 30
0.0
 11
160.8320784438788
 21
178.4126464872477
 31
0.0
  0
LINE
  5
1F1E
330
2
100
AcDbEntity
  8
0
100
AcDbLine
 10
165.8604382911353
 20
178.5012340268714
 30
0.0
 11
160.8625829538405
 21
178.0639783429156
 31
0.0
  0
LINE
  5
1F1F
330
2
100
AcDbEntity
  8
0
100
AcDbLine
 10
165.7825474243754
 20
179.197093345318
 30
0.0
 11
160.8015739339171
 21
178.7613146315798
 31
0.0
  0
LINE
  5
1F20
330
2
100
AcDbEntity
  8
0
100
AcDbLine
 10
165.7520429144142
 20
179.5457614896502
 30
0.0
 11
160.7710694239553
 21
179.1099827759119
 31
0.0
  0
LINE
  5
1F21
330
2
100
AcDbEntity
  8
0
100
AcDbLine
 10
165.089527923018
 20
185.621541633584
 30
0.0
 11
164.2895279230178
 21
185.621541633584
 31
0.0
  0
LINE
  5
1F22
330
2
100
AcDbEntity
  8
0
100
AcDbLine
 10
165.089527923018
 20
184.0215416335839
 30
0.0
 11
164.2895279230178
 21
184.0215416335839
 31
0.0
  0
LINE
  5
1F23
330
2
100
AcDbEntity
  8
0
100
AcDbLine
 10
162.6895279230179
 20
185.7215416335839
 30
0.0
 11
162.6895279230179
 21
183.9215416335839
 31
0.0
  0
ARC
  5
1F24
330
2
100
AcDbEntity
  8
0
100
AcDbCircle
 10
162.589527923018
 20
185.7215416335839
 30
0.0
 40
0.1
100
AcDbArc
 50
0.0
 51
90.0
  0
LINE
  5
1F25
330
2
100
AcDbEntity
  8
0
100
AcDbLine
 10
164.1895279230179
 20
186.0715416335839
 30
0.0
 11
164.1895279230179
 21
185.7215416335839
 31
0.0
  0
ARC
  5
1F26
330
2
100
AcDbEntity
  8
0
100
AcDbCircle
 10
164.2895279230178
 20
185.7215416335839
 30
0.0
 40
0.1
100
AcDbArc
 50
180.0
 51
270.0
  0
ARC
  5
1F27
330
2
100
AcDbEntity
  8
0
100
AcDbCircle
 10
162.589527923018
 20
183.9215416335839
 30
0.0
 40
0.1
100
AcDbArc
 50
270.0
 51
0.0
  0
ARC
  5
1F28
330
2
100
AcDbEntity
  8
0
100
AcDbCircle
 10
164.2895279230178
 20
183.9215416335839
 30
0.0
 40
0.1
100
AcDbArc
 50
90.0
 51
180.0
  0
LINE
  5
1F29
330
2
100
AcDbEntity
  8
0
100
AcDbLine
 10
164.1895279230179
 20
183.5715416335839
 30
0.0
 11
164.1895279230179
 21
183.9215416335839
 31
0.0
  0
LINE
  5
1F2A
330
2
100
AcDbEntity
  8
0
100
AcDbLine
 10
165.1895279230179
 20
185.5215416335839
 30
0.0
 11
165.1895279230179
 21
184.121541633584
 31
0.0
  0
ARC
  5
1F2B
330
2
100
AcDbEntity
  8
0
100
AcDbCircle
 10
165.089527923018
 20
185.5215416335839
 30
0.0
 40
0.1
100
AcDbArc
 50
0.0
 51
90.0
  0
ARC
  5
1F2C
330
2
100
AcDbEntity
  8
0
100
AcDbCircle
 10
165.089527923018
 20
184.121541633584
 30
0.0
 40
0.1
100
AcDbArc
 50
270.0
 51
0.0
  0
LINE
  5
1F2D
330
2
100
AcDbEntity
  8
0
100
AcDbLine
 10
166.1895279230179
 20
196.071541633584
 30
0.0
 11
154.6895279230179
 21
196.071541633584
 31
0.0
  0
LINE
  5
1F2E
330
2
100
AcDbEntity
  8
0
100
AcDbLine
 10
162.589527923018
 20
195.8215416335839
 30
0.0
 11
159.2895279230178
 21
195.8215416335839
 31
0.0
  0
LINE
  5
1F2F
330
2
100
AcDbEntity
  8
0
100
AcDbLine
 10
162.589527923018
 20
193.3215416335839
 30
0.0
 11
159.2895279230178
 21
193.3215416335839
 31
0.0
  0
LINE
  5
1F30
330
2
100
AcDbEntity
  8
0
100
AcDbLine
 10
162.589527923018
 20
193.8215416335839
 30
0.0
 11
159.2895279230178
 21
193.8215416335839
 31
0.0
  0
LINE
  5
1F31
330
2
100
AcDbEntity
  8
0
100
AcDbLine
 10
162.589527923018
 20
190.8215416335839
 30
0.0
 11
159.2895279230178
 21
190.8215416335839
 31
0.0
  0
LINE
  5
1F32
330
2
100
AcDbEntity
  8
0
100
AcDbLine
 10
162.589527923018
 20
186.3215416335839
 30
0.0
 11
159.2895279230178
 21
186.3215416335839
 31
0.0
  0
LINE
  5
1F33
330
2
100
AcDbEntity
  8
0
100
AcDbLine
 10
162.589527923018
 20
188.3215416335839
 30
0.0
 11
159.2895279230178
 21
188.3215416335839
 31
0.0
  0
LINE
  5
1F34
330
2
100
AcDbEntity
  8
0
100
AcDbLine
 10
162.589527923018
 20
188.8215416335839
 30
0.0
 11
159.2895279230178
 21
188.8215416335839
 31
0.0
  0
LINE
  5
1F35
330
2
100
AcDbEntity
  8
0
100
AcDbLine
 10
162.589527923018
 20
191.3215416335839
 30
0.0
 11
159.2895279230178
 21
191.3215416335839
 31
0.0
  0
LINE
  5
1F36
330
2
100
AcDbEntity
  8
0
100
AcDbLine
 10
154.6895279230179
 20
191.7215416335839
 30
0.0
 11
146.8869259673106
 21
191.7215416335839
 31
0.0
  0
LINE
  5
1F37
330
2
100
AcDbEntity
  8
0
100
AcDbLine
 10
154.6895279230179
 20
192.9215416335838
 30
0.0
 11
146.8345328358204
 21
192.9215416335838
 31
0.0
  0
LINE
  5
1F38
330
2
100
AcDbEntity
  8
0
100
AcDbLine
 10
154.6895279230179
 20
194.2215416335839
 30
0.0
 11
148.4282967675944
 21
194.2215416335838
 31
0.0
  0
LINE
  5
1F39
330
2
100
AcDbEntity
  8
0
100
AcDbLine
 10
154.6895279230179
 20
195.4215416335838
 30
0.0
 11
148.3233103713637
 21
195.4215416335838
 31
0.0
  0
LINE
  5
1F3A
330
2
100
AcDbEntity
  8
0
100
AcDbLine
 10
154.6895279230179
 20
186.7215416335839
 30
0.0
 11
146.8345328358236
 21
186.7215416335839
 31
0.0
  0
LINE
  5
1F3B
330
2
100
AcDbEntity
  8
0
100
AcDbLine
 10
154.6895279230179
 20
187.9215416335839
 30
0.0
 11
146.8869259673151
 21
187.9215416335838
 31
0.0
  0
ARC
  5
1F3C
330
2
100
AcDbEntity
  8
0
100
AcDbCircle
 10
146.8869259673147
 20
207.9215416335839
 30
0.0
 40
20.0
100
AcDbArc
 50
265.0000000000003
 51
270.0
  0
ARC
  5
1F3D
330
2
100
AcDbEntity
  8
0
100
AcDbCircle
 10
146.8345328358236
 20
206.7215416335838
 30
0.0
 40
20.0
100
AcDbArc
 50
265.0000000000003
 51
270.0
  0
ARC
  5
1F3E
330
2
100
AcDbEntity
  8
0
100
AcDbCircle
 10
146.886925967311
 20
171.7215416335839
 30
0.0
 40
20.0
100
AcDbArc
 50
90.0
 51
94.99999999999975
  0
ARC
  5
1F3F
330
2
100
AcDbEntity
  8
0
100
AcDbCircle
 10
148.3233103713637
 20
175.4215416335839
 30
0.0
 40
20.0
100
AcDbArc
 50
90.0
 51
99.99999999999861
  0
ARC
  5
1F40
330
2
100
AcDbEntity
  8
0
100
AcDbCircle
 10
148.4282967675949
 20
174.2215416335838
 30
0.0
 40
20.0
100
AcDbArc
 50
90.0
 51
99.99999999999861
  0
ARC
  5
1F41
330
2
100
AcDbEntity
  8
0
100
AcDbCircle
 10
146.8345328358209
 20
172.9215416335838
 30
0.0
 40
20.0
100
AcDbArc
 50
90.0
 51
94.99999999999975
  0
ARC
  5
1F42
330
2
100
AcDbEntity
  8
0
100
AcDbCircle
 10
159.2895279230178
 20
190.9215416335839
 30
0.0
 40
0.1
100
AcDbArc
 50
180.0
 51
270.0
  0
ARC
  5
1F43
330
2
100
AcDbEntity
  8
0
100
AcDbCircle
 10
159.2895279230178
 20
188.4215416335839
 30
0.0
 40
0.1
100
AcDbArc
 50
180.0
 51
270.0
  0
LINE
  5
1F44
330
2
100
AcDbEntity
  8
0
100
AcDbLine
 10
159.1895279230179
 20
188.4215416335839
 30
0.0
 11
159.1895279230179
 21
188.7215416335839
 31
0.0
  0
ARC
  5
1F45
330
2
100
AcDbEntity
  8
0
100
AcDbCircle
 10
159.2895279230178
 20
188.7215416335839
 30
0.0
 40
0.1
100
AcDbArc
 50
90.0
 51
180.0
  0
ARC
  5
1F46
330
2
100
AcDbEntity
  8
0
100
AcDbCircle
 10
159.2895279230178
 20
186.2215416335839
 30
0.0
 40
0.1
100
AcDbArc
 50
90.0
 51
180.0
  0
ARC
  5
1F47
330
2
100
AcDbEntity
  8
0
100
AcDbCircle
 10
159.2895279230178
 20
191.2215416335839
 30
0.0
 40
0.1
100
AcDbArc
 50
90.0
 51
180.0
  0
LINE
  5
1F48
330
2
100
AcDbEntity
  8
0
100
AcDbLine
 10
159.1895279230179
 20
191.2215416335839
 30
0.0
 11
159.1895279230179
 21
190.9215416335839
 31
0.0
  0
ARC
  5
1F49
330
2
100
AcDbEntity
  8
0
100
AcDbCircle
 10
159.2895279230178
 20
195.9215416335839
 30
0.0
 40
0.1
100
AcDbArc
 50
180.0
 51
270.0
  0
LINE
  5
1F4A
330
2
100
AcDbEntity
  8
0
100
AcDbLine
 10
159.1895279230179
 20
195.9215416335839
 30
0.0
 11
159.1895279230179
 21
196.071541633584
 31
0.0
  0
LINE
  5
1F4B
330
2
100
AcDbEntity
  8
0
100
AcDbLine
 10
159.1895279230179
 20
193.5715416335839
 30
0.0
 11
159.1895279230179
 21
193.4215416335839
 31
0.0
  0
ARC
  5
1F4C
330
2
100
AcDbEntity
  8
0
100
AcDbCircle
 10
159.2895279230178
 20
193.7215416335839
 30
0.0
 40
0.1
100
AcDbArc
 50
90.0
 51
180.0
  0
LINE
  5
1F4D
330
2
100
AcDbEntity
  8
0
100
AcDbLine
 10
159.1895279230179
 20
193.5715416335839
 30
0.0
 11
159.1895279230179
 21
193.7215416335839
 31
0.0
  0
ARC
  5
1F4E
330
2
100
AcDbEntity
  8
0
100
AcDbCircle
 10
159.2895279230178
 20
193.4215416335839
 30
0.0
 40
0.1
100
AcDbArc
 50
180.0
 51
270.0
  0
LINE
  5
1F4F
330
2
100
AcDbEntity
  8
0
100
AcDbLine
 10
165.1895279230179
 20
193.0215416335839
 30
0.0
 11
165.1895279230179
 21
191.6215416335839
 31
0.0
  0
LINE
  5
1F50
330
2
100
AcDbEntity
  8
0
100
AcDbLine
 10
162.6895279230179
 20
193.2215416335839
 30
0.0
 11
162.6895279230179
 21
191.4215416335839
 31
0.0
  0
LINE
  5
1F51
330
2
100
AcDbEntity
  8
0
100
AcDbLine
 10
165.089527923018
 20
190.621541633584
 30
0.0
 11
164.2895279230178
 21
190.621541633584
 31
0.0
  0
LINE
  5
1F52
330
2
100
AcDbEntity
  8
0
100
AcDbLine
 10
165.089527923018
 20
189.0215416335839
 30
0.0
 11
164.2895279230178
 21
189.0215416335839
 31
0.0
  0
LINE
  5
1F53
330
2
100
AcDbEntity
  8
0
100
AcDbLine
 10
165.089527923018
 20
188.121541633584
 30
0.0
 11
164.2895279230178
 21
188.121541633584
 31
0.0
  0
LINE
  5
1F54
330
2
100
AcDbEntity
  8
0
100
AcDbLine
 10
165.089527923018
 20
186.5215416335839
 30
0.0
 11
164.2895279230178
 21
186.5215416335839
 31
0.0
  0
LINE
  5
1F55
330
2
100
AcDbEntity
  8
0
100
AcDbLine
 10
165.089527923018
 20
191.521541633584
 30
0.0
 11
164.2895279230178
 21
191.521541633584
 31
0.0
  0
LINE
  5
1F56
330
2
100
AcDbEntity
  8
0
100
AcDbLine
 10
164.1895279230179
 20
191.0715416335839
 30
0.0
 11
164.1895279230179
 21
190.7215416335839
 31
0.0
  0
LINE
  5
1F57
330
2
100
AcDbEntity
  8
0
100
AcDbLine
 10
162.6895279230179
 20
188.9215416335839
 30
0.0
 11
162.6895279230179
 21
189.8215416335839
 31
0.0
  0
LINE
  5
1F58
330
2
100
AcDbEntity
  8
0
100
AcDbLine
 10
162.6895279230179
 20
190.7215416335839
 30
0.0
 11
162.6895279230179
 21
189.8215416335839
 31
0.0
  0
ARC
  5
1F59
330
2
100
AcDbEntity
  8
0
100
AcDbCircle
 10
162.589527923018
 20
190.7215416335839
 30
0.0
 40
0.1
100
AcDbArc
 50
0.0
 51
90.0
  0
ARC
  5
1F5A
330
2
100
AcDbEntity
  8
0
100
AcDbCircle
 10
164.2895279230178
 20
190.7215416335839
 30
0.0
 40
0.1
100
AcDbArc
 50
180.0
 51
270.0
  0
ARC
  5
1F5B
330
2
100
AcDbEntity
  8
0
100
AcDbCircle
 10
162.589527923018
 20
188.2215416335839
 30
0.0
 40
0.1
100
AcDbArc
 50
0.0
 51
90.0
  0
ARC
  5
1F5C
330
2
100
AcDbEntity
  8
0
100
AcDbCircle
 10
162.589527923018
 20
188.9215416335839
 30
0.0
 40
0.1
100
AcDbArc
 50
270.0
 51
0.0
  0
LINE
  5
1F5D
330
2
100
AcDbEntity
  8
0
100
AcDbLine
 10
164.1895279230179
 20
188.5715416335839
 30
0.0
 11
164.1895279230179
 21
188.9215416335839
 31
0.0
  0
ARC
  5
1F5E
330
2
100
AcDbEntity
  8
0
100
AcDbCircle
 10
164.2895279230178
 20
188.9215416335839
 30
0.0
 40
0.1
100
AcDbArc
 50
90.0
 51
180.0
  0
LINE
  5
1F5F
330
2
100
AcDbEntity
  8
0
100
AcDbLine
 10
164.1895279230179
 20
188.5715416335839
 30
0.0
 11
164.1895279230179
 21
188.2215416335839
 31
0.0
  0
ARC
  5
1F60
330
2
100
AcDbEntity
  8
0
100
AcDbCircle
 10
164.2895279230178
 20
188.2215416335839
 30
0.0
 40
0.1
100
AcDbArc
 50
180.0
 51
270.0
  0
ARC
  5
1F61
330
2
100
AcDbEntity
  8
0
100
AcDbCircle
 10
162.589527923018
 20
186.4215416335839
 30
0.0
 40
0.1
100
AcDbArc
 50
270.0
 51
0.0
  0
ARC
  5
1F62
330
2
100
AcDbEntity
  8
0
100
AcDbCircle
 10
164.2895279230178
 20
186.4215416335839
 30
0.0
 40
0.1
100
AcDbArc
 50
90.0
 51
180.0
  0
LINE
  5
1F63
330
2
100
AcDbEntity
  8
0
100
AcDbLine
 10
162.6895279230179
 20
186.4215416335839
 30
0.0
 11
162.6895279230179
 21
188.2215416335839
 31
0.0
  0
ARC
  5
1F64
330
2
100
AcDbEntity
  8
0
100
AcDbCircle
 10
162.589527923018
 20
191.4215416335839
 30
0.0
 40
0.1
100
AcDbArc
 50
270.0
 51
0.0
  0
ARC
  5
1F65
330
2
100
AcDbEntity
  8
0
100
AcDbCircle
 10
164.2895279230178
 20
191.4215416335839
 30
0.0
 40
0.1
100
AcDbArc
 50
90.0
 51
180.0
  0
LINE
  5
1F66
330
2
100
AcDbEntity
  8
0
100
AcDbLine
 10
164.1895279230179
 20
191.0715416335839
 30
0.0
 11
164.1895279230179
 21
191.4215416335839
 31
0.0
  0
LINE
  5
1F67
330
2
100
AcDbEntity
  8
0
100
AcDbLine
 10
165.1895279230179
 20
189.8215416335839
 30
0.0
 11
165.1895279230179
 21
189.1215416335839
 31
0.0
  0
LINE
  5
1F68
330
2
100
AcDbEntity
  8
0
100
AcDbLine
 10
165.1895279230179
 20
189.8215416335839
 30
0.0
 11
165.1895279230179
 21
190.5215416335839
 31
0.0
  0
ARC
  5
1F69
330
2
100
AcDbEntity
  8
0
100
AcDbCircle
 10
165.089527923018
 20
190.5215416335839
 30
0.0
 40
0.1
100
AcDbArc
 50
0.0
 51
90.0
  0
ARC
  5
1F6A
330
2
100
AcDbEntity
  8
0
100
AcDbCircle
 10
165.089527923018
 20
188.0215416335839
 30
0.0
 40
0.1
100
AcDbArc
 50
0.0
 51
90.0
  0
ARC
  5
1F6B
330
2
100
AcDbEntity
  8
0
100
AcDbCircle
 10
165.089527923018
 20
189.1215416335839
 30
0.0
 40
0.1
100
AcDbArc
 50
270.0
 51
0.0
  0
ARC
  5
1F6C
330
2
100
AcDbEntity
  8
0
100
AcDbCircle
 10
165.089527923018
 20
186.6215416335838
 30
0.0
 40
0.1
100
AcDbArc
 50
270.0
 51
0.0
  0
LINE
  5
1F6D
330
2
100
AcDbEntity
  8
0
100
AcDbLine
 10
165.1895279230179
 20
186.6215416335838
 30
0.0
 11
165.1895279230179
 21
188.0215416335839
 31
0.0
  0
ARC
  5
1F6E
330
2
100
AcDbEntity
  8
0
100
AcDbCircle
 10
165.089527923018
 20
191.6215416335839
 30
0.0
 40
0.1
100
AcDbArc
 50
270.0
 51
0.0
  0
LINE
  5
1F6F
330
2
100
AcDbEntity
  8
0
100
AcDbLine
 10
165.089527923018
 20
195.6215416335839
 30
0.0
 11
164.2895279230178
 21
195.6215416335839
 31
0.0
  0
LINE
  5
1F70
330
2
100
AcDbEntity
  8
0
100
AcDbLine
 10
165.089527923018
 20
194.0215416335839
 30
0.0
 11
164.2895279230178
 21
194.0215416335839
 31
0.0
  0
LINE
  5
1F71
330
2
100
AcDbEntity
  8
0
100
AcDbLine
 10
165.089527923018
 20
193.121541633584
 30
0.0
 11
164.2895279230178
 21
193.121541633584
 31
0.0
  0
ARC
  5
1F72
330
2
100
AcDbEntity
  8
0
100
AcDbCircle
 10
162.589527923018
 20
195.7215416335838
 30
0.0
 40
0.1
100
AcDbArc
 50
0.0
 51
90.0
  0
LINE
  5
1F73
330
2
100
AcDbEntity
  8
0
100
AcDbLine
 10
164.1895279230179
 20
196.071541633584
 30
0.0
 11
164.1895279230179
 21
195.7215416335838
 31
0.0
  0
ARC
  5
1F74
330
2
100
AcDbEntity
  8
0
100
AcDbCircle
 10
164.2895279230178
 20
195.7215416335838
 30
0.0
 40
0.1
100
AcDbArc
 50
180.0
 51
270.0
  0
LINE
  5
1F75
330
2
100
AcDbEntity
  8
0
100
AcDbLine
 10
164.1895279230179
 20
193.5715416335839
 30
0.0
 11
164.1895279230179
 21
193.2215416335839
 31
0.0
  0
ARC
  5
1F76
330
2
100
AcDbEntity
  8
0
100
AcDbCircle
 10
162.589527923018
 20
193.9215416335839
 30
0.0
 40
0.1
100
AcDbArc
 50
270.0
 51
0.0
  0
ARC
  5
1F77
330
2
100
AcDbEntity
  8
0
100
AcDbCircle
 10
164.2895279230178
 20
193.9215416335839
 30
0.0
 40
0.1
100
AcDbArc
 50
90.0
 51
180.0
  0
LINE
  5
1F78
330
2
100
AcDbEntity
  8
0
100
AcDbLine
 10
164.1895279230179
 20
193.5715416335839
 30
0.0
 11
164.1895279230179
 21
193.9215416335839
 31
0.0
  0
ARC
  5
1F79
330
2
100
AcDbEntity
  8
0
100
AcDbCircle
 10
162.589527923018
 20
193.2215416335839
 30
0.0
 40
0.1
100
AcDbArc
 50
0.0
 51
90.0
  0
LINE
  5
1F7A
330
2
100
AcDbEntity
  8
0
100
AcDbLine
 10
162.6895279230179
 20
193.9215416335839
 30
0.0
 11
162.6895279230179
 21
195.7215416335838
 31
0.0
  0
ARC
  5
1F7B
330
2
100
AcDbEntity
  8
0
100
AcDbCircle
 10
164.2895279230178
 20
193.2215416335839
 30
0.0
 40
0.1
100
AcDbArc
 50
180.0
 51
270.0
  0
ARC
  5
1F7C
330
2
100
AcDbEntity
  8
0
100
AcDbCircle
 10
165.089527923018
 20
195.521541633584
 30
0.0
 40
0.1
100
AcDbArc
 50
0.0
 51
90.0
  0
ARC
  5
1F7D
330
2
100
AcDbEntity
  8
0
100
AcDbCircle
 10
165.089527923018
 20
194.1215416335838
 30
0.0
 40
0.1
100
AcDbArc
 50
270.0
 51
0.0
  0
LINE
  5
1F7E
330
2
100
AcDbEntity
  8
0
100
AcDbLine
 10
165.1895279230179
 20
194.1215416335838
 30
0.0
 11
165.1895279230179
 21
195.521541633584
 31
0.0
  0
ARC
  5
1F7F
330
2
100
AcDbEntity
  8
0
100
AcDbCircle
 10
165.089527923018
 20
193.0215416335839
 30
0.0
 40
0.1
100
AcDbArc
 50
0.0
 51
90.0
  0
LINE
  5
1F81
330
2
100
AcDbEntity
  8
CENTER
100
AcDbLine
 10
71.96770378486366
 20
336.7929774567796
 30
0.0
 11
83.7727047848636
 21
336.7929774567796
 31
0.0
  0
LINE
  5
1F83
330
2
100
AcDbEntity
  8
CENTER
100
AcDbLine
 10
71.96770378486377
 20
288.7929934567794
 30
0.0
 11
83.77270478486371
 21
288.7929934567794
 31
0.0
  0
LINE
  5
1F84
330
2
100
AcDbEntity
  8
0
100
AcDbLine
 10
77.13052663713046
 20
272.2973468903631
 30
0.0
 11
37.1041261783655
 21
272.6466519953091
 31
0.0
  0
LINE
  5
1F85
330
2
100
AcDbEntity
  8
0
100
AcDbLine
 10
77.13008493261821
 20
353.2886200225756
 30
0.0
 11
66.1303057848628
 21
353.1926264042257
 31
0.0
  0
LINE
  5
1F86
330
2
100
AcDbEntity
  8
0
100
AcDbLine
 10
34.13030578486291
 20
349.9394330031358
 30
0.0
 11
34.13030578486291
 21
275.6465377645024
 31
0.0
  0
ARC
  5
1F87
330
2
100
AcDbEntity
  8
0
100
AcDbCircle
 10
37.13030578486086
 20
275.6465377645016
 30
0.0
 40
3.0
100
AcDbArc
 50
179.9999999999967
 51
269.4999999999954
  0
ARC
  5
1F91
330
2
100
AcDbEntity
  8
0
100
AcDbCircle
 10
37.13030578486291
 20
349.9394330031365
 30
0.0
 40
3.0
100
AcDbArc
 50
90.49999999999805
 51
180.0
  0
POINT
  5
1F92
330
2
100
AcDbEntity
  8
0
100
AcDbPoint
 10
34.13030578486291
 20
347.0929853838195
 30
0.0
  0
LINE
  5
1F93
330
2
100
AcDbEntity
  8
0
100
AcDbLine
 10
77.13030578486343
 20
292.7929934567794
 30
0.0
 11
77.13030578486365
 21
332.7929774567796
 31
0.0
  0
SPLINE
  5
1F94
330
2
100
AcDbEntity
  8
HOJO
100
AcDbSpline
210
0.0
220
0.0
230
1.0
 70
     8
 71
     3
 72
    12
 73
     8
 74
     6
 42
0.0000000001
 43
0.0000000001
 44
0.0000000001
 40
0.0
 40
0.0
 40
0.0
 40
0.0
 40
1.684659730310349
 40
2.786160565551575
 40
4.550934817628674
 40
5.718899366607204
 40
6.335570522767257
 40
6.335570522767257
 40
6.335570522767257
 40
6.335570522767257
 10
93.75568522410111
 20
314.29298550246
 30
0.0
 10
93.47877361582737
 20
314.8439453161436
 30
0.0
 10
93.02080564209683
 20
315.755145648454
 30
0.0
 10
93.90343026003449
 20
317.0921468804764
 30
0.0
 10
94.46550809788178
 20
318.4179663469461
 30
0.0
 10
93.96809860640351
 20
319.5521595555555
 30
0.0
 10
93.75242107687896
 20
320.1027366006835
 30
0.0
 10
93.67789488024021
 20
320.2929855024603
 30
0.0
 11
93.75568522410111
 21
314.29298550246
 31
0.0
 11
93.2899433402194
 21
315.9119860906402
 31
0.0
 11
93.75167317658583
 21
316.9120409132605
 31
0.0
 11
94.25188075187447
 21
318.6044417352936
 31
0.0
 11
93.90558312204161
 21
319.7198874485593
 31
0.0
 11
93.67789488024021
 21
320.2929855024603
 31
0.0
  0
ARC
  5
1F95
330
2
100
AcDbEntity
  8
0
100
AcDbCircle
 10
82.63030578486377
 20
317.2929855024603
 30
0.0
 40
3.0
100
AcDbArc
 50
90.0
 51
270.0
  0
LINE
  5
1F96
330
2
100
AcDbEntity
  8
0
100
AcDbLine
 10
89.13030578486376
 20
267.7929854567794
 30
0.0
 11
89.13030578486376
 21
305.8929855024602
 31
0.0
  0
LINE
  5
1F97
330
2
100
AcDbEntity
  8
0
100
AcDbLine
 10
78.63030578486377
 20
284.7929934567794
 30
0.0
 11
78.63030578486387
 21
293.7929854567794
 31
0.0
  0
LINE
  5
1F98
330
2
100
AcDbEntity
  8
0
100
AcDbLine
 10
77.13030578486376
 20
268.5569174792797
 30
0.0
 11
77.13030578486376
 21
284.7929934567794
 31
0.0
  0
LINE
  5
1F99
330
2
100
AcDbEntity
  8
0
100
AcDbLine
 10
79.13030578486388
 20
267.7929854567794
 30
0.0
 11
89.13030578486376
 21
267.7929854567794
 31
0.0
  0
ARC
  5
1F9A
330
2
100
AcDbEntity
  8
0
100
AcDbCircle
 10
79.13030578486388
 20
270.7929854567794
 30
0.0
 40
3.0
100
AcDbArc
 50
228.1896851042157
 51
270.0
  0
LINE
  5
1F9B
330
2
100
AcDbEntity
  8
0
100
AcDbLine
 10
79.63030578486376
 20
283.7929934567794
 30
0.0
 11
89.13030578486376
 21
283.7929934567794
 31
0.0
  0
LINE
  5
1F9C
330
2
100
AcDbEntity
  8
0
100
AcDbLine
 10
77.63030578486376
 20
292.7929934567794
 30
0.0
 11
77.63030578486376
 21
284.7929934567794
 31
0.0
  0
ARC
  5
1F9D
330
2
100
AcDbEntity
  8
0
100
AcDbCircle
 10
81.03030578486373
 20
288.7929934567794
 30
0.0
 40
6.5
100
AcDbArc
 50
146.9443049999971
 51
213.0556950000028
  0
LINE
  5
1F9E
330
2
100
AcDbEntity
  8
0
100
AcDbLine
 10
77.63030578486376
 20
284.7929934567794
 30
0.0
 11
76.42050478486368
 21
284.7929934567794
 31
0.0
  0
ARC
  5
1F9F
330
2
100
AcDbEntity
  8
0
100
AcDbCircle
 10
76.42050478486368
 20
285.7929934567794
 30
0.0
 40
1.0
100
AcDbArc
 50
213.0556950000028
 51
270.0
  0
ARC
  5
1FA0
330
2
100
AcDbEntity
  8
0
100
AcDbCircle
 10
79.63030578486376
 20
284.7929934567794
 30
0.0
 40
1.0
100
AcDbArc
 50
180.0
 51
270.0
  0
LINE
  5
1FA1
330
2
100
AcDbEntity
  8
0
100
AcDbLine
 10
78.63030578486377
 20
284.9928834567794
 30
0.0
 11
77.63030578486376
 21
284.9928834567794
 31
0.0
  0
LINE
  5
1FA2
330
2
100
AcDbEntity
  8
0
100
AcDbLine
 10
77.63030578486376
 20
292.7929934567794
 30
0.0
 11
76.42050478486368
 21
292.7929934567794
 31
0.0
  0
ARC
  5
1FA3
330
2
100
AcDbEntity
  8
0
100
AcDbCircle
 10
76.42050478486368
 20
291.7929934567794
 30
0.0
 40
1.0
100
AcDbArc
 50
90.0
 51
146.9443049999971
  0
LINE
  5
1FA4
330
2
100
AcDbEntity
  8
0
100
AcDbLine
 10
77.63030578486376
 20
292.5928814567794
 30
0.0
 11
78.63030578486377
 21
292.5928814567794
 31
0.0
  0
LINE
  5
1FA5
330
2
100
AcDbEntity
  8
0
100
AcDbLine
 10
82.63030578486377
 20
314.2929855024603
 30
0.0
 11
93.75568522410111
 21
314.29298550246
 31
0.0
  0
LINE
  5
1FA6
330
2
100
AcDbEntity
  8
0
100
AcDbLine
 10
82.63030578486388
 20
305.8929855024602
 30
0.0
 11
93.45326179605701
 21
305.8929855024602
 31
0.0
  0
LINE
  5
1FA7
330
2
100
AcDbEntity
  8
0
100
AcDbLine
 10
82.63030578486388
 20
307.8929855024602
 30
0.0
 11
93.3590022025972
 21
307.8929855024602
 31
0.0
  0
LINE
  5
1FA8
330
2
100
AcDbEntity
  8
0
100
AcDbLine
 10
80.83030578486392
 20
310.9929855024602
 30
0.0
 11
91.55900220259724
 21
310.9929855024602
 31
0.0
  0
LINE
  5
1FA9
330
2
100
AcDbEntity
  8
0
100
AcDbLine
 10
80.83030578486392
 20
308.9929855024602
 30
0.0
 11
91.65326179605704
 21
308.9929855024602
 31
0.0
  0
ARC
  5
1FAB
330
2
100
AcDbEntity
  8
0
100
AcDbCircle
 10
82.63030578486388
 20
308.2929855024602
 30
0.0
 40
3.25
100
AcDbArc
 50
176.1778378686729
 51
249.4781325999769
  0
ARC
  5
1FAC
330
2
100
AcDbEntity
  8
0
100
AcDbCircle
 10
82.63030578486388
 20
306.8929855024602
 30
0.0
 40
1.0
100
AcDbArc
 50
90.0
 51
270.0
  0
LINE
  5
1FAD
330
2
100
AcDbEntity
  8
0
100
AcDbLine
 10
82.63030578486388
 20
301.7929855024603
 30
0.0
 11
78.13030578486388
 21
301.7144377102833
 31
0.0
  0
LINE
  5
1FAE
330
2
100
AcDbEntity
  8
0
100
AcDbLine
 10
81.13030578486377
 20
301.7668028137062
 30
0.0
 11
81.13030578486377
 21
293.7929854110986
 31
0.0
  0
LINE
  5
1FAF
330
2
100
AcDbEntity
  8
0
100
AcDbLine
 10
81.13030578486377
 20
293.7929854567794
 30
0.0
 11
77.13030578486331
 21
293.7929854567794
 31
0.0
  0
LINE
  5
1FB0
330
2
100
AcDbEntity
  8
0
100
AcDbLine
 10
81.13030578486377
 20
293.7929854110986
 30
0.0
 11
78.13030578486399
 21
293.7929854110986
 31
0.0
  0
ARC
  5
1FB1
330
2
100
AcDbEntity
  8
0
100
AcDbCircle
 10
78.13030578486376
 20
294.7929854110986
 30
0.0
 40
1.0
100
AcDbArc
 50
180.0
 51
270.0
  0
LINE
  5
1FB2
330
2
100
AcDbEntity
  8
0
100
AcDbLine
 10
82.63030578486388
 20
301.7929855024603
 30
0.0
 11
87.16520528156667
 21
301.9513476824528
 31
0.0
  0
LINE
  5
1FB3
330
2
100
AcDbEntity
  8
0
100
AcDbLine
 10
82.63030578486388
 20
304.8929855024602
 30
0.0
 11
82.63030578486388
 21
301.7929855024603
 31
0.0
  0
ARC
  5
1FB4
330
2
100
AcDbEntity
  8
0
100
AcDbCircle
 10
82.63030578486388
 20
306.8929855024602
 30
0.0
 40
2.0
100
AcDbArc
 50
235.27293129542
 51
304.7270687045799
  0
ARC
  5
1FB5
330
2
100
AcDbEntity
  8
0
100
AcDbCircle
 10
82.63030578486388
 20
308.2929855024602
 30
0.0
 40
3.25
100
AcDbArc
 50
290.521867400023
 51
312.3994733644467
  0
ARC
  5
1FB6
330
2
100
AcDbEntity
  8
0
100
AcDbCircle
 10
87.13030578486387
 20
302.9507385094719
 30
0.0
 40
1.0
100
AcDbArc
 50
272.0000000000035
 51
0.0
  0
LINE
  5
1FB7
330
2
100
AcDbEntity
  8
0
100
AcDbLine
 10
88.13030578486399
 20
305.8929855024601
 30
0.0
 11
88.13030578486388
 21
302.950738509472
 31
0.0
  0
LINE
  5
1FB8
330
2
100
AcDbEntity
  8
0
100
AcDbLine
 10
80.83030578486471
 20
311.9929855024602
 30
0.0
 11
84.43030578486281
 21
311.9929855024602
 31
0.0
  0
LINE
  5
1FB9
330
2
100
AcDbEntity
  8
0
100
AcDbLine
 10
79.01196792933802
 20
309.1601305071808
 30
0.0
 11
79.38753456888964
 21
308.5096300058495
 31
0.0
  0
ARC
  5
1FBA
330
2
100
AcDbEntity
  8
0
100
AcDbCircle
 10
80.83030578486392
 20
309.9929855024602
 30
0.0
 40
1.0
100
AcDbArc
 50
90.0
 51
270.0
  0
ARC
  5
1FBB
330
2
100
AcDbEntity
  8
0
100
AcDbCircle
 10
80.83030578486392
 20
309.9929855024602
 30
0.0
 40
2.0
100
AcDbArc
 50
89.99999999997395
 51
204.6092450239451
  0
LINE
  5
1FBC
330
2
100
AcDbEntity
  8
0
100
AcDbLine
 10
89.13030578486388
 20
310.9929855024601
 30
0.0
 11
89.13030578486399
 21
314.29298550246
 31
0.0
  0
LINE
  5
1FBD
330
2
100
AcDbEntity
  8
0
100
AcDbLine
 10
88.13030578486296
 20
314.2929855024602
 30
0.0
 11
88.13030578486399
 21
310.9929855024602
 31
0.0
  0
LINE
  5
1FBE
330
2
100
AcDbEntity
  8
0
100
AcDbLine
 10
82.63030578486377
 20
314.2929855024603
 30
0.0
 11
82.63030578486377
 21
311.9929855024603
 31
0.0
  0
ARC
  5
1FBF
330
2
100
AcDbEntity
  8
0
100
AcDbCircle
 10
84.43030578486384
 20
309.9929855024602
 30
0.0
 40
2.0
100
AcDbArc
 50
30.00000000000054
 51
90.00000000002605
  0
LINE
  5
1FC0
330
2
100
AcDbEntity
  8
0
100
AcDbLine
 10
89.13030578486365
 20
308.9929855024603
 30
0.0
 11
89.13030578486376
 21
307.8929855024602
 31
0.0
  0
LINE
  5
1FC1
330
2
100
AcDbEntity
  8
0
100
AcDbLine
 10
88.13030578486388
 20
308.9929855024601
 30
0.0
 11
88.13030578486399
 21
307.8929855024602
 31
0.0
  0
LINE
  5
1FC2
330
2
100
AcDbEntity
  8
0
100
AcDbLine
 10
86.15214242692042
 20
308.9929855024602
 30
0.0
 11
85.87307700083812
 21
308.5096300058495
 31
0.0
  0
LINE
  5
1FC3
330
2
100
AcDbEntity
  8
0
100
AcDbLine
 10
86.15214242692042
 20
308.9929855024602
 30
0.0
 11
85.87307700083812
 21
308.5096300058495
 31
0.0
  0
ARC
  5
1FC4
330
2
100
AcDbEntity
  8
0
100
AcDbCircle
 10
82.63030578486388
 20
308.2929855024602
 30
0.0
 40
3.25
100
AcDbArc
 50
352.930285957695
 51
3.822162131327067
  0
SPLINE
  5
1FC5
330
2
100
AcDbEntity
  8
HOJO
100
AcDbSpline
210
0.0
220
0.0
230
1.0
 70
     8
 71
     3
 72
    10
 73
     6
 74
     4
 42
0.0000000001
 43
0.0000000001
 44
0.0000000001
 40
0.0
 40
0.0
 40
0.0
 40
0.0
 40
0.6971907634055975
 40
1.694952319108369
 40
2.335350738679098
 40
2.335350738679098
 40
2.335350738679098
 40
2.335350738679098
 10
93.45326179605701
 20
305.8929855024602
 30
0.0
 10
93.62047593816521
 20
306.1139705145839
 30
0.0
 10
94.02699308215259
 20
306.6512109349212
 30
0.0
 10
92.85068397136935
 20
307.1616579805941
 30
0.0
 10
93.21613722592868
 20
307.6874428267705
 30
0.0
 10
93.3590022025972
 20
307.8929855024602
 30
0.0
 11
93.45326179605701
 21
305.8929855024602
 31
0.0
 11
93.74167424518629
 21
306.5277242044198
 31
0.0
 11
93.11235637769351
 21
307.3019897555667
 31
0.0
 11
93.3590022025972
 21
307.8929855024602
 31
0.0
  0
SPLINE
  5
1FC6
330
2
100
AcDbEntity
  8
HOJO
100
AcDbSpline
210
0.0
220
0.0
230
1.0
 70
     8
 71
     3
 72
    10
 73
     6
 74
     4
 42
0.0000000001
 43
0.0000000001
 44
0.0000000001
 40
0.0
 40
0.0
 40
0.0
 40
0.0
 40
0.697190763405494
 40
1.694952319108353
 40
2.335350738679082
 40
2.335350738679082
 40
2.335350738679082
 40
2.335350738679082
 10
91.65326179605704
 20
308.9929855024602
 30
0.0
 10
91.82047593816523
 20
309.2139705145839
 30
0.0
 10
92.22699308215265
 20
309.7512109349212
 30
0.0
 10
91.05068397136941
 20
310.2616579805941
 30
0.0
 10
91.41613722592872
 20
310.7874428267705
 30
0.0
 10
91.55900220259724
 20
310.9929855024602
 30
0.0
 11
91.65326179605704
 21
308.9929855024602
 31
0.0
 11
91.94167424518633
 21
309.6277242044197
 31
0.0
 11
91.31235637769355
 21
310.4019897555667
 31
0.0
 11
91.55900220259724
 21
310.9929855024602
 31
0.0
  0
LINE
  5
1FC7
330
2
100
AcDbEntity
  8
0
100
AcDbLine
 10
77.13030578486365
 20
340.7929774567796
 30
0.0
 11
77.13030578486376
 21
357.0290534342792
 31
0.0
  0
LINE
  5
1FC8
330
2
100
AcDbEntity
  8
0
100
AcDbLine
 10
89.13030578486376
 20
320.2929855024603
 30
0.0
 11
89.13030578486376
 21
357.7929854567794
 31
0.0
  0
LINE
  5
1FC9
330
2
100
AcDbEntity
  8
0
100
AcDbLine
 10
82.63030578486377
 20
320.2929855024603
 30
0.0
 11
93.67789488024021
 21
320.2929855024603
 31
0.0
  0
LINE
  5
1FCA
330
2
100
AcDbEntity
  8
0
100
AcDbLine
 10
78.63030578486365
 20
340.7929774567796
 30
0.0
 11
78.63030578486365
 21
331.7929854567793
 31
0.0
  0
LINE
  5
1FCB
330
2
100
AcDbEntity
  8
0
100
AcDbLine
 10
82.63030578486377
 20
323.7929855024603
 30
0.0
 11
78.13030578486376
 21
323.8715332946372
 31
0.0
  0
LINE
  5
1FCC
330
2
100
AcDbEntity
  8
0
100
AcDbLine
 10
81.13030578486377
 20
323.8191680084909
 30
0.0
 11
81.13030578486377
 21
331.7929854110986
 31
0.0
  0
LINE
  5
1FCD
330
2
100
AcDbEntity
  8
0
100
AcDbLine
 10
81.13030578486377
 20
331.7929854567795
 30
0.0
 11
77.13030578486343
 21
331.7929854567793
 31
0.0
  0
ARC
  5
1FCE
330
2
100
AcDbEntity
  8
0
100
AcDbCircle
 10
78.13030578486376
 20
330.7929854110986
 30
0.0
 40
1.0
100
AcDbArc
 50
90.0
 51
180.0
  0
LINE
  5
1FCF
330
2
100
AcDbEntity
  8
0
100
AcDbLine
 10
81.13030578486377
 20
331.7929854110986
 30
0.0
 11
78.13030578486376
 21
331.7929854110986
 31
0.0
  0
LINE
  5
1FD0
330
2
100
AcDbEntity
  8
0
100
AcDbLine
 10
82.63081452979662
 20
323.7929766222844
 30
0.0
 11
87.16520528156634
 21
323.6346322080564
 31
0.0
  0
LINE
  5
1FD1
330
2
100
AcDbEntity
  8
0
100
AcDbLine
 10
82.63030578486377
 20
323.7929855024603
 30
0.0
 11
82.63030578486377
 21
320.2929855024603
 31
0.0
  0
LINE
  5
1FD2
330
2
100
AcDbEntity
  8
0
100
AcDbLine
 10
88.13030578486376
 20
322.6352413810372
 30
0.0
 11
88.1303057848641
 21
320.2929855024603
 31
0.0
  0
ARC
  5
1FD3
330
2
100
AcDbEntity
  8
0
100
AcDbCircle
 10
87.13030578486376
 20
322.6352413810372
 30
0.0
 40
1.0
100
AcDbArc
 50
0.0
 51
87.9999999999964
  0
LINE
  5
1FD4
330
2
100
AcDbEntity
  8
0
100
AcDbLine
 10
79.63030578486365
 20
341.7929774567796
 30
0.0
 11
89.13030578486365
 21
341.7929774567796
 31
0.0
  0
ARC
  5
1FD5
330
2
100
AcDbEntity
  8
0
100
AcDbCircle
 10
81.03030578486363
 20
336.7929774567796
 30
0.0
 40
6.5
100
AcDbArc
 50
146.9443049999971
 51
213.0556950000028
  0
LINE
  5
1FD6
330
2
100
AcDbEntity
  8
0
100
AcDbLine
 10
77.63030578486365
 20
332.7929774567796
 30
0.0
 11
77.63030578486365
 21
340.7929774567796
 31
0.0
  0
LINE
  5
1FD7
330
2
100
AcDbEntity
  8
0
100
AcDbLine
 10
77.63030578486365
 20
332.7929774567796
 30
0.0
 11
76.42050478486357
 21
332.7929774567796
 31
0.0
  0
ARC
  5
1FD8
330
2
100
AcDbEntity
  8
0
100
AcDbCircle
 10
76.42050478486357
 20
333.7929774567796
 30
0.0
 40
1.0
100
AcDbArc
 50
213.0556950000028
 51
270.0
  0
LINE
  5
1FD9
330
2
100
AcDbEntity
  8
0
100
AcDbLine
 10
77.63030578486365
 20
332.9930894567796
 30
0.0
 11
78.63030578486365
 21
332.9930894567796
 31
0.0
  0
LINE
  5
1FDA
330
2
100
AcDbEntity
  8
0
100
AcDbLine
 10
77.63030578486365
 20
340.7929774567796
 30
0.0
 11
76.42050478486357
 21
340.7929774567796
 31
0.0
  0
ARC
  5
1FDB
330
2
100
AcDbEntity
  8
0
100
AcDbCircle
 10
76.42050478486357
 20
339.7929774567796
 30
0.0
 40
1.0
100
AcDbArc
 50
90.0
 51
146.9443049999971
  0
LINE
  5
1FDC
330
2
100
AcDbEntity
  8
0
100
AcDbLine
 10
78.63030578486365
 20
340.5930874567796
 30
0.0
 11
77.63030578486365
 21
340.5930874567796
 31
0.0
  0
ARC
  5
1FDD
330
2
100
AcDbEntity
  8
0
100
AcDbCircle
 10
79.63030578486365
 20
340.7929774567796
 30
0.0
 40
1.0
100
AcDbArc
 50
90.0
 51
180.0
  0
LINE
  5
1FDE
330
2
100
AcDbEntity
  8
0
100
AcDbLine
 10
79.13030578486388
 20
357.7929854567794
 30
0.0
 11
89.13030578486376
 21
357.7929854567794
 31
0.0
  0
ARC
  5
1FDF
330
2
100
AcDbEntity
  8
0
100
AcDbCircle
 10
79.13030578486388
 20
354.7929854567795
 30
0.0
 40
3.0
100
AcDbArc
 50
90.0
 51
131.8103148957842
  0
LINE
  5
2B41
330
2
100
AcDbEntity
  8
0
100
AcDbLine
 10
65.13030578486279
 20
331.9884424417266
 30
0.0
 11
65.13030578486279
 21
358.7092960870256
 31
0.0
  0
LINE
  5
2B42
330
2
100
AcDbEntity
  8
0
100
AcDbLine
 10
66.1303057848628
 20
332.9884424417266
 30
0.0
 11
66.1303057848628
 21
357.6382253021185
 31
0.0
  0
LINE
  5
2B43
330
2
100
AcDbEntity
  8
0
100
AcDbLine
 10
64.1303057848628
 20
332.9884424417266
 30
0.0
 11
64.1303057848628
 21
358.7285153385846
 31
0.0
  0
ARC
  5
2C22
330
2
100
AcDbEntity
  8
0
100
AcDbCircle
 10
65.13030578486279
 20
332.9884424417266
 30
0.0
 40
1.000000000000056
100
AcDbArc
 50
180.0
 51
0.0
  0
SPLINE
  5
2CEA
330
2
100
AcDbEntity
  8
HOJO
100
AcDbSpline
210
0.0
220
0.0
230
1.0
 70
     8
 71
     3
 72
    10
 73
     6
 74
     0
 42
0.0000000001
 43
0.0000000001
 40
0.0613843116224887
 40
0.0613843116224887
 40
0.0613843116224887
 40
0.0613843116224887
 40
0.4721425064489786
 40
1.037679944361044
 40
1.199019778825058
 40
1.199019778825058
 40
1.199019778825058
 40
1.199019778825058
 10
66.1303057848628
 20
357.6382253021185
 30
0.0
 10
66.0157614558733
 20
357.5037206251816
 30
0.0
 10
65.74828581792178
 20
357.2278200509056
 30
0.0
 10
65.53832511022085
 20
357.8392075300332
 30
0.0
 10
65.20161313626079
 20
357.6990319149538
 30
0.0
 10
65.13030578486553
 20
357.6574445536791
 30
0.0
  0
SPLINE
  5
2CEB
330
2
100
AcDbEntity
  8
HOJO
100
AcDbSpline
210
0.0
220
0.0
230
1.0
 70
     8
 71
     3
 72
    10
 73
     6
 74
     0
 42
0.0000000001
 43
0.0000000001
 40
0.0613843116224887
 40
0.0613843116224887
 40
0.0613843116224887
 40
0.0613843116224887
 40
0.4721425064489786
 40
1.037679944361044
 40
1.199019778825058
 40
1.199019778825058
 40
1.199019778825058
 40
1.199019778825058
 10
65.13030578486279
 20
358.7092960870256
 30
0.0
 10
65.0157614558733
 20
358.5747914100886
 30
0.0
 10
64.74828581792178
 20
358.2988908358125
 30
0.0
 10
64.53832511022085
 20
358.9102783149403
 30
0.0
 10
64.20161313626079
 20
358.7701026998606
 30
0.0
 10
64.13030578486552
 20
358.7285153385862
 30
0.0
  0
LINE
  5
2CEE
330
2
100
AcDbEntity
  8
0
100
AcDbLine
 10
64.1303057848628
 20
353.1751726686442
 30
0.0
 11
37.10412617836778
 21
352.9393187723291
 31
0.0
  0
ENDSEC
  0
SECTION
  2
OBJECTS
  0
DICTIONARY
  5
7
330
0
100
AcDbDictionary
  3
ACAD_GROUP
350
75
  3
ACAD_LAYOUT
350
61
  3
ACAD_MLINESTYLE
350
76
  3
ACAD_PLOTSETTINGS
350
77
  3
ACAD_PLOTSTYLENAME
350
6
  3
ACADDIM
350
480
  3
ACDBHEADERROUNDTRIPXREC
350
2D35
  3
ACDBVARIABLEDICTIONARY
350
102
  3
DWGPROPS
350
3D2
  0
DICTIONARY
  5
2D56
330
2
100
AcDbDictionary
280
     1
  3
ACAD_LAYOUTSELFREF
360
2D57
  0
DICTIONARY
  5
2D58
330
2D2F
100
AcDbDictionary
280
     1
  3
ACAD_LAYOUTSELFREF
360
2D59
  0
DICTIONARY
  5
75
102
{ACAD_REACTORS
330
7
102
}
330
7
100
AcDbDictionary
  0
DICTIONARY
  5
61
102
{ACAD_REACTORS
330
7
102
}
330
7
100
AcDbDictionary
  0
DICTIONARY
  5
76
102
{ACAD_REACTORS
330
7
102
}
330
7
100
AcDbDictionary
  3
STANDARD
350
78
  0
DICTIONARY
  5
77
102
{ACAD_REACTORS
330
7
102
}
330
7
100
AcDbDictionary
  0
ACDBDICTIONARYWDFLT
  5
6
102
{ACAD_REACTORS
330
7
102
}
330
7
100
AcDbDictionary
281
     1
  3
Normal
350
5
100
AcDbDictionaryWithDefault
340
5
  0
XRECORD
  5
480
102
{ACAD_REACTORS
330
7
102
}
330
7
100
AcDbXrecord
 90
   990106
  3

 60
     0
 61
     0
 62
     1
 63
     3
 64
     1
 65
     0
 66
     0
 67
     3
 68
     1
 69
     0
 70
     0
 71
     0
 72
     0
 40
0.0
170
     2
340
0
  0
DICTIONARY
  5
2D35
102
{ACAD_REACTORS
330
7
102
}
330
7
100
AcDbDictionary
  3
CEPSNTYPE
350
2D3F
  3
DIMSTYLEDATA
350
2D43
  3
FINGERPRINTGUID
350
2D40
  3
HYPERLINKBASE
350
2D38
  3
INSUNITS
350
2D3E
  3
LAYOUTDICT
350
2D3A
  3
LWETCUNION
350
2D3D
  3
PLOTSETDICT
350
2D3B
  3
PLOTSTYLNAMDICT
350
2D3C
  3
PSVPSCALE
350
2D42
  3
PUCSBASE
350
2D46
  3
PUCSORGBACK
350
2D4C
  3
PUCSORGBOTTOM
350
2D48
  3
PUCSORGFRONT
350
2D4B
  3
PUCSORGLEFT
350
2D49
  3
PUCSORGRIGHT
350
2D4A
  3
PUCSORGTOP
350
2D47
  3
PUCSORTHOREF
350
2D44
  3
PUCSORTHOVIEW
350
2D45
  3
STYLESHEET
350
2D39
  3
TSTACKALIGN
350
2D36
  3
TSTACKSIZE
350
2D37
  3
UCSBASE
350
2D4F
  3
UCSORGBACK
350
2D55
  3
UCSORGBOTTOM
350
2D51
  3
UCSORGFRONT
350
2D54
  3
UCSORGLEFT
350
2D52
  3
UCSORGRIGHT
350
2D53
  3
UCSORGTOP
350
2D50
  3
UCSORTHOREF
350
2D4D
  3
UCSORTHOVIEW
350
2D4E
  3
VERSIONGUID
350
2D41
  0
DICTIONARY
  5
102
102
{ACAD_REACTORS
330
7
102
}
330
7
100
AcDbDictionary
  3
DIMASSOC
350
103
  0
XRECORD
  5
3D2
102
{ACAD_REACTORS
330
7
102
}
330
7
100
AcDbXrecord
  1
DWGPROPS COOKIE
  2

  3

  4

  6

  7

  8

  9

300
=
301
=
302
=
303
=
304
=
305
=
306
=
307
=
308
=
309
=
 40
0.5353330671296296
 41
2452052.431989363
 42
2453406.550756377
  1

 90
        0
  0
XRECORD
  5
2D57
102
{ACAD_REACTORS
330
2D56
102
}
330
2D56
100
AcDbXrecord
340
2
  0
XRECORD
  5
2D59
102
{ACAD_REACTORS
330
2D58
102
}
330
2D58
100
AcDbXrecord
340
2D2F
  0
MLINESTYLE
  5
78
102
{ACAD_REACTORS
330
76
102
}
330
76
100
AcDbMlineStyle
  2
STANDARD
 70
     0
  3

 62
     0
 51
90.0
 52
90.0
 71
     2
 49
0.5
 62
   256
  6
BYLAYER
 49
-0.5
 62
   256
  6
BYLAYER
  0
ACDBPLACEHOLDER
  5
5
102
{ACAD_REACTORS
330
6
102
}
330
6
100
AcDbPlaceHolder
280
     0
  0
XRECORD
  5
2D3F
102
{ACAD_REACTORS
330
2D35
102
}
330
2D35
100
AcDbXrecord
 90
        0
  0
XRECORD
  5
2D43
102
{ACAD_REACTORS
330
2D35
102
}
330
2D35
100
AcDbXrecord
1000
DSTYLE
1002
{
1070
   179
 70
     2
1070
   277
 70
     6
1002
}
  0
XRECORD
  5
2D40
102
{ACAD_REACTORS
330
2D35
102
}
330
2D35
100
AcDbXrecord
  1
{6385560B-F4B1-4644-A7C2-A3E32AC3D232}
  0
XRECORD
  5
2D38
102
{ACAD_REACTORS
330
2D35
102
}
330
2D35
100
AcDbXrecord
  1

  0
XRECORD
  5
2D3E
102
{ACAD_REACTORS
330
2D35
102
}
330
2D35
100
AcDbXrecord
 90
        0
  0
XRECORD
  5
2D3A
102
{ACAD_REACTORS
330
2D35
102
}
330
2D35
100
AcDbXrecord
340
61
  0
XRECORD
  5
2D3D
102
{ACAD_REACTORS
330
2D35
102
}
330
2D35
100
AcDbXrecord
 90
    10781
  0
XRECORD
  5
2D3B
102
{ACAD_REACTORS
330
2D35
102
}
330
2D35
100
AcDbXrecord
340
77
  0
XRECORD
  5
2D3C
102
{ACAD_REACTORS
330
2D35
102
}
330
2D35
100
AcDbXrecord
340
6
  0
XRECORD
  5
2D42
102
{ACAD_REACTORS
330
2D35
102
}
330
2D35
100
AcDbXrecord
 40
0.0
  0
XRECORD
  5
2D46
102
{ACAD_REACTORS
330
2D35
102
}
330
2D35
100
AcDbXrecord
340
0
  0
XRECORD
  5
2D4C
102
{ACAD_REACTORS
330
2D35
102
}
330
2D35
100
AcDbXrecord
 10
0.0
 20
0.0
 30
0.0
  0
XRECORD
  5
2D48
102
{ACAD_REACTORS
330
2D35
102
}
330
2D35
100
AcDbXrecord
 10
0.0
 20
0.0
 30
0.0
  0
XRECORD
  5
2D4B
102
{ACAD_REACTORS
330
2D35
102
}
330
2D35
100
AcDbXrecord
 10
0.0
 20
0.0
 30
0.0
  0
XRECORD
  5
2D49
102
{ACAD_REACTORS
330
2D35
102
}
330
2D35
100
AcDbXrecord
 10
0.0
 20
0.0
 30
0.0
  0
XRECORD
  5
2D4A
102
{ACAD_REACTORS
330
2D35
102
}
330
2D35
100
AcDbXrecord
 10
0.0
 20
0.0
 30
0.0
  0
XRECORD
  5
2D47
102
{ACAD_REACTORS
330
2D35
102
}
330
2D35
100
AcDbXrecord
 10
0.0
 20
0.0
 30
0.0
  0
XRECORD
  5
2D44
102
{ACAD_REACTORS
330
2D35
102
}
330
2D35
100
AcDbXrecord
340
0
  0
XRECORD
  5
2D45
102
{ACAD_REACTORS
330
2D35
102
}
330
2D35
100
AcDbXrecord
 70
     0
  0
XRECORD
  5
2D39
102
{ACAD_REACTORS
330
2D35
102
}
330
2D35
100
AcDbXrecord
  1
Sekkei.ctb
  0
XRECORD
  5
2D36
102
{ACAD_REACTORS
330
2D35
102
}
330
2D35
100
AcDbXrecord
 90
        1
  0
XRECORD
  5
2D37
102
{ACAD_REACTORS
330
2D35
102
}
330
2D35
100
AcDbXrecord
 90
       70
  0
XRECORD
  5
2D4F
102
{ACAD_REACTORS
330
2D35
102
}
330
2D35
100
AcDbXrecord
340
0
  0
XRECORD
  5
2D55
102
{ACAD_REACTORS
330
2D35
102
}
330
2D35
100
AcDbXrecord
 10
0.0
 20
0.0
 30
0.0
  0
XRECORD
  5
2D51
102
{ACAD_REACTORS
330
2D35
102
}
330
2D35
100
AcDbXrecord
 10
0.0
 20
0.0
 30
0.0
  0
XRECORD
  5
2D54
102
{ACAD_REACTORS
330
2D35
102
}
330
2D35
100
AcDbXrecord
 10
0.0
 20
0.0
 30
0.0
  0
XRECORD
  5
2D52
102
{ACAD_REACTORS
330
2D35
102
}
330
2D35
100
AcDbXrecord
 10
0.0
 20
0.0
 30
0.0
  0
XRECORD
  5
2D53
102
{ACAD_REACTORS
330
2D35
102
}
330
2D35
100
AcDbXrecord
 10
0.0
 20
0.0
 30
0.0
  0
XRECORD
  5
2D50
102
{ACAD_REACTORS
330
2D35
102
}
330
2D35
100
AcDbXrecord
 10
0.0
 20
0.0
 30
0.0
  0
XRECORD
  5
2D4D
102
{ACAD_REACTORS
330
2D35
102
}
330
2D35
100
AcDbXrecord
340
0
  0
XRECORD
  5
2D4E
102
{ACAD_REACTORS
330
2D35
102
}
330
2D35
100
AcDbXrecord
 70
     0
  0
XRECORD
  5
2D41
102
{ACAD_REACTORS
330
2D35
102
}
330
2D35
100
AcDbXrecord
  1
{F75FB234-6CCB-47C5-9A52-0A3B0AEEF351}
  0
DICTIONARYVAR
  5
103
102
{ACAD_REACTORS
330
102
102
}
330
102
100
DictionaryVariables
280
     0
  1
1
  0
ENDSEC
  0
EOF
