  0
SECTION
  2
HEADER
  9
$ACADVER
  1
AC1014
  9
$ACADMAINTVER
 70
     9
  9
$DWGCODEPAGE
  3
ANSI_932
  9
$INSBASE
 10
0.0
 20
0.0
 30
0.0
  9
$EXTMIN
 10
19.49340346150825
 20
12.26572388252456
 30
0.0
  9
$EXTMAX
 10
350.6645100541185
 20
354.720670332564
 30
0.0
  9
$LIMMIN
 10
0.0
 20
0.0
  9
$LIMMAX
 10
297.0
 20
210.0
  9
$ORTHOMODE
 70
     1
  9
$REGENMODE
 70
     1
  9
$FILLMODE
 70
     1
  9
$QTEXTMODE
 70
     0
  9
$MIRRTEXT
 70
     0
  9
$DRAGMODE
 70
     2
  9
$LTSCALE
 40
2.0
  9
$OSMODE
 70
    37
  9
$ATTMODE
 70
     1
  9
$TEXTSIZE
 40
6.0
  9
$TRACEWID
 40
1.0
  9
$TEXTSTYLE
  7
STANDARD
  9
$CLAYER
  8
0
  9
$CELTYPE
  6
BYLAYER
  9
$CECOLOR
 62
   256
  9
$CELTSCALE
 40
1.0
  9
$DELOBJ
 70
     1
  9
$DISPSILH
 70
     0
  9
$DIMSCALE
 40
2.0
  9
$DIMASZ
 40
1.8
  9
$DIMEXO
 40
0.625
  9
$DIMDLI
 40
3.75
  9
$DIMRND
 40
0.0
  9
$DIMDLE
 40
0.0
  9
$DIMEXE
 40
0.8
  9
$DIMTP
 40
0.0
  9
$DIMTM
 40
0.0
  9
$DIMTXT
 40
1.8
  9
$DIMCEN
 40
2.5
  9
$DIMTSZ
 40
0.0
  9
$DIMTOL
 70
     0
  9
$DIMLIM
 70
     0
  9
$DIMTIH
 70
     0
  9
$DIMTOH
 70
     0
  9
$DIMSE1
 70
     0
  9
$DIMSE2
 70
     0
  9
$DIMTAD
 70
     1
  9
$DIMZIN
 70
     8
  9
$DIMBLK
  1

  9
$DIMASO
 70
     1
  9
$DIMSHO
 70
     1
  9
$DIMPOST
  1

  9
$DIMAPOST
  1

  9
$DIMALT
 70
     0
  9
$DIMALTD
 70
     4
  9
$DIMALTF
 40
0.0394
  9
$DIMLFAC
 40
1.0
  9
$DIMTOFL
 70
     1
  9
$DIMTVP
 40
0.0
  9
$DIMTIX
 70
     0
  9
$DIMSOXD
 70
     0
  9
$DIMSAH
 70
     0
  9
$DIMBLK1
  1

  9
$DIMBLK2
  1

  9
$DIMSTYLE
  2
STANDARD
  9
$DIMCLRD
 70
     0
  9
$DIMCLRE
 70
     0
  9
$DIMCLRT
 70
     0
  9
$DIMTFAC
 40
1.0
  9
$DIMGAP
 40
0.75
  9
$DIMJUST
 70
     0
  9
$DIMSD1
 70
     0
  9
$DIMSD2
 70
     0
  9
$DIMTOLJ
 70
     1
  9
$DIMTZIN
 70
     0
  9
$DIMALTZ
 70
     0
  9
$DIMALTTZ
 70
     0
  9
$DIMFIT
 70
     3
  9
$DIMUPT
 70
     0
  9
$DIMUNIT
 70
     8
  9
$DIMDEC
 70
     2
  9
$DIMTDEC
 70
     2
  9
$DIMALTU
 70
     8
  9
$DIMALTTD
 70
     4
  9
$DIMTXSTY
  7
STANDARD
  9
$DIMAUNIT
 70
     0
  9
$LUNITS
 70
     2
  9
$LUPREC
 70
     3
  9
$SKETCHINC
 40
1.0
  9
$FILLETRAD
 40
10.0
  9
$AUNITS
 70
     0
  9
$AUPREC
 70
     2
  9
$MENU
  1
.
  9
$ELEVATION
 40
0.0
  9
$PELEVATION
 40
0.0
  9
$THICKNESS
 40
0.0
  9
$LIMCHECK
 70
     0
  9
$BLIPMODE
 70
     0
  9
$CHAMFERA
 40
0.0
  9
$CHAMFERB
 40
0.0
  9
$CHAMFERC
 40
20.0
  9
$CHAMFERD
 40
0.0
  9
$SKPOLY
 70
     0
  9
$TDCREATE
 40
2453692.657196180
  9
$TDUPDATE
 40
2453928.620009757
  9
$TDINDWG
 40
0.0678228125
  9
$TDUSRTIMER
 40
0.0678228125
  9
$USRTIMER
 70
     1
  9
$ANGBASE
 50
0.0
  9
$ANGDIR
 70
     0
  9
$PDMODE
 70
     0
  9
$PDSIZE
 40
-10.0
  9
$PLINEWID
 40
0.0
  9
$COORDS
 70
     0
  9
$SPLFRAME
 70
     0
  9
$SPLINETYPE
 70
     6
  9
$SPLINESEGS
 70
     8
  9
$ATTDIA
 70
     0
  9
$ATTREQ
 70
     1
  9
$HANDLING
 70
-16383
  9
$HANDSEED
  5
18A7
  9
$SURFTAB1
 70
     6
  9
$SURFTAB2
 70
     6
  9
$SURFTYPE
 70
     6
  9
$SURFU
 70
     6
  9
$SURFV
 70
     6
  9
$UCSNAME
  2

  9
$UCSORG
 10
0.0
 20
0.0
 30
0.0
  9
$UCSXDIR
 10
1.0
 20
0.0
 30
0.0
  9
$UCSYDIR
 10
0.0
 20
1.0
 30
0.0
  9
$PUCSNAME
  2

  9
$PUCSORG
 10
0.0
 20
0.0
 30
0.0
  9
$PUCSXDIR
 10
1.0
 20
0.0
 30
0.0
  9
$PUCSYDIR
 10
0.0
 20
1.0
 30
0.0
  9
$USERI1
 70
     0
  9
$USERI2
 70
     0
  9
$USERI3
 70
     0
  9
$USERI4
 70
     0
  9
$USERI5
 70
     0
  9
$USERR1
 40
0.0
  9
$USERR2
 40
0.0
  9
$USERR3
 40
0.0
  9
$USERR4
 40
0.0
  9
$USERR5
 40
0.0
  9
$WORLDVIEW
 70
     1
  9
$SHADEDGE
 70
     3
  9
$SHADEDIF
 70
    70
  9
$TILEMODE
 70
     1
  9
$MAXACTVP
 70
    48
  9
$PINSBASE
 10
0.0
 20
0.0
 30
0.0
  9
$PLIMCHECK
 70
     0
  9
$PEXTMIN
 10
0.0
 20
0.0
 30
0.0
  9
$PEXTMAX
 10
0.0
 20
0.0
 30
0.0
  9
$PLIMMIN
 10
0.0
 20
0.0
  9
$PLIMMAX
 10
12.0
 20
9.0
  9
$UNITMODE
 70
     0
  9
$VISRETAIN
 70
     1
  9
$PLINEGEN
 70
     0
  9
$PSLTSCALE
 70
     1
  9
$TREEDEPTH
 70
  3020
  9
$PICKSTYLE
 70
     1
  9
$CMLSTYLE
  2
STANDARD
  9
$CMLJUST
 70
     0
  9
$CMLSCALE
 40
1.0
  9
$PROXYGRAPHICS
 70
     1
  9
$MEASUREMENT
 70
     0
  0
ENDSEC
  0
SECTION
  2
CLASSES
  0
CLASS
  1
DICTIONARYVAR
  2
AcDbDictionaryVar
  3
AutoCAD 2000
 90
        0
280
     0
281
     0
  0
CLASS
  1
ACDBDICTIONARYWDFLT
  2
AcDbDictionaryWithDefault
  3
AutoCAD 2000
 90
        0
280
     0
281
     0
  0
CLASS
  1
ACDBPLACEHOLDER
  2
AcDbPlaceHolder
  3
AutoCAD 2000
 90
        0
280
     0
281
     0
  0
CLASS
  1
LAYOUT
  2
AcDbLayout
  3
AutoCAD 2000
 90
        0
280
     0
281
     0
  0
CLASS
  1
LONG_TRANSACTION
  2
AcDbLongTransaction
  3
AutoCAD 2000
 90
        0
280
     0
281
     0
  0
CLASS
  1
LWPOLYLINE
  2
AcDbPolyline
  3
AutoCAD 2000
 90
        0
280
     0
281
     1
  0
CLASS
  1
HATCH
  2
AcDbHatch
  3
AutoCAD 2000
 90
        0
280
     0
281
     1
  0
CLASS
  1
XRECORD
  2
AcDbXrecord
  3
AutoCAD 2000
 90
        0
280
     0
281
     0
  0
ENDSEC
  0
SECTION
  2
TABLES
  0
TABLE
  2
VPORT
  5
6E
330
0
100
AcDbSymbolTable
 70
     2
  0
VPORT
  5
1881
330
6E
100
AcDbSymbolTableRecord
100
AcDbViewportTableRecord
  2
*ACTIVE
 70
     0
 10
0.0
 20
0.0
 11
1.0
 21
1.0
 12
207.8836457127343
 22
183.4901144287542
 13
0.0
 23
0.0
 14
10.0
 24
10.0
 15
10.0
 25
10.0
 16
0.0
 26
0.0
 36
1.0
 17
0.0
 27
0.0
 37
0.0
 40
345.1514607524689
 41
1.566970091027308
 42
50.0
 43
0.0
 44
0.0
 50
0.0
 51
0.0
 71
     0
 72
   100
 73
     1
 74
     3
 75
     0
 76
     0
 77
     0
 78
     0
  0
ENDTAB
  0
TABLE
  2
LTYPE
  5
69
330
0
100
AcDbSymbolTable
 70
     4
  0
LTYPE
  5
6A
330
69
100
AcDbSymbolTableRecord
100
AcDbLinetypeTableRecord
  2
BYBLOCK
 70
     0
  3

 72
    65
 73
     0
 40
0.0
  0
LTYPE
  5
6B
330
69
100
AcDbSymbolTableRecord
100
AcDbLinetypeTableRecord
  2
BYLAYER
 70
     0
  3

 72
    65
 73
     0
 40
0.0
  0
LTYPE
  5
8
330
69
100
AcDbSymbolTableRecord
100
AcDbLinetypeTableRecord
  2
CONTINUOUS
 70
     0
  3
Solid line
 72
    65
 73
     0
 40
0.0
  0
LTYPE
  5
27C
330
69
100
AcDbSymbolTableRecord
100
AcDbLinetypeTableRecord
  2
SEKKEI_A2_
 70
     0
  3
center(A2)  ____ _ ____ _ ____ _ ____ _ ____ _ 
 72
    65
 73
     4
 40
14.28749999999999
 49
9.525
 74
     0
 49
-1.587499999999999
 74
     0
 49
1.587499999999999
 74
     0
 49
-1.587499999999999
 74
     0
  0
LTYPE
  5
2B4
330
69
100
AcDbSymbolTableRecord
100
AcDbLinetypeTableRecord
  2
HIDDEN2
 70
     0
  3
Hidden (.5x) _ _ _ _ _ _ _ _ _ _ _ _ _ _ _ _ _
 72
    65
 73
     2
 40
4.762499999999999
 49
3.174999999999999
 74
     0
 49
-1.587499999999999
 74
     0
  0
LTYPE
  5
48F
330
69
100
AcDbSymbolTableRecord
100
AcDbLinetypeTableRecord
  2
SEKKEI_H
 70
     0
  3
Hidden-S _ _ _ _ _ _ _ _ _ _ _ _ _ _ _ _ _
 72
    65
 73
     2
 40
2.381249999999999
 49
1.587499999999999
 74
     0
 49
-0.79375
 74
     0
  0
ENDTAB
  0
TABLE
  2
LAYER
  5
66
330
0
100
AcDbSymbolTable
 70
     9
  0
LAYER
  5
5E
330
66
100
AcDbSymbolTableRecord
100
AcDbLayerTableRecord
  2
0
 70
     0
 62
     7
  6
CONTINUOUS
  0
LAYER
  5
3E
330
66
100
AcDbSymbolTableRecord
100
AcDbLayerTableRecord
  2
CENTER
 70
     0
 62
     3
  6
SEKKEI_A2_
  0
LAYER
  5
2B5
330
66
100
AcDbSymbolTableRecord
100
AcDbLayerTableRecord
  2
HIDS
 70
     0
 62
     1
  6
HIDDEN2
  0
LAYER
  5
2BA
330
66
100
AcDbSymbolTableRecord
100
AcDbLayerTableRecord
  2
HOJO
 70
     0
 62
     4
  6
CONTINUOUS
  0
LAYER
  5
3FA
330
66
100
AcDbSymbolTableRecord
100
AcDbLayerTableRecord
  2
TITLE
 70
     0
 62
     4
  6
CONTINUOUS
  0
ENDTAB
  0
TABLE
  2
STYLE
  5
67
330
0
100
AcDbSymbolTable
 70
     1
  0
STYLE
  5
16
330
67
100
AcDbSymbolTableRecord
100
AcDbTextStyleTableRecord
  2
STANDARD
 70
     0
 40
0.0
 41
1.0
 50
0.0
 71
     0
 42
6.0
  3
simplex.shx
  4
extfont.shx
  0
ENDTAB
  0
TABLE
  2
VIEW
  5
6C
330
0
100
AcDbSymbolTable
 70
     0
  0
ENDTAB
  0
TABLE
  2
UCS
  5
6D
330
0
100
AcDbSymbolTable
 70
     0
  0
ENDTAB
  0
TABLE
  2
APPID
  5
70
330
0
100
AcDbSymbolTable
 70
     1
  0
APPID
  5
71
330
70
100
AcDbSymbolTableRecord
100
AcDbRegAppTableRecord
  2
ACAD
 70
     0
  0
ENDTAB
  0
TABLE
  2
DIMSTYLE
  5
72
330
0
100
AcDbSymbolTable
 70
     1
  0
DIMSTYLE
105
73
102
{ACAD_REACTORS
330
F1E
102
}
330
72
100
AcDbSymbolTableRecord
100
AcDbDimStyleTableRecord
  2
STANDARD
 70
     0
  3

  4

  5

  6

  7

 40
2.0
 41
1.8
 42
0.625
 43
3.75
 44
0.8
 45
0.0
 46
0.0
 47
0.0
 48
0.0
140
1.8
141
2.5
142
0.0
143
0.0394
144
1.0
145
0.0
146
1.0
147
0.75
 71
     0
 72
     0
 73
     0
 74
     0
 75
     0
 76
     0
 77
     1
 78
     8
170
     0
171
     4
172
     1
173
     0
174
     0
175
     0
176
     0
177
     0
178
     0
270
     8
271
     2
272
     2
273
     8
274
     4
340
16
275
     0
280
     0
281
     0
282
     0
283
     1
284
     0
285
     0
286
     0
287
     3
288
     0
  0
ENDTAB
  0
TABLE
  2
BLOCK_RECORD
  5
1
330
0
100
AcDbSymbolTable
 70
    35
  0
BLOCK_RECORD
  5
2
102
{ACAD_XDICTIONARY
360
18A3
102
}
330
1
100
AcDbSymbolTableRecord
100
AcDbBlockTableRecord
  2
*MODEL_SPACE
  0
BLOCK_RECORD
  5
187C
102
{ACAD_XDICTIONARY
360
18A5
102
}
330
1
100
AcDbSymbolTableRecord
100
AcDbBlockTableRecord
  2
*PAPER_SPACE
  0
ENDTAB
  0
ENDSEC
  0
SECTION
  2
BLOCKS
  0
BLOCK
  5
5D
330
2
100
AcDbEntity
  8
0
100
AcDbBlockBegin
  2
*MODEL_SPACE
 70
     0
 10
0.0
 20
0.0
 30
0.0
  3
*MODEL_SPACE
  1

  0
ENDBLK
  5
5F
330
2
100
AcDbEntity
  8
0
100
AcDbBlockEnd
  0
BLOCK
  5
187E
330
187C
100
AcDbEntity
 67
     1
  8
0
100
AcDbBlockBegin
  2
*PAPER_SPACE
 70
     0
 10
0.0
 20
0.0
 30
0.0
  3
*PAPER_SPACE
  1

  0
ENDBLK
  5
187F
330
187C
100
AcDbEntity
 67
     1
  8
0
100
AcDbBlockEnd
  0
ENDSEC
  0
SECTION
  2
ENTITIES
  0
LINE
  5
6E0
330
2
100
AcDbEntity
  8
CENTER
100
AcDbLine
 10
170.4934114615082
 20
112.6197362236768
 30
0.0
 11
19.49340346150825
 21
112.6197362236766
 31
0.0
  0
ARC
  5
725
330
2
100
AcDbEntity
  8
0
100
AcDbCircle
 10
298.4572962729318
 20
112.6197362236768
 30
0.0
 40
45.085499
100
AcDbArc
 50
129.5059969999992
 51
220.1315
  0
LINE
  5
726
330
2
100
AcDbEntity
  8
CENTER
100
AcDbLine
 10
248.3717972729318
 20
112.6197362236768
 30
0.0
 11
348.5427952729319
 21
112.6197362236768
 31
0.0
  0
LINE
  5
727
330
2
100
AcDbEntity
  8
0
100
AcDbLine
 10
246.4574032729319
 20
61.61973622367679
 30
0.0
 11
350.4574032729319
 21
61.61973622367679
 31
0.0
  0
LINE
  5
728
330
2
100
AcDbEntity
  8
0
100
AcDbLine
 10
164.9934114615082
 20
67.6197362236768
 30
0.0
 11
164.9934114615082
 21
152.3380472236767
 31
0.0
  0
LINE
  5
72A
330
2
100
AcDbEntity
  8
0
100
AcDbLine
 10
117.9934114615082
 20
68.61973622367679
 30
0.0
 11
117.9934114615082
 21
157.7054452236767
 31
0.0
  0
LINE
  5
72B
330
2
100
AcDbEntity
  8
0
100
AcDbLine
 10
160.0369144615083
 20
83.12443622367675
 30
0.0
 11
147.4977144615081
 21
83.01493722367672
 31
0.0
  0
LINE
  5
72C
330
2
100
AcDbEntity
  8
0
100
AcDbLine
 10
164.9934114615082
 20
61.61973622367679
 30
0.0
 11
108.9934114615082
 21
61.61973622367679
 31
0.0
  0
LINE
  5
72D
330
2
100
AcDbEntity
  8
0
100
AcDbLine
 10
163.9933124615081
 20
68.61973622367679
 30
0.0
 11
147.9934114615082
 21
68.61973622367679
 31
0.0
  0
LINE
  5
72E
330
2
100
AcDbEntity
  8
0
100
AcDbLine
 10
163.9933124615081
 20
60.6197362236768
 30
0.0
 11
149.9934114615082
 21
60.6197362236768
 31
0.0
  0
LINE
  5
72F
330
2
100
AcDbEntity
  8
0
100
AcDbLine
 10
126.4934114615082
 20
83.01063622367667
 30
0.0
 11
119.9934114615082
 21
83.01063622367667
 31
0.0
  0
LINE
  5
730
330
2
100
AcDbEntity
  8
0
100
AcDbLine
 10
125.9934114615082
 20
68.61973622367679
 30
0.0
 11
118.4934114615082
 21
68.61973622367679
 31
0.0
  0
LINE
  5
731
330
2
100
AcDbEntity
  8
0
100
AcDbLine
 10
123.9934114615082
 20
60.6197362236768
 30
0.0
 11
109.9934114615082
 21
60.6197362236768
 31
0.0
  0
LINE
  5
732
330
2
100
AcDbEntity
  8
0
100
AcDbLine
 10
118.9934114615082
 20
69.11973622367679
 30
0.0
 11
118.9934114615082
 21
82.01063622367668
 31
0.0
  0
LINE
  5
736
330
2
100
AcDbEntity
  8
0
100
AcDbLine
 10
108.9934114615082
 20
61.61973622367679
 30
0.0
 11
108.9934114615082
 21
67.6197362236768
 31
0.0
  0
LINE
  5
737
330
2
100
AcDbEntity
  8
CENTER
100
AcDbLine
 10
116.9934114615082
 20
59.11973622367679
 30
0.0
 11
116.9934114615082
 21
71.11973622367679
 31
0.0
  0
LINE
  5
738
330
2
100
AcDbEntity
  8
HIDS
  6
SEKKEI_H
100
AcDbLine
 10
120.2434114615082
 20
60.6197362236768
 30
0.0
 11
120.2434114615082
 21
68.61973622367679
 31
0.0
  0
LINE
  5
739
330
2
100
AcDbEntity
  8
HIDS
  6
SEKKEI_H
100
AcDbLine
 10
113.7434114615082
 20
60.6197362236768
 30
0.0
 11
113.7434114615082
 21
68.61973622367679
 31
0.0
  0
LINE
  5
73A
330
2
100
AcDbEntity
  8
0
100
AcDbLine
 10
108.9934114615082
 20
61.61973622367679
 30
0.0
 11
109.9934114615082
 21
60.6197362236768
 31
0.0
  0
LINE
  5
73B
330
2
100
AcDbEntity
  8
0
100
AcDbLine
 10
118.4934114615082
 20
68.61973622367679
 30
0.0
 11
109.9934114615082
 21
68.61973622367679
 31
0.0
  0
ARC
  5
73D
330
2
100
AcDbEntity
  8
0
100
AcDbCircle
 10
109.9934114615082
 20
67.6197362236768
 30
0.0
 40
1.0
100
AcDbArc
 50
90.0
 51
180.0
  0
ARC
  5
741
330
2
100
AcDbEntity
  8
0
100
AcDbCircle
 10
118.4934114615082
 20
69.11973622367679
 30
0.0
 40
0.5
100
AcDbArc
 50
270.0
 51
0.0
  0
LINE
  5
748
330
2
100
AcDbEntity
  8
0
100
AcDbLine
 10
118.9934114615082
 20
76.96173522367678
 30
0.0
 11
117.9934114615082
 21
76.96173522367678
 31
0.0
  0
ARC
  5
749
330
2
100
AcDbEntity
  8
0
100
AcDbCircle
 10
119.9934114615082
 20
82.01063622367668
 30
0.0
 40
1.0
100
AcDbArc
 50
90.0
 51
180.0
  0
LINE
  5
74A
330
2
100
AcDbEntity
  8
0
100
AcDbLine
 10
146.9934114615082
 20
69.61973622367679
 30
0.0
 11
146.9934114615082
 21
83.51493722367672
 31
0.0
  0
LINE
  5
74B
330
2
100
AcDbEntity
  8
0
100
AcDbLine
 10
126.9934114615082
 20
69.61973622367679
 30
0.0
 11
126.9934114615082
 21
83.51063622367666
 31
0.0
  0
LINE
  5
74C
330
2
100
AcDbEntity
  8
0
100
AcDbLine
 10
147.9934114615082
 20
68.61973622367679
 30
0.0
 11
125.9934114615082
 21
68.61973622367679
 31
0.0
  0
LINE
  5
74D
330
2
100
AcDbEntity
  8
0
100
AcDbLine
 10
123.9934114615082
 20
60.6197362236768
 30
0.0
 11
124.9934114615082
 21
61.61973622367679
 31
0.0
  0
ARC
  5
74E
330
2
100
AcDbEntity
  8
0
100
AcDbCircle
 10
125.9934114615082
 20
69.61973622367679
 30
0.0
 40
1.0
100
AcDbArc
 50
270.0
 51
0.0
  0
LINE
  5
74F
330
2
100
AcDbEntity
  8
HIDS
  6
SEKKEI_H
100
AcDbLine
 10
153.7434114615082
 20
60.6197362236768
 30
0.0
 11
153.7434114615082
 21
68.61973622367679
 31
0.0
  0
LINE
  5
750
330
2
100
AcDbEntity
  8
0
100
AcDbLine
 10
148.9932964615081
 20
61.61973622367679
 30
0.0
 11
149.9934114615082
 21
60.6197362236768
 31
0.0
  0
ARC
  5
751
330
2
100
AcDbEntity
  8
0
100
AcDbCircle
 10
147.9934114615082
 20
69.61973622367679
 30
0.0
 40
1.0
100
AcDbArc
 50
180.0
 51
270.0
  0
LINE
  5
752
330
2
100
AcDbEntity
  8
0
100
AcDbLine
 10
145.9934114615082
 20
84.99143622367672
 30
0.0
 11
127.9934114615082
 21
84.99143622367672
 31
0.0
  0
ARC
  5
753
330
2
100
AcDbEntity
  8
0
100
AcDbCircle
 10
127.9934114615082
 20
83.99143622367672
 30
0.0
 40
1.0
100
AcDbArc
 50
90.0
 51
180.0
  0
ARC
  5
754
330
2
100
AcDbEntity
  8
0
100
AcDbCircle
 10
126.4934114615082
 20
83.51063622367666
 30
0.0
 40
0.5
100
AcDbArc
 50
270.0
 51
0.0
  0
LINE
  5
755
330
2
100
AcDbEntity
  8
0
100
AcDbLine
 10
126.9934114615082
 20
83.51063622367666
 30
0.0
 11
126.9934114615082
 21
83.99143622367672
 31
0.0
  0
ARC
  5
756
330
2
100
AcDbEntity
  8
0
100
AcDbCircle
 10
145.9934114615082
 20
83.99143622367672
 30
0.0
 40
1.0
100
AcDbArc
 50
0.0
 51
90.0
  0
ARC
  5
757
330
2
100
AcDbEntity
  8
0
100
AcDbCircle
 10
147.4934114615082
 20
83.51493722367672
 30
0.0
 40
0.5
100
AcDbArc
 50
180.0
 51
270.4999999999996
  0
LINE
  5
758
330
2
100
AcDbEntity
  8
0
100
AcDbLine
 10
146.9934114615082
 20
83.51493722367672
 30
0.0
 11
146.9934114615082
 21
83.99143622367672
 31
0.0
  0
LINE
  5
75A
330
2
100
AcDbEntity
  8
0
100
AcDbLine
 10
164.9934114615082
 20
61.61973622367679
 30
0.0
 11
164.9934114615082
 21
67.6197362236768
 31
0.0
  0
LINE
  5
75B
330
2
100
AcDbEntity
  8
CENTER
100
AcDbLine
 10
156.9934114615082
 20
59.11973622367679
 30
0.0
 11
156.9934114615082
 21
71.11973622367679
 31
0.0
  0
LINE
  5
75C
330
2
100
AcDbEntity
  8
HIDS
  6
SEKKEI_H
100
AcDbLine
 10
160.2433124615081
 20
60.6197362236768
 30
0.0
 11
160.2433124615081
 21
68.61973622367679
 31
0.0
  0
LINE
  5
75D
330
2
100
AcDbEntity
  8
0
100
AcDbLine
 10
163.9933124615081
 20
60.6197362236768
 30
0.0
 11
164.9934114615082
 21
61.61973622367679
 31
0.0
  0
ARC
  5
75E
330
2
100
AcDbEntity
  8
0
100
AcDbCircle
 10
163.9933124615081
 20
67.6197362236768
 30
0.0
 40
1.0
100
AcDbArc
 50
0.0
 51
90.0
  0
ARC
  5
75F
330
2
100
AcDbEntity
  8
0
100
AcDbCircle
 10
159.9934114615082
 20
88.12414622367681
 30
0.0
 40
5.0
100
AcDbArc
 50
270.4999999999996
 51
0.0
  0
LINE
  5
760
330
2
100
AcDbEntity
  8
0
100
AcDbLine
 10
264.4574032729319
 20
70.6197362236768
 30
0.0
 11
264.4574032729319
 21
82.27104622367676
 31
0.0
  0
LINE
  5
761
330
2
100
AcDbEntity
  8
0
100
AcDbLine
 10
246.7502952729319
 20
68.91264822367668
 30
0.0
 11
260.4270072729318
 21
82.58943622367667
 31
0.0
  0
LINE
  5
762
330
2
100
AcDbEntity
  8
0
100
AcDbLine
 10
247.4574032729319
 20
68.61973622367679
 30
0.0
 11
262.4574032729319
 21
68.61973622367679
 31
0.0
  0
LINE
  5
763
330
2
100
AcDbEntity
  8
0
100
AcDbLine
 10
247.4574032729319
 20
60.6197362236768
 30
0.0
 11
260.4574032729319
 21
60.6197362236768
 31
0.0
  0
LINE
  5
764
330
2
100
AcDbEntity
  8
0
100
AcDbLine
 10
246.4574032729319
 20
61.61973622367679
 30
0.0
 11
246.4574032729319
 21
68.20553622367675
 31
0.0
  0
LINE
  5
765
330
2
100
AcDbEntity
  8
HIDS
  6
SEKKEI_H
100
AcDbLine
 10
250.2074032729319
 20
60.6197362236768
 30
0.0
 11
250.2074032729319
 21
68.61973622367679
 31
0.0
  0
LINE
  5
766
330
2
100
AcDbEntity
  8
0
100
AcDbLine
 10
246.4574032729319
 20
61.61973622367679
 30
0.0
 11
247.4574032729319
 21
60.6197362236768
 31
0.0
  0
ARC
  5
767
330
2
100
AcDbEntity
  8
0
100
AcDbCircle
 10
247.4574032729319
 20
68.20553622367675
 30
0.0
 40
1.0
100
AcDbArc
 50
135.0
 51
180.0
  0
ARC
  5
768
330
2
100
AcDbEntity
  8
0
100
AcDbCircle
 10
247.4574032729319
 20
67.6197362236768
 30
0.0
 40
1.0
100
AcDbArc
 50
90.0
 51
180.0
  0
LINE
  5
769
330
2
100
AcDbEntity
  8
CENTER
100
AcDbLine
 10
253.4574032729319
 20
58.1197362236768
 30
0.0
 11
253.4574032729319
 21
71.11973622367679
 31
0.0
  0
LINE
  5
76A
330
2
100
AcDbEntity
  8
HIDS
  6
SEKKEI_H
100
AcDbLine
 10
256.7074032729319
 20
60.6197362236768
 30
0.0
 11
256.7074032729319
 21
68.61973622367679
 31
0.0
  0
LINE
  5
76B
330
2
100
AcDbEntity
  8
0
100
AcDbLine
 10
260.4574032729319
 20
60.6197362236768
 30
0.0
 11
261.4574032729319
 21
61.61973622367679
 31
0.0
  0
ARC
  5
76C
330
2
100
AcDbEntity
  8
0
100
AcDbCircle
 10
262.4574032729319
 20
70.6197362236768
 30
0.0
 40
2.0
100
AcDbArc
 50
270.0
 51
0.0
  0
ARC
  5
76D
330
2
100
AcDbEntity
  8
0
100
AcDbCircle
 10
257.5985012729318
 20
85.41783622367677
 30
0.0
 40
4.0
100
AcDbArc
 50
315.0
 51
33.65388099999852
  0
ARC
  5
76E
330
2
100
AcDbEntity
  8
0
100
AcDbCircle
 10
262.4574032729319
 20
82.27104622367676
 30
0.0
 40
2.0
100
AcDbArc
 50
0.0
 51
40.13155000000029
  0
LINE
  5
777
330
2
100
AcDbEntity
  8
0
100
AcDbLine
 10
160.0369144615083
 20
157.3378452236767
 30
0.0
 11
117.9936094615081
 21
157.7047472236766
 31
0.0
  0
LINE
  5
778
330
2
100
AcDbEntity
  8
0
100
AcDbLine
 10
160.0369144615083
 20
147.9108472236768
 30
0.0
 11
117.9933124615081
 21
148.2777372236768
 31
0.0
  0
LINE
  5
7E5
330
2
100
AcDbEntity
  8
0
100
AcDbLine
 10
167.9934114615082
 20
106.6197362236767
 30
0.0
 11
167.9934114615082
 21
144.6197362236768
 31
0.0
  0
ARC
  5
7E6
330
2
100
AcDbEntity
  8
0
100
AcDbCircle
 10
159.9934114615082
 20
142.9110452236767
 30
0.0
 40
5.0
100
AcDbArc
 50
0.0
 51
89.50000000000031
  0
LINE
  5
7E7
330
2
100
AcDbEntity
  8
0
100
AcDbLine
 10
193.4934034615082
 20
133.1197362236767
 30
0.0
 11
168.9933124615081
 21
133.1197362236767
 31
0.0
  0
LINE
  5
7E8
330
2
100
AcDbEntity
  8
0
100
AcDbLine
 10
193.9934034615082
 20
128.1197362236768
 30
0.0
 11
174.4934114615082
 21
128.1197362236768
 31
0.0
  0
LINE
  5
7E9
330
2
100
AcDbEntity
  8
0
100
AcDbLine
 10
193.4934034615082
 20
118.1197362236767
 30
0.0
 11
168.9933124615081
 21
118.1197362236767
 31
0.0
  0
LINE
  5
7EA
330
2
100
AcDbEntity
  8
0
100
AcDbLine
 10
193.9934034615082
 20
123.1197362236768
 30
0.0
 11
174.4934114615082
 21
123.1197362236768
 31
0.0
  0
LINE
  5
7EB
330
2
100
AcDbEntity
  8
CENTER
100
AcDbLine
 10
198.9934034615082
 20
125.6197362236767
 30
0.0
 11
159.9934114615082
 21
125.6197362236767
 31
0.0
  0
LINE
  5
7EC
330
2
100
AcDbEntity
  8
0
100
AcDbLine
 10
168.9933124615081
 20
117.1197362236767
 30
0.0
 11
168.9933124615081
 21
134.1197362236767
 31
0.0
  0
ARC
  5
7ED
330
2
100
AcDbEntity
  8
0
100
AcDbCircle
 10
166.9934114615082
 20
103.6197362236767
 30
0.0
 40
2.0
100
AcDbArc
 50
90.0
 51
180.0
  0
ARC
  5
7EE
330
2
100
AcDbEntity
  8
0
100
AcDbCircle
 10
166.9934114615082
 20
106.6197362236767
 30
0.0
 40
1.0
100
AcDbArc
 50
270.0
 51
0.0
  0
LINE
  5
7EF
330
2
100
AcDbEntity
  8
0
100
AcDbLine
 10
168.9933124615081
 20
117.1197362236767
 30
0.0
 11
167.9934114615082
 21
117.1197362236767
 31
0.0
  0
LINE
  5
7F0
330
2
100
AcDbEntity
  8
0
100
AcDbLine
 10
168.9933124615081
 20
134.1197362236767
 30
0.0
 11
167.9934114615082
 21
134.1197362236767
 31
0.0
  0
ARC
  5
7F1
330
2
100
AcDbEntity
  8
0
100
AcDbCircle
 10
174.4934114615082
 20
125.6197362236767
 30
0.0
 40
2.5
100
AcDbArc
 50
90.0
 51
180.0
  0
ARC
  5
7F2
330
2
100
AcDbEntity
  8
0
100
AcDbCircle
 10
174.4934114615082
 20
125.6197362236767
 30
0.0
 40
2.5
100
AcDbArc
 50
180.0
 51
270.0
  0
LINE
  5
7F3
330
2
100
AcDbEntity
  8
0
100
AcDbLine
 10
193.4934034615082
 20
118.1197362236767
 30
0.0
 11
193.4934034615082
 21
123.1197362236768
 31
0.0
  0
LINE
  5
7F4
330
2
100
AcDbEntity
  8
0
100
AcDbLine
 10
193.9934034615082
 20
118.6197362236768
 30
0.0
 11
193.9934034615082
 21
132.6197362236767
 31
0.0
  0
LINE
  5
7F5
330
2
100
AcDbEntity
  8
0
100
AcDbLine
 10
193.4934034615082
 20
118.1197362236767
 30
0.0
 11
193.9934034615082
 21
118.6197362236768
 31
0.0
  0
LINE
  5
7F6
330
2
100
AcDbEntity
  8
0
100
AcDbLine
 10
193.4934034615082
 20
133.1197362236767
 30
0.0
 11
193.9934034615082
 21
132.6197362236767
 31
0.0
  0
LINE
  5
7F7
330
2
100
AcDbEntity
  8
0
100
AcDbLine
 10
193.4934034615082
 20
128.1197362236768
 30
0.0
 11
193.4934034615082
 21
133.1197362236767
 31
0.0
  0
ARC
  5
7F8
330
2
100
AcDbEntity
  8
0
100
AcDbCircle
 10
159.9934114615082
 20
152.3380472236767
 30
0.0
 40
5.0
100
AcDbArc
 50
0.0
 51
89.50000000000031
  0
ARC
  5
7F9
330
2
100
AcDbEntity
  8
0
100
AcDbCircle
 10
166.9934114615082
 20
147.6197362236767
 30
0.0
 40
2.0
100
AcDbArc
 50
180.0
 51
270.0
  0
ARC
  5
7FA
330
2
100
AcDbEntity
  8
0
100
AcDbCircle
 10
166.9934114615082
 20
144.6197362236768
 30
0.0
 40
1.0
100
AcDbArc
 50
0.0
 51
90.0
  0
ARC
  5
83E
330
2
100
AcDbEntity
  8
0
100
AcDbCircle
 10
298.4572962729318
 20
112.6197362236768
 30
0.0
 40
45.085499
100
AcDbArc
 50
319.8684499999997
 51
50.4940409999998
  0
LINE
  5
83F
330
2
100
AcDbEntity
  8
CENTER
100
AcDbLine
 10
298.4572962729318
 20
56.61973622367679
 30
0.0
 11
298.4572962729318
 21
177.3059468427963
 31
0.0
  0
ARC
  5
840
330
2
100
AcDbEntity
  8
0
100
AcDbCircle
 10
334.4574032729319
 20
70.6197362236768
 30
0.0
 40
2.0
100
AcDbArc
 50
180.0
 51
270.0
  0
LINE
  5
841
330
2
100
AcDbEntity
  8
0
100
AcDbLine
 10
299.0562042729318
 20
79.39573722367675
 30
0.0
 11
300.7932032729318
 21
79.39573722367675
 31
0.0
  0
LINE
  5
842
330
2
100
AcDbEntity
  8
0
100
AcDbLine
 10
295.1238002729319
 20
80.61973622367679
 30
0.0
 11
301.7905022729319
 21
80.61973622367679
 31
0.0
  0
LINE
  5
843
330
2
100
AcDbEntity
  8
0
100
AcDbLine
 10
299.0562042729318
 20
79.39573722367675
 30
0.0
 11
299.0562042729318
 21
71.71353622367667
 31
0.0
  0
LINE
  5
844
330
2
100
AcDbEntity
  8
0
100
AcDbLine
 10
297.8062042729318
 20
79.39573722367675
 30
0.0
 11
297.8062042729318
 21
71.71353622367667
 31
0.0
  0
LINE
  5
845
330
2
100
AcDbEntity
  8
0
100
AcDbLine
 10
286.2435972729317
 20
78.3583382236767
 30
0.0
 11
286.2435972729317
 21
72.59724522367673
 31
0.0
  0
LINE
  5
846
330
2
100
AcDbEntity
  8
0
100
AcDbLine
 10
290.8270012729317
 20
75.33334822367681
 30
0.0
 11
290.8270012729317
 21
73.87493522367674
 31
0.0
  0
LINE
  5
847
330
2
100
AcDbEntity
  8
0
100
AcDbLine
 10
290.8270012729317
 20
74.2916452236767
 30
0.0
 11
290.8270012729317
 21
75.12493522367674
 31
0.0
  0
LINE
  5
848
330
2
100
AcDbEntity
  8
0
100
AcDbLine
 10
285.1238002729319
 20
79.06993522367668
 30
0.0
 11
285.1238002729319
 21
71.91743522367676
 31
0.0
  0
LINE
  5
849
330
2
100
AcDbEntity
  8
0
100
AcDbLine
 10
291.7905022729319
 20
76.42703722367674
 30
0.0
 11
291.7905022729319
 21
70.6197362236768
 31
0.0
  0
LINE
  5
84A
330
2
100
AcDbEntity
  8
0
100
AcDbLine
 10
286.4099022729319
 20
70.6197362236768
 30
0.0
 11
289.8768982729318
 21
70.6197362236768
 31
0.0
  0
LINE
  5
84B
330
2
100
AcDbEntity
  8
0
100
AcDbLine
 10
288.7435972729317
 20
71.7916452236767
 30
0.0
 11
287.008398272932
 21
71.7916452236767
 31
0.0
  0
LINE
  5
84C
330
2
100
AcDbEntity
  8
0
100
AcDbLine
 10
285.1238002729319
 20
71.91743522367676
 30
0.0
 11
286.4099022729319
 21
70.6197362236768
 31
0.0
  0
LINE
  5
84D
330
2
100
AcDbEntity
  8
0
100
AcDbLine
 10
286.2435972729317
 20
72.59724522367673
 30
0.0
 11
287.008398272932
 21
71.7916452236767
 31
0.0
  0
LINE
  5
84E
330
2
100
AcDbEntity
  8
0
100
AcDbLine
 10
290.8270012729317
 20
70.6197362236768
 30
0.0
 11
291.7905022729319
 21
70.6197362236768
 31
0.0
  0
LINE
  5
84F
330
2
100
AcDbEntity
  8
0
100
AcDbLine
 10
290.8270012729317
 20
71.41683622367679
 30
0.0
 11
289.8768982729318
 21
70.6197362236768
 31
0.0
  0
LINE
  5
850
330
2
100
AcDbEntity
  8
0
100
AcDbLine
 10
290.8270012729317
 20
71.41683622367679
 30
0.0
 11
290.8270012729317
 21
70.6197362236768
 31
0.0
  0
ARC
  5
851
330
2
100
AcDbEntity
  8
0
100
AcDbCircle
 10
288.7435972729317
 20
73.87493522367674
 30
0.0
 40
2.083324
100
AcDbArc
 50
270.000213999999
 51
0.0001089999998967
  0
LINE
  5
852
330
2
100
AcDbEntity
  8
0
100
AcDbLine
 10
297.3113002729319
 20
71.71353622367667
 30
0.0
 11
297.8062042729318
 21
71.71353622367667
 31
0.0
  0
LINE
  5
853
330
2
100
AcDbEntity
  8
0
100
AcDbLine
 10
297.3113002729319
 20
70.6197362236768
 30
0.0
 11
299.4727082729318
 21
70.6197362236768
 31
0.0
  0
LINE
  5
854
330
2
100
AcDbEntity
  8
0
100
AcDbLine
 10
299.4727082729318
 20
71.71353622367667
 30
0.0
 11
299.4727082729318
 21
70.6197362236768
 31
0.0
  0
LINE
  5
855
330
2
100
AcDbEntity
  8
0
100
AcDbLine
 10
297.3113002729319
 20
71.71353622367667
 30
0.0
 11
297.3113002729319
 21
70.6197362236768
 31
0.0
  0
LINE
  5
856
330
2
100
AcDbEntity
  8
0
100
AcDbLine
 10
299.0562042729318
 20
71.71353622367667
 30
0.0
 11
299.4727082729318
 21
71.71353622367667
 31
0.0
  0
LINE
  5
857
330
2
100
AcDbEntity
  8
0
100
AcDbLine
 10
286.3342042729318
 20
80.61973622367679
 30
0.0
 11
285.1238002729319
 21
79.06993522367668
 31
0.0
  0
LINE
  5
858
330
2
100
AcDbEntity
  8
0
100
AcDbLine
 10
290.8170072729317
 20
80.61973622367679
 30
0.0
 11
291.7905022729319
 21
79.53933722367674
 31
0.0
  0
LINE
  5
859
330
2
100
AcDbEntity
  8
0
100
AcDbLine
 10
290.2088982729319
 20
79.2916452236767
 30
0.0
 11
286.9964042729318
 21
79.2916452236767
 31
0.0
  0
LINE
  5
85A
330
2
100
AcDbEntity
  8
0
100
AcDbLine
 10
286.9964042729318
 20
79.2916452236767
 30
0.0
 11
286.2435972729317
 21
78.3583382236767
 31
0.0
  0
LINE
  5
85B
330
2
100
AcDbEntity
  8
0
100
AcDbLine
 10
291.7905022729319
 20
79.53933722367674
 30
0.0
 11
291.7905022729319
 21
78.53643422367679
 31
0.0
  0
LINE
  5
85C
330
2
100
AcDbEntity
  8
0
100
AcDbLine
 10
290.8270012729317
 20
78.6939362236767
 30
0.0
 11
290.1962032729318
 21
79.2916452236767
 31
0.0
  0
LINE
  5
85D
330
2
100
AcDbEntity
  8
0
100
AcDbLine
 10
289.0822052729317
 20
76.42703722367674
 30
0.0
 11
291.7905022729319
 21
76.42703722367674
 31
0.0
  0
LINE
  5
85E
330
2
100
AcDbEntity
  8
0
100
AcDbLine
 10
290.8270012729317
 20
78.53643422367679
 30
0.0
 11
291.7905022729319
 21
78.53643422367679
 31
0.0
  0
LINE
  5
85F
330
2
100
AcDbEntity
  8
0
100
AcDbLine
 10
289.0822052729317
 20
76.42703722367674
 30
0.0
 11
289.0822052729317
 21
75.33334822367681
 31
0.0
  0
LINE
  5
860
330
2
100
AcDbEntity
  8
0
100
AcDbLine
 10
290.8270012729317
 20
75.33334822367681
 30
0.0
 11
289.0822052729317
 21
75.33334822367681
 31
0.0
  0
LINE
  5
861
330
2
100
AcDbEntity
  8
0
100
AcDbLine
 10
290.8270012729317
 20
78.6939362236767
 30
0.0
 11
290.8270012729317
 21
78.53643422367679
 31
0.0
  0
LINE
  5
862
330
2
100
AcDbEntity
  8
0
100
AcDbLine
 10
286.3342042729318
 20
80.61973622367679
 30
0.0
 11
290.8170072729317
 21
80.61973622367679
 31
0.0
  0
LINE
  5
863
330
2
100
AcDbEntity
  8
0
100
AcDbLine
 10
295.1238002729319
 20
78.53643422367679
 30
0.0
 11
295.1238002729319
 21
80.61973622367679
 31
0.0
  0
LINE
  5
864
330
2
100
AcDbEntity
  8
0
100
AcDbLine
 10
297.8062042729318
 20
79.39573722367675
 30
0.0
 11
296.2220062729318
 21
79.39573722367675
 31
0.0
  0
LINE
  5
865
330
2
100
AcDbEntity
  8
0
100
AcDbLine
 10
296.2220062729318
 20
79.39573722367675
 30
0.0
 11
295.8638972729318
 21
78.53643422367679
 31
0.0
  0
LINE
  5
866
330
2
100
AcDbEntity
  8
0
100
AcDbLine
 10
295.1238002729319
 20
78.53643422367679
 30
0.0
 11
295.8638972729318
 21
78.53643422367679
 31
0.0
  0
LINE
  5
867
330
2
100
AcDbEntity
  8
0
100
AcDbLine
 10
332.4574032729319
 20
70.6197362236768
 30
0.0
 11
332.4574032729319
 21
82.27104622367676
 31
0.0
  0
LINE
  5
868
330
2
100
AcDbEntity
  8
0
100
AcDbLine
 10
309.8577022729319
 20
75.38484622367673
 30
0.0
 11
311.5099082729318
 21
71.66143422367679
 31
0.0
  0
LINE
  5
869
330
2
100
AcDbEntity
  8
0
100
AcDbLine
 10
306.7645012729317
 20
75.29423622367676
 30
0.0
 11
306.7645012729317
 21
71.66143422367679
 31
0.0
  0
LINE
  5
86A
330
2
100
AcDbEntity
  8
0
100
AcDbLine
 10
305.618505272932
 20
79.39573722367675
 30
0.0
 11
305.618505272932
 21
71.66143422367679
 31
0.0
  0
LINE
  5
86B
330
2
100
AcDbEntity
  8
0
100
AcDbLine
 10
308.8981992729318
 20
75.29423622367676
 30
0.0
 11
310.4615992729318
 21
71.66143422367679
 31
0.0
  0
LINE
  5
86C
330
2
100
AcDbEntity
  8
0
100
AcDbLine
 10
307.2202052729317
 20
70.6197362236768
 30
0.0
 11
305.1238002729319
 21
70.6197362236768
 31
0.0
  0
LINE
  5
86D
330
2
100
AcDbEntity
  8
0
100
AcDbLine
 10
305.1238002729319
 20
71.66143422367679
 30
0.0
 11
305.1238002729319
 21
70.6197362236768
 31
0.0
  0
LINE
  5
86E
330
2
100
AcDbEntity
  8
0
100
AcDbLine
 10
305.1238002729319
 20
71.66143422367679
 30
0.0
 11
305.618505272932
 21
71.66143422367679
 31
0.0
  0
LINE
  5
86F
330
2
100
AcDbEntity
  8
0
100
AcDbLine
 10
307.2202052729317
 20
71.66143422367679
 30
0.0
 11
307.2202052729317
 21
70.6197362236768
 31
0.0
  0
LINE
  5
870
330
2
100
AcDbEntity
  8
0
100
AcDbLine
 10
306.7645012729317
 20
71.66143422367679
 30
0.0
 11
307.2202052729317
 21
71.66143422367679
 31
0.0
  0
LINE
  5
871
330
2
100
AcDbEntity
  8
0
100
AcDbLine
 10
310.2538972729319
 20
70.6197362236768
 30
0.0
 11
311.7905022729319
 21
70.6197362236768
 31
0.0
  0
LINE
  5
872
330
2
100
AcDbEntity
  8
0
100
AcDbLine
 10
311.5099082729318
 20
71.66143422367679
 30
0.0
 11
311.7905022729319
 21
71.66143422367679
 31
0.0
  0
LINE
  5
873
330
2
100
AcDbEntity
  8
0
100
AcDbLine
 10
310.2538972729319
 20
71.66143422367679
 30
0.0
 11
310.2538972729319
 21
70.6197362236768
 31
0.0
  0
LINE
  5
874
330
2
100
AcDbEntity
  8
0
100
AcDbLine
 10
310.2538972729319
 20
71.66143422367679
 30
0.0
 11
310.4615992729318
 21
71.66143422367679
 31
0.0
  0
LINE
  5
875
330
2
100
AcDbEntity
  8
0
100
AcDbLine
 10
311.7905022729319
 20
71.66143422367679
 30
0.0
 11
311.7905022729319
 21
70.6197362236768
 31
0.0
  0
LINE
  5
876
330
2
100
AcDbEntity
  8
0
100
AcDbLine
 10
306.7645012729317
 20
75.29423622367676
 30
0.0
 11
308.8981992729318
 21
75.29423622367676
 31
0.0
  0
LINE
  5
877
330
2
100
AcDbEntity
  8
0
100
AcDbLine
 10
306.7645012729317
 20
76.33563622367671
 30
0.0
 11
309.3313962729319
 21
76.33563622367671
 31
0.0
  0
LINE
  5
878
330
2
100
AcDbEntity
  8
0
100
AcDbLine
 10
305.1238002729319
 20
80.61973622367679
 30
0.0
 11
309.1212062729319
 21
80.61973622367679
 31
0.0
  0
LINE
  5
879
330
2
100
AcDbEntity
  8
0
100
AcDbLine
 10
306.7645012729317
 20
79.39573722367675
 30
0.0
 11
309.8754022729317
 21
79.39373422367669
 31
0.0
  0
LINE
  5
87A
330
2
100
AcDbEntity
  8
0
100
AcDbLine
 10
301.7905022729319
 20
78.53643422367679
 30
0.0
 11
301.7905022729319
 21
80.61973622367679
 31
0.0
  0
LINE
  5
87B
330
2
100
AcDbEntity
  8
0
100
AcDbLine
 10
305.1238002729319
 20
80.61973622367679
 30
0.0
 11
305.1238002729319
 21
79.39573722367675
 31
0.0
  0
LINE
  5
87C
330
2
100
AcDbEntity
  8
0
100
AcDbLine
 10
300.7932032729318
 20
79.39573722367675
 30
0.0
 11
301.0950982729318
 21
78.53643422367679
 31
0.0
  0
LINE
  5
87D
330
2
100
AcDbEntity
  8
0
100
AcDbLine
 10
301.0950982729318
 20
78.53643422367679
 30
0.0
 11
301.7905022729319
 21
78.53643422367679
 31
0.0
  0
LINE
  5
87E
330
2
100
AcDbEntity
  8
0
100
AcDbLine
 10
306.7645012729317
 20
79.39573722367675
 30
0.0
 11
306.7645012729317
 21
76.33563622367671
 31
0.0
  0
LINE
  5
87F
330
2
100
AcDbEntity
  8
0
100
AcDbLine
 10
305.1238002729319
 20
79.39573722367675
 30
0.0
 11
305.618505272932
 21
79.39573722367675
 31
0.0
  0
ARC
  5
880
330
2
100
AcDbEntity
  8
0
100
AcDbCircle
 10
309.1212062729319
 20
77.95043622367678
 30
0.0
 40
2.669259999999999
100
AcDbArc
 50
286.0181270000008
 51
90.00351000000046
  0
ARC
  5
881
330
2
100
AcDbEntity
  8
0
100
AcDbCircle
 10
309.1212062729319
 20
77.95043622367678
 30
0.0
 40
1.628430999999999
100
AcDbArc
 50
277.4147260000001
 51
62.41184999999986
  0
ARC
  5
882
330
2
100
AcDbEntity
  8
0
100
AcDbCircle
 10
334.4574032729319
 20
82.27104622367676
 30
0.0
 40
2.0
100
AcDbArc
 50
139.8684999999999
 51
180.0
  0
LINE
  5
883
330
2
100
AcDbEntity
  8
0
100
AcDbLine
 10
350.1644952729318
 20
68.91264822367668
 30
0.0
 11
336.4877072729318
 21
82.58943622367667
 31
0.0
  0
ARC
  5
884
330
2
100
AcDbEntity
  8
0
100
AcDbCircle
 10
349.4574032729319
 20
67.6197362236768
 30
0.0
 40
1.0
100
AcDbArc
 50
0.0
 51
90.0
  0
LINE
  5
885
330
2
100
AcDbEntity
  8
0
100
AcDbLine
 10
350.4574032729319
 20
61.61973622367679
 30
0.0
 11
349.4574032729319
 21
60.6197362236768
 31
0.0
  0
LINE
  5
886
330
2
100
AcDbEntity
  8
CENTER
100
AcDbLine
 10
343.4574032729319
 20
58.1197362236768
 30
0.0
 11
343.4574032729319
 21
71.11973622367679
 31
0.0
  0
LINE
  5
887
330
2
100
AcDbEntity
  8
HIDS
  6
SEKKEI_H
100
AcDbLine
 10
340.2074032729319
 20
60.6197362236768
 30
0.0
 11
340.2074032729319
 21
68.61973622367679
 31
0.0
  0
LINE
  5
888
330
2
100
AcDbEntity
  8
HIDS
  6
SEKKEI_H
100
AcDbLine
 10
346.7074032729319
 20
60.6197362236768
 30
0.0
 11
346.7074032729319
 21
68.61973622367679
 31
0.0
  0
LINE
  5
889
330
2
100
AcDbEntity
  8
0
100
AcDbLine
 10
336.4574032729319
 20
60.6197362236768
 30
0.0
 11
349.4574032729319
 21
60.6197362236768
 31
0.0
  0
LINE
  5
88A
330
2
100
AcDbEntity
  8
0
100
AcDbLine
 10
335.4574032729319
 20
61.61973622367679
 30
0.0
 11
336.4574032729319
 21
60.6197362236768
 31
0.0
  0
LINE
  5
88B
330
2
100
AcDbEntity
  8
0
100
AcDbLine
 10
334.4574032729319
 20
68.61973622367679
 30
0.0
 11
349.4574032729319
 21
68.61973622367679
 31
0.0
  0
LINE
  5
88C
330
2
100
AcDbEntity
  8
0
100
AcDbLine
 10
350.4574032729319
 20
61.61973622367679
 30
0.0
 11
350.4574032729319
 21
68.20553622367675
 31
0.0
  0
ARC
  5
88D
330
2
100
AcDbEntity
  8
0
100
AcDbCircle
 10
349.4574032729319
 20
68.20553622367675
 30
0.0
 40
1.0
100
AcDbArc
 50
0.0
 51
45.0
  0
ARC
  5
88E
330
2
100
AcDbEntity
  8
0
100
AcDbCircle
 10
339.3161982729318
 20
85.41783622367677
 30
0.0
 40
4.0
100
AcDbArc
 50
146.3461000000006
 51
225.0
  0
CIRCLE
  5
88F
330
2
100
AcDbEntity
  8
0
100
AcDbCircle
 10
298.4572962729318
 20
125.6197362236767
 30
0.0
 40
20.0
  0
ARC
  5
890
330
2
100
AcDbEntity
  8
0
100
AcDbCircle
 10
298.4572962729318
 20
125.6197362236767
 30
0.0
 40
8.5
100
AcDbArc
 50
197.1045990000004
 51
162.8954009999995
  0
ARC
  5
891
330
2
100
AcDbEntity
  8
0
100
AcDbCircle
 10
298.4572962729318
 20
125.6197362236767
 30
0.0
 40
7.5
100
AcDbArc
 50
199.4712070000018
 51
160.528792999998
  0
LINE
  5
892
330
2
100
AcDbEntity
  8
CENTER
100
AcDbLine
 10
272.0567343498097
 20
125.6197362236767
 30
0.0
 11
324.857858196054
 21
125.6197362236767
 31
0.0
  0
LINE
  5
893
330
2
100
AcDbEntity
  8
0
100
AcDbLine
 10
288.9574032729319
 20
123.1197362236768
 30
0.0
 11
293.9574032729319
 21
123.1197362236768
 31
0.0
  0
LINE
  5
894
330
2
100
AcDbEntity
  8
0
100
AcDbLine
 10
288.9574032729319
 20
128.1197362236768
 30
0.0
 11
293.9574032729319
 21
128.1197362236768
 31
0.0
  0
LINE
  5
895
330
2
100
AcDbEntity
  8
0
100
AcDbLine
 10
288.9574032729319
 20
123.1197362236768
 30
0.0
 11
288.9574032729319
 21
128.1197362236768
 31
0.0
  0
LINE
  5
896
330
2
100
AcDbEntity
  8
0
100
AcDbLine
 10
293.9574032729319
 20
123.1197362236768
 30
0.0
 11
293.9574032729319
 21
128.1197362236768
 31
0.0
  0
LINE
  5
897
330
2
100
AcDbEntity
  8
HOJO
100
AcDbLine
 10
299.9570067731833
 20
174.2052112823301
 30
0.0
 11
301.0858985644958
 21
173.7298684211949
 31
0.0
  0
LINE
  5
898
330
2
100
AcDbEntity
  8
0
100
AcDbLine
 10
275.8674072729318
 20
157.7047472236766
 30
0.0
 11
321.0473992729319
 21
157.7047472236766
 31
0.0
  0
LINE
  5
899
330
2
100
AcDbEntity
  8
0
100
AcDbLine
 10
299.9570067731833
 20
174.2052112823301
 30
0.0
 11
299.9570067731833
 21
157.7447462236767
 31
0.0
  0
LINE
  5
89A
330
2
100
AcDbEntity
  8
0
100
AcDbLine
 10
296.9570067731833
 20
174.2051649378158
 30
0.0
 11
296.9570067731833
 21
157.7447462236767
 31
0.0
  0
LINE
  5
89B
330
2
100
AcDbEntity
  8
0
100
AcDbLine
 10
299.4572967731833
 20
174.4156243466874
 30
0.0
 11
299.4572967731833
 21
157.7047472236766
 31
0.0
  0
LINE
  5
89C
330
2
100
AcDbEntity
  8
0
100
AcDbLine
 10
297.4572967731833
 20
174.61953238637
 30
0.0
 11
297.4572967731833
 21
157.7047472236766
 31
0.0
  0
LINE
  5
89D
330
2
100
AcDbEntity
  8
0
100
AcDbLine
 10
298.4572967731833
 20
174.7862584486134
 30
0.0
 11
298.4574032729319
 21
157.7047472236766
 31
0.0
  0
LINE
  5
89E
330
2
100
AcDbEntity
  8
0
100
AcDbLine
 10
290.9570067731833
 20
174.2051663485572
 30
0.0
 11
290.9570067731833
 21
157.7447462236767
 31
0.0
  0
ARC
  5
89F
330
2
100
AcDbEntity
  8
0
100
AcDbCircle
 10
275.8674072729318
 20
152.7047472236766
 30
0.0
 40
5.0
100
AcDbArc
 50
90.0
 51
180.0
  0
LINE
  5
8A0
330
2
100
AcDbEntity
  8
0
100
AcDbLine
 10
270.8674072729318
 20
149.7205362236767
 30
0.0
 11
270.8674072729318
 21
152.7047472236766
 31
0.0
  0
ARC
  5
8A1
330
2
100
AcDbEntity
  8
0
100
AcDbCircle
 10
267.8674072729318
 20
149.7205362236767
 30
0.0
 40
3.0
100
AcDbArc
 50
309.5060119999992
 51
0.0
  0
ARC
  5
8A2
330
2
100
AcDbEntity
  8
HOJO
100
AcDbCircle
 10
292.2070067731833
 20
173.2051648427963
 30
0.0
 40
1.600781999999999
100
AcDbArc
 50
67.16467299999876
 51
141.3401949999988
  0
ARC
  5
8A3
330
2
100
AcDbEntity
  8
HOJO
100
AcDbCircle
 10
295.7070067731833
 20
175.2051648427963
 30
0.0
 40
1.600781
100
AcDbArc
 50
247.1647030000001
 51
321.340194401624
  0
LINE
  5
8A4
330
2
100
AcDbEntity
  8
HOJO
100
AcDbLine
 10
292.8282987731833
 20
174.6804768427963
 30
0.0
 11
295.0858977731834
 21
173.7298688427962
 31
0.0
  0
LINE
  5
8A5
330
2
100
AcDbEntity
  8
HOJO
100
AcDbLine
 10
298.8282995644958
 20
174.6804764211949
 30
0.0
 11
299.4572967731833
 21
174.4156243466874
 31
0.0
  0
ARC
  5
8A6
330
2
100
AcDbEntity
  8
HOJO
100
AcDbCircle
 10
298.2070075644958
 20
173.2051644211949
 30
0.0
 40
1.600781999999999
100
AcDbArc
 50
67.16467300000023
 51
117.926618450097
  0
LINE
  5
8A7
330
2
100
AcDbEntity
  8
0
100
AcDbLine
 10
294.9575857726804
 20
173.7838972216953
 30
0.0
 11
294.9575857726804
 21
157.7447462236767
 31
0.0
  0
LINE
  5
8A8
330
2
100
AcDbEntity
  8
0
100
AcDbLine
 10
292.9575857726804
 20
174.62603792073
 30
0.0
 11
292.9575857726804
 21
157.7447462236767
 31
0.0
  0
LINE
  5
8A9
330
2
100
AcDbEntity
  8
0
100
AcDbLine
 10
305.9570067731833
 20
174.2052112823299
 30
0.0
 11
305.9570067731833
 21
157.7447462236767
 31
0.0
  0
ARC
  5
8AA
330
2
100
AcDbEntity
  8
0
100
AcDbCircle
 10
321.0473992729319
 20
152.7047472236766
 30
0.0
 40
5.0
100
AcDbArc
 50
0.0
 51
90.0
  0
LINE
  5
8AB
330
2
100
AcDbEntity
  8
0
100
AcDbLine
 10
326.0473992729318
 20
149.7205362236767
 30
0.0
 11
326.0473992729318
 21
152.7047472236766
 31
0.0
  0
ARC
  5
8AC
330
2
100
AcDbEntity
  8
0
100
AcDbCircle
 10
329.0473992729319
 20
149.7205362236767
 30
0.0
 40
3.0
100
AcDbArc
 50
180.0
 51
230.4940030000007
  0
ARC
  5
8AD
330
2
100
AcDbEntity
  8
HOJO
100
AcDbCircle
 10
304.2070075644958
 20
173.2051644211948
 30
0.0
 40
1.600781999999999
100
AcDbArc
 50
67.16467299999876
 51
141.3401949999988
  0
ARC
  5
8AE
330
2
100
AcDbEntity
  8
HOJO
100
AcDbCircle
 10
301.7070075644958
 20
175.2051644211949
 30
0.0
 40
1.600781
100
AcDbArc
 50
247.1647030000001
 51
321.340194401624
  0
LINE
  5
8AF
330
2
100
AcDbEntity
  8
HOJO
100
AcDbLine
 10
304.8282995644958
 20
174.6804764211948
 30
0.0
 11
305.9570067731833
 21
174.2052112823299
 31
0.0
  0
TEXT
  5
8B0
330
2
100
AcDbEntity
  8
TITLE
100
AcDbText
 10
25.61833178711776
 20
14.92813972850649
 30
0.0
 40
6.0
  1
VGLD15-80～200N50
100
AcDbText
  0
MTEXT
  5
8C1
330
2
100
AcDbEntity
  8
TITLE
100
AcDbMText
 10
121.1390000189547
 20
23.57932388252457
 30
0.0
 40
4.242600000000001
 41
29.12357767338732
 71
     1
 72
     5
  1
L1\PL2
1001
ACAD
1000
MTEXTBEGIN
1070
    73
1070
     1
1070
    44
1040
1.0
1070
    74
1070
     0
1000
MTEXTEND
  0
LINE
  5
910
330
2
100
AcDbEntity
  8
CENTER
100
AcDbLine
 10
156.9934104615082
 20
263.4194773325641
 30
0.0
 11
156.9934104615082
 21
251.781812332564
 31
0.0
  0
ARC
  5
911
330
2
100
AcDbEntity
  8
0
100
AcDbCircle
 10
159.9934104615083
 20
263.001752332564
 30
0.0
 40
5.0
100
AcDbArc
 50
270.4999999999996
 51
0.0
  0
LINE
  5
912
330
2
100
AcDbEntity
  8
0
100
AcDbLine
 10
164.9934034615082
 20
353.1095863325641
 30
0.0
 11
164.9934034615082
 21
252.331739332564
 31
0.0
  0
LINE
  5
913
330
2
100
AcDbEntity
  8
0
100
AcDbLine
 10
117.9934104615082
 20
347.8063023325641
 30
0.0
 11
117.9934104615082
 21
257.6350233325641
 31
0.0
  0
ARC
  5
914
330
2
100
AcDbEntity
  8
0
100
AcDbCircle
 10
156.9934104615082
 20
257.7206703325641
 30
0.0
 40
3.25
100
AcDbArc
 50
176.0051419999993
 51
5.061264999999997
  0
ARC
  5
915
330
2
100
AcDbEntity
  8
HIDS
100
AcDbCircle
 10
156.9934104615082
 20
257.7206703325641
 30
0.0
 40
3.25
100
AcDbArc
 50
5.061279000000151
 51
176.0051419999993
  0
LINE
  5
916
330
2
100
AcDbEntity
  8
CENTER
100
AcDbLine
 10
151.0456794615082
 20
257.7206703325641
 30
0.0
 11
162.7787274615083
 21
257.7206703325641
 31
0.0
  0
LINE
  5
917
330
2
100
AcDbEntity
  8
0
100
AcDbLine
 10
164.0108594615082
 20
251.3318913325641
 30
0.0
 11
128.9934104615082
 21
250.7206703325641
 31
0.0
  0
LINE
  5
918
330
2
100
AcDbEntity
  8
0
100
AcDbLine
 10
160.0370434615082
 20
258.0019353325641
 30
0.0
 11
117.9934104615082
 21
257.6350233325641
 31
0.0
  0
LINE
  5
919
330
2
100
AcDbEntity
  8
0
100
AcDbLine
 10
109.9759544615083
 20
251.052610332564
 30
0.0
 11
128.9934104615082
 21
250.7206703325641
 31
0.0
  0
LINE
  5
91A
330
2
100
AcDbEntity
  8
0
100
AcDbLine
 10
108.9934104615083
 20
252.0524573325641
 30
0.0
 11
108.9934104615083
 21
257.7135753325641
 31
0.0
  0
ARC
  5
91B
330
2
100
AcDbEntity
  8
0
100
AcDbCircle
 10
109.9934104615083
 20
252.0524573325641
 30
0.0
 40
1.0
100
AcDbArc
 50
180.0
 51
268.9999999999998
  0
ARC
  5
91C
330
2
100
AcDbEntity
  8
HIDS
100
AcDbCircle
 10
116.9934104615082
 20
257.7206703325641
 30
0.0
 40
3.25
100
AcDbArc
 50
358.8362519999993
 51
180.8559570000003
  0
ARC
  5
91D
330
2
100
AcDbEntity
  8
0
100
AcDbCircle
 10
116.9934104615082
 20
257.7206703325641
 30
0.0
 40
3.25
100
AcDbArc
 50
180.8559570000003
 51
358.8362519999993
  0
LINE
  5
91E
330
2
100
AcDbEntity
  8
CENTER
100
AcDbLine
 10
116.9934104615082
 20
261.7206703325641
 30
0.0
 11
116.9934104615082
 21
253.0218943325641
 31
0.0
  0
LINE
  5
91F
330
2
100
AcDbEntity
  8
CENTER
100
AcDbLine
 10
111.0456794615082
 20
257.7206703325641
 30
0.0
 11
122.7787194615082
 21
257.7206703325641
 31
0.0
  0
LINE
  5
920
330
2
100
AcDbEntity
  8
0
100
AcDbLine
 10
126.9934104615082
 20
251.144330332564
 30
0.0
 11
126.9934104615082
 21
257.7135753325641
 31
0.0
  0
LINE
  5
921
330
2
100
AcDbEntity
  8
0
100
AcDbLine
 10
146.9934104615082
 20
251.3589613325641
 30
0.0
 11
146.9934104615082
 21
257.8881053325641
 31
0.0
  0
ARC
  5
922
330
2
100
AcDbEntity
  8
0
100
AcDbCircle
 10
163.9934034615082
 20
252.331739332564
 30
0.0
 40
1.0
100
AcDbArc
 50
271.0000000000001
 51
0.0
  0
ARC
  5
923
330
2
100
AcDbEntity
  8
0
100
AcDbCircle
 10
159.9934104615083
 20
324.9395883325641
 30
0.0
 40
5.0
100
AcDbArc
 50
0.0
 51
89.50000000000031
  0
LINE
  5
924
330
2
100
AcDbEntity
  8
CENTER
100
AcDbLine
 10
198.9934034615082
 20
302.7206703325641
 30
0.0
 11
19.49340346150825
 21
302.7206703325641
 31
0.0
  0
LINE
  5
925
330
2
100
AcDbEntity
  8
0
100
AcDbLine
 10
117.9934104615082
 20
275.1350233325641
 30
0.0
 11
160.0370434615082
 21
275.5019353325641
 31
0.0
  0
LINE
  5
926
330
2
100
AcDbEntity
  8
0
100
AcDbLine
 10
168.9934034615082
 20
294.2206703325641
 30
0.0
 11
168.9934034615082
 21
311.2206703325641
 31
0.0
  0
LINE
  5
927
330
2
100
AcDbEntity
  8
0
100
AcDbLine
 10
167.9934034615082
 20
283.7206703325641
 30
0.0
 11
167.9934034615082
 21
321.7206703325641
 31
0.0
  0
LINE
  5
928
330
2
100
AcDbEntity
  8
0
100
AcDbLine
 10
171.9934034615082
 20
295.649671332564
 30
0.0
 11
171.9934034615082
 21
293.2206703325641
 31
0.0
  0
LINE
  5
929
330
2
100
AcDbEntity
  8
0
100
AcDbLine
 10
193.9934034615082
 20
293.2206703325641
 30
0.0
 11
193.9934034615082
 21
295.649671332564
 31
0.0
  0
LINE
  5
92A
330
2
100
AcDbEntity
  8
0
100
AcDbLine
 10
171.9934034615082
 20
293.2206703325641
 30
0.0
 11
193.9934034615082
 21
293.2206703325641
 31
0.0
  0
ARC
  5
92B
330
2
100
AcDbEntity
  8
0
100
AcDbCircle
 10
159.9934104615083
 20
280.501752332564
 30
0.0
 40
5.0
100
AcDbArc
 50
270.4999999999996
 51
0.0
  0
ARC
  5
92C
330
2
100
AcDbEntity
  8
0
100
AcDbCircle
 10
166.9934034615082
 20
280.7206703325641
 30
0.0
 40
2.0
100
AcDbArc
 50
90.0
 51
180.0
  0
ARC
  5
92D
330
2
100
AcDbEntity
  8
0
100
AcDbCircle
 10
166.9934034615082
 20
283.7206703325641
 30
0.0
 40
1.0
100
AcDbArc
 50
270.0
 51
0.0
  0
LINE
  5
92E
330
2
100
AcDbEntity
  8
0
100
AcDbLine
 10
168.9934034615082
 20
294.2206703325641
 30
0.0
 11
167.9934034615082
 21
294.2206703325641
 31
0.0
  0
LINE
  5
92F
330
2
100
AcDbEntity
  8
0
100
AcDbLine
 10
171.9934034615082
 20
295.2206703325641
 30
0.0
 11
168.9934034615082
 21
295.2206703325641
 31
0.0
  0
LINE
  5
930
330
2
100
AcDbEntity
  8
0
100
AcDbLine
 10
171.9934034615082
 20
295.649671332564
 30
0.0
 11
193.9934034615082
 21
295.649671332564
 31
0.0
  0
LINE
  5
931
330
2
100
AcDbEntity
  8
0
100
AcDbLine
 10
193.4934034615082
 20
310.2206703325641
 30
0.0
 11
168.9934034615082
 21
310.2206703325641
 31
0.0
  0
LINE
  5
932
330
2
100
AcDbEntity
  8
0
100
AcDbLine
 10
168.9934034615082
 20
311.2206703325641
 30
0.0
 11
167.9934034615082
 21
311.2206703325641
 31
0.0
  0
ARC
  5
933
330
2
100
AcDbEntity
  8
0
100
AcDbCircle
 10
166.9934034615082
 20
324.7206703325641
 30
0.0
 40
2.0
100
AcDbArc
 50
180.0
 51
270.0
  0
ARC
  5
934
330
2
100
AcDbEntity
  8
0
100
AcDbCircle
 10
166.9934034615082
 20
321.7206703325641
 30
0.0
 40
1.0
100
AcDbArc
 50
0.0
 51
90.0
  0
LINE
  5
935
330
2
100
AcDbEntity
  8
0
100
AcDbLine
 10
193.9934034615082
 20
295.720670332564
 30
0.0
 11
193.9934034615082
 21
309.7206703325641
 31
0.0
  0
LINE
  5
936
330
2
100
AcDbEntity
  8
0
100
AcDbLine
 10
193.4934034615082
 20
295.649671332564
 30
0.0
 11
193.4934034615082
 21
310.2206703325641
 31
0.0
  0
LINE
  5
937
330
2
100
AcDbEntity
  8
0
100
AcDbLine
 10
193.9224044615082
 20
295.649671332564
 30
0.0
 11
193.9934034615082
 21
295.720670332564
 31
0.0
  0
LINE
  5
938
330
2
100
AcDbEntity
  8
0
100
AcDbLine
 10
193.4934034615082
 20
310.2206703325641
 30
0.0
 11
193.9934034615082
 21
309.7206703325641
 31
0.0
  0
ARC
  5
939
330
2
100
AcDbEntity
  8
0
100
AcDbCircle
 10
156.9934104615082
 20
347.720670332564
 30
0.0
 40
3.25
100
AcDbArc
 50
354.9387349999999
 51
183.9948580000006
  0
ARC
  5
93A
330
2
100
AcDbEntity
  8
HIDS
100
AcDbCircle
 10
156.9934104615082
 20
347.720670332564
 30
0.0
 40
3.25
100
AcDbArc
 50
183.9948580000006
 51
354.9387209999999
  0
LINE
  5
93B
330
2
100
AcDbEntity
  8
CENTER
100
AcDbLine
 10
151.0456794615082
 20
347.720670332564
 30
0.0
 11
162.7787274615083
 21
347.720670332564
 31
0.0
  0
LINE
  5
93C
330
2
100
AcDbEntity
  8
0
100
AcDbLine
 10
164.0108594615082
 20
354.109434332564
 30
0.0
 11
128.9934104615082
 21
354.720670332564
 31
0.0
  0
LINE
  5
93D
330
2
100
AcDbEntity
  8
0
100
AcDbLine
 10
117.9934104615082
 20
330.306302332564
 30
0.0
 11
160.0370434615082
 21
329.939390332564
 31
0.0
  0
LINE
  5
93E
330
2
100
AcDbEntity
  8
0
100
AcDbLine
 10
160.0370434615082
 20
347.4393903325641
 30
0.0
 11
117.9934104615082
 21
347.8063023325641
 31
0.0
  0
LINE
  5
93F
330
2
100
AcDbEntity
  8
0
100
AcDbLine
 10
109.9759544615083
 20
354.388700332564
 30
0.0
 11
128.9934104615082
 21
354.720670332564
 31
0.0
  0
LINE
  5
940
330
2
100
AcDbEntity
  8
CENTER
100
AcDbLine
 10
116.9934104615082
 20
343.720670332564
 30
0.0
 11
116.9934104615082
 21
352.4194313325641
 31
0.0
  0
ARC
  5
941
330
2
100
AcDbEntity
  8
HIDS
100
AcDbCircle
 10
116.9934104615082
 20
347.720670332564
 30
0.0
 40
3.25
100
AcDbArc
 50
179.1440429999997
 51
1.163748000000583
  0
LINE
  5
942
330
2
100
AcDbEntity
  8
0
100
AcDbLine
 10
108.9934104615083
 20
353.3888523325641
 30
0.0
 11
108.9934104615083
 21
347.7277503325641
 31
0.0
  0
ARC
  5
943
330
2
100
AcDbEntity
  8
0
100
AcDbCircle
 10
109.9934104615083
 20
353.3888523325641
 30
0.0
 40
1.0
100
AcDbArc
 50
91.00000000000013
 51
180.0
  0
LINE
  5
944
330
2
100
AcDbEntity
  8
CENTER
100
AcDbLine
 10
111.0456794615082
 20
347.720670332564
 30
0.0
 11
122.7787194615082
 21
347.720670332564
 31
0.0
  0
ARC
  5
945
330
2
100
AcDbEntity
  8
0
100
AcDbCircle
 10
116.9934104615082
 20
347.720670332564
 30
0.0
 40
3.25
100
AcDbArc
 50
1.163748000000583
 51
179.1440429999997
  0
LINE
  5
946
330
2
100
AcDbEntity
  8
CENTER
100
AcDbLine
 10
156.9934104615082
 20
342.0218483325641
 30
0.0
 11
156.9934104615082
 21
353.6595133325641
 31
0.0
  0
LINE
  5
947
330
2
100
AcDbEntity
  8
0
100
AcDbLine
 10
126.9934104615082
 20
354.296995332564
 30
0.0
 11
126.9934104615082
 21
347.7277503325641
 31
0.0
  0
LINE
  5
948
330
2
100
AcDbEntity
  8
0
100
AcDbLine
 10
146.9934104615082
 20
354.0823643325641
 30
0.0
 11
146.9934104615082
 21
347.5532203325641
 31
0.0
  0
ARC
  5
949
330
2
100
AcDbEntity
  8
0
100
AcDbCircle
 10
159.9934104615083
 20
342.439573332564
 30
0.0
 40
5.0
100
AcDbArc
 50
0.0
 51
89.50000000000031
  0
ARC
  5
94A
330
2
100
AcDbEntity
  8
0
100
AcDbCircle
 10
163.9934034615082
 20
353.1095863325641
 30
0.0
 40
1.0
100
AcDbArc
 50
0.0
 51
88.99999999999986
  0
LINE
  5
C34
330
2
100
AcDbEntity
  8
0
100
AcDbLine
 10
64.99341046150829
 20
294.8206703325638
 30
0.0
 11
64.99341046150817
 21
291.720670332564
 31
0.0
  0
LINE
  5
C35
330
2
100
AcDbEntity
  8
0
100
AcDbLine
 10
70.4934104615084
 20
295.8206703325637
 30
0.0
 11
70.49341046150829
 21
292.8784233395757
 31
0.0
  0
LINE
  5
C3A
330
2
100
AcDbEntity
  8
0
100
AcDbLine
 10
59.4934104615084
 20
270.3600323352531
 30
0.0
 11
59.4934104615084
 21
335.081308329875
 31
0.0
  0
LINE
  5
C3B
330
2
100
AcDbEntity
  8
0
100
AcDbLine
 10
108.4934104615082
 20
259.696069332564
 30
0.0
 11
108.4934104615082
 21
345.7452713325642
 31
0.0
  0
LINE
  5
C3D
330
2
100
AcDbEntity
  8
0
100
AcDbLine
 10
24.49324646150836
 20
271.6567853497309
 30
0.0
 11
24.49324646150813
 21
333.784555315397
 31
0.0
  0
LINE
  5
C3E
330
2
100
AcDbEntity
  8
0
100
AcDbLine
 10
24.49340346150825
 20
81.55585124084353
 30
0.0
 11
24.49340346150802
 21
143.6836212065097
 31
0.0
  0
LINE
  5
C40
330
2
100
AcDbEntity
  8
0
100
AcDbLine
 10
60.49352146150818
 20
80.03854822367662
 30
0.0
 11
60.49352146150818
 21
136.6513372236766
 31
0.0
  0
LINE
  5
C41
330
2
100
AcDbEntity
  8
0
100
AcDbLine
 10
59.49340346150802
 20
148.6197362236767
 30
0.0
 11
59.49340346150825
 21
80.25909965757199
 31
0.0
  0
LINE
  5
C42
330
2
100
AcDbEntity
  8
0
100
AcDbLine
 10
108.4934114615082
 20
155.6443372236766
 30
0.0
 11
108.4932094615082
 21
69.59533722367661
 31
0.0
  0
LINE
  5
C44
330
2
100
AcDbEntity
  8
0
100
AcDbLine
 10
108.4935104615083
 20
82.73654622367672
 30
0.0
 11
60.49352146150818
 21
83.15533722367666
 31
0.0
  0
LINE
  5
C45
330
2
100
AcDbEntity
  8
0
100
AcDbLine
 10
107.0067094615083
 20
79.63273622367665
 30
0.0
 11
60.49352146150818
 21
80.03854822367662
 31
0.0
  0
LINE
  5
C46
330
2
100
AcDbEntity
  8
0
100
AcDbLine
 10
59.49340346150802
 20
80.25909965757199
 30
0.0
 11
25.48467692600979
 21
80.55588931777942
 31
0.0
  0
ARC
  5
C47
330
2
100
AcDbEntity
  8
0
100
AcDbCircle
 10
25.49340346150825
 20
81.55585124084366
 30
0.0
 40
1.0
100
AcDbArc
 50
180.0
 51
269.5000000000019
  0
POINT
  5
C48
330
2
100
AcDbEntity
  8
0
100
AcDbPoint
 10
24.49340346150825
 20
81.55585124084353
 30
0.0
  0
LINE
  5
C49
330
2
100
AcDbEntity
  8
0
100
AcDbLine
 10
60.49352146150818
 20
80.33863522367671
 30
0.0
 11
59.49352146150818
 21
80.34726084437744
 31
0.0
  0
LINE
  5
C4A
330
2
100
AcDbEntity
  8
CENTER
100
AcDbLine
 10
101.8934094615083
 20
73.61973622367674
 30
0.0
 11
110.9932189087903
 21
73.61973622367674
 31
0.0
  0
ARC
  5
C4B
330
2
100
AcDbEntity
  8
0
100
AcDbCircle
 10
110.8934094615083
 20
73.61973622367674
 30
0.0
 40
6.5
100
AcDbArc
 50
146.9443049999971
 51
213.0556950000028
  0
LINE
  5
C4C
330
2
100
AcDbEntity
  8
0
100
AcDbLine
 10
107.4934114615082
 20
69.61973622367674
 30
0.0
 11
107.4934114615082
 21
77.61973622367674
 31
0.0
  0
LINE
  5
C4E
330
2
100
AcDbEntity
  8
0
100
AcDbLine
 10
107.4934114615082
 20
69.61973622367674
 30
0.0
 11
106.2836104615082
 21
69.61973622367674
 31
0.0
  0
ARC
  5
C4F
330
2
100
AcDbEntity
  8
0
100
AcDbCircle
 10
106.2836104615082
 20
70.61973622367673
 30
0.0
 40
1.0
100
AcDbArc
 50
213.0556950000028
 51
270.0
  0
ARC
  5
C50
330
2
100
AcDbEntity
  8
0
100
AcDbCircle
 10
110.4934114615083
 20
69.59513522367672
 30
0.0
 40
2.0
100
AcDbArc
 50
180.0
 51
227.1366419154149
  0
LINE
  5
C51
330
2
100
AcDbEntity
  8
0
100
AcDbLine
 10
107.4934114615082
 20
69.81964522367667
 30
0.0
 11
108.4934114615082
 21
69.81964522367667
 31
0.0
  0
LINE
  5
C52
330
2
100
AcDbEntity
  8
0
100
AcDbLine
 10
117.9934114615082
 20
76.95173722367673
 30
0.0
 11
110.4760084615081
 21
77.01733422367664
 31
0.0
  0
ARC
  5
C53
330
2
100
AcDbEntity
  8
0
100
AcDbCircle
 10
110.4934114615082
 20
79.01733422367664
 30
0.0
 40
2.0
100
AcDbArc
 50
180.0
 51
269.5000000000019
  0
LINE
  5
C54
330
2
100
AcDbEntity
  8
0
100
AcDbLine
 10
107.4934114615082
 20
77.61973622367674
 30
0.0
 11
106.2836104615082
 21
77.61973622367674
 31
0.0
  0
ARC
  5
C55
330
2
100
AcDbEntity
  8
0
100
AcDbCircle
 10
106.2836104615082
 20
76.61973622367674
 30
0.0
 40
1.0
100
AcDbArc
 50
90.0
 51
146.9443049999971
  0
ARC
  5
C56
330
2
100
AcDbEntity
  8
0
100
AcDbCircle
 10
106.9934114615082
 20
78.13273622367666
 30
0.0
 40
1.5
100
AcDbArc
 50
0.0
 51
89.50000000000192
  0
LINE
  5
C57
330
2
100
AcDbEntity
  8
0
100
AcDbLine
 10
108.4934114615082
 20
77.41963622367672
 30
0.0
 11
107.4934114615082
 21
77.41963622367672
 31
0.0
  0
ARC
  5
C58
330
2
100
AcDbEntity
  8
0
100
AcDbCircle
 10
73.42592825490214
 20
141.4438517768641
 30
0.0
 40
44.0
100
AcDbArc
 50
70.56084818740743
 51
90.0
  0
ARC
  5
C59
330
2
100
AcDbEntity
  8
0
100
AcDbCircle
 10
73.42592825490214
 20
141.4438517768641
 30
0.0
 40
46.0
100
AcDbArc
 50
70.56084818740743
 51
90.0
  0
LINE
  5
C5A
330
2
100
AcDbEntity
  8
0
100
AcDbLine
 10
72.99355146150833
 20
188.2061398427962
 30
0.0
 11
111.4136737886483
 21
188.2061398427962
 31
0.0
  0
LINE
  5
C5B
330
2
100
AcDbEntity
  8
0
100
AcDbLine
 10
72.99357146150828
 20
194.2061398427962
 30
0.0
 11
111.4141971920462
 21
194.2061398427962
 31
0.0
  0
ARC
  5
C5C
330
2
100
AcDbEntity
  8
0
100
AcDbCircle
 10
73.42592825490214
 20
141.4438517768641
 30
0.0
 40
42.0
100
AcDbArc
 50
70.56084818740743
 51
90.0
  0
ARC
  5
C5D
330
2
100
AcDbEntity
  8
0
100
AcDbCircle
 10
73.42592825490214
 20
141.4438517768641
 30
0.0
 40
40.0
100
AcDbArc
 50
70.56084818740743
 51
90.0
  0
LINE
  5
C5E
330
2
100
AcDbEntity
  8
0
100
AcDbLine
 10
108.4934114615082
 20
142.5027352236766
 30
0.0
 11
63.49352146150818
 21
142.1100872857961
 31
0.0
  0
LINE
  5
C5F
330
2
100
AcDbEntity
  8
0
100
AcDbLine
 10
106.5108104615082
 20
145.6023372236766
 30
0.0
 11
63.49352146150818
 21
145.2269013396433
 31
0.0
  0
ARC
  5
C60
330
2
100
AcDbEntity
  8
HOJO
100
AcDbCircle
 10
66.74355146150833
 20
177.4439616834178
 30
0.0
 40
1.600781
100
AcDbArc
 50
247.1647029999995
 51
321.3401944016193
  0
LINE
  5
C61
330
2
100
AcDbEntity
  8
HOJO
100
AcDbLine
 10
63.86484346150837
 20
176.9192736834178
 30
0.0
 11
66.1224424615084
 21
175.9686656834178
 31
0.0
  0
LINE
  5
C62
330
2
100
AcDbEntity
  8
0
100
AcDbLine
 10
65.99352146150818
 20
176.4439105652784
 30
0.0
 11
65.99352146150806
 21
176.0229504939481
 31
0.0
  0
LINE
  5
C63
330
2
100
AcDbEntity
  8
0
100
AcDbLine
 10
59.49340346150802
 20
144.9803727897813
 30
0.0
 11
25.48467692600979
 21
144.683583129574
 31
0.0
  0
ARC
  5
C64
330
2
100
AcDbEntity
  8
HOJO
100
AcDbCircle
 10
51.74343346150817
 20
173.4439616834178
 30
0.0
 40
1.600781999999999
100
AcDbArc
 50
67.16467299999876
 51
141.3418685641826
  0
LINE
  5
C65
330
2
100
AcDbEntity
  8
0
100
AcDbLine
 10
50.49340346150803
 20
144.9018309796645
 30
0.0
 11
50.49340346150803
 21
174.4439256880819
 31
0.0
  0
ARC
  5
C66
330
2
100
AcDbEntity
  8
0
100
AcDbCircle
 10
25.49340346150802
 20
143.6836212065098
 30
0.0
 40
1.0
100
AcDbArc
 50
90.49999999999805
 51
180.0
  0
POINT
  5
C67
330
2
100
AcDbEntity
  8
0
100
AcDbPoint
 10
24.49340346150802
 20
143.6836212065097
 30
0.0
  0
POINT
  5
C68
330
2
100
AcDbEntity
  8
0
100
AcDbPoint
 10
47.94340346150806
 20
144.8795774667981
 30
0.0
  0
LINE
  5
C69
330
2
100
AcDbEntity
  8
0
100
AcDbLine
 10
61.99352146150818
 20
174.443925688082
 30
0.0
 11
61.99352146150818
 21
149.6197362236767
 31
0.0
  0
LINE
  5
C6A
330
2
100
AcDbEntity
  8
0
100
AcDbLine
 10
67.99352146150806
 20
174.4439242795866
 30
0.0
 11
67.99352146150818
 21
149.6197362236767
 31
0.0
  0
LINE
  5
C6B
330
2
100
AcDbEntity
  8
0
100
AcDbLine
 10
65.99352146150806
 20
174.0297640985448
 30
0.0
 11
65.99352146150818
 21
149.6197362236767
 31
0.0
  0
LINE
  5
C6C
330
2
100
AcDbEntity
  8
0
100
AcDbLine
 10
63.99352146150807
 20
174.8650911929829
 30
0.0
 11
63.99352146150818
 21
149.6197362236767
 31
0.0
  0
LINE
  5
C6D
330
2
100
AcDbEntity
  8
0
100
AcDbLine
 10
51.49340346150802
 20
144.9105578474553
 30
0.0
 11
51.49340346150802
 21
175.0250967221239
 31
0.0
  0
LINE
  5
C6E
330
2
100
AcDbEntity
  8
0
100
AcDbLine
 10
52.49340346150802
 20
144.919284715246
 30
0.0
 11
52.49340346150802
 21
174.8650911929826
 31
0.0
  0
LINE
  5
C6F
330
2
100
AcDbEntity
  8
0
100
AcDbLine
 10
69.4935184615083
 20
149.6197362236767
 30
0.0
 11
60.49340346150803
 21
149.6197362236767
 31
0.0
  0
LINE
  5
C70
330
2
100
AcDbEntity
  8
0
100
AcDbLine
 10
63.49352146150818
 20
145.2269013396433
 30
0.0
 11
63.49352146150818
 21
136.6513372236766
 31
0.0
  0
LINE
  5
C71
330
2
100
AcDbEntity
  8
0
100
AcDbLine
 10
59.49340346150802
 20
136.6513372236766
 30
0.0
 11
63.49352146150818
 21
136.6513372236766
 31
0.0
  0
ARC
  5
C72
330
2
100
AcDbEntity
  8
0
100
AcDbCircle
 10
60.49340346150803
 20
148.6197362236767
 30
0.0
 40
1.0
100
AcDbArc
 50
90.0
 51
180.0
  0
POINT
  5
C73
330
2
100
AcDbEntity
  8
0
100
AcDbPoint
 10
57.04330446150811
 20
144.9415382281125
 30
0.0
  0
LINE
  5
C74
330
2
100
AcDbEntity
  8
0
100
AcDbLine
 10
59.49352146150818
 20
143.1997362236766
 30
0.0
 11
63.49352146150818
 21
143.1997362236766
 31
0.0
  0
LINE
  5
C75
330
2
100
AcDbEntity
  8
0
100
AcDbLine
 10
70.49352046150829
 20
148.6197362236767
 30
0.0
 11
70.49352046150829
 21
145.287994236799
 31
0.0
  0
ARC
  5
C76
330
2
100
AcDbEntity
  8
0
100
AcDbCircle
 10
69.4935184615083
 20
148.6197362236767
 30
0.0
 40
1.0
100
AcDbArc
 50
0.0
 51
90.0
  0
ARC
  5
C77
330
2
100
AcDbEntity
  8
HOJO
100
AcDbCircle
 10
66.74355146150833
 20
175.4439616834178
 30
0.0
 40
1.600781
100
AcDbArc
 50
247.1647029999995
 51
321.3401944016193
  0
LINE
  5
C78
330
2
100
AcDbEntity
  8
HOJO
100
AcDbLine
 10
52.36472546150821
 20
174.9192736834178
 30
0.0
 11
52.49340346150802
 21
174.8650911929826
 31
0.0
  0
ARC
  5
C79
330
2
100
AcDbEntity
  8
HOJO
100
AcDbCircle
 10
63.24355146150833
 20
173.4439616834178
 30
0.0
 40
1.600781999999999
100
AcDbArc
 50
67.16467299999876
 51
141.3418685641826
  0
LINE
  5
C7A
330
2
100
AcDbEntity
  8
HOJO
100
AcDbLine
 10
61.99352146150818
 20
174.4439976787537
 30
0.0
 11
61.99352146150818
 21
174.2051653594173
 31
0.0
  0
LINE
  5
C7B
330
2
100
AcDbEntity
  8
HOJO
100
AcDbLine
 10
63.86484346150837
 20
174.9192736834178
 30
0.0
 11
66.1224424615084
 21
173.9686656834178
 31
0.0
  0
ARC
  5
C7C
330
2
100
AcDbEntity
  8
0
100
AcDbCircle
 10
45.49340346150802
 20
187.2061398427961
 30
0.0
 40
5.0
100
AcDbArc
 50
0.0
 51
90.0
  0
ARC
  5
C7D
330
2
100
AcDbEntity
  8
0
100
AcDbCircle
 10
45.49340346150802
 20
187.2061398427961
 30
0.0
 40
6.0
100
AcDbArc
 50
0.0
 51
90.0
  0
ARC
  5
C7E
330
2
100
AcDbEntity
  8
0
100
AcDbCircle
 10
45.49340346150802
 20
187.2061398427961
 30
0.0
 40
7.0
100
AcDbArc
 50
0.0
 51
89.62889052766097
  0
ARC
  5
C7F
330
2
100
AcDbEntity
  8
HOJO
100
AcDbCircle
 10
51.74343346150817
 20
175.4439616834178
 30
0.0
 40
1.600781999999999
100
AcDbArc
 50
67.16467299999876
 51
141.3418685642118
  0
LINE
  5
C80
330
2
100
AcDbEntity
  8
0
100
AcDbLine
 10
27.50624111622391
 20
194.9805766045177
 30
0.0
 11
37.46818809714159
 21
194.1090191770411
 31
0.0
  0
LINE
  5
C81
330
2
100
AcDbEntity
  8
0
100
AcDbLine
 10
37.42003534549394
 20
192.7061398427961
 30
0.0
 11
27.42003534549394
 21
192.7061398427961
 31
0.0
  0
LINE
  5
C82
330
2
100
AcDbEntity
  8
0
100
AcDbLine
 10
37.42003534549394
 20
193.0061398427961
 30
0.0
 11
27.42003534549394
 21
193.0061398427961
 31
0.0
  0
LINE
  5
C83
330
2
100
AcDbEntity
  8
0
100
AcDbLine
 10
37.42003534549394
 20
192.4061398427961
 30
0.0
 11
27.42003534549394
 21
192.4061398427961
 31
0.0
  0
LINE
  5
C84
330
2
100
AcDbEntity
  8
0
100
AcDbLine
 10
27.53238783904839
 20
195.279435013945
 30
0.0
 11
37.49433481996584
 21
194.4078775864684
 31
0.0
  0
LINE
  5
C85
330
2
100
AcDbEntity
  8
0
100
AcDbLine
 10
27.55853456187264
 20
195.5782934233728
 30
0.0
 11
37.52048154279009
 21
194.706735995896
 31
0.0
  0
LINE
  5
C86
330
2
100
AcDbEntity
  8
0
100
AcDbLine
 10
50.49340346150803
 20
176.4439256880819
 30
0.0
 11
50.49340346150803
 21
187.2061398427961
 31
0.0
  0
LINE
  5
C87
330
2
100
AcDbEntity
  8
0
100
AcDbLine
 10
45.53874271973336
 20
194.2059930092321
 30
0.0
 11
37.53791269133967
 21
194.9059749355145
 31
0.0
  0
LINE
  5
C88
330
2
100
AcDbEntity
  8
0
100
AcDbLine
 10
45.49340346150802
 20
193.2061398427961
 30
0.0
 11
37.45075694859201
 21
193.9097802374226
 31
0.0
  0
LINE
  5
C89
330
2
100
AcDbEntity
  8
0
100
AcDbLine
 10
45.49340346150802
 20
192.2061398427961
 30
0.0
 11
37.42003534549394
 21
192.2061398427961
 31
0.0
  0
LINE
  5
C8A
330
2
100
AcDbEntity
  8
0
100
AcDbLine
 10
45.49340346150802
 20
193.2061398427961
 30
0.0
 11
37.42003534549394
 21
193.2061398427961
 31
0.0
  0
LINE
  5
C8B
330
2
100
AcDbEntity
  8
0
100
AcDbLine
 10
37.42003534549394
 20
192.2061398427961
 30
0.0
 11
37.42003534549394
 21
193.2061398427961
 31
0.0
  0
LINE
  5
C8C
330
2
100
AcDbEntity
  8
0
100
AcDbLine
 10
37.45075694859201
 20
193.9097802374226
 30
0.0
 11
37.53791269133967
 21
194.9059749355145
 31
0.0
  0
ARC
  5
C8D
330
2
100
AcDbEntity
  8
0
100
AcDbCircle
 10
72.99357146150828
 20
183.2061398427963
 30
0.0
 40
11.0
100
AcDbArc
 50
90.0
 51
180.0
  0
ARC
  5
C8E
330
2
100
AcDbEntity
  8
0
100
AcDbCircle
 10
72.99357267469327
 20
176.4439105652784
 30
0.0
 40
5.000051213203854
100
AcDbArc
 50
90.0002430827012
 51
179.9998428472107
  0
ARC
  5
C8F
330
2
100
AcDbEntity
  8
0
100
AcDbCircle
 10
72.99357267469327
 20
176.4439105652784
 30
0.0
 40
7.000051213203854
100
AcDbArc
 50
90.0002430827012
 51
179.9998428472107
  0
ARC
  5
C90
330
2
100
AcDbEntity
  8
0
100
AcDbCircle
 10
72.99357267469327
 20
176.4439105652784
 30
0.0
 40
11.00005121320385
100
AcDbArc
 50
90.0002430827012
 51
179.9998428472107
  0
ARC
  5
C91
330
2
100
AcDbEntity
  8
0
100
AcDbCircle
 10
72.99357267469327
 20
176.4439105652784
 30
0.0
 40
9.000051213203853
100
AcDbArc
 50
90.0002430827012
 51
177.3436678381892
  0
LINE
  5
C92
330
2
100
AcDbEntity
  8
0
100
AcDbLine
 10
52.49340346150802
 20
176.8650911929826
 30
0.0
 11
52.49340346150802
 21
187.2061398427961
 31
0.0
  0
LINE
  5
C93
330
2
100
AcDbEntity
  8
0
100
AcDbLine
 10
51.49340346150802
 20
177.0250967221238
 30
0.0
 11
51.49340346150802
 21
187.2061398427961
 31
0.0
  0
LINE
  5
C94
330
2
100
AcDbEntity
  8
HOJO
100
AcDbLine
 10
52.36472546150821
 20
176.9192736834178
 30
0.0
 11
52.49340346150802
 21
176.8650911929826
 31
0.0
  0
LINE
  5
C95
330
2
100
AcDbEntity
  8
0
100
AcDbLine
 10
61.99357146150828
 20
183.2061398427963
 30
0.0
 11
61.99352146150829
 21
176.4439256880819
 31
0.0
  0
ARC
  5
C96
330
2
100
AcDbEntity
  8
HOJO
100
AcDbCircle
 10
63.24355146150833
 20
175.4439616834178
 30
0.0
 40
1.600781999999999
100
AcDbArc
 50
67.16467299999876
 51
141.3418685642152
  0
ARC
  5
C97
330
2
100
AcDbEntity
  8
0
100
AcDbCircle
 10
72.99355146150833
 20
183.2061398427963
 30
0.0
 40
5.0
100
AcDbArc
 50
90.0
 51
131.9745634210934
  0
LINE
  5
C98
330
2
100
AcDbEntity
  8
0
100
AcDbLine
 10
72.99338542686337
 20
181.4438517768641
 30
0.0
 11
73.42592825490214
 21
181.4438517768641
 31
0.0
  0
ARC
  5
C99
330
2
100
AcDbEntity
  8
0
100
AcDbCircle
 10
72.99355146150833
 20
176.4439617784373
 30
0.0
 40
9.0
100
AcDbArc
 50
90.0
 51
123.3057915968515
  0
LINE
  5
C9A
330
2
100
AcDbEntity
  8
0
100
AcDbLine
 10
72.99338542686337
 20
183.4438517768641
 30
0.0
 11
73.42592825490214
 21
183.4438517768641
 31
0.0
  0
LINE
  5
C9B
330
2
100
AcDbEntity
  8
0
100
AcDbLine
 10
72.99338542686337
 20
185.4438517768641
 30
0.0
 11
73.42592825490214
 21
185.4438517768641
 31
0.0
  0
LINE
  5
C9C
330
2
100
AcDbEntity
  8
0
100
AcDbLine
 10
72.99338542686337
 20
187.4438517768641
 30
0.0
 11
73.42592825490214
 21
187.4438517768641
 31
0.0
  0
LINE
  5
C9D
330
2
100
AcDbEntity
  8
0
100
AcDbLine
 10
143.1898806779606
 20
174.5703526910953
 30
0.0
 11
143.1898806779606
 21
176.5703526910953
 31
0.0
  0
LINE
  5
C9E
330
2
100
AcDbEntity
  8
0
100
AcDbLine
 10
86.73815164580014
 20
179.1636702863801
 30
0.0
 11
97.99017934117841
 21
175.1925614051521
 31
0.0
  0
ARC
  5
C9F
330
2
100
AcDbEntity
  8
0
100
AcDbCircle
 10
113.2992362407112
 20
218.5703526910953
 30
0.0
 40
42.0
100
AcDbArc
 50
250.5608481874074
 51
270.0
  0
ARC
  5
CA0
330
2
100
AcDbEntity
  8
0
100
AcDbCircle
 10
113.2992362407112
 20
218.5703526910953
 30
0.0
 40
44.0
100
AcDbArc
 50
250.5608481874074
 51
270.0
  0
LINE
  5
CA1
330
2
100
AcDbEntity
  8
0
100
AcDbLine
 10
143.1898806779606
 20
174.5703526910953
 30
0.0
 11
113.2992362407021
 21
174.5703526910953
 31
0.0
  0
LINE
  5
CA2
330
2
100
AcDbEntity
  8
0
100
AcDbLine
 10
113.6898806779606
 20
172.5703526910953
 30
0.0
 11
143.0708956864057
 21
169.9998469549713
 31
0.0
  0
LINE
  5
CA3
330
2
100
AcDbEntity
  8
0
100
AcDbLine
 10
113.7772025637777
 20
174.5703526910953
 30
0.0
 11
143.245207171901
 21
171.9922363511548
 31
0.0
  0
ARC
  5
CA4
330
2
100
AcDbEntity
  8
0
100
AcDbCircle
 10
110.8934094615083
 20
151.6197362236767
 30
0.0
 40
6.5
100
AcDbArc
 50
146.9443049999971
 51
213.0556950000028
  0
LINE
  5
CA5
330
2
100
AcDbEntity
  8
0
100
AcDbLine
 10
107.4934114615082
 20
155.6197362236767
 30
0.0
 11
107.4934114615082
 21
147.6197362236767
 31
0.0
  0
LINE
  5
CA6
330
2
100
AcDbEntity
  8
CENTER
100
AcDbLine
 10
101.8934094615083
 20
151.6197362236767
 30
0.0
 11
110.9934020137654
 21
151.6197362236767
 31
0.0
  0
LINE
  5
CA7
330
2
100
AcDbEntity
  8
0
100
AcDbLine
 10
117.9934114615082
 20
148.2879372236767
 30
0.0
 11
110.4760084615081
 21
148.2223362236766
 31
0.0
  0
ARC
  5
CA8
330
2
100
AcDbEntity
  8
0
100
AcDbCircle
 10
106.4934114615082
 20
147.6023372236766
 30
0.0
 40
2.0
100
AcDbArc
 50
270.5002669999989
 51
0.0
  0
ARC
  5
CA9
330
2
100
AcDbEntity
  8
0
100
AcDbCircle
 10
110.4934114615082
 20
146.2223362236766
 30
0.0
 40
2.0
100
AcDbArc
 50
90.49999999999805
 51
180.0
  0
LINE
  5
CAA
330
2
100
AcDbEntity
  8
0
100
AcDbLine
 10
107.4934114615082
 20
147.6197362236767
 30
0.0
 11
106.2836104615082
 21
147.6197362236767
 31
0.0
  0
ARC
  5
CAB
330
2
100
AcDbEntity
  8
0
100
AcDbCircle
 10
106.2836104615082
 20
148.6197362236767
 30
0.0
 40
1.0
100
AcDbArc
 50
213.0556950000028
 51
270.0
  0
LINE
  5
CAC
330
2
100
AcDbEntity
  8
0
100
AcDbLine
 10
108.5450084615081
 20
147.8198362236766
 30
0.0
 11
107.4934114615082
 21
147.8198362236766
 31
0.0
  0
ARC
  5
CAD
330
2
100
AcDbEntity
  8
0
100
AcDbCircle
 10
113.2992362407112
 20
218.5703526910953
 30
0.0
 40
46.0
100
AcDbArc
 50
250.5608481874074
 51
270.0
  0
LINE
  5
CAE
330
2
100
AcDbEntity
  8
0
100
AcDbLine
 10
117.9934114615082
 20
157.7097362236766
 30
0.0
 11
110.4760084615081
 21
157.6441352236766
 31
0.0
  0
LINE
  5
CAF
330
2
100
AcDbEntity
  8
0
100
AcDbLine
 10
107.4934114615082
 20
155.6197362236767
 30
0.0
 11
106.2836104615082
 21
155.6197362236767
 31
0.0
  0
ARC
  5
CB0
330
2
100
AcDbEntity
  8
0
100
AcDbCircle
 10
106.2836104615082
 20
154.6197362236767
 30
0.0
 40
1.0
100
AcDbArc
 50
90.0
 51
146.9443049999971
  0
ARC
  5
CB1
330
2
100
AcDbEntity
  8
0
100
AcDbCircle
 10
110.4934114615082
 20
155.6443372236766
 30
0.0
 40
2.0
100
AcDbArc
 50
90.49999999999805
 51
180.0
  0
LINE
  5
CB2
330
2
100
AcDbEntity
  8
0
100
AcDbLine
 10
107.4934114615082
 20
155.4198462236766
 30
0.0
 11
108.4934114615082
 21
155.4198462236766
 31
0.0
  0
LINE
  5
CB3
330
2
100
AcDbEntity
  8
0
100
AcDbLine
 10
113.6898806779606
 20
172.5703526910953
 30
0.0
 11
113.2992362407017
 21
172.5703526910953
 31
0.0
  0
LINE
  5
CB4
330
2
100
AcDbEntity
  8
0
100
AcDbLine
 10
148.1898806779606
 20
175.2203526910953
 30
0.0
 11
143.1898806779606
 21
175.2203526910953
 31
0.0
  0
LINE
  5
CB5
330
2
100
AcDbEntity
  8
0
100
AcDbLine
 10
148.1898806779606
 20
174.8703526910953
 30
0.0
 11
143.1898806779606
 21
174.8703526910953
 31
0.0
  0
LINE
  5
CB6
330
2
100
AcDbEntity
  8
0
100
AcDbLine
 10
148.1898806779606
 20
175.5703526910953
 30
0.0
 11
143.1898806779606
 21
175.5703526910953
 31
0.0
  0
LINE
  5
CB7
330
2
100
AcDbEntity
  8
0
100
AcDbLine
 10
148.1898806779606
 20
175.9203526910952
 30
0.0
 11
143.1898806779606
 21
175.9203526910952
 31
0.0
  0
LINE
  5
CB8
330
2
100
AcDbEntity
  8
0
100
AcDbLine
 10
148.1762580148351
 20
170.9083424087249
 30
0.0
 11
143.1952845243765
 21
171.3441211224631
 31
0.0
  0
LINE
  5
CB9
330
2
100
AcDbEntity
  8
0
100
AcDbLine
 10
148.2236443716331
 20
171.2555335828395
 30
0.0
 11
143.2257890343382
 21
171.6927892667952
 31
0.0
  0
LINE
  5
CBA
330
2
100
AcDbEntity
  8
0
100
AcDbLine
 10
148.0847444849502
 20
169.8623379757286
 30
0.0
 11
143.1037709944914
 21
170.2981166894669
 31
0.0
  0
LINE
  5
CBB
330
2
100
AcDbEntity
  8
0
100
AcDbLine
 10
148.115248994912
 20
170.2110061200607
 30
0.0
 11
143.1342755044531
 21
170.646784833799
 31
0.0
  0
LINE
  5
CBC
330
2
100
AcDbEntity
  8
0
100
AcDbLine
 10
148.1457535048734
 20
170.5596742643928
 30
0.0
 11
143.1647800144148
 21
170.9954529781311
 31
0.0
  0
LINE
  5
CBD
330
2
100
AcDbEntity
  8
0
100
AcDbLine
 10
143.0708956864057
 20
169.9998469549713
 30
0.0
 11
143.245207171901
 21
171.9922363511547
 31
0.0
  0
LINE
  5
CBE
330
2
100
AcDbEntity
  8
0
100
AcDbLine
 10
119.3883923764974
 20
195.5679084969005
 30
0.0
 11
114.3428959925449
 21
194.4561398427963
 31
0.0
  0
LINE
  5
CBF
330
2
100
AcDbEntity
  8
0
100
AcDbLine
 10
118.80615507017
 20
187.1886900981308
 30
0.0
 11
120.9397373796311
 21
186.8124819714104
 31
0.0
  0
LINE
  5
CC0
330
2
100
AcDbEntity
  8
0
100
AcDbLine
 10
143.1898806779606
 20
176.5703526910953
 30
0.0
 11
113.2992362407026
 21
176.5703526910953
 31
0.0
  0
LINE
  5
CC1
330
2
100
AcDbEntity
  8
0
100
AcDbLine
 10
113.7772025637777
 20
176.5703526910953
 30
0.0
 11
143.2519357571625
 21
179.1490577059677
 31
0.0
  0
LINE
  5
CC2
330
2
100
AcDbEntity
  8
0
100
AcDbLine
 10
113.6898806779606
 20
178.5703526910953
 30
0.0
 11
143.0776242716672
 21
181.1414471021512
 31
0.0
  0
ARC
  5
CC3
330
2
100
AcDbEntity
  8
0
100
AcDbCircle
 10
113.2992362407112
 20
218.5703526910953
 30
0.0
 40
40.0
100
AcDbArc
 50
250.5608481874074
 51
270.0
  0
LINE
  5
CC4
330
2
100
AcDbEntity
  8
0
100
AcDbLine
 10
87.40376281534464
 20
181.0496612118559
 30
0.0
 11
98.65579051072337
 21
177.0785523306279
 31
0.0
  0
LINE
  5
CC5
330
2
100
AcDbEntity
  8
0
100
AcDbLine
 10
88.73498515443452
 20
184.8216430628075
 30
0.0
 11
99.98701284981326
 21
180.8505341815795
 31
0.0
  0
LINE
  5
CC6
330
2
100
AcDbEntity
  8
0
100
AcDbLine
 10
88.06937398488981
 20
182.9356521373317
 30
0.0
 11
99.32140168026808
 21
178.9645432561036
 31
0.0
  0
LINE
  5
CC7
330
2
100
AcDbEntity
  8
0
100
AcDbLine
 10
118.3849619272966
 20
187.0224014957414
 30
0.0
 11
114.3178762552697
 21
187.9561398427962
 31
0.0
  0
LINE
  5
CC8
330
2
100
AcDbEntity
  8
0
100
AcDbLine
 10
113.6898806779606
 20
178.5703526910953
 30
0.0
 11
113.2992362407112
 21
178.5703526910953
 31
0.0
  0
ARC
  5
CC9
330
2
100
AcDbEntity
  8
0
100
AcDbCircle
 10
118.4744670151646
 20
187.4122589559057
 30
0.0
 40
0.4
100
AcDbArc
 50
257.0698677002805
 51
326.0187104207608
  0
LINE
  5
CCA
330
2
100
AcDbEntity
  8
0
100
AcDbLine
 10
111.4078463593564
 20
188.1561398427963
 30
0.0
 11
111.4078463593564
 21
194.2561398427963
 31
0.0
  0
LINE
  5
CCB
330
2
100
AcDbEntity
  8
0
100
AcDbLine
 10
111.6078463593564
 20
187.9561398427962
 30
0.0
 11
114.3178762552695
 21
187.9561398427962
 31
0.0
  0
ARC
  5
CCC
330
2
100
AcDbEntity
  8
0
100
AcDbCircle
 10
111.6078463593564
 20
188.1561398427963
 30
0.0
 40
0.2
100
AcDbArc
 50
180.0
 51
270.0
  0
LINE
  5
CCD
330
2
100
AcDbEntity
  8
0
100
AcDbLine
 10
111.6078463593564
 20
194.4561398427964
 30
0.0
 11
114.3428959925449
 21
194.4561398427964
 31
0.0
  0
ARC
  5
CCE
330
2
100
AcDbEntity
  8
0
100
AcDbCircle
 10
111.6078463593564
 20
194.2561398427963
 30
0.0
 40
0.2
100
AcDbArc
 50
90.0
 51
180.0
  0
LINE
  5
CCF
330
2
100
AcDbEntity
  8
0
100
AcDbLine
 10
137.0527340035159
 20
193.1054794060637
 30
0.0
 11
129.2501320478086
 21
193.1054794060635
 31
0.0
  0
LINE
  5
CD0
330
2
100
AcDbEntity
  8
0
100
AcDbLine
 10
137.0527340035159
 20
194.3054794060636
 30
0.0
 11
129.1977389163184
 21
194.3054794060635
 31
0.0
  0
LINE
  5
CD1
330
2
100
AcDbEntity
  8
0
100
AcDbLine
 10
137.0527340035159
 20
195.6054794060635
 30
0.0
 11
130.7915028480924
 21
195.6054794060635
 31
0.0
  0
LINE
  5
CD2
330
2
100
AcDbEntity
  8
0
100
AcDbLine
 10
137.0527340035159
 20
196.8054794060636
 30
0.0
 11
130.6865164518615
 21
196.8054794060636
 31
0.0
  0
LINE
  5
CD3
330
2
100
AcDbEntity
  8
0
100
AcDbLine
 10
137.0527340035159
 20
185.6054794060636
 30
0.0
 11
130.6865164518619
 21
185.6054794060635
 31
0.0
  0
LINE
  5
CD4
330
2
100
AcDbEntity
  8
0
100
AcDbLine
 10
137.0527340035159
 20
186.8054794060636
 30
0.0
 11
130.7915028480938
 21
186.8054794060635
 31
0.0
  0
LINE
  5
CD5
330
2
100
AcDbEntity
  8
0
100
AcDbLine
 10
137.0527340035159
 20
188.1054794060635
 30
0.0
 11
129.1977389163216
 21
188.1054794060635
 31
0.0
  0
LINE
  5
CD6
330
2
100
AcDbEntity
  8
0
100
AcDbLine
 10
137.0527340035159
 20
189.3054794060636
 30
0.0
 11
129.2501320478127
 21
189.3054794060635
 31
0.0
  0
LINE
  5
CD7
330
2
100
AcDbEntity
  8
0
100
AcDbLine
 10
137.0527340035159
 20
191.8054794060636
 30
0.0
 11
121.1744670151645
 21
191.8054794060636
 31
0.0
  0
LINE
  5
CD8
330
2
100
AcDbEntity
  8
0
100
AcDbLine
 10
137.0527340035159
 20
190.6054794060636
 30
0.0
 11
121.1744670151645
 21
190.6054794060634
 31
0.0
  0
LINE
  5
CD9
330
2
100
AcDbEntity
  8
0
100
AcDbLine
 10
121.1744670151645
 20
187.0094435220129
 30
0.0
 11
121.1744670151645
 21
195.4015152901145
 31
0.0
  0
LINE
  5
CDA
330
2
100
AcDbEntity
  8
0
100
AcDbLine
 10
121.1744670151645
 20
188.1926900601341
 30
0.0
 11
127.3185392947548
 21
187.1093243458194
 31
0.0
  0
ARC
  5
CDB
330
2
100
AcDbEntity
  8
0
100
AcDbCircle
 10
130.7915028480936
 20
206.8054794060636
 30
0.0
 40
20.0
100
AcDbArc
 50
260.0000000000013
 51
270.0
  0
ARC
  5
CDC
330
2
100
AcDbEntity
  8
0
100
AcDbCircle
 10
130.6865164518619
 20
205.6054794060636
 30
0.0
 40
20.0
100
AcDbArc
 50
260.0000000000013
 51
270.0
  0
LINE
  5
CDD
330
2
100
AcDbEntity
  8
0
100
AcDbLine
 10
121.1714285657669
 20
186.9747138864796
 30
0.0
 11
127.2135528985231
 21
185.9093243458194
 31
0.0
  0
ARC
  5
CDE
330
2
100
AcDbEntity
  8
0
100
AcDbCircle
 10
120.9744670151644
 20
187.0094435220129
 30
0.0
 40
0.2
100
AcDbArc
 50
260.0000000000013
 51
0.0
  0
ARC
  5
CDF
330
2
100
AcDbEntity
  8
0
100
AcDbCircle
 10
130.6865164518615
 20
176.8054794060636
 30
0.0
 40
20.0
100
AcDbArc
 50
90.0
 51
99.99999999999861
  0
ARC
  5
CE0
330
2
100
AcDbEntity
  8
0
100
AcDbCircle
 10
130.7915028480927
 20
175.6054794060634
 30
0.0
 40
20.0
100
AcDbArc
 50
90.0
 51
99.99999999999861
  0
ARC
  5
CE1
330
2
100
AcDbEntity
  8
0
100
AcDbCircle
 10
129.1977389163187
 20
174.3054794060635
 30
0.0
 40
20.0
100
AcDbArc
 50
90.0
 51
94.99999999999975
  0
ARC
  5
CE2
330
2
100
AcDbEntity
  8
0
100
AcDbCircle
 10
129.2501320478088
 20
173.1054794060635
 30
0.0
 40
20.0
100
AcDbArc
 50
90.0
 51
94.99999999999975
  0
ARC
  5
CE3
330
2
100
AcDbEntity
  8
0
100
AcDbCircle
 10
129.2501320478127
 20
209.3054794060634
 30
0.0
 40
20.0
100
AcDbArc
 50
265.0000000000003
 51
270.0
  0
ARC
  5
CE4
330
2
100
AcDbEntity
  8
0
100
AcDbCircle
 10
129.1977389163216
 20
208.1054794060635
 30
0.0
 40
20.0
100
AcDbArc
 50
265.0000000000003
 51
270.0
  0
LINE
  5
CE5
330
2
100
AcDbEntity
  8
0
100
AcDbLine
 10
127.5070171928555
 20
193.0293733678984
 30
0.0
 11
121.1744670151645
 21
192.4753470161414
 31
0.0
  0
LINE
  5
CE6
330
2
100
AcDbEntity
  8
0
100
AcDbLine
 10
127.5070171928593
 20
189.3815854442286
 30
0.0
 11
121.1744670151645
 21
189.9356117959859
 31
0.0
  0
LINE
  5
CE7
330
2
100
AcDbEntity
  8
0
100
AcDbLine
 10
127.4546240613683
 20
188.1815854442286
 30
0.0
 11
121.1744670151645
 21
188.7310279909339
 31
0.0
  0
LINE
  5
CE8
330
2
100
AcDbEntity
  8
0
100
AcDbLine
 10
121.1744670151645
 20
194.2182687519931
 30
0.0
 11
127.3185392947541
 21
195.3016344663076
 31
0.0
  0
LINE
  5
CE9
330
2
100
AcDbEntity
  8
0
100
AcDbLine
 10
127.4546240613656
 20
194.2293733678985
 30
0.0
 11
121.1744670151645
 21
193.6799308211934
 31
0.0
  0
LINE
  5
CEA
330
2
100
AcDbEntity
  8
0
100
AcDbLine
 10
121.1714285657669
 20
195.4362449256478
 30
0.0
 11
127.2135528985229
 21
196.5016344663078
 31
0.0
  0
ARC
  5
CEB
330
2
100
AcDbEntity
  8
0
100
AcDbCircle
 10
120.9744670151644
 20
195.4015152901145
 30
0.0
 40
0.2
100
AcDbArc
 50
0.0
 51
99.99999999999861
  0
ARC
  5
CEC
330
2
100
AcDbEntity
  8
0
100
AcDbCircle
 10
119.4744670151646
 20
195.1772793165026
 30
0.0
 40
0.4
100
AcDbArc
 50
33.63399402201179
 51
102.4264747477324
  0
LINE
  5
CED
330
2
100
AcDbEntity
  8
0
100
AcDbLine
 10
119.8075041202494
 20
195.3988335686323
 30
0.0
 11
120.9397373796311
 21
195.5984768407169
 31
0.0
  0
LINE
  5
CEE
330
2
100
AcDbEntity
  8
0
100
AcDbLine
 10
146.5527340035159
 20
187.4554794060635
 30
0.0
 11
146.5527340035159
 21
187.8054794060636
 31
0.0
  0
ARC
  5
CEF
330
2
100
AcDbEntity
  8
0
100
AcDbCircle
 10
141.6527340035159
 20
187.6054794060635
 30
0.0
 40
0.1
100
AcDbArc
 50
90.0
 51
180.0
  0
LINE
  5
CF0
330
2
100
AcDbEntity
  8
0
100
AcDbLine
 10
148.5527340035159
 20
197.4554794060636
 30
0.0
 11
148.5527340035159
 21
184.9554794060636
 31
0.0
  0
LINE
  5
CF1
330
2
100
AcDbEntity
  8
0
100
AcDbLine
 10
148.5527340035159
 20
197.4554794060636
 30
0.0
 11
148.5527340035159
 21
184.9554794060636
 31
0.0
  0
LINE
  5
CF2
330
2
100
AcDbEntity
  8
0
100
AcDbLine
 10
137.0527340035159
 20
197.4554794060636
 30
0.0
 11
137.0527340035159
 21
184.9554794060636
 31
0.0
  0
LINE
  5
CF3
330
2
100
AcDbEntity
  8
0
100
AcDbLine
 10
139.0527340035159
 20
197.4554794060636
 30
0.0
 11
139.0527340035159
 21
184.9554794060636
 31
0.0
  0
LINE
  5
CF4
330
2
100
AcDbEntity
  8
0
100
AcDbLine
 10
144.952734003516
 20
185.2054794060635
 30
0.0
 11
141.6527340035159
 21
185.2054794060635
 31
0.0
  0
LINE
  5
CF5
330
2
100
AcDbEntity
  8
0
100
AcDbLine
 10
144.952734003516
 20
187.2054794060636
 30
0.0
 11
141.6527340035159
 21
187.2054794060636
 31
0.0
  0
LINE
  5
CF6
330
2
100
AcDbEntity
  8
0
100
AcDbLine
 10
148.0847444849502
 20
181.2783674064619
 30
0.0
 11
143.1037709944914
 21
180.8425886927237
 31
0.0
  0
LINE
  5
CF7
330
2
100
AcDbEntity
  8
0
100
AcDbLine
 10
148.1762580148351
 20
180.2323629734656
 30
0.0
 11
143.1952845243765
 21
179.7965842597273
 31
0.0
  0
LINE
  5
CF8
330
2
100
AcDbEntity
  8
0
100
AcDbLine
 10
148.2236443716333
 20
179.8851717993511
 30
0.0
 11
143.2257890343382
 21
179.4479161153952
 31
0.0
  0
LINE
  5
CF9
330
2
100
AcDbEntity
  8
0
100
AcDbLine
 10
148.1898806779606
 20
176.2703526910953
 30
0.0
 11
143.1898806779606
 21
176.2703526910953
 31
0.0
  0
LINE
  5
CFA
330
2
100
AcDbEntity
  8
0
100
AcDbLine
 10
148.1457535048734
 20
180.5810311177977
 30
0.0
 11
143.1647800144148
 21
180.1452524040594
 31
0.0
  0
LINE
  5
CFB
330
2
100
AcDbEntity
  8
0
100
AcDbLine
 10
148.115248994912
 20
180.9296992621298
 30
0.0
 11
143.1342755044531
 21
180.4939205483915
 31
0.0
  0
LINE
  5
CFC
330
2
100
AcDbEntity
  8
0
100
AcDbLine
 10
148.5527340035159
 20
184.9554794060636
 30
0.0
 11
137.0527340035159
 21
184.9554794060636
 31
0.0
  0
LINE
  5
CFD
330
2
100
AcDbEntity
  8
0
100
AcDbLine
 10
143.0776242716672
 20
181.1414471021512
 30
0.0
 11
143.2519357571625
 21
179.1490577059677
 31
0.0
  0
LINE
  5
CFE
330
2
100
AcDbEntity
  8
0
100
AcDbLine
 10
141.5527340035159
 20
185.1054794060635
 30
0.0
 11
141.5527340035159
 21
184.9554794060636
 31
0.0
  0
ARC
  5
CFF
330
2
100
AcDbEntity
  8
0
100
AcDbCircle
 10
141.6527340035159
 20
185.1054794060635
 30
0.0
 40
0.1
100
AcDbArc
 50
90.0
 51
180.0
  0
LINE
  5
D00
330
2
100
AcDbEntity
  8
0
100
AcDbLine
 10
141.5527340035159
 20
187.4554794060635
 30
0.0
 11
141.5527340035159
 21
187.3054794060636
 31
0.0
  0
ARC
  5
D01
330
2
100
AcDbEntity
  8
0
100
AcDbCircle
 10
141.6527340035159
 20
187.3054794060636
 30
0.0
 40
0.1
100
AcDbArc
 50
180.0
 51
270.0
  0
LINE
  5
D02
330
2
100
AcDbEntity
  8
0
100
AcDbLine
 10
141.5527340035159
 20
187.4554794060635
 30
0.0
 11
141.5527340035159
 21
187.6054794060635
 31
0.0
  0
LINE
  5
D03
330
2
100
AcDbEntity
  8
0
100
AcDbLine
 10
145.0527340035159
 20
187.1054794060635
 30
0.0
 11
145.0527340035159
 21
185.3054794060636
 31
0.0
  0
LINE
  5
D04
330
2
100
AcDbEntity
  8
0
100
AcDbLine
 10
147.5527340035159
 20
186.9054794060636
 30
0.0
 11
147.5527340035159
 21
185.5054794060636
 31
0.0
  0
ARC
  5
D05
330
2
100
AcDbEntity
  8
0
100
AcDbCircle
 10
144.952734003516
 20
185.3054794060636
 30
0.0
 40
0.1
100
AcDbArc
 50
270.0
 51
0.0
  0
ARC
  5
D06
330
2
100
AcDbEntity
  8
0
100
AcDbCircle
 10
147.4527340035158
 20
185.5054794060636
 30
0.0
 40
0.1
100
AcDbArc
 50
270.0
 51
0.0
  0
ARC
  5
D07
330
2
100
AcDbEntity
  8
0
100
AcDbCircle
 10
146.6527340035158
 20
185.3054794060636
 30
0.0
 40
0.1
100
AcDbArc
 50
90.0
 51
180.0
  0
LINE
  5
D08
330
2
100
AcDbEntity
  8
0
100
AcDbLine
 10
146.5527340035159
 20
184.9554794060636
 30
0.0
 11
146.5527340035159
 21
185.3054794060636
 31
0.0
  0
LINE
  5
D09
330
2
100
AcDbEntity
  8
0
100
AcDbLine
 10
147.4527340035158
 20
185.4054794060636
 30
0.0
 11
146.6527340035158
 21
185.4054794060636
 31
0.0
  0
ARC
  5
D0A
330
2
100
AcDbEntity
  8
0
100
AcDbCircle
 10
144.952734003516
 20
187.1054794060635
 30
0.0
 40
0.1
100
AcDbArc
 50
0.0
 51
90.0
  0
LINE
  5
D0B
330
2
100
AcDbEntity
  8
0
100
AcDbLine
 10
146.5527340035159
 20
187.4554794060635
 30
0.0
 11
146.5527340035159
 21
187.1054794060635
 31
0.0
  0
ARC
  5
D0C
330
2
100
AcDbEntity
  8
0
100
AcDbCircle
 10
147.4527340035158
 20
186.9054794060636
 30
0.0
 40
0.1
100
AcDbArc
 50
0.0
 51
90.0
  0
ARC
  5
D0D
330
2
100
AcDbEntity
  8
0
100
AcDbCircle
 10
146.6527340035158
 20
187.1054794060635
 30
0.0
 40
0.1
100
AcDbArc
 50
180.0
 51
270.0
  0
LINE
  5
D0E
330
2
100
AcDbEntity
  8
0
100
AcDbLine
 10
147.4527340035158
 20
187.0054794060636
 30
0.0
 11
146.6527340035158
 21
187.0054794060636
 31
0.0
  0
LINE
  5
D0F
330
2
100
AcDbEntity
  8
0
100
AcDbLine
 10
144.952734003516
 20
197.2054794060636
 30
0.0
 11
141.6527340035159
 21
197.2054794060636
 31
0.0
  0
LINE
  5
D10
330
2
100
AcDbEntity
  8
0
100
AcDbLine
 10
144.952734003516
 20
192.2054794060636
 30
0.0
 11
141.6527340035159
 21
192.2054794060636
 31
0.0
  0
LINE
  5
D11
330
2
100
AcDbEntity
  8
0
100
AcDbLine
 10
144.952734003516
 20
192.7054794060636
 30
0.0
 11
141.6527340035159
 21
192.7054794060636
 31
0.0
  0
LINE
  5
D12
330
2
100
AcDbEntity
  8
0
100
AcDbLine
 10
144.952734003516
 20
194.7054794060635
 30
0.0
 11
141.6527340035159
 21
194.7054794060635
 31
0.0
  0
LINE
  5
D13
330
2
100
AcDbEntity
  8
0
100
AcDbLine
 10
144.952734003516
 20
195.2054794060636
 30
0.0
 11
141.6527340035159
 21
195.2054794060636
 31
0.0
  0
LINE
  5
D14
330
2
100
AcDbEntity
  8
0
100
AcDbLine
 10
144.952734003516
 20
189.7054794060636
 30
0.0
 11
141.6527340035159
 21
189.7054794060636
 31
0.0
  0
LINE
  5
D15
330
2
100
AcDbEntity
  8
0
100
AcDbLine
 10
144.952734003516
 20
190.2054794060635
 30
0.0
 11
141.6527340035159
 21
190.2054794060635
 31
0.0
  0
LINE
  5
D16
330
2
100
AcDbEntity
  8
0
100
AcDbLine
 10
144.952734003516
 20
187.7054794060636
 30
0.0
 11
141.6527340035159
 21
187.7054794060636
 31
0.0
  0
LINE
  5
D17
330
2
100
AcDbEntity
  8
0
100
AcDbLine
 10
148.5527340035159
 20
197.4554794060636
 30
0.0
 11
137.0527340035159
 21
197.4554794060636
 31
0.0
  0
ARC
  5
D18
330
2
100
AcDbEntity
  8
0
100
AcDbCircle
 10
141.6527340035159
 20
192.3054794060636
 30
0.0
 40
0.1
100
AcDbArc
 50
180.0
 51
270.0
  0
ARC
  5
D19
330
2
100
AcDbEntity
  8
0
100
AcDbCircle
 10
141.6527340035159
 20
192.6054794060635
 30
0.0
 40
0.1
100
AcDbArc
 50
90.0
 51
180.0
  0
LINE
  5
D1A
330
2
100
AcDbEntity
  8
0
100
AcDbLine
 10
141.5527340035159
 20
192.6054794060635
 30
0.0
 11
141.5527340035159
 21
192.3054794060636
 31
0.0
  0
ARC
  5
D1B
330
2
100
AcDbEntity
  8
0
100
AcDbCircle
 10
141.6527340035159
 20
189.8054794060636
 30
0.0
 40
0.1
100
AcDbArc
 50
180.0
 51
270.0
  0
LINE
  5
D1C
330
2
100
AcDbEntity
  8
0
100
AcDbLine
 10
141.5527340035159
 20
189.8054794060636
 30
0.0
 11
141.5527340035159
 21
190.1054794060635
 31
0.0
  0
ARC
  5
D1D
330
2
100
AcDbEntity
  8
0
100
AcDbCircle
 10
141.6527340035159
 20
190.1054794060635
 30
0.0
 40
0.1
100
AcDbArc
 50
90.0
 51
180.0
  0
ARC
  5
D1E
330
2
100
AcDbEntity
  8
0
100
AcDbCircle
 10
141.6527340035159
 20
197.3054794060636
 30
0.0
 40
0.1
100
AcDbArc
 50
180.0
 51
270.0
  0
LINE
  5
D1F
330
2
100
AcDbEntity
  8
0
100
AcDbLine
 10
141.5527340035159
 20
197.3054794060636
 30
0.0
 11
141.5527340035159
 21
197.4554794060636
 31
0.0
  0
LINE
  5
D20
330
2
100
AcDbEntity
  8
0
100
AcDbLine
 10
141.5527340035159
 20
194.9554794060636
 30
0.0
 11
141.5527340035159
 21
194.8054794060636
 31
0.0
  0
ARC
  5
D21
330
2
100
AcDbEntity
  8
0
100
AcDbCircle
 10
141.6527340035159
 20
195.1054794060635
 30
0.0
 40
0.1
100
AcDbArc
 50
90.0
 51
180.0
  0
LINE
  5
D22
330
2
100
AcDbEntity
  8
0
100
AcDbLine
 10
141.5527340035159
 20
194.9554794060636
 30
0.0
 11
141.5527340035159
 21
195.1054794060635
 31
0.0
  0
ARC
  5
D23
330
2
100
AcDbEntity
  8
0
100
AcDbCircle
 10
141.6527340035159
 20
194.8054794060636
 30
0.0
 40
0.1
100
AcDbArc
 50
180.0
 51
270.0
  0
LINE
  5
D24
330
2
100
AcDbEntity
  8
0
100
AcDbLine
 10
147.5527340035159
 20
194.4054794060636
 30
0.0
 11
147.5527340035159
 21
193.0054794060636
 31
0.0
  0
LINE
  5
D25
330
2
100
AcDbEntity
  8
0
100
AcDbLine
 10
145.0527340035159
 20
194.6054794060635
 30
0.0
 11
145.0527340035159
 21
192.8054794060636
 31
0.0
  0
LINE
  5
D26
330
2
100
AcDbEntity
  8
0
100
AcDbLine
 10
145.0527340035159
 20
190.3054794060636
 30
0.0
 11
145.0527340035159
 21
191.2054794060636
 31
0.0
  0
LINE
  5
D27
330
2
100
AcDbEntity
  8
0
100
AcDbLine
 10
147.5527340035159
 20
191.2054794060636
 30
0.0
 11
147.5527340035159
 21
190.5054794060635
 31
0.0
  0
LINE
  5
D28
330
2
100
AcDbEntity
  8
0
100
AcDbLine
 10
145.0527340035159
 20
192.1054794060635
 30
0.0
 11
145.0527340035159
 21
191.2054794060636
 31
0.0
  0
ARC
  5
D29
330
2
100
AcDbEntity
  8
0
100
AcDbCircle
 10
144.952734003516
 20
192.1054794060635
 30
0.0
 40
0.1
100
AcDbArc
 50
0.0
 51
90.0
  0
ARC
  5
D2A
330
2
100
AcDbEntity
  8
0
100
AcDbCircle
 10
144.952734003516
 20
192.8054794060636
 30
0.0
 40
0.1
100
AcDbArc
 50
270.0
 51
0.0
  0
LINE
  5
D2B
330
2
100
AcDbEntity
  8
0
100
AcDbLine
 10
147.5527340035159
 20
191.2054794060636
 30
0.0
 11
147.5527340035159
 21
191.9054794060636
 31
0.0
  0
ARC
  5
D2C
330
2
100
AcDbEntity
  8
0
100
AcDbCircle
 10
147.4527340035158
 20
191.9054794060636
 30
0.0
 40
0.1
100
AcDbArc
 50
0.0
 51
90.0
  0
ARC
  5
D2D
330
2
100
AcDbEntity
  8
0
100
AcDbCircle
 10
147.4527340035158
 20
193.0054794060636
 30
0.0
 40
0.1
100
AcDbArc
 50
270.0
 51
0.0
  0
ARC
  5
D2E
330
2
100
AcDbEntity
  8
0
100
AcDbCircle
 10
146.6527340035158
 20
192.1054794060635
 30
0.0
 40
0.1
100
AcDbArc
 50
180.0
 51
270.0
  0
ARC
  5
D2F
330
2
100
AcDbEntity
  8
0
100
AcDbCircle
 10
146.6527340035158
 20
192.8054794060636
 30
0.0
 40
0.1
100
AcDbArc
 50
90.0
 51
180.0
  0
LINE
  5
D30
330
2
100
AcDbEntity
  8
0
100
AcDbLine
 10
146.5527340035159
 20
192.4554794060636
 30
0.0
 11
146.5527340035159
 21
192.8054794060636
 31
0.0
  0
LINE
  5
D31
330
2
100
AcDbEntity
  8
0
100
AcDbLine
 10
146.5527340035159
 20
192.4554794060636
 30
0.0
 11
146.5527340035159
 21
192.1054794060635
 31
0.0
  0
LINE
  5
D32
330
2
100
AcDbEntity
  8
0
100
AcDbLine
 10
147.4527340035158
 20
192.9054794060636
 30
0.0
 11
146.6527340035158
 21
192.9054794060636
 31
0.0
  0
LINE
  5
D33
330
2
100
AcDbEntity
  8
0
100
AcDbLine
 10
147.4527340035158
 20
192.0054794060636
 30
0.0
 11
146.6527340035158
 21
192.0054794060636
 31
0.0
  0
ARC
  5
D34
330
2
100
AcDbEntity
  8
0
100
AcDbCircle
 10
144.952734003516
 20
190.3054794060636
 30
0.0
 40
0.1
100
AcDbArc
 50
270.0
 51
0.0
  0
LINE
  5
D35
330
2
100
AcDbEntity
  8
0
100
AcDbLine
 10
146.5527340035159
 20
189.9554794060636
 30
0.0
 11
146.5527340035159
 21
190.3054794060636
 31
0.0
  0
ARC
  5
D36
330
2
100
AcDbEntity
  8
0
100
AcDbCircle
 10
146.6527340035158
 20
190.3054794060636
 30
0.0
 40
0.1
100
AcDbArc
 50
90.0
 51
180.0
  0
LINE
  5
D37
330
2
100
AcDbEntity
  8
0
100
AcDbLine
 10
147.4527340035158
 20
190.4054794060636
 30
0.0
 11
146.6527340035158
 21
190.4054794060636
 31
0.0
  0
ARC
  5
D38
330
2
100
AcDbEntity
  8
0
100
AcDbCircle
 10
147.4527340035158
 20
190.5054794060635
 30
0.0
 40
0.1
100
AcDbArc
 50
270.0
 51
0.0
  0
ARC
  5
D39
330
2
100
AcDbEntity
  8
0
100
AcDbCircle
 10
147.4527340035158
 20
189.4054794060636
 30
0.0
 40
0.1
100
AcDbArc
 50
0.0
 51
90.0
  0
ARC
  5
D3A
330
2
100
AcDbEntity
  8
0
100
AcDbCircle
 10
146.6527340035158
 20
189.6054794060635
 30
0.0
 40
0.1
100
AcDbArc
 50
180.0
 51
270.0
  0
LINE
  5
D3B
330
2
100
AcDbEntity
  8
0
100
AcDbLine
 10
147.4527340035158
 20
189.5054794060636
 30
0.0
 11
146.6527340035158
 21
189.5054794060636
 31
0.0
  0
ARC
  5
D3C
330
2
100
AcDbEntity
  8
0
100
AcDbCircle
 10
144.952734003516
 20
187.8054794060636
 30
0.0
 40
0.1
100
AcDbArc
 50
270.0
 51
0.0
  0
ARC
  5
D3D
330
2
100
AcDbEntity
  8
0
100
AcDbCircle
 10
147.4527340035158
 20
188.0054794060635
 30
0.0
 40
0.1
100
AcDbArc
 50
270.0
 51
0.0
  0
ARC
  5
D3E
330
2
100
AcDbEntity
  8
0
100
AcDbCircle
 10
146.6527340035158
 20
187.8054794060636
 30
0.0
 40
0.1
100
AcDbArc
 50
90.0
 51
180.0
  0
LINE
  5
D3F
330
2
100
AcDbEntity
  8
0
100
AcDbLine
 10
147.4527340035158
 20
187.9054794060636
 30
0.0
 11
146.6527340035158
 21
187.9054794060636
 31
0.0
  0
LINE
  5
D40
330
2
100
AcDbEntity
  8
0
100
AcDbLine
 10
145.0527340035159
 20
187.8054794060636
 30
0.0
 11
145.0527340035159
 21
189.6054794060635
 31
0.0
  0
LINE
  5
D41
330
2
100
AcDbEntity
  8
0
100
AcDbLine
 10
147.5527340035159
 20
188.0054794060635
 30
0.0
 11
147.5527340035159
 21
189.4054794060636
 31
0.0
  0
ARC
  5
D42
330
2
100
AcDbEntity
  8
0
100
AcDbCircle
 10
144.952734003516
 20
189.6054794060635
 30
0.0
 40
0.1
100
AcDbArc
 50
0.0
 51
90.0
  0
LINE
  5
D43
330
2
100
AcDbEntity
  8
0
100
AcDbLine
 10
146.5527340035159
 20
189.9554794060636
 30
0.0
 11
146.5527340035159
 21
189.6054794060635
 31
0.0
  0
ARC
  5
D44
330
2
100
AcDbEntity
  8
0
100
AcDbCircle
 10
144.952734003516
 20
197.1054794060635
 30
0.0
 40
0.1
100
AcDbArc
 50
0.0
 51
90.0
  0
ARC
  5
D45
330
2
100
AcDbEntity
  8
0
100
AcDbCircle
 10
147.4527340035158
 20
196.9054794060636
 30
0.0
 40
0.1
100
AcDbArc
 50
0.0
 51
90.0
  0
LINE
  5
D46
330
2
100
AcDbEntity
  8
0
100
AcDbLine
 10
146.5527340035159
 20
197.4554794060636
 30
0.0
 11
146.5527340035159
 21
197.1054794060635
 31
0.0
  0
ARC
  5
D47
330
2
100
AcDbEntity
  8
0
100
AcDbCircle
 10
146.6527340035158
 20
197.1054794060635
 30
0.0
 40
0.1
100
AcDbArc
 50
180.0
 51
270.0
  0
LINE
  5
D48
330
2
100
AcDbEntity
  8
0
100
AcDbLine
 10
147.4527340035158
 20
197.0054794060636
 30
0.0
 11
146.6527340035158
 21
197.0054794060636
 31
0.0
  0
LINE
  5
D49
330
2
100
AcDbEntity
  8
0
100
AcDbLine
 10
146.5527340035159
 20
194.9554794060636
 30
0.0
 11
146.5527340035159
 21
194.6054794060635
 31
0.0
  0
ARC
  5
D4A
330
2
100
AcDbEntity
  8
0
100
AcDbCircle
 10
144.952734003516
 20
195.3054794060636
 30
0.0
 40
0.1
100
AcDbArc
 50
270.0
 51
0.0
  0
ARC
  5
D4B
330
2
100
AcDbEntity
  8
0
100
AcDbCircle
 10
147.4527340035158
 20
195.5054794060635
 30
0.0
 40
0.1
100
AcDbArc
 50
270.0
 51
0.0
  0
ARC
  5
D4C
330
2
100
AcDbEntity
  8
0
100
AcDbCircle
 10
146.6527340035158
 20
195.3054794060636
 30
0.0
 40
0.1
100
AcDbArc
 50
90.0
 51
180.0
  0
LINE
  5
D4D
330
2
100
AcDbEntity
  8
0
100
AcDbLine
 10
146.5527340035159
 20
194.9554794060636
 30
0.0
 11
146.5527340035159
 21
195.3054794060636
 31
0.0
  0
LINE
  5
D4E
330
2
100
AcDbEntity
  8
0
100
AcDbLine
 10
147.4527340035158
 20
195.4054794060636
 30
0.0
 11
146.6527340035158
 21
195.4054794060636
 31
0.0
  0
ARC
  5
D4F
330
2
100
AcDbEntity
  8
0
100
AcDbCircle
 10
147.4527340035158
 20
194.4054794060636
 30
0.0
 40
0.1
100
AcDbArc
 50
0.0
 51
90.0
  0
LINE
  5
D50
330
2
100
AcDbEntity
  8
0
100
AcDbLine
 10
147.4527340035158
 20
194.5054794060636
 30
0.0
 11
146.6527340035158
 21
194.5054794060636
 31
0.0
  0
ARC
  5
D51
330
2
100
AcDbEntity
  8
0
100
AcDbCircle
 10
144.952734003516
 20
194.6054794060635
 30
0.0
 40
0.1
100
AcDbArc
 50
0.0
 51
90.0
  0
ARC
  5
D52
330
2
100
AcDbEntity
  8
0
100
AcDbCircle
 10
146.6527340035158
 20
194.6054794060635
 30
0.0
 40
0.1
100
AcDbArc
 50
180.0
 51
270.0
  0
LINE
  5
D53
330
2
100
AcDbEntity
  8
0
100
AcDbLine
 10
145.0527340035159
 20
195.3054794060636
 30
0.0
 11
145.0527340035159
 21
197.1054794060635
 31
0.0
  0
LINE
  5
D54
330
2
100
AcDbEntity
  8
0
100
AcDbLine
 10
147.5527340035159
 20
195.5054794060635
 30
0.0
 11
147.5527340035159
 21
196.9054794060636
 31
0.0
  0
LINE
  5
D55
330
2
100
AcDbEntity
  8
0
100
AcDbLine
 10
106.5108629515165
 20
269.7379711865882
 30
0.0
 11
60.49333746150825
 21
270.1395466782434
 31
0.0
  0
LINE
  5
D56
330
2
100
AcDbEntity
  8
0
100
AcDbLine
 10
108.4934104615082
 20
288.7206703325641
 30
0.0
 11
63.49324646150825
 21
289.1133729882318
 31
0.0
  0
LINE
  5
D57
330
2
100
AcDbEntity
  8
0
100
AcDbLine
 10
59.49324646150813
 20
270.3600337664593
 30
0.0
 11
25.48451992600991
 21
270.6568234266668
 31
0.0
  0
ARC
  5
D58
330
2
100
AcDbEntity
  8
0
100
AcDbCircle
 10
25.49324646150836
 20
271.656785349731
 30
0.0
 40
1.0
100
AcDbArc
 50
180.0
 51
269.5000000000019
  0
POINT
  5
D59
330
2
100
AcDbEntity
  8
0
100
AcDbPoint
 10
24.49324646150836
 20
271.6567853497309
 30
0.0
  0
LINE
  5
D5A
330
2
100
AcDbEntity
  8
0
100
AcDbLine
 10
60.49333746150825
 20
270.1395466782434
 30
0.0
 11
60.49333746150836
 21
280.7206703367045
 31
0.0
  0
LINE
  5
D5B
330
2
100
AcDbEntity
  8
0
 62
     7
100
AcDbLine
 10
60.49341046150829
 20
270.4395723325641
 30
0.0
 11
59.49341046150829
 21
270.4483773325641
 31
0.0
  0
LINE
  5
D5C
330
2
100
AcDbEntity
  8
0
 62
     7
100
AcDbLine
 10
60.49341046150829
 20
270.4395723325641
 30
0.0
 11
60.49341046150829
 21
270.1395693325641
 31
0.0
  0
LINE
  5
D5D
330
2
100
AcDbEntity
  8
0
100
AcDbLine
 10
64.99341046150817
 20
291.720670332564
 30
0.0
 11
69.52830995821097
 21
291.8790325125565
 31
0.0
  0
LINE
  5
D5E
330
2
100
AcDbEntity
  8
0
100
AcDbLine
 10
63.49324646150825
 20
291.6944877351717
 30
0.0
 11
63.49324646150825
 21
280.7206703325641
 31
0.0
  0
ARC
  5
D5F
330
2
100
AcDbEntity
  8
0
100
AcDbCircle
 10
60.49324646150825
 20
281.7206703325641
 30
0.0
 40
1.0
100
AcDbArc
 50
180.0
 51
270.0
  0
LINE
  5
D60
330
2
100
AcDbEntity
  8
0
100
AcDbLine
 10
63.49324646150825
 20
280.7206703325641
 30
0.0
 11
60.49324646150825
 21
280.7206703325641
 31
0.0
  0
LINE
  5
D61
330
2
100
AcDbEntity
  8
0
100
AcDbLine
 10
64.99341046150817
 20
291.720670332564
 30
0.0
 11
60.49341046150818
 21
291.6421225403871
 31
0.0
  0
ARC
  5
D62
330
2
100
AcDbEntity
  8
0
100
AcDbCircle
 10
69.49341046150829
 20
292.8784233395755
 30
0.0
 40
1.0
100
AcDbArc
 50
272.0000000000036
 51
0.0
  0
ARC
  5
D63
330
2
100
AcDbEntity
  8
0
100
AcDbCircle
 10
110.4934104615082
 20
259.696069332564
 30
0.0
 40
2.0
100
AcDbArc
 50
180.0
 51
269.5000000000019
  0
LINE
  5
D64
330
2
100
AcDbEntity
  8
0
100
AcDbLine
 10
117.9934104615082
 20
257.6306703325641
 30
0.0
 11
110.4760074615083
 21
257.6962713325641
 31
0.0
  0
ARC
  5
D65
330
2
100
AcDbEntity
  8
0
100
AcDbCircle
 10
106.4934104615082
 20
267.7380473353897
 30
0.0
 40
2.0
100
AcDbArc
 50
0.0
 51
89.50001664472729
  0
LINE
  5
D66
330
2
100
AcDbEntity
  8
0
100
AcDbLine
 10
107.4934104615082
 20
284.7207013325641
 30
0.0
 11
107.4934104615082
 21
276.7207013325641
 31
0.0
  0
ARC
  5
D67
330
2
100
AcDbEntity
  8
0
100
AcDbCircle
 10
110.8934124615083
 20
280.7207013325641
 30
0.0
 40
6.5
100
AcDbArc
 50
146.9443049999971
 51
213.0556950000028
  0
LINE
  5
D68
330
2
100
AcDbEntity
  8
0
100
AcDbLine
 10
110.4934104615081
 20
275.130705332564
 30
0.0
 11
117.9934104615082
 21
275.130705332564
 31
0.0
  0
LINE
  5
D69
330
2
100
AcDbEntity
  8
CENTER
100
AcDbLine
 10
103.1865104615083
 20
280.7207013325641
 30
0.0
 11
113.3851114615083
 21
280.7207013325641
 31
0.0
  0
ARC
  5
D6A
330
2
100
AcDbEntity
  8
0
100
AcDbCircle
 10
106.2836094615083
 20
277.7207013325641
 30
0.0
 40
1.0
100
AcDbArc
 50
213.0556950000028
 51
270.0
  0
ARC
  5
D6B
330
2
100
AcDbEntity
  8
0
100
AcDbCircle
 10
110.4934104615081
 20
277.130705332564
 30
0.0
 40
2.0
100
AcDbArc
 50
180.0
 51
270.0
  0
LINE
  5
D6C
330
2
100
AcDbEntity
  8
0
100
AcDbLine
 10
107.4934104615082
 20
276.7207013325641
 30
0.0
 11
106.2836094615083
 21
276.7207013325641
 31
0.0
  0
LINE
  5
D6D
330
2
100
AcDbEntity
  8
0
100
AcDbLine
 10
108.5450084615082
 20
276.9208013325641
 30
0.0
 11
107.4934104615082
 21
276.9208013325641
 31
0.0
  0
LINE
  5
D6E
330
2
100
AcDbEntity
  8
0
100
AcDbLine
 10
107.4934104615082
 20
284.7207013325641
 30
0.0
 11
106.2836094615083
 21
284.7207013325641
 31
0.0
  0
ARC
  5
D6F
330
2
100
AcDbEntity
  8
0
100
AcDbCircle
 10
106.2836094615083
 20
283.7207013325641
 30
0.0
 40
1.0
100
AcDbArc
 50
90.0
 51
146.9443049999971
  0
LINE
  5
D70
330
2
100
AcDbEntity
  8
0
100
AcDbLine
 10
107.4934104615082
 20
284.5208113325641
 30
0.0
 11
108.4934104615082
 21
284.5208113325641
 31
0.0
  0
LINE
  5
E9F
330
2
100
AcDbEntity
  8
0
100
AcDbLine
 10
106.5108629515165
 20
335.7033694785399
 30
0.0
 11
60.49333746150825
 21
335.3017939868848
 31
0.0
  0
LINE
  5
EA0
330
2
100
AcDbEntity
  8
0
100
AcDbLine
 10
108.4934104615082
 20
316.7206703325641
 30
0.0
 11
63.49324646150825
 21
316.3279676768965
 31
0.0
  0
LINE
  5
EA5
330
2
100
AcDbEntity
  8
0
100
AcDbLine
 10
51.99340246150796
 20
303.2293972003549
 30
0.0
 11
37.53791169133973
 21
303.2293972003549
 31
0.0
  0
LINE
  5
EA6
330
2
100
AcDbEntity
  8
0
100
AcDbLine
 10
51.99340246150796
 20
302.2293972003549
 30
0.0
 11
37.53791169133973
 21
302.229397200355
 31
0.0
  0
LINE
  5
EA7
330
2
100
AcDbEntity
  8
0
100
AcDbLine
 10
59.49324646150813
 20
335.0813068986687
 30
0.0
 11
25.48451992600991
 21
334.7845172384614
 31
0.0
  0
LINE
  5
EA8
330
2
100
AcDbEntity
  8
0
100
AcDbLine
 10
37.53791169133973
 20
303.0293972003549
 30
0.0
 11
27.53791169133973
 21
303.029397200355
 31
0.0
  0
LINE
  5
EA9
330
2
100
AcDbEntity
  8
0
100
AcDbLine
 10
37.53791169133973
 20
302.7293972003549
 30
0.0
 11
27.53791169133973
 21
302.7293972003551
 31
0.0
  0
LINE
  5
EAA
330
2
100
AcDbEntity
  8
0
100
AcDbLine
 10
37.53791169133973
 20
302.429397200355
 30
0.0
 11
27.53791169133973
 21
302.429397200355
 31
0.0
  0
LINE
  5
EAB
330
2
100
AcDbEntity
  8
0
100
AcDbLine
 10
37.53791169133973
 20
302.229397200355
 30
0.0
 11
37.53791169133973
 21
303.2293972003549
 31
0.0
  0
ARC
  5
EAC
330
2
100
AcDbEntity
  8
0
100
AcDbCircle
 10
25.49324646150813
 20
333.7845553153972
 30
0.0
 40
1.0
100
AcDbArc
 50
90.49999999999805
 51
180.0
  0
POINT
  5
EAD
330
2
100
AcDbEntity
  8
0
100
AcDbPoint
 10
24.49324646150813
 20
333.784555315397
 30
0.0
  0
LINE
  5
EAE
330
2
100
AcDbEntity
  8
0
100
AcDbLine
 10
63.49324646150825
 20
313.7468529299564
 30
0.0
 11
63.49324646150825
 21
324.7206703325641
 31
0.0
  0
LINE
  5
EAF
330
2
100
AcDbEntity
  8
0
100
AcDbLine
 10
64.99391920644126
 20
313.7206614523882
 30
0.0
 11
69.52830995821097
 21
313.56231703816
 31
0.0
  0
LINE
  5
EB0
330
2
100
AcDbEntity
  8
0
100
AcDbLine
 10
64.9934104615084
 20
304.220670332564
 30
0.0
 11
76.11878990074576
 21
304.2206703325637
 31
0.0
  0
LINE
  5
EB1
330
2
100
AcDbEntity
  8
0
100
AcDbLine
 10
64.9934104615084
 20
310.220670332564
 30
0.0
 11
76.04099955688486
 21
310.220670332564
 31
0.0
  0
LINE
  5
EB2
330
2
100
AcDbEntity
  8
0
100
AcDbLine
 10
64.99341046150829
 20
295.8206703325639
 30
0.0
 11
75.81636647270141
 21
295.8206703325639
 31
0.0
  0
ARC
  5
EB3
330
2
100
AcDbEntity
  8
0
100
AcDbCircle
 10
66.79341046150824
 20
299.920670332564
 30
0.0
 40
2.0
100
AcDbArc
 50
30.00000000000054
 51
90.00000000002605
  0
LINE
  5
EB4
330
2
100
AcDbEntity
  8
0
100
AcDbLine
 10
64.99341046150829
 20
297.8206703325639
 30
0.0
 11
75.72210687924161
 21
297.8206703325639
 31
0.0
  0
LINE
  5
EB5
330
2
100
AcDbEntity
  8
0
100
AcDbLine
 10
63.19341046150833
 20
300.920670332564
 30
0.0
 11
73.92210687924166
 21
300.9206703325638
 31
0.0
  0
LINE
  5
EB6
330
2
100
AcDbEntity
  8
0
100
AcDbLine
 10
63.19341046150833
 20
298.920670332564
 30
0.0
 11
74.01636647270146
 21
298.9206703325638
 31
0.0
  0
LINE
  5
EB7
330
2
100
AcDbEntity
  8
CENTER
100
AcDbLine
 10
75.49324646150825
 20
302.7206703325641
 30
0.0
 11
54.49324646150825
 21
302.7206703325641
 31
0.0
  0
ARC
  5
EB8
330
2
100
AcDbEntity
  8
0
100
AcDbCircle
 10
64.9934104615084
 20
307.2206703325639
 30
0.0
 40
3.0
100
AcDbArc
 50
90.0
 51
269.9999999999934
  0
ARC
  5
EB9
330
2
100
AcDbEntity
  8
0
100
AcDbCircle
 10
51.99340246150796
 20
302.7293972003549
 30
0.0
 40
0.5
100
AcDbArc
 50
270.0
 51
90.0
  0
ARC
  5
EBA
330
2
100
AcDbEntity
  8
0
100
AcDbCircle
 10
63.19341046150833
 20
299.920670332564
 30
0.0
 40
1.0
100
AcDbArc
 50
90.0
 51
270.0
  0
ARC
  5
EBB
330
2
100
AcDbEntity
  8
0
100
AcDbCircle
 10
63.19341046150833
 20
299.920670332564
 30
0.0
 40
2.0
100
AcDbArc
 50
89.99999999997395
 51
204.6092450239451
  0
ARC
  5
EBC
330
2
100
AcDbEntity
  8
0
100
AcDbCircle
 10
64.99341046150829
 20
298.220670332564
 30
0.0
 40
3.25
100
AcDbArc
 50
176.1778378686729
 51
249.4781325999764
  0
LINE
  5
EBD
330
2
100
AcDbEntity
  8
0
100
AcDbLine
 10
61.37507260598244
 20
299.0878153372845
 30
0.0
 11
61.75063924553405
 21
298.4373148359533
 31
0.0
  0
ARC
  5
EBE
330
2
100
AcDbEntity
  8
0
100
AcDbCircle
 10
64.99341046150829
 20
296.8206703325638
 30
0.0
 40
2.0
100
AcDbArc
 50
235.272931295419
 51
304.7270687045809
  0
ARC
  5
EBF
330
2
100
AcDbEntity
  8
0
100
AcDbCircle
 10
64.99341046150829
 20
296.8206703325638
 30
0.0
 40
1.0
100
AcDbArc
 50
90.0
 51
270.0
  0
ARC
  5
EC0
330
2
100
AcDbEntity
  8
0
100
AcDbCircle
 10
64.99341046150829
 20
298.220670332564
 30
0.0
 40
3.25
100
AcDbArc
 50
290.5218674000235
 51
312.3994733644442
  0
LINE
  5
EC1
330
2
100
AcDbEntity
  8
0
100
AcDbLine
 10
63.19341046150924
 20
301.920670332564
 30
0.0
 11
66.79341046150733
 21
301.920670332564
 31
0.0
  0
LINE
  5
EC2
330
2
100
AcDbEntity
  8
0
100
AcDbLine
 10
64.9934104615084
 20
304.220670332564
 30
0.0
 11
64.99341046150829
 21
301.920670332564
 31
0.0
  0
LINE
  5
EC3
330
2
100
AcDbEntity
  8
0
100
AcDbLine
 10
64.9934104615084
 20
313.7206703325639
 30
0.0
 11
64.99341046150829
 21
310.220670332564
 31
0.0
  0
LINE
  5
EC4
330
2
100
AcDbEntity
  8
0
100
AcDbLine
 10
64.9934104615084
 20
313.7206703325639
 30
0.0
 11
60.4934104615084
 21
313.799218124741
 31
0.0
  0
SPLINE
  5
EC5
330
2
100
AcDbEntity
  8
HOJO
100
AcDbSpline
210
0.0
220
0.0
230
1.0
 70
     8
 71
     3
 72
    12
 73
     8
 74
     6
 42
0.0000000001
 43
0.0000000001
 44
0.0000000001
 40
0.0
 40
0.0
 40
0.0
 40
0.0
 40
1.684659730310349
 40
2.786160565551575
 40
4.550934817628674
 40
5.718899366607204
 40
6.335570522767257
 40
6.335570522767257
 40
6.335570522767257
 40
6.335570522767257
 10
76.11878990074576
 20
304.2206703325637
 30
0.0
 10
75.84187829247203
 20
304.7716301462472
 30
0.0
 10
75.38391031874148
 20
305.6828304785576
 30
0.0
 10
76.26653493667911
 20
307.0198317105801
 30
0.0
 10
76.82861277452642
 20
308.3456511770499
 30
0.0
 10
76.33120328304817
 20
309.4798443856591
 30
0.0
 10
76.1155257535236
 20
310.0304214307872
 30
0.0
 10
76.04099955688486
 20
310.220670332564
 30
0.0
 11
76.11878990074576
 21
304.2206703325637
 31
0.0
 11
75.65304801686403
 21
305.8396709207439
 31
0.0
 11
76.11477785323046
 21
306.8397257433642
 31
0.0
 11
76.6149854285191
 21
308.5321265653973
 31
0.0
 11
76.26868779868624
 21
309.6475722786629
 31
0.0
 11
76.04099955688486
 21
310.220670332564
 31
0.0
  0
SPLINE
  5
EC6
330
2
100
AcDbEntity
  8
HOJO
100
AcDbSpline
210
0.0
220
0.0
230
1.0
 70
     8
 71
     3
 72
    10
 73
     6
 74
     4
 42
0.0000000001
 43
0.0000000001
 44
0.0000000001
 40
0.0
 40
0.0
 40
0.0
 40
0.0
 40
0.6971907634055975
 40
1.694952319108457
 40
2.335350738679081
 40
2.335350738679081
 40
2.335350738679081
 40
2.335350738679081
 10
74.01636647270146
 20
298.9206703325638
 30
0.0
 10
74.18358061480965
 20
299.1416553446875
 30
0.0
 10
74.59009775879704
 20
299.6788957650246
 30
0.0
 10
73.41378864801382
 20
300.1893428106977
 30
0.0
 10
73.77924190257314
 20
300.7151276568742
 30
0.0
 10
73.92210687924166
 20
300.9206703325638
 30
0.0
 11
74.01636647270146
 21
298.9206703325638
 31
0.0
 11
74.30477892183074
 21
299.5554090345233
 31
0.0
 11
73.67546105433797
 21
300.3296745856703
 31
0.0
 11
73.92210687924166
 21
300.9206703325638
 31
0.0
  0
LINE
  5
EC7
330
2
100
AcDbEntity
  8
0
100
AcDbLine
 10
70.49341046150829
 20
298.9206703325638
 30
0.0
 11
70.4934104615084
 21
297.8206703325639
 31
0.0
  0
LINE
  5
EC8
330
2
100
AcDbEntity
  8
0
100
AcDbLine
 10
68.51524710356483
 20
298.9206703325639
 30
0.0
 11
68.23618167748254
 21
298.4373148359532
 31
0.0
  0
LINE
  5
EC9
330
2
100
AcDbEntity
  8
0
100
AcDbLine
 10
68.51524710356483
 20
298.9206703325639
 30
0.0
 11
68.23618167748254
 21
298.4373148359532
 31
0.0
  0
ARC
  5
ECA
330
2
100
AcDbEntity
  8
0
100
AcDbCircle
 10
64.99341046150829
 20
298.220670332564
 30
0.0
 40
3.25
100
AcDbArc
 50
352.930285957695
 51
3.822162131327067
  0
SPLINE
  5
ECB
330
2
100
AcDbEntity
  8
HOJO
100
AcDbSpline
210
0.0
220
0.0
230
1.0
 70
     8
 71
     3
 72
    10
 73
     6
 74
     4
 42
0.0000000001
 43
0.0000000001
 44
0.0000000001
 40
0.0
 40
0.0
 40
0.0
 40
0.0
 40
0.6971907634053905
 40
1.69495231910825
 40
2.335350738679084
 40
2.335350738679084
 40
2.335350738679084
 40
2.335350738679084
 10
75.81636647270141
 20
295.8206703325639
 30
0.0
 10
75.98358061480958
 20
296.0416553446875
 30
0.0
 10
76.39009775879696
 20
296.5788957650246
 30
0.0
 10
75.21378864801377
 20
297.0893428106977
 30
0.0
 10
75.57924190257307
 20
297.6151276568741
 30
0.0
 10
75.72210687924161
 20
297.8206703325639
 30
0.0
 11
75.81636647270141
 21
295.8206703325639
 31
0.0
 11
76.1047789218307
 21
296.4554090345232
 31
0.0
 11
75.47546105433792
 21
297.2296745856702
 31
0.0
 11
75.72210687924161
 21
297.8206703325639
 31
0.0
  0
LINE
  5
ECC
330
2
100
AcDbEntity
  8
0
100
AcDbLine
 10
70.49341046150761
 20
304.2206703325637
 30
0.0
 11
70.4934104615084
 21
300.9206703325639
 31
0.0
  0
LINE
  5
ECD
330
2
100
AcDbEntity
  8
0
100
AcDbLine
 10
70.4934104615084
 20
312.5629262111409
 30
0.0
 11
70.49341046150863
 21
310.220670332564
 31
0.0
  0
ARC
  5
ECE
330
2
100
AcDbEntity
  8
0
100
AcDbCircle
 10
69.4934104615084
 20
312.5629262111409
 30
0.0
 40
1.0
100
AcDbArc
 50
0.0
 51
87.99999999999633
  0
LINE
  5
ECF
330
2
100
AcDbEntity
  8
0
100
AcDbLine
 10
60.49333746150825
 20
324.7206703284236
 30
0.0
 11
60.49333746150825
 21
335.3017939868848
 31
0.0
  0
ARC
  5
ED0
330
2
100
AcDbEntity
  8
0
100
AcDbCircle
 10
60.49324646150825
 20
323.7206703325641
 30
0.0
 40
1.0
100
AcDbArc
 50
90.0
 51
180.0
  0
LINE
  5
ED1
330
2
100
AcDbEntity
  8
0
100
AcDbLine
 10
63.49324646150825
 20
324.7206703325641
 30
0.0
 11
60.49324646150825
 21
324.7206703325641
 31
0.0
  0
LINE
  5
ED2
330
2
100
AcDbEntity
  8
0
 62
     7
100
AcDbLine
 10
60.49341046150829
 20
335.0017683325639
 30
0.0
 11
59.49341046150829
 21
334.9929633325639
 31
0.0
  0
ARC
  5
ED3
330
2
100
AcDbEntity
  8
0
100
AcDbCircle
 10
110.4934104615081
 20
328.3106673325641
 30
0.0
 40
2.0
100
AcDbArc
 50
90.0
 51
180.0
  0
LINE
  5
ED4
330
2
100
AcDbEntity
  8
0
100
AcDbLine
 10
110.4934104615081
 20
330.3106673325641
 30
0.0
 11
117.9934104615082
 21
330.3106673325641
 31
0.0
  0
ARC
  5
ED5
330
2
100
AcDbEntity
  8
0
100
AcDbCircle
 10
106.4934104615082
 20
337.7032933297384
 30
0.0
 40
2.0
100
AcDbArc
 50
270.4999833552727
 51
0.0
  0
LINE
  5
ED6
330
2
100
AcDbEntity
  8
0
100
AcDbLine
 10
117.9934104615082
 20
347.8106703325641
 30
0.0
 11
110.4760074615083
 21
347.7450693325641
 31
0.0
  0
ARC
  5
ED7
330
2
100
AcDbEntity
  8
0
100
AcDbCircle
 10
110.4934104615082
 20
345.7452713325642
 30
0.0
 40
2.0
100
AcDbArc
 50
90.49999999999805
 51
180.0
  0
ENDSEC
  0
SECTION
  2
OBJECTS
  0
DICTIONARY
  5
7
330
0
100
AcDbDictionary
  3
ACAD_GROUP
350
75
  3
ACAD_LAYOUT
350
61
  3
ACAD_MLINESTYLE
350
76
  3
ACAD_PLOTSETTINGS
350
77
  3
ACAD_PLOTSTYLENAME
350
6
  3
ACADDIM
350
480
  3
ACDBHEADERROUNDTRIPXREC
350
1882
  3
ACDBVARIABLEDICTIONARY
350
102
  3
DWGPROPS
350
3D2
  0
DICTIONARY
  5
18A3
330
2
100
AcDbDictionary
280
     1
  3
ACAD_LAYOUTSELFREF
360
18A4
  0
DICTIONARY
  5
18A5
330
187C
100
AcDbDictionary
280
     1
  3
ACAD_LAYOUTSELFREF
360
18A6
  0
DICTIONARY
  5
75
102
{ACAD_REACTORS
330
7
102
}
330
7
100
AcDbDictionary
  0
DICTIONARY
  5
61
102
{ACAD_REACTORS
330
7
102
}
330
7
100
AcDbDictionary
  0
DICTIONARY
  5
76
102
{ACAD_REACTORS
330
7
102
}
330
7
100
AcDbDictionary
  3
STANDARD
350
78
  0
DICTIONARY
  5
77
102
{ACAD_REACTORS
330
7
102
}
330
7
100
AcDbDictionary
  0
ACDBDICTIONARYWDFLT
  5
6
102
{ACAD_REACTORS
330
7
102
}
330
7
100
AcDbDictionary
281
     1
  3
Normal
350
5
100
AcDbDictionaryWithDefault
340
5
  0
XRECORD
  5
480
102
{ACAD_REACTORS
330
7
102
}
330
7
100
AcDbXrecord
 90
   990106
  3

 60
     0
 61
     0
 62
     1
 63
     3
 64
     1
 65
     0
 66
     0
 67
     3
 68
     1
 69
     0
 70
     0
 71
     0
 72
     0
 40
0.0
170
     2
340
0
  0
DICTIONARY
  5
1882
102
{ACAD_REACTORS
330
7
102
}
330
7
100
AcDbDictionary
  3
CEPSNTYPE
350
188C
  3
DIMSTYLEDATA
350
1890
  3
FINGERPRINTGUID
350
188D
  3
HYPERLINKBASE
350
1885
  3
INSUNITS
350
188B
  3
LAYOUTDICT
350
1887
  3
LWETCUNION
350
188A
  3
PLOTSETDICT
350
1888
  3
PLOTSTYLNAMDICT
350
1889
  3
PSVPSCALE
350
188F
  3
PUCSBASE
350
1893
  3
PUCSORGBACK
350
1899
  3
PUCSORGBOTTOM
350
1895
  3
PUCSORGFRONT
350
1898
  3
PUCSORGLEFT
350
1896
  3
PUCSORGRIGHT
350
1897
  3
PUCSORGTOP
350
1894
  3
PUCSORTHOREF
350
1891
  3
PUCSORTHOVIEW
350
1892
  3
STYLESHEET
350
1886
  3
TSTACKALIGN
350
1883
  3
TSTACKSIZE
350
1884
  3
UCSBASE
350
189C
  3
UCSORGBACK
350
18A2
  3
UCSORGBOTTOM
350
189E
  3
UCSORGFRONT
350
18A1
  3
UCSORGLEFT
350
189F
  3
UCSORGRIGHT
350
18A0
  3
UCSORGTOP
350
189D
  3
UCSORTHOREF
350
189A
  3
UCSORTHOVIEW
350
189B
  3
VERSIONGUID
350
188E
  0
DICTIONARY
  5
102
102
{ACAD_REACTORS
330
7
102
}
330
7
100
AcDbDictionary
  3
DIMASSOC
350
103
  0
XRECORD
  5
3D2
102
{ACAD_REACTORS
330
7
102
}
330
7
100
AcDbXrecord
  1
DWGPROPS COOKIE
  2

  3

  4

  6

  7

  8

  9

300
=
301
=
302
=
303
=
304
=
305
=
306
=
307
=
308
=
309
=
 40
0.5353330671296296
 41
2452052.431989363
 42
2453406.550756377
  1

 90
        0
  0
XRECORD
  5
18A4
102
{ACAD_REACTORS
330
18A3
102
}
330
18A3
100
AcDbXrecord
340
2
  0
XRECORD
  5
18A6
102
{ACAD_REACTORS
330
18A5
102
}
330
18A5
100
AcDbXrecord
340
187C
  0
MLINESTYLE
  5
78
102
{ACAD_REACTORS
330
76
102
}
330
76
100
AcDbMlineStyle
  2
STANDARD
 70
     0
  3

 62
     0
 51
90.0
 52
90.0
 71
     2
 49
0.5
 62
   256
  6
BYLAYER
 49
-0.5
 62
   256
  6
BYLAYER
  0
ACDBPLACEHOLDER
  5
5
102
{ACAD_REACTORS
330
6
102
}
330
6
100
AcDbPlaceHolder
280
     0
  0
XRECORD
  5
188C
102
{ACAD_REACTORS
330
1882
102
}
330
1882
100
AcDbXrecord
 90
        0
  0
XRECORD
  5
1890
102
{ACAD_REACTORS
330
1882
102
}
330
1882
100
AcDbXrecord
1000
DSTYLE
1002
{
1070
   179
 70
     2
1070
   277
 70
     6
1002
}
  0
XRECORD
  5
188D
102
{ACAD_REACTORS
330
1882
102
}
330
1882
100
AcDbXrecord
  1
{6385560B-F4B1-4644-A7C2-A3E32AC3D232}
  0
XRECORD
  5
1885
102
{ACAD_REACTORS
330
1882
102
}
330
1882
100
AcDbXrecord
  1

  0
XRECORD
  5
188B
102
{ACAD_REACTORS
330
1882
102
}
330
1882
100
AcDbXrecord
 90
        0
  0
XRECORD
  5
1887
102
{ACAD_REACTORS
330
1882
102
}
330
1882
100
AcDbXrecord
340
61
  0
XRECORD
  5
188A
102
{ACAD_REACTORS
330
1882
102
}
330
1882
100
AcDbXrecord
 90
    10781
  0
XRECORD
  5
1888
102
{ACAD_REACTORS
330
1882
102
}
330
1882
100
AcDbXrecord
340
77
  0
XRECORD
  5
1889
102
{ACAD_REACTORS
330
1882
102
}
330
1882
100
AcDbXrecord
340
6
  0
XRECORD
  5
188F
102
{ACAD_REACTORS
330
1882
102
}
330
1882
100
AcDbXrecord
 40
0.0
  0
XRECORD
  5
1893
102
{ACAD_REACTORS
330
1882
102
}
330
1882
100
AcDbXrecord
340
0
  0
XRECORD
  5
1899
102
{ACAD_REACTORS
330
1882
102
}
330
1882
100
AcDbXrecord
 10
0.0
 20
0.0
 30
0.0
  0
XRECORD
  5
1895
102
{ACAD_REACTORS
330
1882
102
}
330
1882
100
AcDbXrecord
 10
0.0
 20
0.0
 30
0.0
  0
XRECORD
  5
1898
102
{ACAD_REACTORS
330
1882
102
}
330
1882
100
AcDbXrecord
 10
0.0
 20
0.0
 30
0.0
  0
XRECORD
  5
1896
102
{ACAD_REACTORS
330
1882
102
}
330
1882
100
AcDbXrecord
 10
0.0
 20
0.0
 30
0.0
  0
XRECORD
  5
1897
102
{ACAD_REACTORS
330
1882
102
}
330
1882
100
AcDbXrecord
 10
0.0
 20
0.0
 30
0.0
  0
XRECORD
  5
1894
102
{ACAD_REACTORS
330
1882
102
}
330
1882
100
AcDbXrecord
 10
0.0
 20
0.0
 30
0.0
  0
XRECORD
  5
1891
102
{ACAD_REACTORS
330
1882
102
}
330
1882
100
AcDbXrecord
340
0
  0
XRECORD
  5
1892
102
{ACAD_REACTORS
330
1882
102
}
330
1882
100
AcDbXrecord
 70
     0
  0
XRECORD
  5
1886
102
{ACAD_REACTORS
330
1882
102
}
330
1882
100
AcDbXrecord
  1
Sekkei.ctb
  0
XRECORD
  5
1883
102
{ACAD_REACTORS
330
1882
102
}
330
1882
100
AcDbXrecord
 90
        1
  0
XRECORD
  5
1884
102
{ACAD_REACTORS
330
1882
102
}
330
1882
100
AcDbXrecord
 90
       70
  0
XRECORD
  5
189C
102
{ACAD_REACTORS
330
1882
102
}
330
1882
100
AcDbXrecord
340
0
  0
XRECORD
  5
18A2
102
{ACAD_REACTORS
330
1882
102
}
330
1882
100
AcDbXrecord
 10
0.0
 20
0.0
 30
0.0
  0
XRECORD
  5
189E
102
{ACAD_REACTORS
330
1882
102
}
330
1882
100
AcDbXrecord
 10
0.0
 20
0.0
 30
0.0
  0
XRECORD
  5
18A1
102
{ACAD_REACTORS
330
1882
102
}
330
1882
100
AcDbXrecord
 10
0.0
 20
0.0
 30
0.0
  0
XRECORD
  5
189F
102
{ACAD_REACTORS
330
1882
102
}
330
1882
100
AcDbXrecord
 10
0.0
 20
0.0
 30
0.0
  0
XRECORD
  5
18A0
102
{ACAD_REACTORS
330
1882
102
}
330
1882
100
AcDbXrecord
 10
0.0
 20
0.0
 30
0.0
  0
XRECORD
  5
189D
102
{ACAD_REACTORS
330
1882
102
}
330
1882
100
AcDbXrecord
 10
0.0
 20
0.0
 30
0.0
  0
XRECORD
  5
189A
102
{ACAD_REACTORS
330
1882
102
}
330
1882
100
AcDbXrecord
340
0
  0
XRECORD
  5
189B
102
{ACAD_REACTORS
330
1882
102
}
330
1882
100
AcDbXrecord
 70
     0
  0
XRECORD
  5
188E
102
{ACAD_REACTORS
330
1882
102
}
330
1882
100
AcDbXrecord
  1
{876B2F2C-42D9-4535-8777-8B778442D000}
  0
DICTIONARYVAR
  5
103
102
{ACAD_REACTORS
330
102
102
}
330
102
100
DictionaryVariables
280
     0
  1
1
  0
ENDSEC
  0
EOF
