  0
SECTION
  2
HEADER
  9
$ACADVER
  1
AC1014
  9
$ACADMAINTVER
 70
     9
  9
$DWGCODEPAGE
  3
ANSI_932
  9
$INSBASE
 10
0.0
 20
0.0
 30
0.0
  9
$EXTMIN
 10
23.27704298059563
 20
26.03621755167246
 30
0.0
  9
$EXTMAX
 10
451.8326038972547
 20
429.5910301159024
 30
0.0
  9
$LIMMIN
 10
0.0
 20
0.0
  9
$LIMMAX
 10
297.0
 20
210.0
  9
$ORTHOMODE
 70
     0
  9
$REGENMODE
 70
     1
  9
$FILLMODE
 70
     1
  9
$QTEXTMODE
 70
     0
  9
$MIRRTEXT
 70
     0
  9
$DRAGMODE
 70
     2
  9
$LTSCALE
 40
2.0
  9
$OSMODE
 70
    37
  9
$ATTMODE
 70
     1
  9
$TEXTSIZE
 40
9.0
  9
$TRACEWID
 40
1.0
  9
$TEXTSTYLE
  7
STANDARD
  9
$CLAYER
  8
0
  9
$CELTYPE
  6
BYLAYER
  9
$CECOLOR
 62
   256
  9
$CELTSCALE
 40
1.0
  9
$DELOBJ
 70
     1
  9
$DISPSILH
 70
     0
  9
$DIMSCALE
 40
2.0
  9
$DIMASZ
 40
1.8
  9
$DIMEXO
 40
0.625
  9
$DIMDLI
 40
3.75
  9
$DIMRND
 40
0.0
  9
$DIMDLE
 40
0.0
  9
$DIMEXE
 40
0.8
  9
$DIMTP
 40
0.0
  9
$DIMTM
 40
0.0
  9
$DIMTXT
 40
1.8
  9
$DIMCEN
 40
2.5
  9
$DIMTSZ
 40
0.0
  9
$DIMTOL
 70
     0
  9
$DIMLIM
 70
     0
  9
$DIMTIH
 70
     0
  9
$DIMTOH
 70
     0
  9
$DIMSE1
 70
     0
  9
$DIMSE2
 70
     0
  9
$DIMTAD
 70
     1
  9
$DIMZIN
 70
     8
  9
$DIMBLK
  1

  9
$DIMASO
 70
     1
  9
$DIMSHO
 70
     1
  9
$DIMPOST
  1

  9
$DIMAPOST
  1

  9
$DIMALT
 70
     0
  9
$DIMALTD
 70
     4
  9
$DIMALTF
 40
0.0394
  9
$DIMLFAC
 40
1.0
  9
$DIMTOFL
 70
     1
  9
$DIMTVP
 40
0.0
  9
$DIMTIX
 70
     0
  9
$DIMSOXD
 70
     0
  9
$DIMSAH
 70
     0
  9
$DIMBLK1
  1

  9
$DIMBLK2
  1

  9
$DIMSTYLE
  2
STANDARD
  9
$DIMCLRD
 70
     0
  9
$DIMCLRE
 70
     0
  9
$DIMCLRT
 70
     0
  9
$DIMTFAC
 40
1.0
  9
$DIMGAP
 40
0.75
  9
$DIMJUST
 70
     0
  9
$DIMSD1
 70
     0
  9
$DIMSD2
 70
     0
  9
$DIMTOLJ
 70
     1
  9
$DIMTZIN
 70
     0
  9
$DIMALTZ
 70
     0
  9
$DIMALTTZ
 70
     0
  9
$DIMFIT
 70
     3
  9
$DIMUPT
 70
     0
  9
$DIMUNIT
 70
     8
  9
$DIMDEC
 70
     2
  9
$DIMTDEC
 70
     2
  9
$DIMALTU
 70
     8
  9
$DIMALTTD
 70
     4
  9
$DIMTXSTY
  7
STANDARD
  9
$DIMAUNIT
 70
     0
  9
$LUNITS
 70
     2
  9
$LUPREC
 70
     3
  9
$SKETCHINC
 40
1.0
  9
$FILLETRAD
 40
10.0
  9
$AUNITS
 70
     0
  9
$AUPREC
 70
     2
  9
$MENU
  1
.
  9
$ELEVATION
 40
0.0
  9
$PELEVATION
 40
0.0
  9
$THICKNESS
 40
0.0
  9
$LIMCHECK
 70
     0
  9
$BLIPMODE
 70
     0
  9
$CHAMFERA
 40
0.0
  9
$CHAMFERB
 40
0.0
  9
$CHAMFERC
 40
20.0
  9
$CHAMFERD
 40
0.0
  9
$SKPOLY
 70
     0
  9
$TDCREATE
 40
2453692.651683298
  9
$TDUPDATE
 40
2454501.561393588
  9
$TDINDWG
 40
0.0858079977
  9
$TDUSRTIMER
 40
0.0858079977
  9
$USRTIMER
 70
     1
  9
$ANGBASE
 50
0.0
  9
$ANGDIR
 70
     0
  9
$PDMODE
 70
     0
  9
$PDSIZE
 40
-10.0
  9
$PLINEWID
 40
0.0
  9
$COORDS
 70
     0
  9
$SPLFRAME
 70
     0
  9
$SPLINETYPE
 70
     6
  9
$SPLINESEGS
 70
     8
  9
$ATTDIA
 70
     0
  9
$ATTREQ
 70
     1
  9
$HANDLING
 70
-16383
  9
$HANDSEED
  5
241E
  9
$SURFTAB1
 70
     6
  9
$SURFTAB2
 70
     6
  9
$SURFTYPE
 70
     6
  9
$SURFU
 70
     6
  9
$SURFV
 70
     6
  9
$UCSNAME
  2

  9
$UCSORG
 10
0.0
 20
0.0
 30
0.0
  9
$UCSXDIR
 10
1.0
 20
0.0
 30
0.0
  9
$UCSYDIR
 10
0.0
 20
1.0
 30
0.0
  9
$PUCSNAME
  2

  9
$PUCSORG
 10
0.0
 20
0.0
 30
0.0
  9
$PUCSXDIR
 10
1.0
 20
0.0
 30
0.0
  9
$PUCSYDIR
 10
0.0
 20
1.0
 30
0.0
  9
$USERI1
 70
     0
  9
$USERI2
 70
     0
  9
$USERI3
 70
     0
  9
$USERI4
 70
     0
  9
$USERI5
 70
     0
  9
$USERR1
 40
0.0
  9
$USERR2
 40
0.0
  9
$USERR3
 40
0.0
  9
$USERR4
 40
0.0
  9
$USERR5
 40
0.0
  9
$WORLDVIEW
 70
     1
  9
$SHADEDGE
 70
     3
  9
$SHADEDIF
 70
    70
  9
$TILEMODE
 70
     1
  9
$MAXACTVP
 70
    48
  9
$PINSBASE
 10
0.0
 20
0.0
 30
0.0
  9
$PLIMCHECK
 70
     0
  9
$PEXTMIN
 10
0.0
 20
0.0
 30
0.0
  9
$PEXTMAX
 10
0.0
 20
0.0
 30
0.0
  9
$PLIMMIN
 10
0.0
 20
0.0
  9
$PLIMMAX
 10
12.0
 20
9.0
  9
$UNITMODE
 70
     0
  9
$VISRETAIN
 70
     1
  9
$PLINEGEN
 70
     0
  9
$PSLTSCALE
 70
     1
  9
$TREEDEPTH
 70
  3020
  9
$PICKSTYLE
 70
     1
  9
$CMLSTYLE
  2
STANDARD
  9
$CMLJUST
 70
     0
  9
$CMLSCALE
 40
1.0
  9
$PROXYGRAPHICS
 70
     1
  9
$MEASUREMENT
 70
     0
  0
ENDSEC
  0
SECTION
  2
CLASSES
  0
CLASS
  1
DICTIONARYVAR
  2
AcDbDictionaryVar
  3
AutoCAD 2000
 90
        0
280
     0
281
     0
  0
CLASS
  1
ACDBDICTIONARYWDFLT
  2
AcDbDictionaryWithDefault
  3
AutoCAD 2000
 90
        0
280
     0
281
     0
  0
CLASS
  1
ACDBPLACEHOLDER
  2
AcDbPlaceHolder
  3
AutoCAD 2000
 90
        0
280
     0
281
     0
  0
CLASS
  1
LAYOUT
  2
AcDbLayout
  3
AutoCAD 2000
 90
        0
280
     0
281
     0
  0
CLASS
  1
MATERIAL
  2
AcDbMaterial
  3
ObjectDBX Classes
 90
     1153
280
     0
281
     0
  0
CLASS
  1
VISUALSTYLE
  2
AcDbVisualStyle
  3
ObjectDBX Classes
 90
     4095
280
     0
281
     0
  0
CLASS
  1
TABLESTYLE
  2
AcDbTableStyle
  3
ObjectDBX Classes
 90
     4095
280
     0
281
     0
  0
CLASS
  1
SCALE
  2
AcDbScale
  3
ObjectDBX Classes
 90
     1153
280
     0
281
     0
  0
CLASS
  1
MLEADERSTYLE
  2
AcDbMLeaderStyle
  3
ACDB_MLEADERSTYLE_CLASS
 90
     4095
280
     0
281
     0
  0
CLASS
  1
SORTENTSTABLE
  2
AcDbSortentsTable
  3
AutoCAD 2000
 90
        0
280
     0
281
     0
  0
CLASS
  1
CELLSTYLEMAP
  2
AcDbCellStyleMap
  3
ObjectDBX Classes
 90
     1152
280
     0
281
     0
  0
CLASS
  1
ACAD_PROXY_OBJECT_WRAPPER
  2
AcDbProxyObjectWrapper
  3
AutoCAD 2000
 90
        0
280
     0
281
     0
  0
CLASS
  1
LONG_TRANSACTION
  2
AcDbLongTransaction
  3
AutoCAD 2000
 90
        0
280
     0
281
     0
  0
CLASS
  1
LWPOLYLINE
  2
AcDbPolyline
  3
AutoCAD 2000
 90
        0
280
     0
281
     1
  0
CLASS
  1
HATCH
  2
AcDbHatch
  3
AutoCAD 2000
 90
        0
280
     0
281
     1
  0
CLASS
  1
XRECORD
  2
AcDbXrecord
  3
AutoCAD 2000
 90
        0
280
     0
281
     0
  0
ENDSEC
  0
SECTION
  2
TABLES
  0
TABLE
  2
VPORT
  5
6E
102
{ACAD_XDICTIONARY
360
2380
102
}
330
0
100
AcDbSymbolTable
 70
     2
  0
VPORT
  5
23F8
330
6E
100
AcDbSymbolTableRecord
100
AcDbViewportTableRecord
  2
*ACTIVE
 70
     0
 10
0.0
 20
0.0
 11
1.0
 21
1.0
 12
261.6559150851626
 22
224.6546441131099
 13
0.0
 23
0.0
 14
10.0
 24
10.0
 15
10.0
 25
10.0
 16
0.0
 26
0.0
 36
1.0
 17
0.0
 27
0.0
 37
0.0
 40
409.6955355785305
 41
1.763038548752834
 42
50.0
 43
0.0
 44
0.0
 50
0.0
 51
0.0
 71
     0
 72
   100
 73
     1
 74
     3
 75
     0
 76
     0
 77
     0
 78
     0
  0
ENDTAB
  0
TABLE
  2
LTYPE
  5
69
330
0
100
AcDbSymbolTable
 70
     4
  0
LTYPE
  5
6A
330
69
100
AcDbSymbolTableRecord
100
AcDbLinetypeTableRecord
  2
BYBLOCK
 70
     0
  3

 72
    65
 73
     0
 40
0.0
  0
LTYPE
  5
6B
330
69
100
AcDbSymbolTableRecord
100
AcDbLinetypeTableRecord
  2
BYLAYER
 70
     0
  3

 72
    65
 73
     0
 40
0.0
  0
LTYPE
  5
8
330
69
100
AcDbSymbolTableRecord
100
AcDbLinetypeTableRecord
  2
CONTINUOUS
 70
     0
  3
Solid line
 72
    65
 73
     0
 40
0.0
  0
LTYPE
  5
27C
330
69
100
AcDbSymbolTableRecord
100
AcDbLinetypeTableRecord
  2
SEKKEI_A2_
 70
     0
  3
center(A2)  ____ _ ____ _ ____ _ ____ _ ____ _ 
 72
    65
 73
     4
 40
14.28749999999999
 49
9.525
 74
     0
 49
-1.587499999999999
 74
     0
 49
1.587499999999999
 74
     0
 49
-1.587499999999999
 74
     0
  0
LTYPE
  5
2B4
330
69
100
AcDbSymbolTableRecord
100
AcDbLinetypeTableRecord
  2
HIDDEN2
 70
     0
  3
Hidden (.5x) _ _ _ _ _ _ _ _ _ _ _ _ _ _ _ _ _
 72
    65
 73
     2
 40
4.762499999999999
 49
3.174999999999999
 74
     0
 49
-1.587499999999999
 74
     0
  0
LTYPE
  5
48F
330
69
100
AcDbSymbolTableRecord
100
AcDbLinetypeTableRecord
  2
SEKKEI_H
 70
     0
  3
Hidden-S _ _ _ _ _ _ _ _ _ _ _ _ _ _ _ _ _
 72
    65
 73
     2
 40
2.381249999999999
 49
1.587499999999999
 74
     0
 49
-0.79375
 74
     0
  0
ENDTAB
  0
TABLE
  2
LAYER
  5
66
102
{ACAD_XDICTIONARY
360
1DF4
102
}
330
0
100
AcDbSymbolTable
 70
     9
  0
LAYER
  5
5E
102
{ACAD_XDICTIONARY
360
233D
102
}
330
66
100
AcDbSymbolTableRecord
100
AcDbLayerTableRecord
  2
0
 70
     0
 62
     7
  6
CONTINUOUS
  0
LAYER
  5
3E
102
{ACAD_XDICTIONARY
360
233F
102
}
330
66
100
AcDbSymbolTableRecord
100
AcDbLayerTableRecord
  2
CENTER
 70
     0
 62
     3
  6
SEKKEI_A2_
  0
LAYER
  5
2B5
102
{ACAD_XDICTIONARY
360
2345
102
}
330
66
100
AcDbSymbolTableRecord
100
AcDbLayerTableRecord
  2
HIDS
 70
     0
 62
     1
  6
HIDDEN2
  0
LAYER
  5
2BA
102
{ACAD_XDICTIONARY
360
2347
102
}
330
66
100
AcDbSymbolTableRecord
100
AcDbLayerTableRecord
  2
HOJO
 70
     0
 62
     4
  6
CONTINUOUS
  0
LAYER
  5
3FA
102
{ACAD_XDICTIONARY
360
234B
102
}
330
66
100
AcDbSymbolTableRecord
100
AcDbLayerTableRecord
  2
TITLE
 70
     0
 62
     4
  6
CONTINUOUS
  0
ENDTAB
  0
TABLE
  2
STYLE
  5
67
330
0
100
AcDbSymbolTable
 70
     1
  0
STYLE
  5
16
330
67
100
AcDbSymbolTableRecord
100
AcDbTextStyleTableRecord
  2
STANDARD
 70
     0
 40
0.0
 41
1.0
 50
0.0
 71
     0
 42
9.0
  3
simplex.shx
  4
extfont.shx
  0
ENDTAB
  0
TABLE
  2
VIEW
  5
6C
330
0
100
AcDbSymbolTable
 70
     0
  0
ENDTAB
  0
TABLE
  2
UCS
  5
6D
330
0
100
AcDbSymbolTable
 70
     0
  0
ENDTAB
  0
TABLE
  2
APPID
  5
70
330
0
100
AcDbSymbolTable
 70
     2
  0
APPID
  5
71
330
70
100
AcDbSymbolTableRecord
100
AcDbRegAppTableRecord
  2
ACAD
 70
     0
  0
APPID
  5
1DF1
330
70
100
AcDbSymbolTableRecord
100
AcDbRegAppTableRecord
  2
ACAD_MLEADERVER
 70
     0
  0
ENDTAB
  0
TABLE
  2
DIMSTYLE
  5
72
330
0
100
AcDbSymbolTable
 70
     1
  0
DIMSTYLE
105
73
330
72
100
AcDbSymbolTableRecord
100
AcDbDimStyleTableRecord
  2
STANDARD
 70
     0
  3

  4

  5

  6

  7

 40
2.0
 41
1.8
 42
0.625
 43
3.75
 44
0.8
 45
0.0
 46
0.0
 47
0.0
 48
0.0
140
1.8
141
2.5
142
0.0
143
0.0394
144
1.0
145
0.0
146
1.0
147
0.75
 71
     0
 72
     0
 73
     0
 74
     0
 75
     0
 76
     0
 77
     1
 78
     8
170
     0
171
     4
172
     1
173
     0
174
     0
175
     0
176
     0
177
     0
178
     0
270
     8
271
     2
272
     2
273
     8
274
     4
340
16
275
     0
280
     0
281
     0
282
     0
283
     1
284
     0
285
     0
286
     0
287
     3
288
     0
  0
ENDTAB
  0
TABLE
  2
BLOCK_RECORD
  5
1
330
0
100
AcDbSymbolTable
 70
    40
  0
BLOCK_RECORD
  5
2
102
{ACAD_XDICTIONARY
360
241A
102
}
330
1
100
AcDbSymbolTableRecord
100
AcDbBlockTableRecord
  2
*MODEL_SPACE
  0
BLOCK_RECORD
  5
23F3
102
{ACAD_XDICTIONARY
360
241C
102
}
330
1
100
AcDbSymbolTableRecord
100
AcDbBlockTableRecord
  2
*PAPER_SPACE
  0
ENDTAB
  0
ENDSEC
  0
SECTION
  2
BLOCKS
  0
BLOCK
  5
5D
330
2
100
AcDbEntity
  8
0
100
AcDbBlockBegin
  2
*MODEL_SPACE
 70
     0
 10
0.0
 20
0.0
 30
0.0
  3
*MODEL_SPACE
  1

  0
ENDBLK
  5
5F
330
2
100
AcDbEntity
  8
0
100
AcDbBlockEnd
  0
BLOCK
  5
23F5
330
23F3
100
AcDbEntity
 67
     1
  8
0
100
AcDbBlockBegin
  2
*PAPER_SPACE
 70
     0
 10
0.0
 20
0.0
 30
0.0
  3
*PAPER_SPACE
  1

  0
ENDBLK
  5
23F6
330
23F3
100
AcDbEntity
 67
     1
  8
0
100
AcDbBlockEnd
  0
ENDSEC
  0
SECTION
  2
ENTITIES
  0
LINE
  5
78B
330
2
100
AcDbEntity
  8
CENTER
100
AcDbLine
 10
23.27704298059563
 20
121.325847609241
 30
0.0
 11
180.7768360869491
 21
121.325847609241
 31
0.0
  0
ARC
  5
85C
330
2
100
AcDbEntity
  8
0
100
AcDbCircle
 10
212.2769209805952
 20
118.825847609241
 30
0.0
 40
2.5
100
AcDbArc
 50
293.1175229999997
 51
0.0
  0
ARC
  5
85D
330
2
100
AcDbEntity
  8
0
100
AcDbCircle
 10
-386.7230330194048
 20
121.325847609241
 30
0.0
 40
600.0
100
AcDbArc
 50
356.3155209999989
 51
4.362699999999245
  0
ARC
  5
85E
330
2
100
AcDbEntity
  8
0
100
AcDbCircle
 10
111.7769479805953
 20
93.82584760924101
 30
0.0
 40
60.0
100
AcDbArc
 50
0.0
 51
41.41086999999954
  0
LINE
  5
861
330
2
100
AcDbEntity
  8
0
100
AcDbLine
 10
142.2769439805953
 20
178.825847609241
 30
0.0
 11
142.2769439805953
 21
63.82584760924101
 31
0.0
  0
LINE
  5
862
330
2
100
AcDbEntity
  8
0
100
AcDbLine
 10
150.7769439805953
 20
181.684905609241
 30
0.0
 11
150.7767299805951
 21
61.96670960924098
 31
0.0
  0
ARC
  5
863
330
2
100
AcDbEntity
  8
0
100
AcDbCircle
 10
316.2769669805953
 20
115.325847609241
 30
0.0
 40
130.0
100
AcDbArc
 50
150.437897000001
 51
203.2366940000003
  0
LINE
  5
864
330
2
100
AcDbEntity
  8
0
100
AcDbLine
 10
156.7769439805953
 20
62.82584760924101
 30
0.0
 11
156.7769439805953
 21
183.825847609241
 31
0.0
  0
LINE
  5
865
330
2
100
AcDbEntity
  8
0
100
AcDbLine
 10
192.0269439805953
 20
82.825847609241
 30
0.0
 11
201.7769209805952
 21
82.825847609241
 31
0.0
  0
LINE
  5
866
330
2
100
AcDbEntity
  8
0
100
AcDbLine
 10
198.6599469805952
 20
62.82584760924101
 30
0.0
 11
192.8395429805951
 21
62.82584760924101
 31
0.0
  0
LINE
  5
867
330
2
100
AcDbEntity
  8
0
100
AcDbLine
 10
149.7769439805953
 20
52.82584760924101
 30
0.0
 11
213.7769209805952
 21
52.82584760924101
 31
0.0
  0
LINE
  5
868
330
2
100
AcDbEntity
  8
0
100
AcDbLine
 10
171.7769439805953
 20
93.82584760924101
 30
0.0
 11
171.7769439805953
 21
62.82584760924101
 31
0.0
  0
LINE
  5
86A
330
2
100
AcDbEntity
  8
0
100
AcDbLine
 10
156.7769439805953
 20
67.82584760924101
 30
0.0
 11
171.7769439805953
 21
67.82584760924101
 31
0.0
  0
LINE
  5
86B
330
2
100
AcDbEntity
  8
0
100
AcDbLine
 10
153.5939449805952
 20
62.82584760924101
 30
0.0
 11
171.7769439805953
 21
62.82584760924101
 31
0.0
  0
LINE
  5
86C
330
2
100
AcDbEntity
  8
0
100
AcDbLine
 10
142.2769439805953
 20
63.82584760924101
 30
0.0
 11
150.7767299805951
 21
63.82584760924101
 31
0.0
  0
LINE
  5
870
330
2
100
AcDbEntity
  8
HIDS
  6
SEKKEI_H
100
AcDbLine
 10
157.2769439805953
 20
62.82584760924101
 30
0.0
 11
157.2769439805953
 21
52.82584760924101
 31
0.0
  0
LINE
  5
871
330
2
100
AcDbEntity
  8
0
100
AcDbLine
 10
150.6131489805953
 20
60.16544760924102
 30
0.0
 11
149.7769439805953
 21
52.82584760924101
 31
0.0
  0
ARC
  5
872
330
2
100
AcDbEntity
  8
0
100
AcDbCircle
 10
153.5939449805952
 20
59.82586660924102
 30
0.0
 40
3.0
100
AcDbArc
 50
90.0
 51
173.5003049999994
  0
LINE
  5
873
330
2
100
AcDbEntity
  8
0
100
AcDbLine
 10
155.9019439805953
 20
67.82572960924096
 30
0.0
 11
152.1519439805953
 21
67.82572960924096
 31
0.0
  0
ARC
  5
874
330
2
100
AcDbEntity
  8
0
100
AcDbCircle
 10
152.7769439805953
 20
61.96670960924098
 30
0.0
 40
2.0
100
AcDbArc
 50
180.0
 51
202.4656979999991
  0
LINE
  5
875
330
2
100
AcDbEntity
  8
0
100
AcDbLine
 10
158.7769439805953
 20
67.82584760924101
 30
0.0
 11
158.7769439805953
 21
62.82584760924101
 31
0.0
  0
LINE
  5
876
330
2
100
AcDbEntity
  8
HIDS
  6
SEKKEI_H
100
AcDbLine
 10
166.2769439805953
 20
62.82584760924101
 30
0.0
 11
166.2769439805953
 21
52.82584760924101
 31
0.0
  0
LINE
  5
877
330
2
100
AcDbEntity
  8
CENTER
100
AcDbLine
 10
161.7769439805953
 20
65.32584760924101
 30
0.0
 11
161.7769439805953
 21
50.32584760924101
 31
0.0
  0
LINE
  5
878
330
2
100
AcDbEntity
  8
0
100
AcDbLine
 10
158.1125459805952
 20
81.825847609241
 30
0.0
 11
170.3115429805953
 21
81.825847609241
 31
0.0
  0
LINE
  5
87E
330
2
100
AcDbEntity
  8
0
100
AcDbLine
 10
155.9019439805953
 20
81.82572960924103
 30
0.0
 11
152.1519439805953
 21
81.82572960924103
 31
0.0
  0
ARC
  5
882
330
2
100
AcDbEntity
  8
0
100
AcDbCircle
 10
283.241367980595
 20
92.06694760924102
 30
0.0
 40
80.0
100
AcDbArc
 50
186.6333009999999
 51
201.4391939999998
  0
ARC
  5
883
330
2
100
AcDbEntity
  8
0
100
AcDbCircle
 10
197.0679439805952
 20
83.73244860924103
 30
0.0
 40
15.0
100
AcDbArc
 50
306.0787050000001
 51
356.3157040000002
  0
ARC
  5
884
330
2
100
AcDbEntity
  8
0
100
AcDbCircle
 10
209.9599499805953
 20
59.82584760924101
 30
0.0
 40
3.0
100
AcDbArc
 50
6.500295999999136
 51
90.0
  0
LINE
  5
885
330
2
100
AcDbEntity
  8
HIDS
  6
SEKKEI_H
100
AcDbLine
 10
206.2769209805952
 20
62.82584760924101
 30
0.0
 11
206.2769209805952
 21
52.82584760924101
 31
0.0
  0
LINE
  5
886
330
2
100
AcDbEntity
  8
HIDS
  6
SEKKEI_H
100
AcDbLine
 10
197.2769439805953
 20
62.82584760924101
 30
0.0
 11
197.2769439805953
 21
52.82584760924101
 31
0.0
  0
LINE
  5
887
330
2
100
AcDbEntity
  8
CENTER
100
AcDbLine
 10
201.7769209805952
 20
65.32584760924101
 30
0.0
 11
201.7769209805952
 21
50.32584760924101
 31
0.0
  0
LINE
  5
888
330
2
100
AcDbEntity
  8
0
100
AcDbLine
 10
209.9599499805953
 20
62.82584760924101
 30
0.0
 11
198.6599469805952
 21
62.82584760924101
 31
0.0
  0
ARC
  5
889
330
2
100
AcDbEntity
  8
0
100
AcDbCircle
 10
198.6599469805952
 20
64.82584760924101
 30
0.0
 40
2.0
100
AcDbArc
 50
203.2366940000003
 51
270.0
  0
LINE
  5
88A
330
2
100
AcDbEntity
  8
0
100
AcDbLine
 10
212.9407399805951
 20
60.16546660924098
 30
0.0
 11
213.7769209805952
 21
52.82584760924101
 31
0.0
  0
ARC
  5
892
330
2
100
AcDbEntity
  8
0
100
AcDbCircle
 10
156.7769439805953
 20
-316.2503543907589
 30
0.0
 40
500.0
100
AcDbArc
 50
84.80703700000029
 51
89.00031300000035
  0
LINE
  5
893
330
2
100
AcDbEntity
  8
CENTER
100
AcDbLine
 10
180.7768655812125
 20
137.825847609241
 30
0.0
 11
253.6532615725059
 21
137.825847609241
 31
0.0
  0
LINE
  5
8B2
330
2
100
AcDbEntity
  8
0
100
AcDbLine
 10
156.7769439805953
 20
183.825847609241
 30
0.0
 11
165.4997449805952
 21
183.673587609241
 31
0.0
  0
LINE
  5
8B3
330
2
100
AcDbEntity
  8
0
100
AcDbLine
 10
142.2769439805953
 20
178.825847609241
 30
0.0
 11
150.7769439805953
 21
178.825847609241
 31
0.0
  0
LINE
  5
8B8
330
2
100
AcDbEntity
  8
0
100
AcDbLine
 10
156.7769439805953
 20
183.825847609241
 30
0.0
 11
152.7071279805951
 21
183.683688609241
 31
0.0
  0
ARC
  5
8B9
330
2
100
AcDbEntity
  8
0
100
AcDbCircle
 10
152.7769439805953
 20
181.684905609241
 30
0.0
 40
2.0
100
AcDbArc
 50
92.000282
 51
180.0
  0
LINE
  5
8E1
330
2
100
AcDbEntity
  8
0
100
AcDbLine
 10
222.5269209805952
 20
134.825847609241
 30
0.0
 11
246.7769209805952
 21
134.825847609241
 31
0.0
  0
LINE
  5
8E2
330
2
100
AcDbEntity
  8
0
100
AcDbLine
 10
222.7769209805952
 20
140.825847609241
 30
0.0
 11
246.7769209805952
 21
140.825847609241
 31
0.0
  0
LINE
  5
8E3
330
2
100
AcDbEntity
  8
0
100
AcDbLine
 10
216.7769209805952
 20
128.825847609241
 30
0.0
 11
246.7769209805952
 21
128.825847609241
 31
0.0
  0
LINE
  5
8E4
330
2
100
AcDbEntity
  8
0
100
AcDbLine
 10
216.7769209805952
 20
146.825847609241
 30
0.0
 11
246.7769209805952
 21
146.825847609241
 31
0.0
  0
LINE
  5
8E5
330
2
100
AcDbEntity
  8
0
100
AcDbLine
 10
216.7769209805952
 20
147.825847609241
 30
0.0
 11
216.7769209805952
 21
127.825847609241
 31
0.0
  0
LINE
  5
8E6
330
2
100
AcDbEntity
  8
0
100
AcDbLine
 10
214.7769209805952
 20
118.825847609241
 30
0.0
 11
214.7769209805952
 21
156.825847609241
 31
0.0
  0
LINE
  5
8E7
330
2
100
AcDbEntity
  8
0
100
AcDbLine
 10
214.7769209805952
 20
127.825847609241
 30
0.0
 11
216.7769209805952
 21
127.825847609241
 31
0.0
  0
ARC
  5
8E8
330
2
100
AcDbEntity
  8
0
100
AcDbCircle
 10
222.7769209805952
 20
137.825847609241
 30
0.0
 40
3.0
100
AcDbArc
 50
90.0
 51
270.0
  0
LINE
  5
8E9
330
2
100
AcDbEntity
  8
0
100
AcDbLine
 10
214.7769209805952
 20
147.825847609241
 30
0.0
 11
216.7769209805952
 21
147.825847609241
 31
0.0
  0
ARC
  5
8EA
330
2
100
AcDbEntity
  8
0
100
AcDbCircle
 10
212.2769209805952
 20
156.825847609241
 30
0.0
 40
2.5
100
AcDbArc
 50
0.0
 51
90.0
  0
LINE
  5
8EB
330
2
100
AcDbEntity
  8
0
100
AcDbLine
 10
212.2769209805952
 20
159.325847609241
 30
0.0
 11
212.0725299805952
 21
159.325847609241
 31
0.0
  0
LINE
  5
8EC
330
2
100
AcDbEntity
  8
0
100
AcDbLine
 10
246.7769209805952
 20
146.825847609241
 30
0.0
 11
246.7769209805952
 21
128.825847609241
 31
0.0
  0
ARC
  5
8ED
330
2
100
AcDbEntity
  8
0
100
AcDbCircle
 10
196.5819289805953
 20
165.826747609241
 30
0.0
 40
15.0
100
AcDbArc
 50
4.362911999998815
 51
64.150581
  0
ARC
  5
8EE
330
2
100
AcDbEntity
  8
0
100
AcDbCircle
 10
201.8955739805952
 20
180.203685609241
 30
0.0
 40
1.5
100
AcDbArc
 50
330.4382309999993
 51
84.80725099999954
  0
ARC
  5
945
330
2
100
AcDbEntity
  8
0
100
AcDbCircle
 10
354.3326038972546
 20
125.825847609241
 30
0.0
 40
84.0
100
AcDbArc
 50
351.4053960000001
 51
25.71682899999943
  0
ARC
  5
946
330
2
100
AcDbEntity
  8
0
100
AcDbCircle
 10
415.3326038972546
 20
125.825847609241
 30
0.0
 40
84.0
100
AcDbArc
 50
155.5684969999994
 51
188.2330929999989
  0
CIRCLE
  5
947
330
2
100
AcDbEntity
  8
0
100
AcDbCircle
 10
384.8326038972546
 20
137.825847609241
 30
0.0
 40
21.49999999999999
  0
LINE
  5
948
330
2
100
AcDbEntity
  8
0
100
AcDbLine
 10
451.8326038972547
 20
52.825984609241
 30
0.0
 11
443.2022028972546
 21
133.086467609241
 31
0.0
  0
LINE
  5
949
330
2
100
AcDbEntity
  8
0
100
AcDbLine
 10
317.8326038972546
 20
52.825984609241
 30
0.0
 11
326.4631888972545
 21
133.086467609241
 31
0.0
  0
LINE
  5
94A
330
2
100
AcDbEntity
  8
CENTER
100
AcDbLine
 10
384.8326038972546
 20
192.123627234893
 30
0.0
 11
384.8326038972546
 21
45.92057249059155
 31
0.0
  0
LINE
  5
94B
330
2
100
AcDbEntity
  8
0
100
AcDbLine
 10
418.6014028972546
 20
62.825988609241
 30
0.0
 11
448.1977778972544
 21
62.825988609241
 31
0.0
  0
LINE
  5
94C
330
2
100
AcDbEntity
  8
0
100
AcDbLine
 10
451.8326038972547
 20
52.825984609241
 30
0.0
 11
414.7749868972544
 21
52.825984609241
 31
0.0
  0
LINE
  5
94D
330
2
100
AcDbEntity
  8
0
100
AcDbLine
 10
439.8326038972546
 20
111.325511609241
 30
0.0
 11
429.8323908972546
 21
62.825988609241
 31
0.0
  0
ARC
  5
94E
330
2
100
AcDbEntity
  8
0
100
AcDbCircle
 10
324.8326038972546
 20
141.325847609241
 30
0.0
 40
116.0
100
AcDbArc
 50
328.1571960000018
 51
346.0051879999995
  0
ARC
  5
94F
330
2
100
AcDbEntity
  8
0
100
AcDbCircle
 10
375.9327928972544
 20
85.77536760924102
 30
0.0
 40
3.5
100
AcDbArc
 50
135.5460969999996
 51
220.5290069999984
  0
LINE
  5
950
330
2
100
AcDbEntity
  8
0
100
AcDbLine
 10
370.1325918972544
 20
82.32586660924102
 30
0.0
 11
379.9327928972544
 21
82.32586660924102
 31
0.0
  0
ARC
  5
951
330
2
100
AcDbEntity
  8
0
100
AcDbCircle
 10
375.4327928972544
 20
86.08886760924098
 30
0.0
 40
6.5
100
AcDbArc
 50
112.352501
 51
215.3744959999995
  0
ARC
  5
952
330
2
100
AcDbEntity
  8
0
100
AcDbCircle
 10
384.8326038972546
 20
-92.17415239075899
 30
0.0
 40
150.0
100
AcDbArc
 50
90.0
 51
100.6570969999996
  0
ARC
  5
953
330
2
100
AcDbEntity
  8
0
100
AcDbCircle
 10
384.8326038972546
 20
182.825866609241
 30
0.0
 40
115.0
100
AcDbArc
 50
258.3783870000002
 51
270.0
  0
ARC
  5
954
330
2
100
AcDbEntity
  8
0
100
AcDbCircle
 10
353.0939868972546
 20
70.20036660924097
 30
0.0
 40
3.0
100
AcDbArc
 50
60.92031100000087
 51
160.0001069999998
  0
ARC
  5
955
330
2
100
AcDbEntity
  8
0
100
AcDbCircle
 10
366.7025988972544
 20
94.67090760924099
 30
0.0
 40
25.0
100
AcDbArc
 50
240.920501999999
 51
258.3783870000002
  0
LINE
  5
956
330
2
100
AcDbEntity
  8
0
100
AcDbLine
 10
352.3769768972546
 20
77.00082760924101
 30
0.0
 11
347.2175828972546
 21
62.825988609241
 31
0.0
  0
LINE
  5
957
330
2
100
AcDbEntity
  8
0
100
AcDbLine
 10
329.8326038972546
 20
111.3259396092409
 30
0.0
 11
339.8327868972545
 21
62.825988609241
 31
0.0
  0
LINE
  5
958
330
2
100
AcDbEntity
  8
0
100
AcDbLine
 10
329.8326038972546
 20
111.3259396092409
 30
0.0
 11
319.8106008972546
 21
62.23206660924097
 31
0.0
  0
LINE
  5
959
330
2
100
AcDbEntity
  8
0
100
AcDbLine
 10
340.8323908972546
 20
62.825988609241
 30
0.0
 11
347.7694018972546
 21
81.884548609241
 31
0.0
  0
LINE
  5
95A
330
2
100
AcDbEntity
  8
0
100
AcDbLine
 10
317.8326038972546
 20
52.825984609241
 30
0.0
 11
354.8901908972544
 21
52.825984609241
 31
0.0
  0
LINE
  5
95B
330
2
100
AcDbEntity
  8
0
100
AcDbLine
 10
351.0638048972545
 20
62.825988609241
 30
0.0
 11
321.4673998972545
 21
62.825988609241
 31
0.0
  0
ARC
  5
95C
330
2
100
AcDbEntity
  8
0
100
AcDbCircle
 10
321.6025928972545
 20
59.82598860924099
 30
0.0
 40
3.0
100
AcDbArc
 50
90.0
 51
173.8627930000009
  0
LINE
  5
95D
330
2
100
AcDbEntity
  8
HIDS
  6
SEKKEI_H
100
AcDbLine
 10
325.3326038972546
 20
62.825988609241
 30
0.0
 11
325.3326038972546
 21
52.825984609241
 31
0.0
  0
LINE
  5
95F
330
2
100
AcDbEntity
  8
CENTER
100
AcDbLine
 10
329.8326038972546
 20
65.325988609241
 30
0.0
 11
329.8326038972546
 21
50.325984609241
 31
0.0
  0
LINE
  5
960
330
2
100
AcDbEntity
  8
HIDS
  6
SEKKEI_H
100
AcDbLine
 10
325.3326038972546
 20
62.825988609241
 30
0.0
 11
325.3326038972546
 21
52.825984609241
 31
0.0
  0
LINE
  5
961
330
2
100
AcDbEntity
  8
HIDS
  6
SEKKEI_H
100
AcDbLine
 10
334.3326038972546
 20
62.825988609241
 30
0.0
 11
334.3326038972546
 21
52.825984609241
 31
0.0
  0
ARC
  5
962
330
2
100
AcDbEntity
  8
0
100
AcDbCircle
 10
357.6483998972545
 20
52.29048560924098
 30
0.0
 40
3.0
100
AcDbArc
 50
100.6574020000001
 51
159.8161929999979
  0
LINE
  5
963
330
2
100
AcDbEntity
  8
0
100
AcDbLine
 10
354.8901908972544
 20
52.825984609241
 30
0.0
 11
354.0441828972544
 21
60.169307609241
 31
0.0
  0
ARC
  5
964
330
2
100
AcDbEntity
  8
0
100
AcDbCircle
 10
351.0638048972545
 20
59.82598860924099
 30
0.0
 40
3.0
100
AcDbArc
 50
6.573195999999477
 51
90.0
  0
ARC
  5
965
330
2
100
AcDbEntity
  8
0
100
AcDbCircle
 10
444.8326038972546
 20
141.325847609241
 30
0.0
 40
116.0
100
AcDbArc
 50
194.252593999998
 51
210.8433069999989
  0
ARC
  5
966
330
2
100
AcDbEntity
  8
0
100
AcDbCircle
 10
342.0951768972546
 20
115.229213609241
 30
0.0
 40
10.0
100
AcDbArc
 50
188.2328949999999
 51
194.2523960000007
  0
ARC
  5
967
330
2
100
AcDbEntity
  8
0
100
AcDbCircle
 10
345.8901908972544
 20
82.56860760924098
 30
0.0
 40
2.0
100
AcDbArc
 50
339.9990810000011
 51
33.46659899999932
  0
ARC
  5
968
330
2
100
AcDbEntity
  8
0
100
AcDbCircle
 10
343.5173878972544
 20
78.97226760924104
 30
0.0
 40
3.0
100
AcDbArc
 50
339.9992100000015
 51
34.10168100000112
  0
ARC
  5
969
330
2
100
AcDbEntity
  8
0
100
AcDbCircle
 10
366.7025988972544
 20
94.67090760924099
 30
0.0
 40
25.0
100
AcDbArc
 50
210.8433069999989
 51
214.1018980000005
  0
ARC
  5
96A
330
2
100
AcDbEntity
  8
0
100
AcDbCircle
 10
353.3167958972545
 20
76.658908609241
 30
0.0
 40
1.0
100
AcDbArc
 50
57.6860009999993
 51
160.0012049999991
  0
ARC
  5
96B
330
2
100
AcDbEntity
  8
0
100
AcDbCircle
 10
365.0772028972545
 20
95.25180860924104
 30
0.0
 40
21.0
100
AcDbArc
 50
209.3249050000008
 51
213.4665070000012
  0
ARC
  5
96C
330
2
100
AcDbEntity
  8
0
100
AcDbCircle
 10
416.5711908972545
 20
70.20036660924097
 30
0.0
 40
3.0
100
AcDbArc
 50
20.00037999999853
 51
119.0795969999993
  0
LINE
  5
96D
330
2
100
AcDbEntity
  8
0
100
AcDbLine
 10
417.2883838972544
 20
77.00082760924101
 30
0.0
 11
422.4475938972545
 21
62.825988609241
 31
0.0
  0
ARC
  5
96E
330
2
100
AcDbEntity
  8
0
100
AcDbCircle
 10
402.9625788972545
 20
94.67090760924099
 30
0.0
 40
25.0
100
AcDbArc
 50
281.621704
 51
299.0798950000004
  0
LINE
  5
96F
330
2
100
AcDbEntity
  8
0
100
AcDbLine
 10
428.8327868972545
 20
62.825988609241
 30
0.0
 11
421.8958058972544
 21
81.88464760924103
 31
0.0
  0
ARC
  5
970
330
2
100
AcDbEntity
  8
0
100
AcDbCircle
 10
384.8326038972546
 20
182.825866609241
 30
0.0
 40
115.0
100
AcDbArc
 50
270.0
 51
281.621887
  0
ARC
  5
971
330
2
100
AcDbEntity
  8
0
100
AcDbCircle
 10
384.8326038972546
 20
-92.17415239075899
 30
0.0
 40
150.0
100
AcDbArc
 50
79.34297200000054
 51
90.0
  0
LINE
  5
972
330
2
100
AcDbEntity
  8
0
100
AcDbLine
 10
414.7749868972544
 20
52.825984609241
 30
0.0
 11
415.6209948972544
 21
60.169307609241
 31
0.0
  0
ARC
  5
973
330
2
100
AcDbEntity
  8
0
100
AcDbCircle
 10
412.0169908972544
 20
52.29048560924098
 30
0.0
 40
3.0
100
AcDbArc
 50
20.19420099999903
 51
79.34307900000003
  0
ARC
  5
974
330
2
100
AcDbEntity
  8
0
100
AcDbCircle
 10
418.6014028972546
 20
59.82598860924099
 30
0.0
 40
3.0
100
AcDbArc
 50
90.0
 51
173.4268040000005
  0
LINE
  5
977
330
2
100
AcDbEntity
  8
HIDS
  6
SEKKEI_H
100
AcDbLine
 10
435.3326038972546
 20
62.825988609241
 30
0.0
 11
435.3326038972546
 21
52.825984609241
 31
0.0
  0
LINE
  5
978
330
2
100
AcDbEntity
  8
0
100
AcDbLine
 10
386.4327928972544
 20
88.82586660924102
 30
0.0
 11
386.4327928972544
 21
82.32586660924102
 31
0.0
  0
LINE
  5
979
330
2
100
AcDbEntity
  8
0
100
AcDbLine
 10
382.9327928972544
 20
88.82586660924102
 30
0.0
 11
382.9327928972544
 21
82.32586660924102
 31
0.0
  0
LINE
  5
97A
330
2
100
AcDbEntity
  8
0
100
AcDbLine
 10
379.9327928972544
 20
87.32586660924102
 30
0.0
 11
379.9327928972544
 21
82.32586660924102
 31
0.0
  0
LINE
  5
97B
330
2
100
AcDbEntity
  8
0
100
AcDbLine
 10
382.9327928972544
 20
82.32586660924102
 30
0.0
 11
386.4327928972544
 21
82.32586660924102
 31
0.0
  0
ARC
  5
97C
330
2
100
AcDbEntity
  8
0
100
AcDbCircle
 10
374.8619928972544
 20
86.82586660924101
 30
0.0
 40
2.0
100
AcDbArc
 50
90.0
 51
135.5462039999999
  0
LINE
  5
97D
330
2
100
AcDbEntity
  8
0
100
AcDbLine
 10
379.9327928972544
 20
88.82586660924102
 30
0.0
 11
379.9327928972544
 21
92.32586660924102
 31
0.0
  0
LINE
  5
97E
330
2
100
AcDbEntity
  8
0
100
AcDbLine
 10
373.6523978972546
 20
83.32586660924102
 30
0.0
 11
376.6827928972544
 21
83.32586660924102
 31
0.0
  0
LINE
  5
97F
330
2
100
AcDbEntity
  8
0
100
AcDbLine
 10
374.8619928972544
 20
88.82586660924102
 30
0.0
 11
379.9327928972544
 21
88.82586660924102
 31
0.0
  0
ARC
  5
980
330
2
100
AcDbEntity
  8
0
100
AcDbCircle
 10
373.6523978972546
 20
83.82586660924102
 30
0.0
 40
0.5
100
AcDbArc
 50
220.5301969999998
 51
270.0
  0
LINE
  5
981
330
2
100
AcDbEntity
  8
0
100
AcDbLine
 10
376.6827928972544
 20
87.32586660924102
 30
0.0
 11
376.6827928972544
 21
83.32586660924102
 31
0.0
  0
LINE
  5
982
330
2
100
AcDbEntity
  8
0
100
AcDbLine
 10
376.6827928972544
 20
87.32586660924102
 30
0.0
 11
379.9327928972544
 21
87.32586660924102
 31
0.0
  0
LINE
  5
983
330
2
100
AcDbEntity
  8
0
100
AcDbLine
 10
374.1015858972545
 20
92.32586660924102
 30
0.0
 11
379.9327928972544
 21
92.32586660924102
 31
0.0
  0
ARC
  5
984
330
2
100
AcDbEntity
  8
0
100
AcDbCircle
 10
374.1015858972545
 20
89.32586660924101
 30
0.0
 40
3.0
100
AcDbArc
 50
90.0
 51
112.3526989999998
  0
LINE
  5
985
330
2
100
AcDbEntity
  8
0
100
AcDbLine
 10
388.1827928972544
 20
92.32586660924102
 30
0.0
 11
388.1827928972544
 21
88.82586660924102
 31
0.0
  0
LINE
  5
986
330
2
100
AcDbEntity
  8
0
100
AcDbLine
 10
381.1827928972544
 20
92.32586660924102
 30
0.0
 11
381.1827928972544
 21
88.82586660924102
 31
0.0
  0
LINE
  5
987
330
2
100
AcDbEntity
  8
0
100
AcDbLine
 10
381.1827928972544
 20
88.82586660924102
 30
0.0
 11
382.9327928972544
 21
88.82586660924102
 31
0.0
  0
LINE
  5
988
330
2
100
AcDbEntity
  8
0
100
AcDbLine
 10
386.4327928972544
 20
88.82586660924102
 30
0.0
 11
388.1827928972544
 21
88.82586660924102
 31
0.0
  0
LINE
  5
989
330
2
100
AcDbEntity
  8
0
100
AcDbLine
 10
381.1827928972544
 20
92.32586660924102
 30
0.0
 11
388.1827928972544
 21
92.32586660924102
 31
0.0
  0
LINE
  5
98A
330
2
100
AcDbEntity
  8
0
100
AcDbLine
 10
400.7325978972545
 20
82.32586660924102
 30
0.0
 11
399.2325978972545
 21
84.82586660924102
 31
0.0
  0
LINE
  5
98B
330
2
100
AcDbEntity
  8
0
100
AcDbLine
 10
393.9327928972544
 20
87.32586660924102
 30
0.0
 11
396.9327928972544
 21
82.32586660924102
 31
0.0
  0
LINE
  5
98C
330
2
100
AcDbEntity
  8
0
100
AcDbLine
 10
392.6827928972544
 20
88.82586660924102
 30
0.0
 11
392.6827928972544
 21
82.32586660924102
 31
0.0
  0
LINE
  5
98D
330
2
100
AcDbEntity
  8
0
100
AcDbLine
 10
389.4327928972544
 20
92.32586660924102
 30
0.0
 11
389.4327928972544
 21
82.32586660924102
 31
0.0
  0
LINE
  5
98E
330
2
100
AcDbEntity
  8
0
100
AcDbLine
 10
396.9327928972544
 20
82.32586660924102
 30
0.0
 11
400.7325978972545
 21
82.32586660924102
 31
0.0
  0
LINE
  5
98F
330
2
100
AcDbEntity
  8
0
100
AcDbLine
 10
389.4327928972544
 20
82.32586660924102
 30
0.0
 11
392.6827928972544
 21
82.32586660924102
 31
0.0
  0
LINE
  5
990
330
2
100
AcDbEntity
  8
0
100
AcDbLine
 10
397.5151908972544
 20
92.32586660924102
 30
0.0
 11
389.4327928972544
 21
92.32586660924102
 31
0.0
  0
LINE
  5
991
330
2
100
AcDbEntity
  8
0
100
AcDbLine
 10
392.6827928972544
 20
88.82586660924102
 30
0.0
 11
396.1827928972544
 21
88.82586660924102
 31
0.0
  0
ARC
  5
992
330
2
100
AcDbEntity
  8
0
100
AcDbCircle
 10
396.1827928972544
 20
88.07586660924101
 30
0.0
 40
0.75
100
AcDbArc
 50
270.0
 51
90.0
  0
LINE
  5
993
330
2
100
AcDbEntity
  8
0
100
AcDbLine
 10
393.9327928972544
 20
87.32586660924102
 30
0.0
 11
396.1827928972544
 21
87.32586660924102
 31
0.0
  0
ARC
  5
994
330
2
100
AcDbEntity
  8
0
100
AcDbCircle
 10
396.2325978972545
 20
88.17990860924101
 30
0.0
 40
4.5
100
AcDbArc
 50
311.8104209999998
 51
59.13299199999959
  0
ARC
  5
995
330
2
100
AcDbEntity
  8
0
100
AcDbCircle
 10
397.5151908972544
 20
90.32586660924101
 30
0.0
 40
2.0
100
AcDbArc
 50
59.13309899999954
 51
90.0
  0
ARC
  5
996
330
2
100
AcDbEntity
  8
0
100
AcDbCircle
 10
416.3483818972546
 20
76.658908609241
 30
0.0
 40
1.0
100
AcDbArc
 50
19.99879099999957
 51
122.3140030000008
  0
ARC
  5
997
330
2
100
AcDbEntity
  8
0
100
AcDbCircle
 10
423.7752008972544
 20
82.56860760924098
 30
0.0
 40
2.0
100
AcDbArc
 50
146.5334010000006
 51
200.0001979999999
  0
ARC
  5
998
330
2
100
AcDbEntity
  8
0
100
AcDbCircle
 10
426.1480028972544
 20
78.97226760924104
 30
0.0
 40
3.0
100
AcDbArc
 50
156.9951020000018
 51
200.0005039999987
  0
ARC
  5
999
330
2
100
AcDbEntity
  8
0
100
AcDbCircle
 10
404.5881888972545
 20
95.25180860924104
 30
0.0
 40
21.0
100
AcDbArc
 50
326.5334890000005
 51
330.6750910000012
  0
LINE
  5
99A
330
2
100
AcDbEntity
  8
0
100
AcDbLine
 10
439.8326038972546
 20
111.325511609241
 30
0.0
 11
449.8557978972545
 21
62.23100660924103
 31
0.0
  0
LINE
  5
99C
330
2
100
AcDbEntity
  8
CENTER
100
AcDbLine
 10
439.8326038972544
 20
65.325988609241
 30
0.0
 11
439.8326038972544
 21
50.325984609241
 31
0.0
  0
LINE
  5
99E
330
2
100
AcDbEntity
  8
HIDS
  6
SEKKEI_H
100
AcDbLine
 10
444.3326038972546
 20
62.825988609241
 30
0.0
 11
444.3326038972546
 21
52.825984609241
 31
0.0
  0
ARC
  5
99F
330
2
100
AcDbEntity
  8
0
100
AcDbCircle
 10
448.0625848972546
 20
59.82598860924099
 30
0.0
 40
3.0
100
AcDbArc
 50
6.137664000000127
 51
90.0
  0
ARC
  5
9A0
330
2
100
AcDbEntity
  8
0
100
AcDbCircle
 10
333.8326038972546
 20
121.325847609241
 30
0.0
 40
110.0
100
AcDbArc
 50
6.137496999999949
 51
20.73459999999885
  0
ARC
  5
9A1
330
2
100
AcDbEntity
  8
0
100
AcDbCircle
 10
408.6509938972545
 20
149.6490266092409
 30
0.0
 40
30.0
100
AcDbArc
 50
20.73481900000178
 51
70.10722400000017
  0
ARC
  5
9A2
330
2
100
AcDbEntity
  8
0
100
AcDbCircle
 10
384.8326038972546
 20
83.82596560924099
 30
0.0
 40
95.5
100
AcDbArc
 50
71.02430000000002
 51
108.9758990000002
  0
ARC
  5
9A3
330
2
100
AcDbEntity
  8
0
100
AcDbCircle
 10
384.8326038972546
 20
83.82588560924103
 30
0.0
 40
100.0
100
AcDbArc
 50
70.10703300000011
 51
109.8932040000002
  0
LINE
  5
9A4
330
2
100
AcDbEntity
  8
CENTER
100
AcDbLine
 10
354.8095583810301
 20
137.825847609241
 30
0.0
 11
414.8556494134792
 21
137.825847609241
 31
0.0
  0
LINE
  5
9A5
330
2
100
AcDbEntity
  8
HOJO
100
AcDbLine
 10
311.4272390831098
 20
164.1345377742571
 30
0.0
 11
311.9709120125061
 21
164.5466879587917
 31
0.0
  0
LINE
  5
9A6
330
2
100
AcDbEntity
  8
0
100
AcDbLine
 10
315.4031908972545
 20
170.070648609241
 30
0.0
 11
332.8537828972545
 21
159.9958876092409
 31
0.0
  0
LINE
  5
9A7
330
2
100
AcDbEntity
  8
0
100
AcDbLine
 10
312.4031908972546
 20
164.874465609241
 30
0.0
 11
330.8647998972545
 21
154.216026609241
 31
0.0
  0
LINE
  5
9AA
330
2
100
AcDbEntity
  8
0
100
AcDbLine
 10
311.9709120125063
 20
164.5466879587917
 30
0.0
 11
330.7126839827893
 21
153.7265024973202
 31
0.0
  0
ARC
  5
9AB
330
2
100
AcDbEntity
  8
0
100
AcDbCircle
 10
362.0709768972545
 20
150.021947609241
 30
0.0
 40
25.5
100
AcDbArc
 50
108.9760970000002
 51
155.5686949999991
  0
ARC
  5
9AC
330
2
100
AcDbEntity
  8
0
100
AcDbCircle
 10
361.0141838972546
 20
149.6490266092409
 30
0.0
 40
30.0
100
AcDbArc
 50
109.8936000000004
 51
159.2657929999999
  0
ARC
  5
9AD
330
2
100
AcDbEntity
  8
0
100
AcDbCircle
 10
435.8326038972546
 20
121.325847609241
 30
0.0
 40
110.0
100
AcDbArc
 50
159.2655030000014
 51
173.862503
  0
LINE
  5
9AE
330
2
100
AcDbEntity
  8
0
100
AcDbLine
 10
307.9034048972545
 20
157.0802266092409
 30
0.0
 11
328.4576038972546
 21
145.2135276092409
 31
0.0
  0
LINE
  5
9AF
330
2
100
AcDbEntity
  8
0
100
AcDbLine
 10
310.9031908972545
 20
162.276386609241
 30
0.0
 11
329.9840298447158
 21
151.2604324743135
 31
0.0
  0
LINE
  5
9B0
330
2
100
AcDbEntity
  8
0
100
AcDbLine
 10
311.1499382458456
 20
163.8659703096059
 30
0.0
 11
330.4148018186662
 21
152.7437884220884
 31
0.0
  0
LINE
  5
9B1
330
2
100
AcDbEntity
  8
0
100
AcDbLine
 10
310.7945040981543
 20
162.9164827156732
 30
0.0
 11
330.1254729552548
 21
151.7561362705553
 31
0.0
  0
ARC
  5
9B2
330
2
100
AcDbEntity
  8
HOJO
100
AcDbCircle
 10
309.3944018972546
 20
157.662746609241
 30
0.0
 40
1.600781999999999
100
AcDbArc
 50
127.1647030000012
 51
201.3401949999992
  0
ARC
  5
9B3
330
2
100
AcDbEntity
  8
HOJO
100
AcDbCircle
 10
312.39425008311
 20
162.8588997742572
 30
0.0
 40
1.600781999999999
100
AcDbArc
 50
127.1647029999988
 51
177.9385253881882
  0
ARC
  5
9B4
330
2
100
AcDbEntity
  8
HOJO
100
AcDbCircle
 10
309.4121938972544
 20
161.693847609241
 30
0.0
 40
1.600781
100
AcDbArc
 50
307.1646999999992
 51
21.34008999999939
  0
LINE
  5
9B5
330
2
100
AcDbEntity
  8
HOJO
100
AcDbLine
 10
308.4271778972544
 20
158.938365609241
 30
0.0
 11
310.3793878972545
 21
160.4182286092409
 31
0.0
  0
LINE
  5
9B6
330
2
100
AcDbEntity
  8
HOJO
100
AcDbLine
 10
314.4272967129117
 20
169.3306770413383
 30
0.0
 11
315.4033114734339
 21
170.0705789969211
 31
0.0
  0
ARC
  5
9B7
330
2
100
AcDbEntity
  8
HOJO
100
AcDbCircle
 10
312.4122550831099
 20
166.8899777742572
 30
0.0
 40
1.600781
100
AcDbArc
 50
307.1647000000018
 51
21.34008999999939
  0
ARC
  5
9B8
330
2
100
AcDbEntity
  8
HOJO
100
AcDbCircle
 10
315.3943077129116
 20
168.0550390413383
 30
0.0
 40
1.600781999999999
100
AcDbArc
 50
127.1647029999988
 51
201.3401949999992
  0
LINE
  5
9B9
330
2
100
AcDbEntity
  8
HOJO
100
AcDbLine
 10
312.403246009792
 20
164.8744337911248
 30
0.0
 11
313.3792660831098
 21
165.6143397742572
 31
0.0
  0
ARC
  5
9BA
330
2
100
AcDbEntity
  8
0
100
AcDbCircle
 10
407.5942008972545
 20
150.021947609241
 30
0.0
 40
25.5
100
AcDbArc
 50
28.51621999999979
 51
71.02429199999969
  0
ARC
  5
9BB
330
2
100
AcDbEntity
  8
0
100
AcDbCircle
 10
384.8326038972546
 20
137.8257846092409
 30
0.0
 40
9.0
100
AcDbArc
 50
199.4709930000004
 51
160.528792999998
  0
LINE
  5
9BC
330
2
100
AcDbEntity
  8
0
100
AcDbLine
 10
373.3326038972546
 20
140.825784609241
 30
0.0
 11
373.3326038972546
 21
134.825847609241
 31
0.0
  0
LINE
  5
9BD
330
2
100
AcDbEntity
  8
0
100
AcDbLine
 10
379.3326038972546
 20
140.825847609241
 30
0.0
 11
379.3326038972546
 21
134.825847609241
 31
0.0
  0
LINE
  5
9BE
330
2
100
AcDbEntity
  8
0
100
AcDbLine
 10
373.3326038972546
 20
134.825847609241
 30
0.0
 11
379.3326038972546
 21
134.825847609241
 31
0.0
  0
LINE
  5
9BF
330
2
100
AcDbEntity
  8
0
100
AcDbLine
 10
373.3326038972546
 20
140.825784609241
 30
0.0
 11
379.3326038972546
 21
140.825847609241
 31
0.0
  0
TEXT
  5
9C0
330
2
100
AcDbEntity
  8
TITLE
100
AcDbText
 10
33.47052725337025
 20
27.9590819070875
 30
0.0
 40
6.0
  1
VGLD18-5～30N200
100
AcDbText
  0
MTEXT
  5
9D1
330
2
100
AcDbEntity
  8
TITLE
100
AcDbMText
 10
122.5709550947594
 20
36.09275088500579
 30
0.0
 40
3.7712
 41
15.570342
 71
     1
 72
     5
  1
L2\PL4
1001
ACAD
1000
MTEXTBEGIN
1070
    73
1070
     1
1070
    44
1040
1.0
1070
    74
1070
     0
1000
MTEXTEND
1000
MTEXTBEGIN
1070
    73
1070
     1
1070
    44
1040
1.0
1070
    74
1070
     0
1000
MTEXTEND
  0
LINE
  5
A39
330
2
100
AcDbEntity
  8
0
100
AcDbLine
 10
216.7769209805952
 20
371.2696984144773
 30
0.0
 11
216.7769209805952
 21
351.2696984144773
 31
0.0
  0
LINE
  5
A3A
330
2
100
AcDbEntity
  8
0
100
AcDbLine
 10
214.7769209805952
 20
381.2696984144773
 30
0.0
 11
214.7769209805952
 21
361.2696984144773
 31
0.0
  0
LINE
  5
A3B
330
2
100
AcDbEntity
  8
0
100
AcDbLine
 10
246.7769209805952
 20
370.2696984144773
 30
0.0
 11
246.7769209805952
 21
349.7696984144774
 31
0.0
  0
ARC
  5
A3C
330
2
100
AcDbEntity
  8
0
100
AcDbCircle
 10
411.7327019805953
 20
361.2696374144774
 30
0.0
 40
200.0
100
AcDbArc
 50
173.8292999999995
 51
186.1712040000004
  0
LINE
  5
A3D
330
2
100
AcDbEntity
  8
0
100
AcDbLine
 10
156.7769059805953
 20
361.2696984144773
 30
0.0
 11
156.7769059805953
 21
420.2696984144774
 31
0.0
  0
ARC
  5
A3E
330
2
100
AcDbEntity
  8
0
100
AcDbCircle
 10
-96.21988901940461
 20
361.2696984144773
 30
0.0
 40
300.0
100
AcDbArc
 50
0.0
 51
6.881896999998798
  0
LINE
  5
A3F
330
2
100
AcDbEntity
  8
0
100
AcDbLine
 10
142.2768449805953
 20
418.7696684144773
 30
0.0
 11
142.2768449805953
 21
303.7696524144773
 31
0.0
  0
LINE
  5
A40
330
2
100
AcDbEntity
  8
0
100
AcDbLine
 10
142.2768449805953
 20
418.7696984144773
 30
0.0
 11
142.2768449805953
 21
303.7696834144774
 31
0.0
  0
LINE
  5
A41
330
2
100
AcDbEntity
  8
0
100
AcDbLine
 10
150.7768449805953
 20
419.6254114144774
 30
0.0
 11
150.7766469805953
 21
302.9141534144773
 31
0.0
  0
LINE
  5
A42
330
2
100
AcDbEntity
  8
CENTER
100
AcDbLine
 10
23.27704298059563
 20
361.2696984144773
 30
0.0
 11
251.7769209805952
 21
361.2696984144773
 31
0.0
  0
ARC
  5
A43
330
2
100
AcDbEntity
  8
0
100
AcDbCircle
 10
156.7761739805953
 20
994.1700894144773
 30
0.0
 40
700.0
100
AcDbArc
 50
271.5557860000003
 51
273.5939029999995
  0
LINE
  5
A44
330
2
100
AcDbEntity
  8
0
100
AcDbLine
 10
156.7769059805953
 20
361.2696984144773
 30
0.0
 11
156.7769059805953
 21
302.2696834144774
 31
0.0
  0
LINE
  5
A45
330
2
100
AcDbEntity
  8
CENTER
100
AcDbLine
 10
161.7769059805953
 20
298.7179404144773
 30
0.0
 11
161.7769059805953
 21
313.8215784144772
 31
0.0
  0
ARC
  5
A46
330
2
100
AcDbEntity
  8
HIDS
100
AcDbCircle
 10
161.7769059805953
 20
306.2697444144773
 30
0.0
 40
4.5
100
AcDbArc
 50
291.906502
 51
245.0914610000015
  0
ARC
  5
A47
330
2
100
AcDbEntity
  8
0
100
AcDbCircle
 10
163.7767839805953
 20
308.7474664144774
 30
0.0
 40
14.0
100
AcDbArc
 50
205.821593999999
 51
268.4997859999987
  0
LINE
  5
A48
330
2
100
AcDbEntity
  8
0
100
AcDbLine
 10
168.6749779805953
 20
301.9579154144774
 30
0.0
 11
156.7769059805953
 21
302.2696834144774
 31
0.0
  0
LINE
  5
A49
330
2
100
AcDbEntity
  8
CENTER
100
AcDbLine
 10
169.3287249805953
 20
306.2697594144773
 30
0.0
 11
154.2250869805954
 21
306.2697594144773
 31
0.0
  0
LINE
  5
A4A
330
2
100
AcDbEntity
  8
0
100
AcDbLine
 10
156.7769059805953
 20
302.2696834144774
 30
0.0
 11
152.0579729805953
 21
302.3932644144773
 31
0.0
  0
ARC
  5
A4B
330
2
100
AcDbEntity
  8
0
100
AcDbCircle
 10
152.1103259805953
 20
304.3925774144773
 30
0.0
 40
2.0
100
AcDbArc
 50
218.9401399999999
 51
268.5000000000005
  0
ARC
  5
A4C
330
2
100
AcDbEntity
  8
0
100
AcDbCircle
 10
149.7769059805953
 20
302.5070494144773
 30
0.0
 40
1.0
100
AcDbArc
 50
38.94015499999928
 51
88.00079299999882
  0
LINE
  5
A4D
330
2
100
AcDbEntity
  8
0
100
AcDbLine
 10
149.8118179805953
 20
303.5064544144773
 30
0.0
 11
142.2767839805953
 21
303.7696224144774
 31
0.0
  0
ARC
  5
A4E
330
2
100
AcDbEntity
  8
0
100
AcDbCircle
 10
168.5963949805953
 20
298.9589384144773
 30
0.0
 40
3.0
100
AcDbArc
 50
4.45913700000122
 51
88.49899300000039
  0
ARC
  5
A4F
330
2
100
AcDbEntity
  8
0
100
AcDbCircle
 10
108.9774069805953
 20
294.3096154144773
 30
0.0
 40
62.79999899999999
100
AcDbArc
 50
0.2278379999996143
 51
4.45913700000122
  0
ARC
  5
A50
330
2
100
AcDbEntity
  8
0
100
AcDbCircle
 10
161.7769059805953
 20
306.2697444144773
 30
0.0
 40
4.5
100
AcDbArc
 50
245.0914610000015
 51
291.906502
  0
LINE
  5
A51
330
2
100
AcDbEntity
  8
0
100
AcDbLine
 10
163.4102679805953
 20
294.7521664144774
 30
0.0
 11
175.7856949805954
 21
294.4280084144774
 31
0.0
  0
ARC
  5
A52
330
2
100
AcDbEntity
  8
0
100
AcDbCircle
 10
-386.7230790194047
 20
361.2696984144773
 30
0.0
 40
600.0
100
AcDbArc
 50
356.5144960000008
 51
357.9465030000001
  0
ARC
  5
A53
330
2
100
AcDbEntity
  8
0
100
AcDbCircle
 10
-96.21988901940461
 20
361.2696984144773
 30
0.0
 40
300.0
100
AcDbArc
 50
353.1181029999995
 51
0.0
  0
LINE
  5
A54
330
2
100
AcDbEntity
  8
0
100
AcDbLine
 10
213.7769209805952
 20
317.2696834144774
 30
0.0
 11
213.7769209805952
 21
309.5187064144774
 31
0.0
  0
ARC
  5
A55
330
2
100
AcDbEntity
  8
0
100
AcDbCircle
 10
186.2769059805953
 20
348.9697104144774
 30
0.0
 40
40.0
100
AcDbArc
 50
282.1353150000004
 51
300.4060060000013
  0
ARC
  5
A56
330
2
100
AcDbEntity
  8
0
100
AcDbCircle
 10
153.8522849805953
 20
338.7191004144774
 30
0.0
 40
50.0
100
AcDbArc
 50
311.939301000001
 51
338.4898989999989
  0
LINE
  5
A57
330
2
100
AcDbEntity
  8
CENTER
100
AcDbLine
 10
201.7769059805954
 20
298.7179404144773
 30
0.0
 11
201.7769059805954
 21
313.8215784144772
 31
0.0
  0
CIRCLE
  5
A58
330
2
100
AcDbEntity
  8
0
100
AcDbCircle
 10
201.7769059805954
 20
306.2696834144773
 30
0.0
 40
4.5
  0
LINE
  5
A59
330
2
100
AcDbEntity
  8
CENTER
100
AcDbLine
 10
209.3287249805953
 20
306.2697594144773
 30
0.0
 11
194.2250869805953
 21
306.2697594144773
 31
0.0
  0
ARC
  5
A5A
330
2
100
AcDbEntity
  8
0
100
AcDbCircle
 10
202.7769059805954
 20
306.2696834144773
 30
0.0
 40
11.0
100
AcDbArc
 50
180.6970060000002
 51
233.4857940000002
  0
LINE
  5
A5B
330
2
100
AcDbEntity
  8
0
100
AcDbLine
 10
187.6351369805953
 20
299.0517264144774
 30
0.0
 11
195.1104179805953
 21
295.5485534144774
 31
0.0
  0
ARC
  5
A5C
330
2
100
AcDbEntity
  8
0
100
AcDbCircle
 10
188.2719169805953
 20
300.4106284144774
 30
0.0
 40
1.5
100
AcDbArc
 50
131.9389040000002
 51
244.8914949999977
  0
ARC
  5
A5D
330
2
100
AcDbEntity
  8
0
100
AcDbCircle
 10
195.5772139805953
 20
296.5447684144773
 30
0.0
 40
1.1
100
AcDbArc
 50
244.8923030000007
 51
53.4867520000003
  0
ARC
  5
A5E
330
2
100
AcDbEntity
  8
0
100
AcDbCircle
 10
199.7769059805954
 20
309.5187064144774
 30
0.0
 40
14.0
100
AcDbArc
 50
273.594116000001
 51
0.0
  0
ARC
  5
A5F
330
2
100
AcDbEntity
  8
0
100
AcDbCircle
 10
197.1947529805953
 20
325.7039944144774
 30
0.0
 40
15.0
100
AcDbArc
 50
328.5582889999989
 51
356.5147089999999
  0
ARC
  5
A60
330
2
100
AcDbEntity
  8
0
100
AcDbCircle
 10
199.7769059805954
 20
317.2696834144774
 30
0.0
 40
14.0
100
AcDbArc
 50
0.0
 51
28.57666000000135
  0
ARC
  5
A61
330
2
100
AcDbEntity
  8
0
100
AcDbCircle
 10
201.4606369805953
 20
323.0958094144773
 30
0.0
 40
10.0
100
AcDbArc
 50
300.4061889999994
 51
328.5581049999999
  0
ARC
  5
A62
330
2
100
AcDbEntity
  8
0
100
AcDbCircle
 10
181.7629289805953
 20
327.7190394144773
 30
0.0
 40
20.0
100
AcDbArc
 50
338.4898989999989
 51
353.1181949999993
  0
LINE
  5
A63
330
2
100
AcDbEntity
  8
0
100
AcDbLine
 10
219.7768599805953
 20
352.7846824144774
 30
0.0
 11
246.7769209805952
 21
352.7846824144774
 31
0.0
  0
LINE
  5
A64
330
2
100
AcDbEntity
  8
0
100
AcDbLine
 10
219.7768599805953
 20
349.7696984144774
 30
0.0
 11
246.7769209805952
 21
349.7696984144774
 31
0.0
  0
LINE
  5
A65
330
2
100
AcDbEntity
  8
0
100
AcDbLine
 10
219.7768599805953
 20
352.7846824144774
 30
0.0
 11
219.7768599805953
 21
349.7696984144774
 31
0.0
  0
LINE
  5
A66
330
2
100
AcDbEntity
  8
0
100
AcDbLine
 10
214.7769209805952
 20
341.2696984144773
 30
0.0
 11
214.7769209805952
 21
361.2696984144773
 31
0.0
  0
ARC
  5
A67
330
2
100
AcDbEntity
  8
0
100
AcDbCircle
 10
213.2769209805952
 20
341.2696984144773
 30
0.0
 40
1.5
100
AcDbArc
 50
270.0
 51
0.0
  0
LINE
  5
A68
330
2
100
AcDbEntity
  8
0
100
AcDbLine
 10
213.2769209805952
 20
339.7696984144773
 30
0.0
 11
212.8916369805953
 21
339.7696984144773
 31
0.0
  0
LINE
  5
A69
330
2
100
AcDbEntity
  8
0
100
AcDbLine
 10
214.7769209805952
 20
351.2696984144773
 30
0.0
 11
216.7769209805952
 21
351.2696984144773
 31
0.0
  0
LINE
  5
A6A
330
2
100
AcDbEntity
  8
0
100
AcDbLine
 10
216.7769209805952
 20
352.2696984144773
 30
0.0
 11
219.7768599805953
 21
352.2696984144773
 31
0.0
  0
ARC
  5
A6B
330
2
100
AcDbEntity
  8
0
100
AcDbCircle
 10
156.7761739805953
 20
-271.6305085855226
 30
0.0
 40
700.0
100
AcDbArc
 50
86.40609700000052
 51
88.44421399999966
  0
LINE
  5
A6C
330
2
100
AcDbEntity
  8
CENTER
100
AcDbLine
 10
161.7769059805953
 20
423.8214564144773
 30
0.0
 11
161.7769059805953
 21
408.7178184144774
 31
0.0
  0
ARC
  5
A6D
330
2
100
AcDbEntity
  8
0
100
AcDbCircle
 10
163.7767839805953
 20
413.7919154144774
 30
0.0
 40
14.0
100
AcDbArc
 50
91.50019799999858
 51
154.1784060000009
  0
ARC
  5
A6E
330
2
100
AcDbEntity
  8
HIDS
100
AcDbCircle
 10
161.7769059805953
 20
416.2696374144774
 30
0.0
 40
4.5
100
AcDbArc
 50
114.9085389999984
 51
68.09349800000001
  0
LINE
  5
A6F
330
2
100
AcDbEntity
  8
0
100
AcDbLine
 10
168.6749779805953
 20
420.5814664144774
 30
0.0
 11
156.7769059805953
 21
420.2696984144774
 31
0.0
  0
LINE
  5
A70
330
2
100
AcDbEntity
  8
CENTER
100
AcDbLine
 10
169.3287249805953
 20
416.2696374144774
 30
0.0
 11
154.2250869805954
 21
416.2696374144774
 31
0.0
  0
LINE
  5
A71
330
2
100
AcDbEntity
  8
0
100
AcDbLine
 10
156.7769059805953
 20
420.2696984144774
 30
0.0
 11
152.0579729805953
 21
420.1461334144774
 31
0.0
  0
ARC
  5
A72
330
2
100
AcDbEntity
  8
0
100
AcDbCircle
 10
152.1103259805953
 20
418.1468044144773
 30
0.0
 40
2.0
100
AcDbArc
 50
91.49999999999947
 51
141.0598600000001
  0
ARC
  5
A73
330
2
100
AcDbEntity
  8
0
100
AcDbCircle
 10
149.7769059805953
 20
420.0323324144774
 30
0.0
 40
1.0
100
AcDbArc
 50
271.9992070000011
 51
321.0598450000007
  0
LINE
  5
A74
330
2
100
AcDbEntity
  8
0
100
AcDbLine
 10
149.8118179805953
 20
419.0329434144773
 30
0.0
 11
142.2767839805953
 21
418.7697594144773
 31
0.0
  0
ARC
  5
A75
330
2
100
AcDbEntity
  8
0
100
AcDbCircle
 10
168.5963949805953
 20
423.5804284144774
 30
0.0
 40
3.0
100
AcDbArc
 50
271.5010069999995
 51
355.5408629999987
  0
ARC
  5
A76
330
2
100
AcDbEntity
  8
0
100
AcDbCircle
 10
108.9774069805953
 20
428.2297814144774
 30
0.0
 40
62.79999899999999
100
AcDbArc
 50
355.5408629999987
 51
359.7721619999987
  0
ARC
  5
A77
330
2
100
AcDbEntity
  8
0
100
AcDbCircle
 10
161.7769059805953
 20
416.2696374144774
 30
0.0
 40
4.5
100
AcDbArc
 50
68.09349800000001
 51
114.9085389999984
  0
LINE
  5
A78
330
2
100
AcDbEntity
  8
0
100
AcDbLine
 10
163.4102679805953
 20
427.7871544144772
 30
0.0
 11
175.7856949805954
 21
428.1113124144773
 31
0.0
  0
LINE
  5
A79
330
2
100
AcDbEntity
  8
0
100
AcDbLine
 10
213.7769209805952
 20
405.2696374144773
 30
0.0
 11
213.7769209805952
 21
413.0206144144774
 31
0.0
  0
LINE
  5
A7A
330
2
100
AcDbEntity
  8
CENTER
100
AcDbLine
 10
201.7769059805954
 20
423.8214564144773
 30
0.0
 11
201.7769059805954
 21
408.7178184144774
 31
0.0
  0
ARC
  5
A7B
330
2
100
AcDbEntity
  8
0
100
AcDbCircle
 10
153.8522849805953
 20
383.8203574144774
 30
0.0
 40
50.0
100
AcDbArc
 50
21.51010100000112
 51
48.06069899999898
  0
ARC
  5
A7C
330
2
100
AcDbEntity
  8
0
100
AcDbCircle
 10
186.2769059805953
 20
373.5697474144774
 30
0.0
 40
40.0
100
AcDbArc
 50
59.59398999999818
 51
77.86505100000063
  0
LINE
  5
A7D
330
2
100
AcDbEntity
  8
0
100
AcDbLine
 10
216.7768599805953
 20
370.2695764144773
 30
0.0
 11
246.7769209805952
 21
370.2696984144773
 31
0.0
  0
ARC
  5
A7E
330
2
100
AcDbEntity
  8
0
100
AcDbCircle
 10
-386.7230790194047
 20
361.2696984144773
 30
0.0
 40
600.0
100
AcDbArc
 50
2.053373000000485
 51
3.485503999999224
  0
LINE
  5
A7F
330
2
100
AcDbEntity
  8
0
100
AcDbLine
 10
214.7769209805952
 20
371.2696984144773
 30
0.0
 11
216.7769209805952
 21
371.2696984144773
 31
0.0
  0
ARC
  5
A80
330
2
100
AcDbEntity
  8
0
100
AcDbCircle
 10
213.2769209805952
 20
381.2696984144773
 30
0.0
 40
1.5
100
AcDbArc
 50
0.0
 51
90.0
  0
LINE
  5
A81
330
2
100
AcDbEntity
  8
0
100
AcDbLine
 10
213.2769209805952
 20
382.7696374144774
 30
0.0
 11
212.8916369805953
 21
382.7696374144774
 31
0.0
  0
ARC
  5
A82
330
2
100
AcDbEntity
  8
0
100
AcDbCircle
 10
197.1947529805953
 20
396.8353114144773
 30
0.0
 40
15.0
100
AcDbArc
 50
3.485291000000025
 51
31.44171100000109
  0
ARC
  5
A83
330
2
100
AcDbEntity
  8
0
100
AcDbCircle
 10
199.7769059805954
 20
405.2696374144773
 30
0.0
 40
14.0
100
AcDbArc
 50
331.4233399999986
 51
0.0
  0
ARC
  5
A84
330
2
100
AcDbEntity
  8
0
100
AcDbCircle
 10
201.4606369805953
 20
399.4436484144774
 30
0.0
 40
10.0
100
AcDbArc
 50
31.44189500000008
 51
59.59381100000054
  0
ARC
  5
A85
330
2
100
AcDbEntity
  8
0
100
AcDbCircle
 10
181.7629289805953
 20
394.8203574144773
 30
0.0
 40
20.0
100
AcDbArc
 50
6.881805000000727
 51
21.51010100000112
  0
ARC
  5
A86
330
2
100
AcDbEntity
  8
0
100
AcDbCircle
 10
199.7769059805954
 20
413.0206144144774
 30
0.0
 40
14.0
100
AcDbArc
 50
0.0
 51
86.405883999999
  0
CIRCLE
  5
A87
330
2
100
AcDbEntity
  8
0
100
AcDbCircle
 10
201.7769059805954
 20
416.2696374144774
 30
0.0
 40
4.5
  0
LINE
  5
A88
330
2
100
AcDbEntity
  8
CENTER
100
AcDbLine
 10
209.3287249805953
 20
416.2696374144774
 30
0.0
 11
194.2250869805953
 21
416.2696374144774
 31
0.0
  0
ARC
  5
A89
330
2
100
AcDbEntity
  8
0
100
AcDbCircle
 10
202.7769059805954
 20
416.2696374144774
 30
0.0
 40
11.0
100
AcDbArc
 50
126.5141979999985
 51
179.3031010000002
  0
LINE
  5
A8A
330
2
100
AcDbEntity
  8
0
100
AcDbLine
 10
187.6351369805953
 20
423.4877164144774
 30
0.0
 11
195.1104179805953
 21
426.9907374144773
 31
0.0
  0
ARC
  5
A8B
330
2
100
AcDbEntity
  8
0
100
AcDbCircle
 10
188.2719169805953
 20
422.1288294144774
 30
0.0
 40
1.5
100
AcDbArc
 50
115.1085050000022
 51
228.0610959999997
  0
ARC
  5
A8C
330
2
100
AcDbEntity
  8
0
100
AcDbCircle
 10
195.5772139805953
 20
425.9945524144773
 30
0.0
 40
1.1
100
AcDbArc
 50
306.5132479999996
 51
115.1076969999992
  0
LINE
  5
A8D
330
2
100
AcDbEntity
  8
0
100
AcDbLine
 10
308.5385613854036
 20
159.0227993038348
 30
0.0
 11
328.9309821484469
 21
147.2496449289787
 31
0.0
  0
LINE
  5
A8E
330
2
100
AcDbEntity
  8
0
100
AcDbLine
 10
310.2679489372434
 20
160.3337528644805
 30
0.0
 11
329.4399633897173
 21
149.2651755509422
 31
0.0
  0
LINE
  5
1EE0
330
2
100
AcDbEntity
  8
0
100
AcDbLine
 10
132.2768489805951
 20
357.1620829290101
 30
0.0
 11
132.2768489805955
 21
305.0962974144773
 31
0.0
  0
LINE
  5
1EE1
330
2
100
AcDbEntity
  8
0
100
AcDbLine
 10
74.77688398059536
 20
412.1619493495701
 30
0.0
 11
74.77688398059536
 21
328.2689506759639
 31
0.0
  0
LINE
  5
1EE2
330
2
100
AcDbEntity
  8
0
100
AcDbLine
 10
30.77668346967584
 20
398.4480964144773
 30
0.0
 11
30.77761638081597
 21
324.1466029685653
 31
0.0
  0
LINE
  5
1EE3
330
2
100
AcDbEntity
  8
0
100
AcDbLine
 10
60.77694398059566
 20
320.8734325126507
 30
0.0
 11
33.75327646967571
 21
321.0899004144774
 31
0.0
  0
ARC
  5
1EE4
330
2
100
AcDbEntity
  8
0
100
AcDbCircle
 10
33.77708046967586
 20
324.0899004144774
 30
0.0
 40
3.0
100
AcDbArc
 50
180.0
 51
269.5405269999959
  0
LINE
  5
1EE5
330
2
100
AcDbEntity
  8
0
100
AcDbLine
 10
88.47682698059566
 20
318.4936497160416
 30
0.0
 11
130.6006289805952
 21
318.1260174144773
 31
0.0
  0
LINE
  5
1EE6
330
2
100
AcDbEntity
  8
0
100
AcDbLine
 10
88.47682698059543
 20
313.5639444315439
 30
0.0
 11
130.6006289805952
 21
313.1962994144775
 31
0.0
  0
LINE
  5
1EE7
330
2
100
AcDbEntity
  8
0
100
AcDbLine
 10
131.7812279805953
 20
310.4825964144775
 30
0.0
 11
89.03137860763218
 21
310.8557026392726
 31
0.0
  0
LINE
  5
1EE8
330
2
100
AcDbEntity
  8
0
100
AcDbLine
 10
85.27688398059536
 20
310.3666753947007
 30
0.0
 11
130.6006289805952
 21
309.9710994144776
 31
0.0
  0
LINE
  5
1EE9
330
2
100
AcDbEntity
  8
0
100
AcDbLine
 10
89.29427911961647
 20
311.9725199836983
 30
0.0
 11
131.7812279805953
 21
312.3432994144774
 31
0.0
  0
LINE
  5
1EEA
330
2
100
AcDbEntity
  8
0
100
AcDbLine
 10
89.66751082515974
 20
316.9545697126149
 30
0.0
 11
131.2856269805952
 21
317.3178174144774
 31
0.0
  0
LINE
  5
1EEB
330
2
100
AcDbEntity
  8
0
100
AcDbLine
 10
131.2856269805952
 20
315.3462174144775
 30
0.0
 11
89.62614774138319
 21
315.7097100170216
 31
0.0
  0
LINE
  5
1EEC
330
2
100
AcDbEntity
  8
0
100
AcDbLine
 10
132.2768489805953
 20
307.1623984144774
 30
0.0
 11
82.77688398059536
 21
307.5943389789723
 31
0.0
  0
LINE
  5
1EED
330
2
100
AcDbEntity
  8
0
100
AcDbLine
 10
132.2768489805953
 20
305.4903974144773
 30
0.0
 11
82.77688398059536
 21
305.9224163677105
 31
0.0
  0
LINE
  5
1EEE
330
2
100
AcDbEntity
  8
0
100
AcDbLine
 10
82.77688398059536
 20
308.4232740136798
 30
0.0
 11
132.2768489805953
 21
308.8553004144774
 31
0.0
  0
LINE
  5
1EEF
330
2
100
AcDbEntity
  8
0
100
AcDbLine
 10
131.2856269805952
 20
321.6009974144773
 30
0.0
 11
81.77688398059535
 21
322.0330004144774
 31
0.0
  0
LINE
  5
1EF0
330
2
100
AcDbEntity
  8
0
100
AcDbLine
 10
81.77688398059535
 20
323.1997174144775
 30
0.0
 11
131.2856269805952
 21
323.6318204144773
 31
0.0
  0
LINE
  5
1EF1
330
2
100
AcDbEntity
  8
0
100
AcDbLine
 10
81.77684498059534
 20
330.6570184144776
 30
0.0
 11
131.2854429805952
 21
331.0890384144773
 31
0.0
  0
LINE
  5
1EF2
330
2
100
AcDbEntity
  8
0
100
AcDbLine
 10
131.2854429805952
 20
328.7620764144775
 30
0.0
 11
81.77684498059534
 21
329.1940794144776
 31
0.0
  0
LINE
  5
1EF3
330
2
100
AcDbEntity
  8
0
100
AcDbLine
 10
80.90864498059545
 20
332.1222374144773
 30
0.0
 11
130.6004459805953
 21
331.6884584144773
 31
0.0
  0
LINE
  5
1EF4
330
2
100
AcDbEntity
  8
0
100
AcDbLine
 10
80.90876398059526
 20
324.7867994144775
 30
0.0
 11
130.6006289805952
 21
324.3532174144776
 31
0.0
  0
ARC
  5
1EF5
330
2
100
AcDbEntity
  8
0
100
AcDbCircle
 10
89.27682598059551
 20
313.9724438292329
 30
0.0
 40
2.0
100
AcDbArc
 50
180.0
 51
270.5000019488311
  0
LINE
  5
1EF6
330
2
100
AcDbEntity
  8
0
100
AcDbLine
 10
87.2768259805955
 20
313.9724438292329
 30
0.0
 11
87.27682598059528
 21
312.6256352308333
 31
0.0
  0
LINE
  5
1EF7
330
2
100
AcDbEntity
  8
0
100
AcDbLine
 10
82.77688398059536
 20
300.7208501738256
 30
0.0
 11
82.77688398059536
 21
316.2463139082257
 31
0.0
  0
LINE
  5
1EF8
330
2
100
AcDbEntity
  8
0
100
AcDbLine
 10
76.77688398059536
 20
300.5529704975252
 30
0.0
 11
76.77688398059536
 21
316.2463139082257
 31
0.0
  0
LINE
  5
1EF9
330
2
100
AcDbEntity
  8
0
100
AcDbLine
 10
85.27688398059536
 20
321.4272514139016
 30
0.0
 11
85.27688398059536
 21
308.7713636969732
 31
0.0
  0
SPLINE
  5
1EFA
330
2
100
AcDbEntity
  8
HOJO
100
AcDbSpline
210
0.0
220
0.0
230
1.0
 70
     8
 71
     3
 72
    10
 73
     6
 74
     4
 42
0.0000000001
 43
0.0000000001
 44
0.0000000001
 40
0.0
 40
0.0
 40
0.0
 40
0.0
 40
2.063057496465506
 40
5.25746680811693
 40
6.976405309929111
 40
6.976405309929111
 40
6.976405309929111
 40
6.976405309929111
 10
76.77688398059536
 20
300.5529704975252
 30
0.0
 10
77.35954043370168
 20
301.1274107178654
 30
0.0
 10
78.84437397226749
 20
302.5913061240087
 30
0.0
 10
80.76778208023188
 20
299.2006303296872
 30
0.0
 10
82.25617024080332
 20
300.32684359795
 30
0.0
 10
82.77688398059536
 20
300.7208501738256
 30
0.0
 11
76.77688398059536
 21
300.5529704975252
 31
0.0
 11
78.51941161775584
 21
301.6574177201006
 31
0.0
 11
81.23111548021006
 21
299.9689530291117
 31
0.0
 11
82.77688398059536
 21
300.7208501738256
 31
0.0
  0
LINE
  5
1EFB
330
2
100
AcDbEntity
  8
0
100
AcDbLine
 10
74.77687182607531
 20
308.3224814244303
 30
0.0
 11
76.77688398059536
 21
308.32248142443
 31
0.0
  0
LINE
  5
1EFC
330
2
100
AcDbEntity
  8
0
100
AcDbLine
 10
82.77688398059536
 20
308.7713636969732
 30
0.0
 11
85.27688398059536
 21
308.7713636969732
 31
0.0
  0
ARC
  5
1EFD
330
2
100
AcDbEntity
  8
0
100
AcDbCircle
 10
89.04682598059526
 20
312.6256352308333
 30
0.0
 40
1.77
100
AcDbArc
 50
180.0
 51
269.4999545134775
  0
LINE
  5
1EFE
330
2
100
AcDbEntity
  8
0
100
AcDbLine
 10
73.77684498059557
 20
320.7692993008178
 30
0.0
 11
62.77694398059566
 21
320.8574118965194
 31
0.0
  0
LINE
  5
1EFF
330
2
100
AcDbEntity
  8
0
100
AcDbLine
 10
78.27688398059535
 20
328.2689506759637
 30
0.0
 11
78.27688398059535
 21
319.6249170875663
 31
0.0
  0
ARC
  5
1F00
330
2
100
AcDbEntity
  8
0
100
AcDbCircle
 10
81.40708598059541
 20
324.9755164144775
 30
0.0
 40
1.673817999999999
100
AcDbArc
 50
207.4174040000065
 51
231.3923950000056
  0
LINE
  5
1F01
330
2
100
AcDbEntity
  8
0
100
AcDbLine
 10
79.77688398059536
 20
323.6300994144775
 30
0.0
 11
79.77688398059536
 21
324.7967184144773
 31
0.0
  0
ARC
  5
1F02
330
2
100
AcDbEntity
  8
0
100
AcDbCircle
 10
81.63096398059542
 20
325.2557974144775
 30
0.0
 40
2.032614
100
AcDbArc
 50
231.3923950000056
 51
251.6983030000046
  0
LINE
  5
1F03
330
2
100
AcDbEntity
  8
0
100
AcDbLine
 10
74.77688398059536
 20
319.6249170875663
 30
0.0
 11
85.27688398059536
 21
319.6249170875663
 31
0.0
  0
ELLIPSE
  5
1F04
330
2
100
AcDbEntity
  8
0
100
AcDbEllipse
 10
79.77688398059536
 20
316.2463139082257
 30
0.0
 11
-3.0
 21
0.0
 31
0.0
210
0.0
220
0.0
230
1.0
 40
0.5083333333333448
 41
3.141592653589793
 42
6.283185307179586
  0
ARC
  5
1F05
330
2
100
AcDbEntity
  8
0
100
AcDbCircle
 10
89.64682598059562
 20
319.3244794444834
 30
0.0
 40
2.37
100
AcDbArc
 50
180.0
 51
270.5000714515918
  0
LINE
  5
1F06
330
2
100
AcDbEntity
  8
0
100
AcDbLine
 10
87.2768259805955
 20
318.0796198065332
 30
0.0
 11
87.2768259805955
 21
319.3244794444834
 31
0.0
  0
ARC
  5
1F07
330
2
100
AcDbEntity
  8
0
100
AcDbCircle
 10
89.64682598059585
 20
318.0796198065332
 30
0.0
 40
2.37
100
AcDbArc
 50
180.0
 51
269.5000882417261
  0
LINE
  5
1F08
330
2
100
AcDbEntity
  8
0
100
AcDbLine
 10
78.27688398059535
 20
321.4272514139016
 30
0.0
 11
85.27688398059536
 21
321.4272514139016
 31
0.0
  0
ARC
  5
1F09
330
2
100
AcDbEntity
  8
0
100
AcDbCircle
 10
81.40708598059541
 20
323.8087994144774
 30
0.0
 40
1.673817999999999
100
AcDbArc
 50
207.4174040000065
 51
231.3923950000056
  0
ARC
  5
1F0A
330
2
100
AcDbEntity
  8
0
100
AcDbCircle
 10
81.63096398059542
 20
324.0891984144774
 30
0.0
 40
2.032614
100
AcDbArc
 50
231.3923950000056
 51
251.6983030000046
  0
ARC
  5
1F0B
330
2
100
AcDbEntity
  8
0
100
AcDbCircle
 10
81.06254598059535
 20
323.6300994144775
 30
0.0
 40
1.285679
100
AcDbArc
 50
180.0
 51
207.4174040000065
  0
ARC
  5
1F0C
330
2
100
AcDbEntity
  8
0
100
AcDbCircle
 10
81.77688398059535
 20
324.5302994144773
 30
0.0
 40
2.497222
100
AcDbArc
 50
251.6983030000046
 51
270.0
  0
ARC
  5
1F0D
330
2
100
AcDbEntity
  8
0
100
AcDbCircle
 10
81.77688398059535
 20
325.6968984144774
 30
0.0
 40
2.497222
100
AcDbArc
 50
251.6983030000046
 51
270.0
  0
LINE
  5
1F0E
330
2
100
AcDbEntity
  8
0
100
AcDbLine
 10
74.77688398059536
 20
328.2689506759639
 30
0.0
 11
78.27688398059513
 21
328.2689506759637
 31
0.0
  0
LINE
  5
1F0F
330
2
100
AcDbEntity
  8
0
100
AcDbLine
 10
74.27687182607542
 20
327.268950675964
 30
0.0
 11
78.27688398059535
 21
327.2689506759637
 31
0.0
  0
ARC
  5
1F10
330
2
100
AcDbEntity
  8
0
100
AcDbCircle
 10
81.06254598059535
 20
324.7967184144773
 30
0.0
 40
1.285679
100
AcDbArc
 50
180.0
 51
207.4174040000065
  0
ARC
  5
1F11
330
2
100
AcDbEntity
  8
0
100
AcDbCircle
 10
80.87882498059526
 20
332.1320584144774
 30
0.0
 40
1.102084999999999
100
AcDbArc
 50
180.0
 51
209.3200990000181
  0
ARC
  5
1F12
330
2
100
AcDbEntity
  8
0
100
AcDbCircle
 10
80.87882498059526
 20
330.6690594144776
 30
0.0
 40
1.102084999999999
100
AcDbArc
 50
180.0
 51
209.3200990000181
  0
ARC
  5
1F13
330
2
100
AcDbEntity
  8
0
100
AcDbCircle
 10
81.59264498059519
 20
332.7568794144773
 30
0.0
 40
2.072293999999999
100
AcDbArc
 50
233.5906980000061
 51
253.0127030000071
  0
ARC
  5
1F14
330
2
100
AcDbEntity
  8
0
100
AcDbCircle
 10
81.59264498059519
 20
331.2938584144773
 30
0.0
 40
2.072293999999999
100
AcDbArc
 50
233.5906980000061
 51
253.0127030000071
  0
ARC
  5
1F15
330
2
100
AcDbEntity
  8
0
100
AcDbCircle
 10
81.31062398059521
 20
330.9116584144772
 30
0.0
 40
1.597306999999999
100
AcDbArc
 50
209.3200990000181
 51
233.5906980000061
  0
ARC
  5
1F16
330
2
100
AcDbEntity
  8
0
100
AcDbCircle
 10
81.77684498059534
 20
331.8968974144774
 30
0.0
 40
2.702782
100
AcDbArc
 50
253.0127030000071
 51
270.0
  0
ARC
  5
1F17
330
2
100
AcDbEntity
  8
0
100
AcDbCircle
 10
81.77684498059534
 20
333.3598984144774
 30
0.0
 40
2.702782
100
AcDbArc
 50
253.0127030000071
 51
270.0
  0
ARC
  5
1F18
330
2
100
AcDbEntity
  8
0
100
AcDbCircle
 10
81.31062398059521
 20
332.3744384144776
 30
0.0
 40
1.597306999999999
100
AcDbArc
 50
209.3200990000181
 51
233.5906980000061
  0
LINE
  5
1F19
330
2
100
AcDbEntity
  8
0
100
AcDbLine
 10
79.77684498059534
 20
330.6690594144776
 30
0.0
 11
79.77684498059534
 21
332.1320584144774
 31
0.0
  0
LINE
  5
1F1A
330
2
100
AcDbEntity
  8
0
100
AcDbLine
 10
142.2768449805953
 20
304.0196984144774
 30
0.0
 11
133.2683269805952
 21
304.0963964144774
 31
0.0
  0
ARC
  5
1F1B
330
2
100
AcDbEntity
  8
0
100
AcDbCircle
 10
133.2768489805953
 20
305.0962974144773
 30
0.0
 40
1.0
100
AcDbArc
 50
180.0
 51
269.5122069999976
  0
ARC
  5
1F1C
330
2
100
AcDbEntity
  8
0
100
AcDbCircle
 10
131.7768489805953
 20
312.8432994144774
 30
0.0
 40
0.5
100
AcDbArc
 50
270.5000000000045
 51
0.0
  0
ARC
  5
1F1D
330
2
100
AcDbEntity
  8
0
100
AcDbCircle
 10
131.7768489805953
 20
309.9825964144776
 30
0.0
 40
0.5
100
AcDbArc
 50
0.0
 51
89.49999999999542
  0
ARC
  5
1F1E
330
2
100
AcDbEntity
  8
0
100
AcDbCircle
 10
131.2768489805953
 20
324.6316984144774
 30
0.0
 40
1.0
100
AcDbArc
 50
270.5000000000045
 51
0.0
  0
ARC
  5
1F1F
330
2
100
AcDbEntity
  8
0
100
AcDbCircle
 10
131.2768489805953
 20
314.3462174144775
 30
0.0
 40
1.0
100
AcDbArc
 50
0.0
 51
89.49999999999542
  0
ARC
  5
1F20
330
2
100
AcDbEntity
  8
0
100
AcDbCircle
 10
131.2768489805953
 20
318.3176984144775
 30
0.0
 40
1.0
100
AcDbArc
 50
270.5000000000045
 51
0.0
  0
ARC
  5
1F21
330
2
100
AcDbEntity
  8
0
100
AcDbCircle
 10
131.2768489805953
 20
320.6009974144773
 30
0.0
 40
1.0
100
AcDbArc
 50
0.0
 51
89.49999999999542
  0
ARC
  5
1F22
330
2
100
AcDbEntity
  8
0
100
AcDbCircle
 10
131.2768449805953
 20
327.7620764144775
 30
0.0
 40
1.0
100
AcDbArc
 50
0.0
 51
89.49999999999542
  0
ARC
  5
1F23
330
2
100
AcDbEntity
  8
0
100
AcDbCircle
 10
131.2768449805953
 20
332.0890384144774
 30
0.0
 40
1.0
100
AcDbArc
 50
270.4999999999915
 51
0.0
  0
LINE
  5
1F24
330
2
100
AcDbEntity
  8
0
100
AcDbLine
 10
73.77663880909063
 20
401.7692970560666
 30
0.0
 11
33.75269746967569
 21
401.4480964144773
 31
0.0
  0
ARC
  5
1F25
330
2
100
AcDbEntity
  8
0
100
AcDbCircle
 10
33.77668346967584
 20
398.4480964144773
 30
0.0
 40
3.0
100
AcDbArc
 50
90.45947300000403
 51
180.0
  0
LINE
  5
1F26
330
2
100
AcDbEntity
  8
0
100
AcDbLine
 10
132.2768489805951
 20
417.4430994144773
 30
0.0
 11
132.2768489805953
 21
365.3773138999448
 31
0.0
  0
ARC
  5
1F27
330
2
100
AcDbEntity
  8
0
100
AcDbCircle
 10
81.77688398059535
 20
414.6081994144775
 30
0.0
 40
2.0
100
AcDbArc
 50
90.50000000000457
 51
180.0
  0
LINE
  5
1F28
330
2
100
AcDbEntity
  8
0
100
AcDbLine
 10
79.77684498059534
 20
375.2133024144774
 30
0.0
 11
79.77684498059534
 21
373.3303664144774
 31
0.0
  0
LINE
  5
1F29
330
2
100
AcDbEntity
  8
0
100
AcDbLine
 10
131.2855742427982
 20
367.1349092576016
 30
0.0
 11
81.77684498059534
 21
366.7027181117356
 31
0.0
  0
LINE
  5
1F2A
330
2
100
AcDbEntity
  8
0
100
AcDbLine
 10
132.2768449805953
 20
365.3773138650263
 30
0.0
 11
79.77684498059534
 21
364.9190101376617
 31
0.0
  0
LINE
  5
1F2B
330
2
100
AcDbEntity
  8
0
100
AcDbLine
 10
81.77684498059534
 20
374.4717244144773
 30
0.0
 11
131.2854429805952
 21
374.0397184144772
 31
0.0
  0
LINE
  5
1F2C
330
2
100
AcDbEntity
  8
0
100
AcDbLine
 10
80.90864498059545
 20
373.3401324144775
 30
0.0
 11
130.6004459805953
 21
373.7739704144775
 31
0.0
  0
LINE
  5
1F2D
330
2
100
AcDbEntity
  8
0
100
AcDbLine
 10
131.285574242798
 20
355.4044875713535
 30
0.0
 11
81.77684498059534
 21
355.8366787172193
 31
0.0
  0
LINE
  5
1F2E
330
2
100
AcDbEntity
  8
0
100
AcDbLine
 10
132.2768449805953
 20
357.1620829639283
 30
0.0
 11
79.77684498059534
 21
357.6203866912932
 31
0.0
  0
LINE
  5
1F2F
330
2
100
AcDbEntity
  8
0
100
AcDbLine
 10
131.2854429805952
 20
345.7524864144776
 30
0.0
 11
81.77684498059534
 21
346.1846764144776
 31
0.0
  0
LINE
  5
1F30
330
2
100
AcDbEntity
  8
0
100
AcDbLine
 10
81.77684498059534
 20
348.0676724144774
 30
0.0
 11
131.2854429805952
 21
348.4996784144774
 31
0.0
  0
LINE
  5
1F31
330
2
100
AcDbEntity
  8
0
100
AcDbLine
 10
80.90864498059545
 20
349.1992644144776
 30
0.0
 11
130.6004459805953
 21
348.7654264144774
 31
0.0
  0
LINE
  5
1F32
330
2
100
AcDbEntity
  8
0
100
AcDbLine
 10
131.2854429805952
 20
336.8866384144774
 30
0.0
 11
81.77684498059534
 21
337.3188984144773
 31
0.0
  0
LINE
  5
1F33
330
2
100
AcDbEntity
  8
0
100
AcDbLine
 10
81.77684498059534
 20
339.0312984144776
 30
0.0
 11
131.2854429805952
 21
339.4632984144774
 31
0.0
  0
LINE
  5
1F34
330
2
100
AcDbEntity
  8
0
100
AcDbLine
 10
80.90864498059545
 20
340.3428184144773
 30
0.0
 11
130.6004459805953
 21
339.9092194144774
 31
0.0
  0
LINE
  5
1F35
330
2
100
AcDbEntity
  8
0
100
AcDbLine
 10
73.77684498059557
 20
338.3848954724975
 30
0.0
 11
74.77688398059536
 21
338.3848954724977
 31
0.0
  0
LINE
  5
1F36
330
2
100
AcDbEntity
  8
0
100
AcDbLine
 10
79.77684498059534
 20
338.6404184144775
 30
0.0
 11
79.77684498059534
 21
340.3528184144775
 31
0.0
  0
ARC
  5
1F37
330
2
100
AcDbEntity
  8
0
100
AcDbCircle
 10
81.19984498059512
 20
338.9726974144774
 30
0.0
 40
1.518545999999999
100
AcDbArc
 50
212.0805969999979
 51
236.5428999999854
  0
ARC
  5
1F38
330
2
100
AcDbEntity
  8
0
100
AcDbCircle
 10
80.66944398059513
 20
338.6404184144775
 30
0.0
 40
0.8926999999999999
100
AcDbArc
 50
180.0
 51
212.0805969999979
  0
ARC
  5
1F39
330
2
100
AcDbEntity
  8
0
100
AcDbCircle
 10
81.54844598059526
 20
339.5002984144774
 30
0.0
 40
2.150825999999999
100
AcDbArc
 50
236.5428999999854
 51
254.6921010000034
  0
ARC
  5
1F3A
330
2
100
AcDbEntity
  8
0
100
AcDbCircle
 10
81.77684498059534
 20
340.3348784144774
 30
0.0
 40
3.016093999999999
100
AcDbArc
 50
254.6921010000034
 51
270.0
  0
ARC
  5
1F3B
330
2
100
AcDbEntity
  8
0
100
AcDbCircle
 10
81.19984498059512
 20
340.6852184144773
 30
0.0
 40
1.518545999999999
100
AcDbArc
 50
212.0805969999979
 51
236.5428999999854
  0
ARC
  5
1F3C
330
2
100
AcDbEntity
  8
0
100
AcDbCircle
 10
81.54844598059526
 20
341.2126994144774
 30
0.0
 40
2.150825999999999
100
AcDbArc
 50
236.5428999999854
 51
254.6921010000034
  0
ARC
  5
1F3D
330
2
100
AcDbEntity
  8
0
100
AcDbCircle
 10
80.66944398059513
 20
340.3528184144775
 30
0.0
 40
0.8926999999999999
100
AcDbArc
 50
180.0
 51
212.0805969999979
  0
ARC
  5
1F3E
330
2
100
AcDbEntity
  8
0
100
AcDbCircle
 10
81.77684498059534
 20
342.0472864144773
 30
0.0
 40
3.016093999999999
100
AcDbArc
 50
254.6921010000034
 51
270.0
  0
ARC
  5
1F3F
330
2
100
AcDbEntity
  8
0
100
AcDbCircle
 10
81.08424498059548
 20
349.6664264144775
 30
0.0
 40
1.455952
100
AcDbArc
 50
215.9710999999959
 51
240.2855990000014
  0
ARC
  5
1F40
330
2
100
AcDbEntity
  8
0
100
AcDbCircle
 10
80.45402398059513
 20
349.2090304144773
 30
0.0
 40
0.6772650000000001
100
AcDbArc
 50
180.0
 51
215.9710999999959
  0
ARC
  5
1F41
330
2
100
AcDbEntity
  8
0
100
AcDbCircle
 10
80.45402398059513
 20
347.3260944144773
 30
0.0
 40
0.6772650000000001
100
AcDbArc
 50
180.0
 51
215.9710999999959
  0
ARC
  5
1F42
330
2
100
AcDbEntity
  8
0
100
AcDbCircle
 10
81.08424498059548
 20
347.7834924144773
 30
0.0
 40
1.455952
100
AcDbArc
 50
215.9710999999959
 51
240.2855990000014
  0
ARC
  5
1F43
330
2
100
AcDbEntity
  8
0
100
AcDbCircle
 10
81.5022459805955
 20
348.5156704144775
 30
0.0
 40
2.298955999999999
100
AcDbArc
 50
240.2855990000014
 51
256.6994019999928
  0
LINE
  5
1F44
330
2
100
AcDbEntity
  8
0
100
AcDbLine
 10
79.77684498059534
 20
347.3260944144773
 30
0.0
 11
79.77684498059534
 21
349.2090304144773
 31
0.0
  0
ARC
  5
1F45
330
2
100
AcDbEntity
  8
0
100
AcDbCircle
 10
81.5022459805955
 20
350.3986664144773
 30
0.0
 40
2.298955999999999
100
AcDbArc
 50
240.2855990000014
 51
256.6994019999928
  0
ARC
  5
1F46
330
2
100
AcDbEntity
  8
0
100
AcDbCircle
 10
81.77684498059534
 20
349.6774744144774
 30
0.0
 40
3.492887999999999
100
AcDbArc
 50
256.6994019999928
 51
270.0
  0
ARC
  5
1F47
330
2
100
AcDbEntity
  8
0
100
AcDbCircle
 10
81.77684498059534
 20
351.5604704144776
 30
0.0
 40
3.492887999999999
100
AcDbArc
 50
256.6994019999928
 51
270.0
  0
LINE
  5
1F48
330
2
100
AcDbEntity
  8
0
100
AcDbLine
 10
78.47686498059511
 20
366.0196984144773
 30
0.0
 11
78.47686498059511
 21
356.5196984144773
 31
0.0
  0
ARC
  5
1F49
330
2
100
AcDbEntity
  8
0
100
AcDbCircle
 10
82.77684498059533
 20
361.2696984144773
 30
0.0
 40
8.0
100
AcDbArc
 50
147.6076050000002
 51
212.3923949999997
  0
LINE
  5
1F4A
330
2
100
AcDbEntity
  8
0
100
AcDbLine
 10
79.77684498059534
 20
355.7747940871205
 30
0.0
 11
79.77684498059534
 21
366.7696984144773
 31
0.0
  0
LINE
  5
1F4B
330
2
100
AcDbEntity
  8
0
100
AcDbLine
 10
78.47686498059511
 20
356.5196984144773
 30
0.0
 11
76.86604398059535
 21
356.5196984144773
 31
0.0
  0
LINE
  5
1F4C
330
2
100
AcDbEntity
  8
0
100
AcDbLine
 10
75.77684498059534
 20
355.7747940871205
 30
0.0
 11
79.77684498059534
 21
355.7747940871205
 31
0.0
  0
ARC
  5
1F4D
330
2
100
AcDbEntity
  8
0
100
AcDbCircle
 10
75.77684498059534
 20
354.7747940871205
 30
0.0
 40
1.0
100
AcDbArc
 50
90.0
 51
180.0
  0
ARC
  5
1F4E
330
2
100
AcDbEntity
  8
0
100
AcDbCircle
 10
76.86604398059535
 20
357.5196984144773
 30
0.0
 40
1.0
100
AcDbArc
 50
212.3923949999997
 51
270.0
  0
LINE
  5
1F4F
330
2
100
AcDbEntity
  8
0
100
AcDbLine
 10
79.77684498059534
 20
356.4620804144775
 30
0.0
 11
79.77684498059534
 21
358.4316864144776
 31
0.0
  0
LINE
  5
1F50
330
2
100
AcDbEntity
  8
0
100
AcDbLine
 10
78.47686498059511
 20
356.6696584144775
 30
0.0
 11
79.77684498059534
 21
356.6696584144775
 31
0.0
  0
LINE
  5
1F51
330
2
100
AcDbEntity
  8
0
100
AcDbLine
 10
78.47686498059511
 20
366.0196984144773
 30
0.0
 11
76.86604398059535
 21
366.0196984144773
 31
0.0
  0
LINE
  5
1F52
330
2
100
AcDbEntity
  8
0
100
AcDbLine
 10
75.77684498059534
 20
366.7696984144773
 30
0.0
 11
79.77684498059534
 21
366.7696984144773
 31
0.0
  0
ARC
  5
1F53
330
2
100
AcDbEntity
  8
0
100
AcDbCircle
 10
75.77684498059534
 20
367.7696984144773
 30
0.0
 40
1.0
100
AcDbArc
 50
180.0
 51
270.0
  0
ARC
  5
1F54
330
2
100
AcDbEntity
  8
0
100
AcDbCircle
 10
76.86604398059535
 20
365.0196984144773
 30
0.0
 40
1.0
100
AcDbArc
 50
90.0
 51
147.6076050000002
  0
LINE
  5
1F55
330
2
100
AcDbEntity
  8
0
100
AcDbLine
 10
78.47686498059511
 20
365.8694784144774
 30
0.0
 11
79.77684498059534
 21
365.8694784144774
 31
0.0
  0
ARC
  5
1F56
330
2
100
AcDbEntity
  8
0
100
AcDbCircle
 10
81.08424498059548
 20
372.8729704144776
 30
0.0
 40
1.455952
100
AcDbArc
 50
119.7144009999985
 51
144.028900000004
  0
ARC
  5
1F57
330
2
100
AcDbEntity
  8
0
100
AcDbCircle
 10
80.45402398059513
 20
373.3303664144774
 30
0.0
 40
0.6772650000000001
100
AcDbArc
 50
144.028900000004
 51
180.0
  0
ARC
  5
1F58
330
2
100
AcDbEntity
  8
0
100
AcDbCircle
 10
81.5022459805955
 20
372.1407304144773
 30
0.0
 40
2.298955999999999
100
AcDbArc
 50
103.3005980000071
 51
119.7144009999985
  0
ARC
  5
1F59
330
2
100
AcDbEntity
  8
0
100
AcDbCircle
 10
81.77684498059534
 20
370.9789264144775
 30
0.0
 40
3.492887999999999
100
AcDbArc
 50
90.0
 51
103.3005980000071
  0
ARC
  5
1F5A
330
2
100
AcDbEntity
  8
0
100
AcDbCircle
 10
131.2768449805953
 20
335.8866384144775
 30
0.0
 40
1.0
100
AcDbArc
 50
0.0
 51
89.49999999999542
  0
ARC
  5
1F5B
330
2
100
AcDbEntity
  8
0
100
AcDbCircle
 10
131.2768449805953
 20
340.4632984144774
 30
0.0
 40
1.0
100
AcDbArc
 50
270.4999999999915
 51
0.0
  0
ARC
  5
1F5C
330
2
100
AcDbEntity
  8
0
100
AcDbCircle
 10
131.2768449805953
 20
349.4996784144774
 30
0.0
 40
1.0
100
AcDbArc
 50
270.4999999999915
 51
0.0
  0
ARC
  5
1F5D
330
2
100
AcDbEntity
  8
0
100
AcDbCircle
 10
131.2768449805953
 20
344.7526694144775
 30
0.0
 40
1.0
100
AcDbArc
 50
0.0
 51
89.49999999999542
  0
ARC
  5
1F5E
330
2
100
AcDbEntity
  8
0
100
AcDbCircle
 10
131.2768449805953
 20
373.0397184144773
 30
0.0
 40
1.0
100
AcDbArc
 50
0.0
 51
89.49999999999542
  0
LINE
  5
1F5F
330
2
100
AcDbEntity
  8
0
100
AcDbLine
 10
131.2856269805952
 20
407.1931794144776
 30
0.0
 11
81.77688398059535
 21
406.7611994144775
 31
0.0
  0
LINE
  5
1F60
330
2
100
AcDbEntity
  8
0
100
AcDbLine
 10
80.90876398059526
 20
408.9094004144775
 30
0.0
 11
130.6006289805952
 21
409.3430974144775
 31
0.0
  0
LINE
  5
1F61
330
2
100
AcDbEntity
  8
0
100
AcDbLine
 10
81.79432398059544
 20
414.1246984144774
 30
0.0
 11
132.2768489805953
 21
413.6840964144774
 31
0.0
  0
LINE
  5
1F62
330
2
100
AcDbEntity
  8
0
100
AcDbLine
 10
132.2768489805953
 20
415.3769984144775
 30
0.0
 11
81.75942398059532
 21
414.9361794144775
 31
0.0
  0
LINE
  5
1F63
330
2
100
AcDbEntity
  8
0
100
AcDbLine
 10
81.77688398059535
 20
410.6324804144775
 30
0.0
 11
131.7812279805953
 21
410.1960974144775
 31
0.0
  0
LINE
  5
1F64
330
2
100
AcDbEntity
  8
0
100
AcDbLine
 10
131.7812279805953
 20
412.0568004144776
 30
0.0
 11
81.77688398059535
 21
411.6203794144775
 31
0.0
  0
LINE
  5
1F65
330
2
100
AcDbEntity
  8
0
100
AcDbLine
 10
80.90876398059526
 20
412.1345974144775
 30
0.0
 11
130.6006289805952
 21
412.5682974144775
 31
0.0
  0
LINE
  5
1F66
330
2
100
AcDbEntity
  8
0
100
AcDbLine
 10
131.2854429805952
 20
385.6527584144775
 30
0.0
 11
81.77684498059534
 21
385.2204984144774
 31
0.0
  0
LINE
  5
1F67
330
2
100
AcDbEntity
  8
0
100
AcDbLine
 10
81.77688398059535
 20
399.3396794144775
 30
0.0
 11
131.2856269805952
 21
398.9075764144773
 31
0.0
  0
LINE
  5
1F68
330
2
100
AcDbEntity
  8
0
100
AcDbLine
 10
131.2856269805952
 20
400.9383994144774
 30
0.0
 11
81.77688398059535
 21
400.5063964144775
 31
0.0
  0
LINE
  5
1F69
330
2
100
AcDbEntity
  8
0
100
AcDbLine
 10
81.77688398059535
 20
405.6536974144774
 30
0.0
 11
131.2856269805952
 21
405.2215794144776
 31
0.0
  0
LINE
  5
1F6A
330
2
100
AcDbEntity
  8
0
100
AcDbLine
 10
80.90876398059526
 20
397.7525974144774
 30
0.0
 11
130.6006289805952
 21
398.1861794144776
 31
0.0
  0
LINE
  5
1F6B
330
2
100
AcDbEntity
  8
0
100
AcDbLine
 10
80.90876398059526
 20
403.9796974144775
 30
0.0
 11
130.6006289805952
 21
404.4133794144774
 31
0.0
  0
LINE
  5
1F6C
330
2
100
AcDbEntity
  8
0
100
AcDbLine
 10
81.77684498059534
 20
391.8823784144775
 30
0.0
 11
131.2854429805952
 21
391.4503584144773
 31
0.0
  0
LINE
  5
1F6D
330
2
100
AcDbEntity
  8
0
100
AcDbLine
 10
131.2854429805952
 20
393.7773204144774
 30
0.0
 11
81.77684498059534
 21
393.3453174144775
 31
0.0
  0
LINE
  5
1F6E
330
2
100
AcDbEntity
  8
0
100
AcDbLine
 10
80.90864498059545
 20
390.4171594144774
 30
0.0
 11
130.6004459805953
 21
390.8509384144773
 31
0.0
  0
LINE
  5
1F6F
330
2
100
AcDbEntity
  8
0
100
AcDbLine
 10
131.2854429805952
 20
376.7869104144775
 30
0.0
 11
81.77684498059534
 21
376.3547204144775
 31
0.0
  0
LINE
  5
1F70
330
2
100
AcDbEntity
  8
0
100
AcDbLine
 10
81.77684498059534
 20
383.5080984144775
 30
0.0
 11
131.2854429805952
 21
383.0760984144773
 31
0.0
  0
LINE
  5
1F71
330
2
100
AcDbEntity
  8
0
100
AcDbLine
 10
80.90864498059545
 20
382.1965784144773
 30
0.0
 11
130.6004459805953
 21
382.6301774144773
 31
0.0
  0
ARC
  5
1F72
330
2
100
AcDbEntity
  8
0
100
AcDbCircle
 10
81.54844598059526
 20
383.0390984144774
 30
0.0
 40
2.150825999999999
100
AcDbArc
 50
105.3078989999965
 51
123.4570999999897
  0
ARC
  5
1F73
330
2
100
AcDbEntity
  8
0
100
AcDbCircle
 10
81.08424498059548
 20
374.7559044144774
 30
0.0
 40
1.455952
100
AcDbArc
 50
119.7144009999985
 51
144.028900000004
  0
ARC
  5
1F74
330
2
100
AcDbEntity
  8
0
100
AcDbCircle
 10
80.45402398059513
 20
375.2133024144774
 30
0.0
 40
0.6772650000000001
100
AcDbArc
 50
144.028900000004
 51
180.0
  0
ARC
  5
1F75
330
2
100
AcDbEntity
  8
0
100
AcDbCircle
 10
81.5022459805955
 20
374.0237264144776
 30
0.0
 40
2.298955999999999
100
AcDbArc
 50
103.3005980000071
 51
119.7144009999985
  0
ARC
  5
1F76
330
2
100
AcDbEntity
  8
0
100
AcDbCircle
 10
81.77684498059534
 20
372.8619224144773
 30
0.0
 40
3.492887999999999
100
AcDbArc
 50
90.0
 51
103.3005980000071
  0
ARC
  5
1F77
330
2
100
AcDbEntity
  8
0
100
AcDbCircle
 10
80.66944398059513
 20
383.8989784144775
 30
0.0
 40
0.8926999999999999
100
AcDbArc
 50
147.919403000002
 51
180.0
  0
ARC
  5
1F78
330
2
100
AcDbEntity
  8
0
100
AcDbCircle
 10
81.19984498059512
 20
383.5666994144775
 30
0.0
 40
1.518545999999999
100
AcDbArc
 50
123.4570999999897
 51
147.919403000002
  0
ARC
  5
1F79
330
2
100
AcDbEntity
  8
0
100
AcDbCircle
 10
81.19984498059512
 20
381.8541784144773
 30
0.0
 40
1.518545999999999
100
AcDbArc
 50
123.4570999999897
 51
147.919403000002
  0
ARC
  5
1F7A
330
2
100
AcDbEntity
  8
0
100
AcDbCircle
 10
81.54844598059526
 20
381.3266974144775
 30
0.0
 40
2.150825999999999
100
AcDbArc
 50
105.3078989999965
 51
123.4570999999897
  0
ARC
  5
1F7B
330
2
100
AcDbEntity
  8
0
100
AcDbCircle
 10
80.66944398059513
 20
382.1865784144776
 30
0.0
 40
0.8926999999999999
100
AcDbArc
 50
147.919403000002
 51
180.0
  0
LINE
  5
1F7C
330
2
100
AcDbEntity
  8
0
100
AcDbLine
 10
79.77684498059534
 20
383.8989784144775
 30
0.0
 11
79.77684498059534
 21
382.1865784144776
 31
0.0
  0
ARC
  5
1F7D
330
2
100
AcDbEntity
  8
0
100
AcDbCircle
 10
81.77684498059534
 20
380.4921104144774
 30
0.0
 40
3.016093999999999
100
AcDbArc
 50
90.0
 51
105.3078989999965
  0
ARC
  5
1F7E
330
2
100
AcDbEntity
  8
0
100
AcDbCircle
 10
81.77684498059534
 20
382.2045184144773
 30
0.0
 40
3.016093999999999
100
AcDbArc
 50
90.0
 51
105.3078989999965
  0
ARC
  5
1F7F
330
2
100
AcDbEntity
  8
0
100
AcDbCircle
 10
81.31062398059521
 20
391.6277384144774
 30
0.0
 40
1.597306999999999
100
AcDbArc
 50
126.4093019999938
 51
150.6799009999818
  0
ARC
  5
1F80
330
2
100
AcDbEntity
  8
0
100
AcDbCircle
 10
80.87882498059526
 20
391.8703374144776
 30
0.0
 40
1.102084999999999
100
AcDbArc
 50
150.6799009999818
 51
180.0
  0
ARC
  5
1F81
330
2
100
AcDbEntity
  8
0
100
AcDbCircle
 10
81.31062398059521
 20
390.1649584144776
 30
0.0
 40
1.597306999999999
100
AcDbArc
 50
126.4093019999938
 51
150.6799009999818
  0
LINE
  5
1F82
330
2
100
AcDbEntity
  8
0
100
AcDbLine
 10
79.77684498059534
 20
391.8703374144776
 30
0.0
 11
79.77684498059534
 21
390.4073384144773
 31
0.0
  0
ARC
  5
1F83
330
2
100
AcDbEntity
  8
0
100
AcDbCircle
 10
80.87882498059526
 20
390.4073384144773
 30
0.0
 40
1.102084999999999
100
AcDbArc
 50
150.6799009999818
 51
180.0
  0
ARC
  5
1F84
330
2
100
AcDbEntity
  8
0
100
AcDbCircle
 10
81.59264498059519
 20
389.7825174144774
 30
0.0
 40
2.072293999999999
100
AcDbArc
 50
106.9872969999928
 51
126.4093019999938
  0
ARC
  5
1F85
330
2
100
AcDbEntity
  8
0
100
AcDbCircle
 10
81.59264498059519
 20
391.2455384144774
 30
0.0
 40
2.072293999999999
100
AcDbArc
 50
106.9872969999928
 51
126.4093019999938
  0
ARC
  5
1F86
330
2
100
AcDbEntity
  8
0
100
AcDbCircle
 10
81.77684498059534
 20
389.1794984144775
 30
0.0
 40
2.702782
100
AcDbArc
 50
90.0
 51
106.9872969999928
  0
ARC
  5
1F87
330
2
100
AcDbEntity
  8
0
100
AcDbCircle
 10
81.77684498059534
 20
390.6424994144773
 30
0.0
 40
2.702782
100
AcDbArc
 50
90.0
 51
106.9872969999928
  0
ARC
  5
1F88
330
2
100
AcDbEntity
  8
0
100
AcDbCircle
 10
81.65992398059529
 20
403.6196964144775
 30
0.0
 40
2.014202
100
AcDbArc
 50
109.2256930000037
 51
130.0950930000073
  0
ARC
  5
1F89
330
2
100
AcDbEntity
  8
0
100
AcDbCircle
 10
81.20250398059534
 20
405.0772964144774
 30
0.0
 40
1.425637
100
AcDbArc
 50
153.8036960000015
 51
180.0
  0
ARC
  5
1F8A
330
2
100
AcDbEntity
  8
0
100
AcDbCircle
 10
81.63096398059542
 20
398.4501984144775
 30
0.0
 40
2.032614
100
AcDbArc
 50
108.3016969999953
 51
128.6076049999943
  0
ARC
  5
1F8B
330
2
100
AcDbEntity
  8
0
100
AcDbCircle
 10
81.77688398059535
 20
398.0090974144774
 30
0.0
 40
2.497222
100
AcDbArc
 50
90.0
 51
108.3016969999953
  0
ARC
  5
1F8C
330
2
100
AcDbEntity
  8
0
100
AcDbCircle
 10
81.63096398059542
 20
397.2835994144776
 30
0.0
 40
2.032614
100
AcDbArc
 50
108.3016969999953
 51
128.6076049999943
  0
ARC
  5
1F8D
330
2
100
AcDbEntity
  8
0
100
AcDbCircle
 10
81.06254598059535
 20
398.9092974144774
 30
0.0
 40
1.285679
100
AcDbArc
 50
152.5825959999934
 51
180.0
  0
LINE
  5
1F8E
330
2
100
AcDbEntity
  8
0
100
AcDbLine
 10
79.77688398059536
 20
398.9092974144774
 30
0.0
 11
79.77688398059536
 21
397.7426784144773
 31
0.0
  0
ARC
  5
1F8F
330
2
100
AcDbEntity
  8
0
100
AcDbCircle
 10
81.06254598059535
 20
397.7426784144773
 30
0.0
 40
1.285679
100
AcDbArc
 50
152.5825959999934
 51
180.0
  0
ARC
  5
1F90
330
2
100
AcDbEntity
  8
0
100
AcDbCircle
 10
81.40708598059541
 20
397.5638804144774
 30
0.0
 40
1.673817999999999
100
AcDbArc
 50
128.6076049999943
 51
152.5825959999934
  0
ARC
  5
1F91
330
2
100
AcDbEntity
  8
0
100
AcDbCircle
 10
81.40708598059541
 20
398.7305974144775
 30
0.0
 40
1.673817999999999
100
AcDbArc
 50
128.6076049999943
 51
152.5825959999934
  0
ARC
  5
1F92
330
2
100
AcDbEntity
  8
0
100
AcDbCircle
 10
81.77688398059535
 20
396.8424984144775
 30
0.0
 40
2.497222
100
AcDbArc
 50
90.0
 51
108.3016969999953
  0
ARC
  5
1F93
330
2
100
AcDbEntity
  8
0
100
AcDbCircle
 10
81.20250398059534
 20
403.9697794144776
 30
0.0
 40
1.425637
100
AcDbArc
 50
153.8036960000015
 51
180.0
  0
LINE
  5
1F94
330
2
100
AcDbEntity
  8
0
100
AcDbLine
 10
79.77688398059536
 20
405.0772964144774
 30
0.0
 11
79.77688398059536
 21
403.9697794144776
 31
0.0
  0
ARC
  5
1F95
330
2
100
AcDbEntity
  8
0
100
AcDbCircle
 10
81.48010398059524
 20
403.8331974144776
 30
0.0
 40
1.735008
100
AcDbArc
 50
130.0950930000073
 51
153.8036960000015
  0
LINE
  5
1F96
330
2
100
AcDbEntity
  8
0
100
AcDbLine
 10
76.77684498059534
 20
414.1494594144774
 30
0.0
 11
79.77684498059534
 21
414.1494594144774
 31
0.0
  0
ARC
  5
1F97
330
2
100
AcDbEntity
  8
0
100
AcDbCircle
 10
76.77684498059534
 20
412.1494594144775
 30
0.0
 40
2.0
100
AcDbArc
 50
90.0
 51
180.0
  0
LINE
  5
1F98
330
2
100
AcDbEntity
  8
0
100
AcDbLine
 10
76.77684498059534
 20
414.1494594144774
 30
0.0
 11
77.9172659805954
 21
414.1494594144774
 31
0.0
  0
ARC
  5
1F99
330
2
100
AcDbEntity
  8
0
100
AcDbCircle
 10
81.52298398059542
 20
409.7737004144774
 30
0.0
 40
1.771906
100
AcDbArc
 50
130.9078980000093
 51
154.4499970000083
  0
ARC
  5
1F9A
330
2
100
AcDbEntity
  8
0
100
AcDbCircle
 10
81.77688398059535
 20
408.3295964144773
 30
0.0
 40
2.302912
100
AcDbArc
 50
90.0
 51
109.743195
  0
ARC
  5
1F9B
330
2
100
AcDbEntity
  8
0
100
AcDbCircle
 10
81.65992398059529
 20
404.7271794144775
 30
0.0
 40
2.014202
100
AcDbArc
 50
109.2256930000037
 51
130.0950930000073
  0
ARC
  5
1F9C
330
2
100
AcDbEntity
  8
0
100
AcDbCircle
 10
81.77688398059535
 20
404.3917994144775
 30
0.0
 40
2.369364
100
AcDbArc
 50
90.0
 51
109.2256930000037
  0
LINE
  5
1F9D
330
2
100
AcDbEntity
  8
0
100
AcDbLine
 10
79.77688398059536
 20
409.8875004144775
 30
0.0
 11
79.77688398059536
 21
408.8994974144776
 31
0.0
  0
ARC
  5
1F9E
330
2
100
AcDbEntity
  8
0
100
AcDbCircle
 10
81.52298398059542
 20
408.7858004144774
 30
0.0
 40
1.771906
100
AcDbArc
 50
130.9078980000093
 51
154.4499970000083
  0
ARC
  5
1F9F
330
2
100
AcDbEntity
  8
0
100
AcDbCircle
 10
81.28500398059532
 20
408.8994974144776
 30
0.0
 40
1.508124
100
AcDbArc
 50
154.4499970000083
 51
180.0
  0
ARC
  5
1FA0
330
2
100
AcDbEntity
  8
0
100
AcDbCircle
 10
81.67688398059544
 20
408.6081004144777
 30
0.0
 40
2.006931999999999
100
AcDbArc
 50
109.743195
 51
130.9078980000093
  0
ARC
  5
1FA1
330
2
100
AcDbEntity
  8
0
100
AcDbCircle
 10
81.28500398059532
 20
409.8875004144775
 30
0.0
 40
1.508124
100
AcDbArc
 50
154.4499970000083
 51
180.0
  0
ARC
  5
1FA2
330
2
100
AcDbEntity
  8
0
100
AcDbCircle
 10
81.48010398059524
 20
404.9407994144774
 30
0.0
 40
1.735008
100
AcDbArc
 50
130.0950930000073
 51
153.8036960000015
  0
ARC
  5
1FA3
330
2
100
AcDbEntity
  8
0
100
AcDbCircle
 10
81.77688398059535
 20
403.2842974144775
 30
0.0
 40
2.369364
100
AcDbArc
 50
90.0
 51
109.2256930000037
  0
LINE
  5
1FA4
330
2
100
AcDbEntity
  8
0
100
AcDbLine
 10
79.77688398059536
 20
412.9362974144775
 30
0.0
 11
79.77688398059536
 21
412.1246984144773
 31
0.0
  0
LINE
  5
1FA5
330
2
100
AcDbEntity
  8
0
100
AcDbLine
 10
79.77688398059536
 20
414.1494974144776
 30
0.0
 11
79.77688398059536
 21
414.6081994144775
 31
0.0
  0
ARC
  5
1FA6
330
2
100
AcDbEntity
  8
0
100
AcDbCircle
 10
81.67688398059544
 20
409.5960994144776
 30
0.0
 40
2.006931999999999
100
AcDbArc
 50
109.743195
 51
130.9078980000093
  0
ARC
  5
1FA7
330
2
100
AcDbEntity
  8
0
100
AcDbCircle
 10
81.77688398059535
 20
409.3174964144774
 30
0.0
 40
2.302912
100
AcDbArc
 50
90.0
 51
109.743195
  0
ARC
  5
1FA8
330
2
100
AcDbEntity
  8
0
100
AcDbCircle
 10
81.77688398059535
 20
412.1246984144773
 30
0.0
 40
2.0
100
AcDbArc
 50
89.49999999999542
 51
180.0
  0
ARC
  5
1FA9
330
2
100
AcDbEntity
  8
0
100
AcDbCircle
 10
81.77688398059535
 20
412.9362974144775
 30
0.0
 40
2.0
100
AcDbArc
 50
90.50000000000457
 51
180.0
  0
ARC
  5
1FAA
330
2
100
AcDbEntity
  8
0
100
AcDbCircle
 10
131.2768449805953
 20
377.7867274144774
 30
0.0
 40
1.0
100
AcDbArc
 50
270.4999999999915
 51
0.0
  0
ARC
  5
1FAB
330
2
100
AcDbEntity
  8
0
100
AcDbCircle
 10
131.2768449805953
 20
382.0760984144773
 30
0.0
 40
1.0
100
AcDbArc
 50
0.0
 51
89.49999999999542
  0
ARC
  5
1FAC
330
2
100
AcDbEntity
  8
0
100
AcDbCircle
 10
131.2768449805953
 20
386.6527584144774
 30
0.0
 40
1.0
100
AcDbArc
 50
270.4999999999915
 51
0.0
  0
ARC
  5
1FAD
330
2
100
AcDbEntity
  8
0
100
AcDbCircle
 10
131.2768449805953
 20
390.4503584144773
 30
0.0
 40
1.0
100
AcDbArc
 50
0.0
 51
89.49999999999542
  0
ARC
  5
1FAE
330
2
100
AcDbEntity
  8
0
100
AcDbCircle
 10
131.2768449805953
 20
394.7773204144774
 30
0.0
 40
1.0
100
AcDbArc
 50
270.4999999999915
 51
0.0
  0
ARC
  5
1FAF
330
2
100
AcDbEntity
  8
0
100
AcDbCircle
 10
131.2768489805953
 20
397.9076984144775
 30
0.0
 40
1.0
100
AcDbArc
 50
0.0
 51
89.49999999999542
  0
ARC
  5
1FB0
330
2
100
AcDbEntity
  8
0
100
AcDbCircle
 10
131.2768489805953
 20
401.9383994144773
 30
0.0
 40
1.0
100
AcDbArc
 50
270.5000000000045
 51
0.0
  0
ARC
  5
1FB1
330
2
100
AcDbEntity
  8
0
100
AcDbCircle
 10
131.2768489805953
 20
404.2216984144776
 30
0.0
 40
1.0
100
AcDbArc
 50
0.0
 51
89.49999999999542
  0
ARC
  5
1FB2
330
2
100
AcDbEntity
  8
0
100
AcDbCircle
 10
131.7768489805953
 20
409.6960974144775
 30
0.0
 40
0.5
100
AcDbArc
 50
0.0
 51
89.49999999999542
  0
ARC
  5
1FB3
330
2
100
AcDbEntity
  8
0
100
AcDbCircle
 10
131.2768489805953
 20
408.1931794144776
 30
0.0
 40
1.0
100
AcDbArc
 50
270.5000000000045
 51
0.0
  0
ARC
  5
1FB4
330
2
100
AcDbEntity
  8
0
100
AcDbCircle
 10
131.7768489805953
 20
412.5568004144776
 30
0.0
 40
0.5
100
AcDbArc
 50
270.5000000000045
 51
0.0
  0
LINE
  5
1FB5
330
2
100
AcDbEntity
  8
0
100
AcDbLine
 10
132.2768489805953
 20
417.0489994144774
 30
0.0
 11
81.75942398059532
 21
416.6081004144777
 31
0.0
  0
LINE
  5
1FB6
330
2
100
AcDbEntity
  8
0
100
AcDbLine
 10
142.2768449805953
 20
418.5196984144774
 30
0.0
 11
133.2683269805952
 21
418.4430004144775
 31
0.0
  0
ARC
  5
1FB7
330
2
100
AcDbEntity
  8
0
100
AcDbCircle
 10
133.2768489805953
 20
417.4430994144773
 30
0.0
 40
1.0
100
AcDbArc
 50
90.48779300000241
 51
180.0
  0
LINE
  5
1FB8
330
2
100
AcDbEntity
  8
0
100
AcDbLine
 10
62.77694398059555
 20
316.3522503848486
 30
0.0
 11
62.77694398059555
 21
326.2783541246179
 31
0.0
  0
LINE
  5
1FB9
330
2
100
AcDbEntity
  8
0
100
AcDbLine
 10
61.77694398059554
 20
316.3714696364073
 30
0.0
 11
61.77694398059554
 21
327.2783541246179
 31
0.0
  0
LINE
  5
1FBA
330
2
100
AcDbEntity
  8
0
100
AcDbLine
 10
60.77694398059555
 20
317.4425404213144
 30
0.0
 11
60.77694398059555
 21
326.2783541246179
 31
0.0
  0
SPLINE
  5
1FBB
330
2
100
AcDbEntity
  8
HOJO
100
AcDbSpline
210
0.0
220
0.0
230
1.0
 70
     8
 71
     3
 72
    10
 73
     6
 74
     0
 42
0.0000000001
 43
0.0000000001
 40
0.0613843116224887
 40
0.0613843116224887
 40
0.0613843116224887
 40
0.0613843116224887
 40
0.4721425064489786
 40
1.037679944361044
 40
1.199019778825058
 40
1.199019778825058
 40
1.199019778825058
 40
1.199019778825058
 10
61.77694398059554
 20
316.3714696364073
 30
0.0
 10
61.89148830958504
 20
316.5059743133446
 30
0.0
 10
62.15896394753656
 20
316.7818748876208
 30
0.0
 10
62.3689246552376
 20
316.1704874084929
 30
0.0
 10
62.70563662919767
 20
316.3106630235726
 30
0.0
 10
62.77694398059293
 20
316.352250384847
 30
0.0
  0
SPLINE
  5
1FBC
330
2
100
AcDbEntity
  8
HOJO
100
AcDbSpline
210
0.0
220
0.0
230
1.0
 70
     8
 71
     3
 72
    10
 73
     6
 74
     0
 42
0.0000000001
 43
0.0000000001
 40
0.0613843116224887
 40
0.0613843116224887
 40
0.0613843116224887
 40
0.0613843116224887
 40
0.4721425064489786
 40
1.037679944361044
 40
1.199019778825058
 40
1.199019778825058
 40
1.199019778825058
 40
1.199019778825058
 10
60.77694398059555
 20
317.4425404213144
 30
0.0
 10
60.89148830958504
 20
317.5770450982517
 30
0.0
 10
61.15896394753656
 20
317.8529456725279
 30
0.0
 10
61.36892465523761
 20
317.2415581933997
 30
0.0
 10
61.70563662919767
 20
317.3817338084796
 30
0.0
 10
61.77694398059293
 20
317.423321169754
 30
0.0
  0
ARC
  5
1FBD
330
2
100
AcDbEntity
  8
0
100
AcDbCircle
 10
61.77694398059554
 20
326.2783541246179
 30
0.0
 40
1.0
100
AcDbArc
 50
0.0
 51
180.0
  0
LINE
  5
1FBE
330
2
100
AcDbEntity
  8
0
100
AcDbLine
 10
74.77688398059536
 20
402.769674945055
 30
0.0
 11
73.77684498059562
 21
402.103052947811
 31
0.0
  0
LINE
  5
1FBF
330
2
100
AcDbEntity
  8
0
100
AcDbLine
 10
73.77684498059562
 20
402.103052947811
 30
0.0
 11
73.77684498059551
 21
320.4363438811439
 31
0.0
  0
LINE
  5
1FC0
330
2
100
AcDbEntity
  8
0
100
AcDbLine
 10
74.27686785609648
 20
338.3848954724977
 30
0.0
 11
74.27687182607542
 21
327.268950675964
 31
0.0
  0
LINE
  5
1FC1
330
2
100
AcDbEntity
  8
0
100
AcDbLine
 10
74.27687182607542
 20
320.1030279860543
 30
0.0
 11
73.77684498059551
 21
320.4363438811439
 31
0.0
  0
LINE
  5
1FC2
330
2
100
AcDbEntity
  8
0
100
AcDbLine
 10
74.27687182607542
 20
327.268950675964
 30
0.0
 11
74.27687182607536
 21
308.8224814244302
 31
0.0
  0
ARC
  5
1FC3
330
2
100
AcDbEntity
  8
0
100
AcDbCircle
 10
74.77687182607536
 20
308.8224814244302
 30
0.0
 40
0.5
100
AcDbArc
 50
180.0
 51
269.9999999999934
  0
ARC
  5
217A
330
2
100
AcDbEntity
  8
0
100
AcDbCircle
 10
131.2769439805953
 20
154.8334886092411
 30
0.0
 40
1.0
100
AcDbArc
 50
270.4999999999915
 51
0.0
  0
LINE
  5
217B
330
2
100
AcDbEntity
  8
0
100
AcDbLine
 10
85.27696298059538
 20
158.1021076092411
 30
0.0
 11
85.27698198059544
 21
137.6610186092409
 31
0.0
  0
LINE
  5
217C
330
2
100
AcDbEntity
  8
0
100
AcDbLine
 10
76.77692435469532
 20
194.7521177236706
 30
0.0
 11
76.77690456239623
 21
142.7661839385605
 31
0.0
  0
LINE
  5
217D
330
2
100
AcDbEntity
  8
0
100
AcDbLine
 10
62.77704298059564
 20
141.5276952682588
 30
0.0
 11
62.77704298059564
 21
195.1663765390437
 31
0.0
  0
LINE
  5
217E
330
2
100
AcDbEntity
  8
0
100
AcDbLine
 10
61.77704298059564
 20
140.5276952682588
 30
0.0
 11
61.77704298059564
 21
195.3332810411598
 31
0.0
  0
LINE
  5
217F
330
2
100
AcDbEntity
  8
0
100
AcDbLine
 10
60.77704298059564
 20
141.5276952682588
 30
0.0
 11
60.77704298059564
 21
194.752110007118
 31
0.0
  0
LINE
  5
2180
330
2
100
AcDbEntity
  8
0
100
AcDbLine
 10
82.77696598059549
 20
142.7661419856763
 30
0.0
 11
82.77696598059572
 21
194.7521683490208
 31
0.0
  0
LINE
  5
2181
330
2
100
AcDbEntity
  8
0
100
AcDbLine
 10
78.77692605608229
 20
195.173321482508
 30
0.0
 11
78.77690421676709
 21
142.1431665889463
 31
0.0
  0
LINE
  5
2182
330
2
100
AcDbEntity
  8
0
100
AcDbLine
 10
80.77693425960717
 20
194.3311773292125
 30
0.0
 11
80.77696709952091
 21
142.1431577904872
 31
0.0
  0
LINE
  5
2183
330
2
100
AcDbEntity
  8
0
100
AcDbLine
 10
132.2769439805953
 20
178.4885866092408
 30
0.0
 11
132.2769439805953
 21
96.33194760924107
 31
0.0
  0
LINE
  5
2184
330
2
100
AcDbEntity
  8
0
100
AcDbLine
 10
30.77704298059563
 20
84.14664860924109
 30
0.0
 11
30.77704298059563
 21
158.504928609241
 31
0.0
  0
LINE
  5
2185
330
2
100
AcDbEntity
  8
0
100
AcDbLine
 10
73.7770049805955
 20
80.82584760924101
 30
0.0
 11
33.75294498059531
 21
81.14676660924102
 31
0.0
  0
ARC
  5
2186
330
2
100
AcDbEntity
  8
0
100
AcDbCircle
 10
33.77704298059564
 20
84.14664860924109
 30
0.0
 40
3.0
100
AcDbArc
 50
180.0
 51
269.5404969999922
  0
ARC
  5
2187
330
2
100
AcDbEntity
  8
0
100
AcDbCircle
 10
131.7769439805953
 20
72.89944860924106
 30
0.0
 40
0.5
100
AcDbArc
 50
270.4999999999915
 51
0.0
  0
ARC
  5
2188
330
2
100
AcDbEntity
  8
0
100
AcDbCircle
 10
81.52308298059564
 20
73.80974560924096
 30
0.0
 40
1.771906
100
AcDbArc
 50
205.5500029999923
 51
229.0921019999911
  0
LINE
  5
2189
330
2
100
AcDbEntity
  8
0
100
AcDbLine
 10
79.77698198059545
 20
72.70804560924102
 30
0.0
 11
79.77698198059545
 21
73.69604860924096
 31
0.0
  0
LINE
  5
218A
330
2
100
AcDbEntity
  8
0
100
AcDbLine
 10
74.77698198059545
 20
70.44604860924096
 30
0.0
 11
74.77698198059545
 21
79.82584760924101
 31
0.0
  0
LINE
  5
218B
330
2
100
AcDbEntity
  8
0
100
AcDbLine
 10
132.2769439805953
 20
88.75954860924094
 30
0.0
 11
132.2769439805953
 21
65.152446609241
 31
0.0
  0
LINE
  5
218C
330
2
100
AcDbEntity
  8
0
100
AcDbLine
 10
81.77698198059545
 20
71.96306560924085
 30
0.0
 11
131.7813459805953
 21
72.39944860924106
 31
0.0
  0
LINE
  5
218D
330
2
100
AcDbEntity
  8
0
100
AcDbLine
 10
131.7813459805953
 20
70.538745609241
 30
0.0
 11
81.77698198059545
 21
70.97516660924111
 31
0.0
  0
LINE
  5
218E
330
2
100
AcDbEntity
  8
0
100
AcDbLine
 10
80.90888298059565
 20
70.46094860924085
 30
0.0
 11
130.6007429805955
 21
70.02724860924104
 31
0.0
  0
LINE
  5
218F
330
2
100
AcDbEntity
  8
0
100
AcDbLine
 10
81.79444198059547
 20
68.47084760924099
 30
0.0
 11
132.2769439805953
 21
68.91144960924112
 31
0.0
  0
LINE
  5
2190
330
2
100
AcDbEntity
  8
0
100
AcDbLine
 10
132.2769439805953
 20
67.21854760924088
 30
0.0
 11
81.75952198059542
 21
67.65936660924103
 31
0.0
  0
LINE
  5
2191
330
2
100
AcDbEntity
  8
0
100
AcDbLine
 10
132.2769439805953
 20
65.54654660924097
 30
0.0
 11
81.75952198059542
 21
65.98744560924115
 31
0.0
  0
LINE
  5
2192
330
2
100
AcDbEntity
  8
0
100
AcDbLine
 10
76.77698198059545
 20
68.44604860924096
 30
0.0
 11
79.77698198059545
 21
68.44604860924096
 31
0.0
  0
LINE
  5
2193
330
2
100
AcDbEntity
  8
0
100
AcDbLine
 10
76.77698198059545
 20
68.44604860924096
 30
0.0
 11
77.91744298059541
 21
68.44604860924096
 31
0.0
  0
ARC
  5
2194
330
2
100
AcDbEntity
  8
0
100
AcDbCircle
 10
76.77698198059545
 20
70.44604860924096
 30
0.0
 40
2.0
100
AcDbArc
 50
180.0
 51
270.0
  0
ARC
  5
2195
330
2
100
AcDbEntity
  8
0
100
AcDbCircle
 10
81.77698198059545
 20
67.98734660924106
 30
0.0
 40
2.0
100
AcDbArc
 50
180.0
 51
269.5000000000084
  0
ARC
  5
2196
330
2
100
AcDbEntity
  8
0
100
AcDbCircle
 10
81.77698198059545
 20
69.65924860924087
 30
0.0
 40
2.0
100
AcDbArc
 50
180.0
 51
269.5000000000084
  0
ARC
  5
2197
330
2
100
AcDbEntity
  8
0
100
AcDbCircle
 10
81.28510298059529
 20
72.70804560924102
 30
0.0
 40
1.508124
100
AcDbArc
 50
180.0
 51
205.5500029999923
  0
ARC
  5
2198
330
2
100
AcDbEntity
  8
0
100
AcDbCircle
 10
81.52308298059564
 20
72.82184560924088
 30
0.0
 40
1.771906
100
AcDbArc
 50
205.5500029999923
 51
229.0921019999911
  0
ARC
  5
2199
330
2
100
AcDbEntity
  8
0
100
AcDbCircle
 10
81.67698298059542
 20
72.99944660924097
 30
0.0
 40
2.006931999999999
100
AcDbArc
 50
229.0921019999911
 51
250.2568050000004
  0
ARC
  5
219A
330
2
100
AcDbEntity
  8
0
100
AcDbCircle
 10
81.67698298059542
 20
73.98744560924114
 30
0.0
 40
2.006931999999999
100
AcDbArc
 50
229.0921019999911
 51
250.2568050000004
  0
LINE
  5
219B
330
2
100
AcDbEntity
  8
0
100
AcDbLine
 10
79.77698198059545
 20
69.65924860924087
 30
0.0
 11
79.77698198059545
 21
70.47084760924099
 31
0.0
  0
ARC
  5
219C
330
2
100
AcDbEntity
  8
0
100
AcDbCircle
 10
81.77698198059545
 20
73.27804960924095
 30
0.0
 40
2.302912
100
AcDbArc
 50
250.2568050000004
 51
270.0
  0
ARC
  5
219D
330
2
100
AcDbEntity
  8
0
100
AcDbCircle
 10
81.77698198059545
 20
74.26594960924103
 30
0.0
 40
2.302912
100
AcDbArc
 50
250.2568050000004
 51
270.0
  0
ARC
  5
219E
330
2
100
AcDbEntity
  8
0
100
AcDbCircle
 10
79.9626619805955
 20
68.05324960924099
 30
0.0
 40
0.185701
100
AcDbArc
 50
180.0
 51
225.3820040000035
  0
ARC
  5
219F
330
2
100
AcDbEntity
  8
0
100
AcDbCircle
 10
79.9626619805955
 20
68.05324960924099
 30
0.0
 40
0.185701
100
AcDbArc
 50
134.6179959999964
 51
180.0
  0
LINE
  5
21A0
330
2
100
AcDbEntity
  8
0
100
AcDbLine
 10
79.77698198059545
 20
68.44604860924096
 30
0.0
 11
79.77698198059545
 21
67.98734660924106
 31
0.0
  0
ARC
  5
21A1
330
2
100
AcDbEntity
  8
0
100
AcDbCircle
 10
81.77698198059545
 20
70.47084760924099
 30
0.0
 40
2.0
100
AcDbArc
 50
180.0
 51
270.4999999999915
  0
LINE
  5
21A2
330
2
100
AcDbEntity
  8
0
100
AcDbLine
 10
142.2769439805953
 20
64.07584760924101
 30
0.0
 11
133.2684219805956
 21
64.15254560924086
 31
0.0
  0
ARC
  5
21A3
330
2
100
AcDbEntity
  8
0
100
AcDbCircle
 10
133.2769439805953
 20
65.152446609241
 30
0.0
 40
1.0
100
AcDbArc
 50
180.0
 51
269.5122069999976
  0
ARC
  5
21A4
330
2
100
AcDbEntity
  8
0
100
AcDbCircle
 10
131.7769439805953
 20
70.038745609241
 30
0.0
 40
0.5
100
AcDbArc
 50
0.0
 51
89.49999999999542
  0
LINE
  5
21A5
330
2
100
AcDbEntity
  8
0
100
AcDbLine
 10
74.77698198059545
 20
172.325866609241
 30
0.0
 11
74.77698198059545
 21
163.3963520130255
 31
0.0
  0
LINE
  5
21A6
330
2
100
AcDbEntity
  8
0
100
AcDbLine
 10
74.77698198059539
 20
129.5455436092413
 30
0.0
 11
74.77698198059545
 21
79.82584760924101
 31
0.0
  0
LINE
  5
21A7
330
2
100
AcDbEntity
  8
0
100
AcDbLine
 10
81.77698198059545
 20
108.123747609241
 30
0.0
 11
131.2857249805953
 21
108.555747609241
 31
0.0
  0
LINE
  5
21A8
330
2
100
AcDbEntity
  8
0
100
AcDbLine
 10
131.2857249805953
 20
105.808647609241
 30
0.0
 11
81.77698198059545
 21
106.2406576092409
 31
0.0
  0
LINE
  5
21A9
330
2
100
AcDbEntity
  8
0
100
AcDbLine
 10
81.56110398059547
 20
100.4980676092409
 30
0.0
 11
130.1548429805953
 21
100.9221476092409
 31
0.0
  0
LINE
  5
21AA
330
2
100
AcDbEntity
  8
0
100
AcDbLine
 10
132.2769439805953
 20
96.33194760924107
 30
0.0
 11
80.78570198059527
 21
95.8825476092411
 31
0.0
  0
LINE
  5
21AB
330
2
100
AcDbEntity
  8
0
100
AcDbLine
 10
80.90888298059565
 20
109.2552476092409
 30
0.0
 11
130.6007429805955
 21
108.8216476092411
 31
0.0
  0
LINE
  5
21AC
330
2
100
AcDbEntity
  8
0
100
AcDbLine
 10
81.77698198059545
 20
83.25586660924091
 30
0.0
 11
131.2857249805953
 21
83.687969609241
 31
0.0
  0
LINE
  5
21AD
330
2
100
AcDbEntity
  8
0
100
AcDbLine
 10
131.2857249805953
 20
81.65714660924095
 30
0.0
 11
81.77698198059545
 21
82.08914960924108
 31
0.0
  0
LINE
  5
21AE
330
2
100
AcDbEntity
  8
0
100
AcDbLine
 10
132.2769439805953
 20
88.75954860924094
 30
0.0
 11
80.76824198059568
 21
89.20904960924099
 31
0.0
  0
LINE
  5
21AF
330
2
100
AcDbEntity
  8
0
100
AcDbLine
 10
80.90888298059565
 20
84.84294860924093
 30
0.0
 11
130.6007429805955
 21
84.40936660924103
 31
0.0
  0
LINE
  5
21B0
330
2
100
AcDbEntity
  8
0
100
AcDbLine
 10
81.77698198059545
 20
76.94184860924088
 30
0.0
 11
131.2857249805953
 21
77.37396660924105
 31
0.0
  0
LINE
  5
21B1
330
2
100
AcDbEntity
  8
0
100
AcDbLine
 10
131.2857249805953
 20
75.40236660924097
 30
0.0
 11
81.77698198059545
 21
75.83434660924104
 31
0.0
  0
LINE
  5
21B2
330
2
100
AcDbEntity
  8
0
100
AcDbLine
 10
80.90888298059565
 20
73.68614560924107
 30
0.0
 11
130.6007429805955
 21
73.25244860924112
 31
0.0
  0
LINE
  5
21B3
330
2
100
AcDbEntity
  8
0
100
AcDbLine
 10
80.90888298059565
 20
78.61584860924108
 30
0.0
 11
130.6007429805955
 21
78.18216660924099
 31
0.0
  0
LINE
  5
21B4
330
2
100
AcDbEntity
  8
0
100
AcDbLine
 10
79.77698198059545
 20
91.27376760924107
 30
0.0
 11
79.77698198059545
 21
95.87374660924115
 31
0.0
  0
ARC
  5
21B5
330
2
100
AcDbEntity
  8
0
100
AcDbCircle
 10
82.77698198059544
 20
95.87374660924115
 30
0.0
 40
8.0
100
AcDbArc
 50
147.6076049999995
 51
212.3923950000004
  0
LINE
  5
21B6
330
2
100
AcDbEntity
  8
0
100
AcDbLine
 10
78.47694498059547
 20
100.6237466092411
 30
0.0
 11
78.47694498059547
 21
91.12374660924116
 31
0.0
  0
LINE
  5
21B7
330
2
100
AcDbEntity
  8
0
100
AcDbLine
 10
79.77698198059545
 20
95.87374660924115
 30
0.0
 11
79.77698198059545
 21
90.20894860924091
 31
0.0
  0
ARC
  5
21B8
330
2
100
AcDbEntity
  8
0
100
AcDbCircle
 10
81.06264198059546
 20
83.68624860924091
 30
0.0
 40
1.285679
100
AcDbArc
 50
180.0
 51
207.4174040000058
  0
ARC
  5
21B9
330
2
100
AcDbEntity
  8
0
100
AcDbCircle
 10
81.48020198059532
 20
78.76234860924114
 30
0.0
 40
1.735008
100
AcDbArc
 50
206.1963039999984
 51
229.9049069999926
  0
LINE
  5
21BA
330
2
100
AcDbEntity
  8
0
100
AcDbLine
 10
79.77698198059545
 20
77.51824960924114
 30
0.0
 11
79.77698198059545
 21
78.62576660924105
 31
0.0
  0
ARC
  5
21BB
330
2
100
AcDbEntity
  8
0
100
AcDbCircle
 10
81.28510298059529
 20
73.69604860924096
 30
0.0
 40
1.508124
100
AcDbArc
 50
180.0
 51
205.5500029999923
  0
ARC
  5
21BC
330
2
100
AcDbEntity
  8
0
100
AcDbCircle
 10
81.20260298059532
 20
77.51824960924114
 30
0.0
 40
1.425637
100
AcDbArc
 50
180.0
 51
206.1963039999984
  0
ARC
  5
21BD
330
2
100
AcDbEntity
  8
0
100
AcDbCircle
 10
81.66004198059557
 20
78.97584960924087
 30
0.0
 40
2.014202
100
AcDbArc
 50
229.9049069999926
 51
250.7743069999967
  0
ARC
  5
21BE
330
2
100
AcDbEntity
  8
0
100
AcDbCircle
 10
81.66004198059557
 20
77.86836660924109
 30
0.0
 40
2.014202
100
AcDbArc
 50
229.9049069999926
 51
250.7743069999967
  0
ARC
  5
21BF
330
2
100
AcDbEntity
  8
0
100
AcDbCircle
 10
81.48020198059532
 20
77.6547466092411
 30
0.0
 40
1.735008
100
AcDbArc
 50
206.1963039999984
 51
229.9049069999926
  0
ARC
  5
21C0
330
2
100
AcDbEntity
  8
0
100
AcDbCircle
 10
81.77698198059545
 20
78.20374660924108
 30
0.0
 40
2.369364
100
AcDbArc
 50
250.7743069999967
 51
270.0
  0
ARC
  5
21C1
330
2
100
AcDbEntity
  8
0
100
AcDbCircle
 10
81.77698198059545
 20
79.31124860924092
 30
0.0
 40
2.369364
100
AcDbArc
 50
250.7743069999967
 51
270.0
  0
ARC
  5
21C2
330
2
100
AcDbEntity
  8
0
100
AcDbCircle
 10
81.63106198059551
 20
84.14534760924107
 30
0.0
 40
2.032614
100
AcDbArc
 50
231.3923950000056
 51
251.6983030000044
  0
ARC
  5
21C3
330
2
100
AcDbEntity
  8
0
100
AcDbCircle
 10
81.40718098059563
 20
83.86494860924107
 30
0.0
 40
1.673817999999999
100
AcDbArc
 50
207.4174040000058
 51
231.3923950000056
  0
ARC
  5
21C4
330
2
100
AcDbEntity
  8
0
100
AcDbCircle
 10
81.77698198059545
 20
84.58644860924096
 30
0.0
 40
2.497222
100
AcDbArc
 50
251.6983030000044
 51
270.0
  0
ARC
  5
21C5
330
2
100
AcDbEntity
  8
0
100
AcDbCircle
 10
81.20260298059532
 20
78.62576660924105
 30
0.0
 40
1.425637
100
AcDbArc
 50
180.0
 51
206.1963039999984
  0
LINE
  5
21C6
330
2
100
AcDbEntity
  8
0
100
AcDbLine
 10
78.47694498059547
 20
91.12374660924116
 30
0.0
 11
76.86618498059544
 21
91.12374660924116
 31
0.0
  0
LINE
  5
21C7
330
2
100
AcDbEntity
  8
0
100
AcDbLine
 10
79.77698198059545
 20
91.05164760924095
 30
0.0
 11
75.77698198059545
 21
91.05164760924095
 31
0.0
  0
ARC
  5
21C8
330
2
100
AcDbEntity
  8
0
100
AcDbCircle
 10
76.86618498059544
 20
92.12374660924115
 30
0.0
 40
1.0
100
AcDbArc
 50
212.3923950000004
 51
270.0
  0
ARC
  5
21C9
330
2
100
AcDbEntity
  8
0
100
AcDbCircle
 10
75.77698198059545
 20
92.05164760924095
 30
0.0
 40
1.0
100
AcDbArc
 50
180.0
 51
270.0
  0
ARC
  5
21CA
330
2
100
AcDbEntity
  8
0
100
AcDbCircle
 10
81.06264198059546
 20
84.852867609241
 30
0.0
 40
1.285679
100
AcDbArc
 50
180.0
 51
207.4174040000058
  0
ARC
  5
21CB
330
2
100
AcDbEntity
  8
0
100
AcDbCircle
 10
81.40718098059563
 20
85.03166560924091
 30
0.0
 40
1.673817999999999
100
AcDbArc
 50
207.4174040000058
 51
231.3923950000056
  0
ARC
  5
21CC
330
2
100
AcDbEntity
  8
0
100
AcDbCircle
 10
81.63106198059551
 20
85.31194660924098
 30
0.0
 40
2.032614
100
AcDbArc
 50
231.3923950000056
 51
251.6983030000044
  0
LINE
  5
21CD
330
2
100
AcDbEntity
  8
0
100
AcDbLine
 10
79.77698198059545
 20
83.68624860924091
 30
0.0
 11
79.77698198059545
 21
84.852867609241
 31
0.0
  0
ARC
  5
21CE
330
2
100
AcDbEntity
  8
0
100
AcDbCircle
 10
81.77698198059545
 20
85.7530476092411
 30
0.0
 40
2.497222
100
AcDbArc
 50
251.6983030000044
 51
270.0
  0
LINE
  5
21CF
330
2
100
AcDbEntity
  8
0
100
AcDbLine
 10
78.47694498059547
 20
91.27376760924107
 30
0.0
 11
79.77698198059545
 21
91.27376760924107
 31
0.0
  0
ARC
  5
21D0
330
2
100
AcDbEntity
  8
0
100
AcDbCircle
 10
80.77698198059545
 20
90.20894860924091
 30
0.0
 40
1.0
100
AcDbArc
 50
180.0
 51
269.5000000000084
  0
LINE
  5
21D1
330
2
100
AcDbEntity
  8
0
100
AcDbLine
 10
78.47694498059547
 20
100.6237466092411
 30
0.0
 11
76.86618498059544
 21
100.6237466092411
 31
0.0
  0
LINE
  5
21D2
330
2
100
AcDbEntity
  8
CENTER
100
AcDbLine
 10
72.27698198059545
 20
95.87374660924115
 30
0.0
 11
82.27698198059545
 21
95.87374660924115
 31
0.0
  0
LINE
  5
21D3
330
2
100
AcDbEntity
  8
0
100
AcDbLine
 10
79.77698198059545
 20
100.564647609241
 30
0.0
 11
75.77698198059545
 21
100.564647609241
 31
0.0
  0
ARC
  5
21D4
330
2
100
AcDbEntity
  8
0
100
AcDbCircle
 10
76.86618498059544
 20
99.62374660924115
 30
0.0
 40
1.0
100
AcDbArc
 50
90.0
 51
147.6076049999995
  0
ARC
  5
21D5
330
2
100
AcDbEntity
  8
0
100
AcDbCircle
 10
75.77698198059545
 20
101.564647609241
 30
0.0
 40
1.0
100
AcDbArc
 50
180.0
 51
270.0
  0
LINE
  5
21D6
330
2
100
AcDbEntity
  8
0
100
AcDbLine
 10
79.77698198059545
 20
95.87374660924115
 30
0.0
 11
79.77698198059545
 21
100.4824486092411
 31
0.0
  0
LINE
  5
21D7
330
2
100
AcDbEntity
  8
0
100
AcDbLine
 10
79.77698198059545
 20
100.4737476092409
 30
0.0
 11
79.77698198059545
 21
95.87374660924115
 31
0.0
  0
ARC
  5
21D8
330
2
100
AcDbEntity
  8
0
100
AcDbCircle
 10
80.77698198059545
 20
96.8825476092411
 30
0.0
 40
1.0
100
AcDbArc
 50
180.0
 51
270.4999999999915
  0
LINE
  5
21D9
330
2
100
AcDbEntity
  8
0
100
AcDbLine
 10
78.47694498059547
 20
100.4737476092409
 30
0.0
 11
79.77698198059545
 21
100.4737476092409
 31
0.0
  0
LINE
  5
21DA
330
2
100
AcDbEntity
  8
0
100
AcDbLine
 10
79.77698198059545
 20
107.3821476092409
 30
0.0
 11
79.77698198059545
 21
109.265147609241
 31
0.0
  0
ARC
  5
21DB
330
2
100
AcDbEntity
  8
0
100
AcDbCircle
 10
81.08444298059533
 20
109.722547609241
 30
0.0
 40
1.455952
100
AcDbArc
 50
215.9710999999966
 51
240.2855990000014
  0
ARC
  5
21DC
330
2
100
AcDbEntity
  8
0
100
AcDbCircle
 10
81.50228198059551
 20
108.5716476092411
 30
0.0
 40
2.298955999999999
100
AcDbArc
 50
240.2855990000014
 51
256.6994019999928
  0
ARC
  5
21DD
330
2
100
AcDbEntity
  8
0
100
AcDbCircle
 10
81.08444298059533
 20
107.8395476092409
 30
0.0
 40
1.455952
100
AcDbArc
 50
215.9710999999966
 51
240.2855990000014
  0
ARC
  5
21DE
330
2
100
AcDbEntity
  8
0
100
AcDbCircle
 10
80.45426198059534
 20
107.3821476092409
 30
0.0
 40
0.6772650000000001
100
AcDbArc
 50
180.0
 51
215.9710999999966
  0
ARC
  5
21DF
330
2
100
AcDbEntity
  8
0
100
AcDbCircle
 10
81.50228198059551
 20
110.4546476092409
 30
0.0
 40
2.298955999999999
100
AcDbArc
 50
240.2855990000014
 51
256.6994019999928
  0
ARC
  5
21E0
330
2
100
AcDbEntity
  8
0
100
AcDbCircle
 10
81.77698198059545
 20
109.7335476092409
 30
0.0
 40
3.492887999999999
100
AcDbArc
 50
256.6994019999928
 51
270.0
  0
ARC
  5
21E1
330
2
100
AcDbEntity
  8
0
100
AcDbCircle
 10
81.77698198059545
 20
111.616649609241
 30
0.0
 40
3.492887999999999
100
AcDbArc
 50
256.6994019999928
 51
270.0
  0
ARC
  5
21E2
330
2
100
AcDbEntity
  8
0
100
AcDbCircle
 10
80.45426198059534
 20
109.265147609241
 30
0.0
 40
0.6772650000000001
100
AcDbArc
 50
180.0
 51
215.9710999999966
  0
ARC
  5
21E3
330
2
100
AcDbEntity
  8
0
100
AcDbCircle
 10
131.2769439805953
 20
78.37384760924101
 30
0.0
 40
1.0
100
AcDbArc
 50
270.4999999999915
 51
0.0
  0
ARC
  5
21E4
330
2
100
AcDbEntity
  8
0
100
AcDbCircle
 10
131.2769439805953
 20
74.40236660924097
 30
0.0
 40
1.0
100
AcDbArc
 50
0.0
 51
89.49999999999542
  0
ARC
  5
21E5
330
2
100
AcDbEntity
  8
0
100
AcDbCircle
 10
131.2769439805953
 20
80.65714660924095
 30
0.0
 40
1.0
100
AcDbArc
 50
0.0
 51
89.49999999999542
  0
ARC
  5
21E6
330
2
100
AcDbEntity
  8
0
100
AcDbCircle
 10
131.2769439805953
 20
84.68784760924108
 30
0.0
 40
1.0
100
AcDbArc
 50
270.4999999999915
 51
0.0
  0
ARC
  5
21E7
330
2
100
AcDbEntity
  8
0
100
AcDbCircle
 10
131.2769439805953
 20
109.555747609241
 30
0.0
 40
1.0
100
AcDbArc
 50
270.4999999999915
 51
0.0
  0
ARC
  5
21E8
330
2
100
AcDbEntity
  8
0
100
AcDbCircle
 10
131.2769439805953
 20
104.808647609241
 30
0.0
 40
1.0
100
AcDbArc
 50
0.0
 51
89.49999999999542
  0
LINE
  5
21E9
330
2
100
AcDbEntity
  8
0
100
AcDbLine
 10
131.2857249805953
 20
136.8430576092409
 30
0.0
 11
81.77698198059545
 21
136.410947609241
 31
0.0
  0
LINE
  5
21EA
330
2
100
AcDbEntity
  8
0
100
AcDbLine
 10
81.77698198059545
 20
134.5279476092409
 30
0.0
 11
131.2857249805953
 21
134.095847609241
 31
0.0
  0
LINE
  5
21EB
330
2
100
AcDbEntity
  8
0
100
AcDbLine
 10
131.2857249805953
 20
153.8334886092411
 30
0.0
 11
89.25942298059556
 21
153.466789609241
 31
0.0
  0
LINE
  5
21EC
330
2
100
AcDbEntity
  8
0
100
AcDbLine
 10
89.29444198059547
 20
151.8728676092409
 30
0.0
 11
131.2857249805953
 21
151.5064066092409
 31
0.0
  0
LINE
  5
21ED
330
2
100
AcDbEntity
  8
0
100
AcDbLine
 10
131.2857249805953
 20
145.708867609241
 30
0.0
 11
89.25942298059556
 21
145.3420466092411
 31
0.0
  0
LINE
  5
21EE
330
2
100
AcDbEntity
  8
0
100
AcDbLine
 10
89.29444198059547
 20
143.4987466092411
 30
0.0
 11
131.2857249805953
 21
143.132346609241
 31
0.0
  0
LINE
  5
21EF
330
2
100
AcDbEntity
  8
0
100
AcDbLine
 10
88.47692198059542
 20
150.539367609241
 30
0.0
 11
130.6007429805955
 21
150.906967609241
 31
0.0
  0
LINE
  5
21F0
330
2
100
AcDbEntity
  8
0
100
AcDbLine
 10
88.47692198059542
 20
142.318647609241
 30
0.0
 11
130.6007429805955
 21
142.6862466092411
 31
0.0
  0
LINE
  5
21F1
330
2
100
AcDbEntity
  8
0
100
AcDbLine
 10
131.2857249805953
 20
115.1461436092408
 30
0.0
 11
81.77698198059545
 21
115.578257609241
 31
0.0
  0
LINE
  5
21F2
330
2
100
AcDbEntity
  8
0
100
AcDbLine
 10
131.2857249805953
 20
127.5054596092409
 30
0.0
 11
81.77698198059545
 21
127.0734516092411
 31
0.0
  0
LINE
  5
21F3
330
2
100
AcDbEntity
  8
0
100
AcDbLine
 10
81.77698198059545
 20
125.103755609241
 30
0.0
 11
131.2857249805953
 21
124.671749609241
 31
0.0
  0
LINE
  5
21F4
330
2
100
AcDbEntity
  8
0
100
AcDbLine
 10
80.90888298059565
 20
124.1736576092409
 30
0.0
 11
130.6007429805955
 21
124.607355609241
 31
0.0
  0
LINE
  5
21F5
330
2
100
AcDbEntity
  8
0
100
AcDbLine
 10
81.77698198059545
 20
117.5478476092409
 30
0.0
 11
131.2857249805953
 21
117.9799456092409
 31
0.0
  0
LINE
  5
21F6
330
2
100
AcDbEntity
  8
0
100
AcDbLine
 10
80.90888298059565
 20
118.477947609241
 30
0.0
 11
130.6007429805955
 21
118.0443536092409
 31
0.0
  0
LINE
  5
21F7
330
2
100
AcDbEntity
  8
0
100
AcDbLine
 10
80.90888298059565
 20
133.396357609241
 30
0.0
 11
130.6007429805955
 21
133.830057609241
 31
0.0
  0
ARC
  5
21F8
330
2
100
AcDbEntity
  8
0
100
AcDbCircle
 10
81.50228198059551
 20
132.196957609241
 30
0.0
 40
2.298955999999999
100
AcDbArc
 50
103.3005979999939
 51
119.7144009999985
  0
LINE
  5
21F9
330
2
100
AcDbEntity
  8
0
100
AcDbLine
 10
78.27698198059545
 20
129.5455436092411
 30
0.0
 11
78.27698198059545
 21
139.0495076092411
 31
0.0
  0
LINE
  5
21FA
330
2
100
AcDbEntity
  8
0
100
AcDbLine
 10
79.77698198059545
 20
135.269557609241
 30
0.0
 11
79.77698198059545
 21
133.386457609241
 31
0.0
  0
LINE
  5
21FB
330
2
100
AcDbEntity
  8
0
100
AcDbLine
 10
73.77694398059543
 20
122.942624314021
 30
0.0
 11
74.77698198059545
 21
123.3188286092408
 31
0.0
  0
ARC
  5
21FC
330
2
100
AcDbEntity
  8
0
100
AcDbCircle
 10
81.45806198059529
 20
118.1840476092411
 30
0.0
 40
2.575074
100
AcDbArc
 50
244.8269960000018
 51
258.9837039999939
  0
ARC
  5
21FD
330
2
100
AcDbEntity
  8
0
100
AcDbCircle
 10
80.97442298059524
 20
117.1549496092411
 30
0.0
 40
1.437988999999999
100
AcDbArc
 50
221.3905940000004
 51
244.8269960000018
  0
ARC
  5
21FE
330
2
100
AcDbEntity
  8
0
100
AcDbCircle
 10
80.2519229805954
 20
116.5181536092409
 30
0.0
 40
0.4749410000000001
100
AcDbArc
 50
180.0
 51
221.3905940000004
  0
ARC
  5
21FF
330
2
100
AcDbEntity
  8
0
100
AcDbCircle
 10
80.2519229805954
 20
118.487851609241
 30
0.0
 40
0.4749410000000001
100
AcDbArc
 50
180.0
 51
221.3905940000004
  0
ARC
  5
2200
330
2
100
AcDbEntity
  8
0
100
AcDbCircle
 10
80.97442298059524
 20
119.124553609241
 30
0.0
 40
1.437988999999999
100
AcDbArc
 50
221.3905940000004
 51
244.8269960000018
  0
ARC
  5
2201
330
2
100
AcDbEntity
  8
0
100
AcDbCircle
 10
81.45806198059529
 20
120.1536526092409
 30
0.0
 40
2.575074
100
AcDbArc
 50
244.8269960000018
 51
258.9837039999939
  0
LINE
  5
2202
330
2
100
AcDbEntity
  8
0
100
AcDbLine
 10
79.77698198059545
 20
116.5181536092409
 30
0.0
 11
79.77698198059545
 21
118.487851609241
 31
0.0
  0
ARC
  5
2203
330
2
100
AcDbEntity
  8
0
100
AcDbCircle
 10
81.77698198059545
 20
119.8221546092409
 30
0.0
 40
4.243937999999999
100
AcDbArc
 50
258.9837039999939
 51
270.0
  0
ARC
  5
2204
330
2
100
AcDbEntity
  8
0
100
AcDbCircle
 10
81.77698198059545
 20
121.791850609241
 30
0.0
 40
4.243937999999999
100
AcDbArc
 50
258.9837039999939
 51
270.0
  0
LINE
  5
2205
330
2
100
AcDbEntity
  8
0
100
AcDbLine
 10
74.77698198059545
 20
129.5455436092411
 30
0.0
 11
78.27698198059545
 21
129.5455436092411
 31
0.0
  0
LINE
  5
2206
330
2
100
AcDbEntity
  8
0
100
AcDbLine
 10
74.27698198059545
 20
130.621303609241
 30
0.0
 11
78.27698198059545
 21
130.621303609241
 31
0.0
  0
LINE
  5
2207
330
2
100
AcDbEntity
  8
0
100
AcDbLine
 10
79.77698198059545
 20
126.1334496092408
 30
0.0
 11
79.77698198059545
 21
124.1638436092409
 31
0.0
  0
ARC
  5
2208
330
2
100
AcDbEntity
  8
0
100
AcDbCircle
 10
81.45806198059529
 20
122.4979516092409
 30
0.0
 40
2.575074
100
AcDbArc
 50
101.0162959999943
 51
115.172996999995
  0
ARC
  5
2209
330
2
100
AcDbEntity
  8
0
100
AcDbCircle
 10
80.97442298059524
 20
123.5270496092409
 30
0.0
 40
1.437988999999999
100
AcDbArc
 50
115.172996999995
 51
138.6094059999995
  0
ARC
  5
220A
330
2
100
AcDbEntity
  8
0
100
AcDbCircle
 10
80.2519229805954
 20
124.1638436092409
 30
0.0
 40
0.4749410000000001
100
AcDbArc
 50
138.6094059999995
 51
180.0
  0
ARC
  5
220B
330
2
100
AcDbEntity
  8
0
100
AcDbCircle
 10
81.77698198059545
 20
120.859859609241
 30
0.0
 40
4.243937999999999
100
AcDbArc
 50
90.0
 51
101.0162959999943
  0
ARC
  5
220C
330
2
100
AcDbEntity
  8
0
100
AcDbCircle
 10
80.2519229805954
 20
126.1334496092408
 30
0.0
 40
0.4749410000000001
100
AcDbArc
 50
138.6094059999995
 51
180.0
  0
ARC
  5
220D
330
2
100
AcDbEntity
  8
0
100
AcDbCircle
 10
80.97442298059524
 20
125.496653609241
 30
0.0
 40
1.437988999999999
100
AcDbArc
 50
115.172996999995
 51
138.6094059999995
  0
ARC
  5
220E
330
2
100
AcDbEntity
  8
0
100
AcDbCircle
 10
81.45806198059529
 20
124.4675556092411
 30
0.0
 40
2.575074
100
AcDbArc
 50
101.0162959999943
 51
115.172996999995
  0
ARC
  5
220F
330
2
100
AcDbEntity
  8
0
100
AcDbCircle
 10
81.77698198059545
 20
122.8294486092408
 30
0.0
 40
4.243937999999999
100
AcDbArc
 50
90.0
 51
101.0162959999943
  0
ARC
  5
2210
330
2
100
AcDbEntity
  8
0
100
AcDbCircle
 10
81.08444298059533
 20
132.9291476092409
 30
0.0
 40
1.455952
100
AcDbArc
 50
119.7144009999985
 51
144.0289000000033
  0
ARC
  5
2211
330
2
100
AcDbEntity
  8
0
100
AcDbCircle
 10
80.45426198059534
 20
133.386457609241
 30
0.0
 40
0.6772650000000001
100
AcDbArc
 50
144.0289000000033
 51
180.0
  0
ARC
  5
2212
330
2
100
AcDbEntity
  8
0
100
AcDbCircle
 10
89.27692498059526
 20
143.342147609241
 30
0.0
 40
2.0
100
AcDbArc
 50
90.50050399998985
 51
180.0
  0
ELLIPSE
  5
2213
330
2
100
AcDbEntity
  8
0
100
AcDbEllipse
 10
79.77697018321862
 20
143.8556423980192
 30
0.0
 11
-3.799999999999954
 21
0.0
 31
0.0
210
0.0
220
0.0
230
1.0
 40
0.4671183654701858
 41
5.669169374492924
 42
6.43876547018897
  0
ELLIPSE
  5
2214
330
2
100
AcDbEntity
  8
0
100
AcDbEllipse
 10
79.77697018321862
 20
143.8556423980192
 30
0.0
 11
-3.799999999999954
 21
0.0
 31
0.0
210
0.0
220
0.0
230
1.0
 40
0.4671183654701858
 41
6.43876547018897
 42
10.03879389346605
  0
LINE
  5
2215
330
2
100
AcDbEntity
  8
0
100
AcDbLine
 10
74.27698198059545
 20
139.0495076092411
 30
0.0
 11
85.27698198059544
 21
139.0495076092411
 31
0.0
  0
LINE
  5
2216
330
2
100
AcDbEntity
  8
0
100
AcDbLine
 10
78.27698198059545
 20
137.6610186092409
 30
0.0
 11
85.27698198059544
 21
137.6610186092409
 31
0.0
  0
ARC
  5
2217
330
2
100
AcDbEntity
  8
0
100
AcDbCircle
 10
80.45426198059534
 20
135.269557609241
 30
0.0
 40
0.6772650000000001
100
AcDbArc
 50
144.0289000000033
 51
180.0
  0
ARC
  5
2218
330
2
100
AcDbEntity
  8
0
100
AcDbCircle
 10
81.08444298059533
 20
134.812147609241
 30
0.0
 40
1.455952
100
AcDbArc
 50
119.7144009999985
 51
144.0289000000033
  0
ARC
  5
2219
330
2
100
AcDbEntity
  8
0
100
AcDbCircle
 10
81.50228198059551
 20
134.0799476092411
 30
0.0
 40
2.298955999999999
100
AcDbArc
 50
103.3005979999939
 51
119.7144009999985
  0
ARC
  5
221A
330
2
100
AcDbEntity
  8
0
100
AcDbCircle
 10
81.77698198059545
 20
132.918057609241
 30
0.0
 40
3.492887999999999
100
AcDbArc
 50
90.0
 51
103.3005979999939
  0
ARC
  5
221B
330
2
100
AcDbEntity
  8
0
100
AcDbCircle
 10
81.77698198059545
 20
131.035045609241
 30
0.0
 40
3.492887999999999
100
AcDbArc
 50
90.0
 51
103.3005979999939
  0
ARC
  5
221C
330
2
100
AcDbEntity
  8
0
100
AcDbCircle
 10
89.27692498059526
 20
141.498847609241
 30
0.0
 40
2.0
100
AcDbArc
 50
89.50031300000169
 51
180.0
  0
LINE
  5
221D
330
2
100
AcDbEntity
  8
0
100
AcDbLine
 10
87.27692498059525
 20
143.342147609241
 30
0.0
 11
87.27692498059525
 21
141.498847609241
 31
0.0
  0
ELLIPSE
  5
221E
330
2
100
AcDbEntity
  8
0
100
AcDbEllipse
 10
79.77697018321862
 20
144.3556423980192
 30
0.0
 11
-3.25
 21
0.0
 31
0.0
210
0.0
220
0.0
230
1.0
 40
0.5461691657962994
 41
5.888445830483655
 42
5.984282078621657
  0
ELLIPSE
  5
221F
330
2
100
AcDbEntity
  8
0
100
AcDbEllipse
 10
79.77697018321862
 20
144.3556423980192
 30
0.0
 11
-3.25
 21
0.0
 31
0.0
210
0.0
220
0.0
230
1.0
 40
0.5461691657962994
 41
3.440495882147722
 42
3.536387135374309
  0
ARC
  5
2220
330
2
100
AcDbEntity
  8
0
100
AcDbCircle
 10
89.27692498059526
 20
149.8729876092411
 30
0.0
 40
2.0
100
AcDbArc
 50
89.50034299999911
 51
180.0
  0
LINE
  5
2221
330
2
100
AcDbEntity
  8
0
100
AcDbLine
 10
87.27692498059525
 20
151.466867609241
 30
0.0
 11
87.2768219805954
 21
149.8729876092411
 31
0.0
  0
ARC
  5
2222
330
2
100
AcDbEntity
  8
0
100
AcDbCircle
 10
89.27692498059526
 20
151.466867609241
 30
0.0
 40
2.0
100
AcDbArc
 50
90.50047299999476
 51
180.0
  0
ARC
  5
2223
330
2
100
AcDbEntity
  8
0
100
AcDbCircle
 10
131.2769439805953
 20
133.0959576092409
 30
0.0
 40
1.0
100
AcDbArc
 50
0.0
 51
89.49999999999542
  0
ARC
  5
2224
330
2
100
AcDbEntity
  8
0
100
AcDbCircle
 10
131.2769439805953
 20
123.671749609241
 30
0.0
 40
1.0
100
AcDbArc
 50
0.0
 51
89.49999999999542
  0
ARC
  5
2225
330
2
100
AcDbEntity
  8
0
100
AcDbCircle
 10
131.2769439805953
 20
118.9798536092409
 30
0.0
 40
1.0
100
AcDbArc
 50
270.4999999999915
 51
0.0
  0
ARC
  5
2226
330
2
100
AcDbEntity
  8
0
100
AcDbCircle
 10
131.2769439805953
 20
114.146251609241
 30
0.0
 40
1.0
100
AcDbArc
 50
0.0
 51
89.49999999999542
  0
ARC
  5
2227
330
2
100
AcDbEntity
  8
0
100
AcDbCircle
 10
131.2769439805953
 20
128.5054596092409
 30
0.0
 40
1.0
100
AcDbArc
 50
270.4999999999915
 51
0.0
  0
ARC
  5
2228
330
2
100
AcDbEntity
  8
0
100
AcDbCircle
 10
131.2769439805953
 20
137.8429586092411
 30
0.0
 40
1.0
100
AcDbArc
 50
270.4999999999915
 51
0.0
  0
ARC
  5
2229
330
2
100
AcDbEntity
  8
0
100
AcDbCircle
 10
131.2769439805953
 20
142.132346609241
 30
0.0
 40
1.0
100
AcDbArc
 50
0.0
 51
89.49999999999542
  0
ARC
  5
222A
330
2
100
AcDbEntity
  8
0
100
AcDbCircle
 10
131.2769439805953
 20
146.708747609241
 30
0.0
 40
1.0
100
AcDbArc
 50
270.4999999999915
 51
0.0
  0
ARC
  5
222B
330
2
100
AcDbEntity
  8
0
100
AcDbCircle
 10
131.2769439805953
 20
150.5064676092411
 30
0.0
 40
1.0
100
AcDbArc
 50
0.0
 51
89.49999999999542
  0
LINE
  5
222C
330
2
100
AcDbEntity
  8
0
100
AcDbLine
 10
47.70367486458155
 20
224.0885159979136
 30
0.0
 11
37.70367486458155
 21
224.0885159979136
 31
0.0
  0
LINE
  5
222D
330
2
100
AcDbEntity
  8
0
100
AcDbLine
 10
47.70367486458155
 20
224.3885159979135
 30
0.0
 11
37.70367486458155
 21
224.3885159979135
 31
0.0
  0
LINE
  5
222E
330
2
100
AcDbEntity
  8
0
100
AcDbLine
 10
47.70367486458155
 20
223.7885159979136
 30
0.0
 11
37.70367486458155
 21
223.7885159979136
 31
0.0
  0
LINE
  5
222F
330
2
100
AcDbEntity
  8
0
100
AcDbLine
 10
37.81602735813578
 20
226.6618111690627
 30
0.0
 11
47.777974339053
 21
225.7902537415859
 31
0.0
  0
LINE
  5
2230
330
2
100
AcDbEntity
  8
0
100
AcDbLine
 10
37.84217408096003
 20
226.96066957849
 30
0.0
 11
47.80412106187725
 21
226.0891121510135
 31
0.0
  0
LINE
  5
2231
330
2
100
AcDbEntity
  8
0
100
AcDbLine
 10
37.78988063531153
 20
226.3629527596349
 30
0.0
 11
47.75182761622875
 21
225.4913953321584
 31
0.0
  0
LINE
  5
2232
330
2
100
AcDbEntity
  8
0
100
AcDbLine
 10
60.77704298059564
 20
161.7215987813065
 30
0.0
 11
33.75294498059531
 21
161.5048486092409
 31
0.0
  0
ARC
  5
2233
330
2
100
AcDbEntity
  8
0
100
AcDbCircle
 10
33.77704298059564
 20
158.504928609241
 30
0.0
 40
3.0
100
AcDbArc
 50
90.45947299999101
 51
180.0
  0
LINE
  5
2234
330
2
100
AcDbEntity
  8
0
100
AcDbLine
 10
152.9732809757621
 20
207.9527288462127
 30
0.0
 11
128.0826365385038
 21
207.9527288462127
 31
0.0
  0
LINE
  5
2235
330
2
100
AcDbEntity
  8
0
100
AcDbLine
 10
128.5606028615794
 20
207.9527288462127
 30
0.0
 11
153.0543625645052
 21
210.0956551473468
 31
0.0
  0
LINE
  5
2236
330
2
100
AcDbEntity
  8
0
100
AcDbLine
 10
128.4732809757621
 20
209.9527288462127
 30
0.0
 11
152.8800510790099
 21
212.0880445435304
 31
0.0
  0
LINE
  5
2237
330
2
100
AcDbEntity
  8
0
100
AcDbLine
 10
152.9732809757621
 20
205.9527288462127
 30
0.0
 11
128.0826365385033
 21
205.9527288462127
 31
0.0
  0
LINE
  5
2238
330
2
100
AcDbEntity
  8
0
100
AcDbLine
 10
128.4732809757621
 20
203.9527288462127
 30
0.0
 11
152.8733224937484
 21
201.818001823827
 31
0.0
  0
LINE
  5
2239
330
2
100
AcDbEntity
  8
0
100
AcDbLine
 10
128.5606028615794
 20
205.9527288462127
 30
0.0
 11
153.0476339792437
 21
203.8103912200103
 31
0.0
  0
ARC
  5
223A
330
2
100
AcDbEntity
  8
0
100
AcDbCircle
 10
140.574903145895
 20
238.1878555611808
 30
0.0
 40
20.0
100
AcDbArc
 50
259.9999999999931
 51
270.0
  0
ARC
  5
223B
330
2
100
AcDbEntity
  8
0
100
AcDbCircle
 10
140.4699167496634
 20
236.9878555611808
 30
0.0
 40
20.0
100
AcDbArc
 50
259.9999999999931
 51
270.0
  0
LINE
  5
223C
330
2
100
AcDbEntity
  8
0
100
AcDbLine
 10
146.8361343013172
 20
223.187855561181
 30
0.0
 11
130.9578673129659
 21
223.187855561181
 31
0.0
  0
LINE
  5
223D
330
2
100
AcDbEntity
  8
0
100
AcDbLine
 10
146.8361343013172
 20
221.987855561181
 30
0.0
 11
130.9578673129659
 21
221.9878555611808
 31
0.0
  0
ARC
  5
223E
330
2
100
AcDbEntity
  8
0
100
AcDbCircle
 10
140.5749031458941
 20
206.9878555611808
 30
0.0
 40
20.0
100
AcDbArc
 50
90.0
 51
100.0000000000067
  0
ARC
  5
223F
330
2
100
AcDbEntity
  8
0
100
AcDbCircle
 10
140.4699167496629
 20
208.187855561181
 30
0.0
 40
20.0
100
AcDbArc
 50
90.0
 51
100.0000000000067
  0
ARC
  5
2240
330
2
100
AcDbEntity
  8
0
100
AcDbCircle
 10
139.0335323456139
 20
240.6878555611808
 30
0.0
 40
20.0
100
AcDbArc
 50
265.0000000000002
 51
270.0
  0
ARC
  5
2241
330
2
100
AcDbEntity
  8
0
100
AcDbCircle
 10
138.9811392141228
 20
239.4878555611808
 30
0.0
 40
20.0
100
AcDbArc
 50
265.0000000000002
 51
270.0
  0
ARC
  5
2242
330
2
100
AcDbEntity
  8
0
100
AcDbCircle
 10
138.9811392141201
 20
205.6878555611808
 30
0.0
 40
20.0
100
AcDbArc
 50
90.0
 51
94.99999999999982
  0
ARC
  5
2243
330
2
100
AcDbEntity
  8
0
100
AcDbCircle
 10
139.0335323456102
 20
204.4878555611808
 30
0.0
 40
20.0
100
AcDbArc
 50
90.0
 51
94.99999999999982
  0
ARC
  5
2244
330
2
100
AcDbEntity
  8
0
100
AcDbCircle
 10
128.0826365385124
 20
249.9527288462127
 30
0.0
 40
46.0
100
AcDbArc
 50
250.5608481874007
 51
270.0
  0
LINE
  5
2245
330
2
100
AcDbEntity
  8
0
100
AcDbLine
 10
82.77696598059549
 20
196.7521683490208
 30
0.0
 11
82.77696598059549
 21
207.8263622107249
 31
0.0
  0
LINE
  5
2246
330
2
100
AcDbEntity
  8
0
100
AcDbLine
 10
78.77693247155105
 20
207.8137639711044
 30
0.0
 11
78.77692707115227
 21
197.1733210550923
 31
0.0
  0
LINE
  5
2247
330
2
100
AcDbEntity
  8
0
100
AcDbLine
 10
80.77692375476715
 20
207.8262917631141
 30
0.0
 11
80.77693270277052
 21
196.3311779847501
 31
0.0
  0
LINE
  5
2248
330
2
100
AcDbEntity
  8
0
100
AcDbLine
 10
76.77693613185386
 20
214.5885219410534
 30
0.0
 11
76.77692649510629
 21
196.7521203994665
 31
0.0
  0
LINE
  5
2249
330
2
100
AcDbEntity
  8
0
100
AcDbLine
 10
62.77704298059564
 20
197.1663765390435
 30
0.0
 11
62.77704298059564
 21
218.5885159979136
 31
0.0
  0
LINE
  5
224A
330
2
100
AcDbEntity
  8
0
100
AcDbLine
 10
61.77704298059564
 20
197.3332810411595
 30
0.0
 11
61.77704298059564
 21
218.5885159979136
 31
0.0
  0
LINE
  5
224B
330
2
100
AcDbEntity
  8
0
100
AcDbLine
 10
60.77704298059564
 20
196.7521100071178
 30
0.0
 11
60.77704298059564
 21
218.5885159979136
 31
0.0
  0
ARC
  5
224C
330
2
100
AcDbEntity
  8
0
100
AcDbCircle
 10
128.0826365385124
 20
249.9527288462127
 30
0.0
 40
44.0
100
AcDbArc
 50
250.5608481874007
 51
270.0
  0
LINE
  5
224D
330
2
100
AcDbEntity
  8
0
100
AcDbLine
 10
85.27696298059538
 20
157.846809609241
 30
0.0
 11
130.6007429805955
 21
158.2423666092408
 31
0.0
  0
LINE
  5
224E
330
2
100
AcDbEntity
  8
0
100
AcDbLine
 10
132.2769439805953
 20
175.4331666092409
 30
0.0
 11
82.77698198059544
 21
175.0011866092409
 31
0.0
  0
LINE
  5
224F
330
2
100
AcDbEntity
  8
0
100
AcDbLine
 10
131.7813459805953
 20
172.1129076092411
 30
0.0
 11
82.77696298059538
 21
171.685249609241
 31
0.0
  0
LINE
  5
2250
330
2
100
AcDbEntity
  8
0
100
AcDbLine
 10
82.77696298059538
 20
170.6798666092408
 30
0.0
 11
131.7813459805953
 21
170.252265609241
 31
0.0
  0
LINE
  5
2251
330
2
100
AcDbEntity
  8
0
100
AcDbLine
 10
131.2857249805953
 20
167.249385609241
 30
0.0
 11
82.77696298059538
 21
166.8261066092409
 31
0.0
  0
LINE
  5
2252
330
2
100
AcDbEntity
  8
0
100
AcDbLine
 10
82.77696298059538
 20
165.7010456092409
 30
0.0
 11
131.2857249805953
 21
165.2777676092409
 31
0.0
  0
LINE
  5
2253
330
2
100
AcDbEntity
  8
0
100
AcDbLine
 10
82.77696298059538
 20
174.1722066092411
 30
0.0
 11
132.2769439805953
 21
173.740287609241
 31
0.0
  0
LINE
  5
2254
330
2
100
AcDbEntity
  8
0
100
AcDbLine
 10
82.77696298059538
 20
172.207088609241
 30
0.0
 11
130.6007429805955
 21
172.624385609241
 31
0.0
  0
LINE
  5
2255
330
2
100
AcDbEntity
  8
0
100
AcDbLine
 10
82.77696298059538
 20
168.981868609241
 30
0.0
 11
130.6007429805955
 21
169.3991656092409
 31
0.0
  0
LINE
  5
2256
330
2
100
AcDbEntity
  8
0
100
AcDbLine
 10
131.2857249805953
 20
160.9945676092411
 30
0.0
 11
82.77696298059538
 21
160.571227609241
 31
0.0
  0
LINE
  5
2257
330
2
100
AcDbEntity
  8
0
100
AcDbLine
 10
82.77696298059538
 20
159.387065609241
 30
0.0
 11
131.2857249805953
 21
158.9638066092411
 31
0.0
  0
LINE
  5
2258
330
2
100
AcDbEntity
  8
0
100
AcDbLine
 10
82.77696298059538
 20
164.0521466092409
 30
0.0
 11
130.6007429805955
 21
164.4694866092408
 31
0.0
  0
LINE
  5
2259
330
2
100
AcDbEntity
  8
0
100
AcDbLine
 10
142.2769439805953
 20
178.575866609241
 30
0.0
 11
82.77696298059538
 21
178.0565686092409
 31
0.0
  0
ARC
  5
225A
330
2
100
AcDbEntity
  8
0
100
AcDbCircle
 10
82.77698198059544
 20
172.325866609241
 30
0.0
 40
8.0
100
AcDbArc
 50
138.5910030000031
 51
180.0
  0
LINE
  5
225B
330
2
100
AcDbEntity
  8
0
100
AcDbLine
 10
73.7770049805955
 20
161.825866609241
 30
0.0
 11
62.77704298059564
 21
161.737640032494
 31
0.0
  0
LINE
  5
225C
330
2
100
AcDbEntity
  8
0
100
AcDbLine
 10
74.27698198059545
 20
158.1021076092411
 30
0.0
 11
76.77694398059532
 21
158.1021076092411
 31
0.0
  0
LINE
  5
225D
330
2
100
AcDbEntity
  8
0
100
AcDbLine
 10
75.27698198059545
 20
163.530326609241
 30
0.0
 11
76.77694398059532
 21
163.530326609241
 31
0.0
  0
ARC
  5
225E
330
2
100
AcDbEntity
  8
0
100
AcDbCircle
 10
75.27698198059545
 20
162.530326609241
 30
0.0
 40
1.0
100
AcDbArc
 50
90.0
 51
180.0
  0
LINE
  5
225F
330
2
100
AcDbEntity
  8
0
100
AcDbLine
 10
82.77696298059538
 20
158.1021076092411
 30
0.0
 11
85.27696298059538
 21
158.1021076092411
 31
0.0
  0
ARC
  5
2260
330
2
100
AcDbEntity
  8
0
100
AcDbCircle
 10
76.7770049805955
 20
171.7952456092412
 30
0.0
 40
2.0
100
AcDbArc
 50
90.0
 51
180.0
  0
ARC
  5
2261
330
2
100
AcDbEntity
  8
HOJO
100
AcDbCircle
 10
62.02707298059533
 20
193.7521460024536
 30
0.0
 40
1.600781999999999
100
AcDbArc
 50
62.0628805447326
 51
141.3418685641803
  0
ARC
  5
2262
330
2
100
AcDbEntity
  8
HOJO
100
AcDbCircle
 10
62.02707298059533
 20
195.7521460024536
 30
0.0
 40
1.600781999999999
100
AcDbArc
 50
62.0628805447326
 51
141.3418685642128
  0
ARC
  5
2263
330
2
100
AcDbEntity
  8
HOJO
100
AcDbCircle
 10
78.02697767381835
 20
193.7521828703556
 30
0.0
 40
1.600781999999999
100
AcDbArc
 50
67.16467300000388
 51
141.3436203206141
  0
ARC
  5
2264
330
2
100
AcDbEntity
  8
HOJO
100
AcDbCircle
 10
81.52697767381836
 20
195.7521828703556
 30
0.0
 40
1.600781
100
AcDbArc
 50
247.1647030000065
 51
321.3410092286221
  0
LINE
  5
2265
330
2
100
AcDbEntity
  8
HOJO
100
AcDbLine
 10
78.64826967381816
 20
195.2274948703557
 30
0.0
 11
80.90586867381819
 21
194.2768868703556
 31
0.0
  0
ARC
  5
2266
330
2
100
AcDbEntity
  8
HOJO
100
AcDbCircle
 10
78.02697767381835
 20
195.7521828703556
 30
0.0
 40
1.600781999999999
100
AcDbArc
 50
67.16467300000388
 51
141.343558403885
  0
ARC
  5
2267
330
2
100
AcDbEntity
  8
HOJO
100
AcDbCircle
 10
81.52697767381836
 20
197.7521828703556
 30
0.0
 40
1.600781
100
AcDbArc
 50
247.1647030000065
 51
321.3401944016193
  0
LINE
  5
2268
330
2
100
AcDbEntity
  8
HOJO
100
AcDbLine
 10
78.64826967381816
 20
197.2274948703557
 30
0.0
 11
80.90586867381819
 21
196.2768868703556
 31
0.0
  0
ARC
  5
2269
330
2
100
AcDbEntity
  8
0
100
AcDbCircle
 10
131.2769439805953
 20
164.2777676092409
 30
0.0
 40
1.0
100
AcDbArc
 50
0.0
 51
89.49999999999542
  0
ARC
  5
226A
330
2
100
AcDbEntity
  8
0
100
AcDbCircle
 10
131.2769439805953
 20
157.9638066092411
 30
0.0
 40
1.0
100
AcDbArc
 50
0.0
 51
89.49999999999542
  0
ARC
  5
226B
330
2
100
AcDbEntity
  8
0
100
AcDbCircle
 10
131.2769439805953
 20
161.9945066092409
 30
0.0
 40
1.0
100
AcDbArc
 50
270.4999999999915
 51
0.0
  0
ARC
  5
226C
330
2
100
AcDbEntity
  8
0
100
AcDbCircle
 10
131.7769439805953
 20
169.752265609241
 30
0.0
 40
0.5
100
AcDbArc
 50
0.0
 51
89.49999999999542
  0
ARC
  5
226D
330
2
100
AcDbEntity
  8
0
100
AcDbCircle
 10
131.2769439805953
 20
168.249385609241
 30
0.0
 40
1.0
100
AcDbArc
 50
270.4999999999915
 51
0.0
  0
ARC
  5
226E
330
2
100
AcDbEntity
  8
0
100
AcDbCircle
 10
131.7769439805953
 20
172.6129076092411
 30
0.0
 40
0.5
100
AcDbArc
 50
270.4999999999915
 51
0.0
  0
LINE
  5
226F
330
2
100
AcDbEntity
  8
0
100
AcDbLine
 10
128.4732809757621
 20
203.9527288462127
 30
0.0
 11
128.0826365385029
 21
203.9527288462127
 31
0.0
  0
ARC
  5
2270
330
2
100
AcDbEntity
  8
0
100
AcDbCircle
 10
88.2093285527036
 20
172.8262279319815
 30
0.0
 40
40.0
100
AcDbArc
 50
70.56084818740075
 51
90.0
  0
LINE
  5
2271
330
2
100
AcDbEntity
  8
0
100
AcDbLine
 10
87.77695175930977
 20
219.5885159979136
 30
0.0
 11
121.19707408645
 21
219.5885159979136
 31
0.0
  0
LINE
  5
2272
330
2
100
AcDbEntity
  8
0
100
AcDbLine
 10
87.77693613185249
 20
225.5885159979134
 30
0.0
 11
121.1975974898474
 21
225.5885159979136
 31
0.0
  0
ARC
  5
2273
330
2
100
AcDbEntity
  8
0
100
AcDbCircle
 10
88.2093285527036
 20
172.8262279319815
 30
0.0
 40
42.0
100
AcDbArc
 50
70.56084818740075
 51
90.0
  0
ARC
  5
2274
330
2
100
AcDbEntity
  8
0
100
AcDbCircle
 10
88.2093285527036
 20
172.8262279319815
 30
0.0
 40
46.0
100
AcDbArc
 50
70.56084818740075
 51
90.0
  0
ARC
  5
2275
330
2
100
AcDbEntity
  8
0
100
AcDbCircle
 10
88.2093285527036
 20
172.8262279319815
 30
0.0
 40
44.0
100
AcDbArc
 50
70.56084818740075
 51
90.0
  0
ARC
  5
2276
330
2
100
AcDbEntity
  8
0
100
AcDbCircle
 10
87.77693613185249
 20
214.5885159979134
 30
0.0
 40
11.0
100
AcDbArc
 50
90.0
 51
179.9999690439179
  0
LINE
  5
2277
330
2
100
AcDbEntity
  8
0
100
AcDbLine
 10
55.82238223882098
 20
225.5883691643496
 30
0.0
 11
47.82155221042706
 21
226.2883510906317
 31
0.0
  0
LINE
  5
2278
330
2
100
AcDbEntity
  8
0
100
AcDbLine
 10
47.7343964676794
 20
225.2921563925401
 30
0.0
 11
47.82155221042706
 21
226.2883510906317
 31
0.0
  0
ARC
  5
2279
330
2
100
AcDbEntity
  8
0
100
AcDbCircle
 10
55.77704298059564
 20
218.5885159979136
 30
0.0
 40
7.0
100
AcDbArc
 50
0.0
 51
89.62889052766749
  0
LINE
  5
227A
330
2
100
AcDbEntity
  8
0
100
AcDbLine
 10
55.77704298059564
 20
223.5885159979136
 30
0.0
 11
47.70367486458155
 21
223.5885159979136
 31
0.0
  0
LINE
  5
227B
330
2
100
AcDbEntity
  8
0
100
AcDbLine
 10
55.77704298059564
 20
224.5885159979136
 30
0.0
 11
47.7343964676794
 21
225.2921563925401
 31
0.0
  0
LINE
  5
227C
330
2
100
AcDbEntity
  8
0
100
AcDbLine
 10
55.77704298059564
 20
224.5885159979136
 30
0.0
 11
47.70367486458155
 21
224.5885159979136
 31
0.0
  0
LINE
  5
227D
330
2
100
AcDbEntity
  8
0
100
AcDbLine
 10
47.70367486458155
 20
223.5885159979134
 30
0.0
 11
47.70367486458155
 21
224.5885159979136
 31
0.0
  0
ARC
  5
227E
330
2
100
AcDbEntity
  8
0
100
AcDbCircle
 10
55.77704298059564
 20
218.5885159979136
 30
0.0
 40
5.0
100
AcDbArc
 50
0.0
 51
90.0
  0
ARC
  5
227F
330
2
100
AcDbEntity
  8
0
100
AcDbCircle
 10
55.77704298059564
 20
218.5885159979136
 30
0.0
 40
6.0
100
AcDbArc
 50
0.0
 51
90.0
  0
ARC
  5
2280
330
2
100
AcDbEntity
  8
0
100
AcDbCircle
 10
87.77697156152692
 20
207.8262901267137
 30
0.0
 40
7.000047806854717
100
AcDbArc
 50
90.00012915873288
 51
179.9996881827295
  0
ARC
  5
2281
330
2
100
AcDbEntity
  8
0
100
AcDbCircle
 10
87.77697156152692
 20
207.8262901267137
 30
0.0
 40
9.000047806854716
100
AcDbArc
 50
90.00012915873288
 51
179.9996881827295
  0
ARC
  5
2282
330
2
100
AcDbEntity
  8
0
100
AcDbCircle
 10
87.77697156152692
 20
207.8262901267137
 30
0.0
 40
11.00004780685471
100
AcDbArc
 50
90.00012915873288
 51
179.9996881827295
  0
ARC
  5
2283
330
2
100
AcDbEntity
  8
0
100
AcDbCircle
 10
87.77694170337657
 20
207.8263622107249
 30
0.0
 40
4.999975722839786
100
AcDbArc
 50
89.99988476693856
 51
180.0002781972234
  0
LINE
  5
2284
330
2
100
AcDbEntity
  8
0
100
AcDbLine
 10
87.77678572466459
 20
214.8262279319815
 30
0.0
 11
88.2093285527036
 21
214.8262279319815
 31
0.0
  0
LINE
  5
2285
330
2
100
AcDbEntity
  8
0
100
AcDbLine
 10
87.77678572466459
 20
212.8262279319815
 30
0.0
 11
88.2093285527036
 21
212.8262279319815
 31
0.0
  0
ARC
  5
2286
330
2
100
AcDbEntity
  8
0
100
AcDbCircle
 10
87.77695175930977
 20
214.5885159979136
 30
0.0
 40
5.0
100
AcDbArc
 50
90.0
 51
131.9745559601705
  0
LINE
  5
2287
330
2
100
AcDbEntity
  8
0
100
AcDbLine
 10
87.77678572466459
 20
218.8262279319815
 30
0.0
 11
88.2093285527036
 21
218.8262279319815
 31
0.0
  0
LINE
  5
2288
330
2
100
AcDbEntity
  8
0
100
AcDbLine
 10
87.77678572466459
 20
216.8262279319815
 30
0.0
 11
88.2093285527036
 21
216.8262279319815
 31
0.0
  0
LINE
  5
2289
330
2
100
AcDbEntity
  8
0
100
AcDbLine
 10
129.1717926742986
 20
226.9502846520178
 30
0.0
 11
124.1262962903466
 21
225.8385159979136
 31
0.0
  0
LINE
  5
228A
330
2
100
AcDbEntity
  8
0
100
AcDbLine
 10
130.9578673129659
 20
225.6006449071105
 30
0.0
 11
137.1019395925555
 21
226.6840106214249
 31
0.0
  0
LINE
  5
228B
330
2
100
AcDbEntity
  8
0
100
AcDbLine
 10
130.9578673129659
 20
218.3918196771303
 30
0.0
 11
130.9578673129659
 21
226.7838914452318
 31
0.0
  0
ARC
  5
228C
330
2
100
AcDbEntity
  8
0
100
AcDbCircle
 10
128.0826365385124
 20
249.9527288462127
 30
0.0
 40
40.0
100
AcDbArc
 50
250.5608481874007
 51
270.0
  0
ARC
  5
228D
330
2
100
AcDbEntity
  8
0
100
AcDbCircle
 10
128.0826365385124
 20
249.9527288462127
 30
0.0
 40
42.0
100
AcDbArc
 50
250.5608481874007
 51
270.0
  0
LINE
  5
228E
330
2
100
AcDbEntity
  8
0
100
AcDbLine
 10
103.5183854522361
 20
216.2040192179247
 30
0.0
 11
114.7704131476144
 21
212.2329103366969
 31
0.0
  0
LINE
  5
228F
330
2
100
AcDbEntity
  8
0
100
AcDbLine
 10
102.8527742826914
 20
214.318028292449
 30
0.0
 11
114.1048019780697
 21
210.346919411221
 31
0.0
  0
LINE
  5
2290
330
2
100
AcDbEntity
  8
0
100
AcDbLine
 10
102.1871631131463
 20
212.4320373669734
 30
0.0
 11
113.4391908085245
 21
208.4609284857451
 31
0.0
  0
LINE
  5
2291
330
2
100
AcDbEntity
  8
0
100
AcDbLine
 10
101.5215519436015
 20
210.5460464414975
 30
0.0
 11
112.7735796389798
 21
206.5749375602695
 31
0.0
  0
LINE
  5
2292
330
2
100
AcDbEntity
  8
0
100
AcDbLine
 10
128.4732809757621
 20
209.9527288462127
 30
0.0
 11
128.0826365385124
 21
209.9527288462127
 31
0.0
  0
LINE
  5
2293
330
2
100
AcDbEntity
  8
0
100
AcDbLine
 10
128.1683622250981
 20
218.4047776508587
 30
0.0
 11
124.1012765530709
 21
219.3385159979136
 31
0.0
  0
LINE
  5
2294
330
2
100
AcDbEntity
  8
0
100
AcDbLine
 10
121.1912466571581
 20
219.5385159979136
 30
0.0
 11
121.1912466571581
 21
225.6385159979136
 31
0.0
  0
LINE
  5
2295
330
2
100
AcDbEntity
  8
0
100
AcDbLine
 10
121.3912466571579
 20
219.3385159979136
 30
0.0
 11
124.1012765530709
 21
219.3385159979136
 31
0.0
  0
ARC
  5
2296
330
2
100
AcDbEntity
  8
0
100
AcDbCircle
 10
121.3912466571579
 20
219.5385159979136
 30
0.0
 40
0.2
100
AcDbArc
 50
180.0
 51
270.0
  0
LINE
  5
2297
330
2
100
AcDbEntity
  8
0
100
AcDbLine
 10
121.3912466571579
 20
225.8385159979138
 30
0.0
 11
124.1262962903462
 21
225.8385159979136
 31
0.0
  0
ARC
  5
2298
330
2
100
AcDbEntity
  8
0
100
AcDbCircle
 10
121.3912466571579
 20
225.6385159979136
 30
0.0
 40
0.2
100
AcDbArc
 50
90.0
 51
180.0
  0
LINE
  5
2299
330
2
100
AcDbEntity
  8
0
100
AcDbLine
 10
137.2904174906608
 20
220.7639615993459
 30
0.0
 11
130.9578673129659
 21
221.3179879511033
 31
0.0
  0
LINE
  5
229A
330
2
100
AcDbEntity
  8
0
100
AcDbLine
 10
130.9548288635684
 20
218.357090041597
 30
0.0
 11
136.9969531963248
 21
217.2917005009367
 31
0.0
  0
LINE
  5
229B
330
2
100
AcDbEntity
  8
0
100
AcDbLine
 10
130.9578673129659
 20
219.5750662152513
 30
0.0
 11
137.101939592556
 21
218.4917005009367
 31
0.0
  0
LINE
  5
229C
330
2
100
AcDbEntity
  8
0
100
AcDbLine
 10
137.2380243591698
 20
219.5639615993459
 30
0.0
 11
130.9578673129659
 21
220.1134041460513
 31
0.0
  0
LINE
  5
229D
330
2
100
AcDbEntity
  8
0
100
AcDbLine
 10
128.5895553679712
 20
218.5710662532483
 30
0.0
 11
130.7231376774326
 21
218.1948581265278
 31
0.0
  0
ARC
  5
229E
330
2
100
AcDbEntity
  8
0
100
AcDbCircle
 10
128.2578673129661
 20
218.7946351110231
 30
0.0
 40
0.4
100
AcDbArc
 50
257.0698677002802
 51
326.0187104207677
  0
ARC
  5
229F
330
2
100
AcDbEntity
  8
0
100
AcDbCircle
 10
130.7578673129661
 20
218.3918196771303
 30
0.0
 40
0.2
100
AcDbArc
 50
259.9999999999931
 51
0.0
  0
LINE
  5
22A0
330
2
100
AcDbEntity
  8
0
100
AcDbLine
 10
137.2904174906567
 20
224.4117495230157
 30
0.0
 11
130.9578673129659
 21
223.8577231712588
 31
0.0
  0
LINE
  5
22A1
330
2
100
AcDbEntity
  8
0
100
AcDbLine
 10
137.238024359167
 20
225.6117495230157
 30
0.0
 11
130.9578673129659
 21
225.0623069763107
 31
0.0
  0
LINE
  5
22A2
330
2
100
AcDbEntity
  8
0
100
AcDbLine
 10
130.9548288635684
 20
226.818621080765
 30
0.0
 11
136.9969531963244
 21
227.8840106214252
 31
0.0
  0
LINE
  5
22A3
330
2
100
AcDbEntity
  8
0
100
AcDbLine
 10
129.5909044180508
 20
226.7812097237497
 30
0.0
 11
130.7231376774326
 21
226.9808529958343
 31
0.0
  0
ARC
  5
22A4
330
2
100
AcDbEntity
  8
0
100
AcDbCircle
 10
129.2578673129661
 20
226.5596554716198
 30
0.0
 40
0.4
100
AcDbArc
 50
33.63399402201766
 51
102.4264747477324
  0
ARC
  5
22A5
330
2
100
AcDbEntity
  8
0
100
AcDbCircle
 10
130.7578673129661
 20
226.7838914452318
 30
0.0
 40
0.2
100
AcDbArc
 50
0.0
 51
100.0000000000067
  0
LINE
  5
22A6
330
2
100
AcDbEntity
  8
0
100
AcDbLine
 10
158.0260711789758
 20
203.073688451695
 30
0.0
 11
153.028215841681
 21
203.5109441356508
 31
0.0
  0
LINE
  5
22A7
330
2
100
AcDbEntity
  8
0
100
AcDbLine
 10
157.9786848221781
 20
202.7264972775806
 30
0.0
 11
152.9977113317193
 21
203.1622759913186
 31
0.0
  0
LINE
  5
22A8
330
2
100
AcDbEntity
  8
0
100
AcDbLine
 10
157.887171292293
 20
201.6804928445842
 30
0.0
 11
152.9061978018342
 21
202.1162715583225
 31
0.0
  0
LINE
  5
22A9
330
2
100
AcDbEntity
  8
0
100
AcDbLine
 10
157.9176758022547
 20
202.0291609889163
 30
0.0
 11
152.9367023117958
 21
202.4649397026546
 31
0.0
  0
LINE
  5
22AA
330
2
100
AcDbEntity
  8
0
100
AcDbLine
 10
157.9481803122164
 20
202.3778291332484
 30
0.0
 11
152.9672068217575
 21
202.8136078469867
 31
0.0
  0
ARC
  5
22AB
330
2
100
AcDbEntity
  8
0
100
AcDbCircle
 10
151.4361343013171
 20
226.1878555611811
 30
0.0
 40
0.1
100
AcDbArc
 50
180.0
 51
270.0
  0
LINE
  5
22AC
330
2
100
AcDbEntity
  8
0
100
AcDbLine
 10
156.3361343013172
 20
226.3378555611809
 30
0.0
 11
156.3361343013172
 21
225.9878555611808
 31
0.0
  0
LINE
  5
22AD
330
2
100
AcDbEntity
  8
0
100
AcDbLine
 10
146.8361343013172
 20
228.8378555611809
 30
0.0
 11
146.8361343013172
 21
216.3378555611809
 31
0.0
  0
LINE
  5
22AE
330
2
100
AcDbEntity
  8
0
100
AcDbLine
 10
148.8361343013172
 20
228.8378555611809
 30
0.0
 11
148.8361343013172
 21
216.3378555611809
 31
0.0
  0
LINE
  5
22AF
330
2
100
AcDbEntity
  8
0
100
AcDbLine
 10
158.3361343013172
 20
228.8378555611809
 30
0.0
 11
158.3361343013172
 21
216.3378555611809
 31
0.0
  0
LINE
  5
22B0
330
2
100
AcDbEntity
  8
0
100
AcDbLine
 10
158.3361343013172
 20
228.8378555611809
 30
0.0
 11
158.3361343013172
 21
216.3378555611809
 31
0.0
  0
LINE
  5
22B1
330
2
100
AcDbEntity
  8
0
100
AcDbLine
 10
157.9732809757621
 20
206.9527288462127
 30
0.0
 11
152.9732809757621
 21
206.9527288462127
 31
0.0
  0
LINE
  5
22B2
330
2
100
AcDbEntity
  8
0
100
AcDbLine
 10
157.9732809757621
 20
206.6027288462128
 30
0.0
 11
152.9732809757621
 21
206.6027288462128
 31
0.0
  0
LINE
  5
22B3
330
2
100
AcDbEntity
  8
0
100
AcDbLine
 10
157.9732809757621
 20
207.3027288462126
 30
0.0
 11
152.9732809757621
 21
207.3027288462126
 31
0.0
  0
LINE
  5
22B4
330
2
100
AcDbEntity
  8
0
100
AcDbLine
 10
157.9732809757621
 20
207.6527288462125
 30
0.0
 11
152.9732809757621
 21
207.6527288462125
 31
0.0
  0
LINE
  5
22B5
330
2
100
AcDbEntity
  8
0
100
AcDbLine
 10
157.9732809757621
 20
206.2527288462126
 30
0.0
 11
152.9732809757621
 21
206.2527288462126
 31
0.0
  0
LINE
  5
22B6
330
2
100
AcDbEntity
  8
0
100
AcDbLine
 10
152.9732809757621
 20
205.9527288462127
 30
0.0
 11
152.9732809757621
 21
207.9527288462127
 31
0.0
  0
LINE
  5
22B7
330
2
100
AcDbEntity
  8
0
100
AcDbLine
 10
158.0260711789758
 20
210.8317692407301
 30
0.0
 11
153.028215841681
 21
210.3945135567741
 31
0.0
  0
LINE
  5
22B8
330
2
100
AcDbEntity
  8
0
100
AcDbLine
 10
157.9786848221781
 20
211.1789604148448
 30
0.0
 11
152.9977113317193
 21
210.7431817011065
 31
0.0
  0
LINE
  5
22B9
330
2
100
AcDbEntity
  8
0
100
AcDbLine
 10
157.887171292293
 20
212.2249648478409
 30
0.0
 11
152.9061978018342
 21
211.7891861341027
 31
0.0
  0
LINE
  5
22BA
330
2
100
AcDbEntity
  8
0
100
AcDbLine
 10
157.9481803122164
 20
211.5276285591767
 30
0.0
 11
152.9672068217575
 21
211.0918498454384
 31
0.0
  0
LINE
  5
22BB
330
2
100
AcDbEntity
  8
0
100
AcDbLine
 10
157.9176758022547
 20
211.876296703509
 30
0.0
 11
152.9367023117958
 21
211.4405179897707
 31
0.0
  0
LINE
  5
22BC
330
2
100
AcDbEntity
  8
0
100
AcDbLine
 10
154.7361343013172
 20
219.0878555611809
 30
0.0
 11
151.4361343013171
 21
219.0878555611809
 31
0.0
  0
LINE
  5
22BD
330
2
100
AcDbEntity
  8
0
100
AcDbLine
 10
154.7361343013172
 20
221.0878555611809
 30
0.0
 11
151.4361343013171
 21
221.0878555611809
 31
0.0
  0
LINE
  5
22BE
330
2
100
AcDbEntity
  8
0
100
AcDbLine
 10
154.7361343013172
 20
221.5878555611809
 30
0.0
 11
151.4361343013171
 21
221.5878555611809
 31
0.0
  0
LINE
  5
22BF
330
2
100
AcDbEntity
  8
0
100
AcDbLine
 10
154.7361343013172
 20
223.5878555611809
 30
0.0
 11
151.4361343013171
 21
223.5878555611809
 31
0.0
  0
LINE
  5
22C0
330
2
100
AcDbEntity
  8
0
100
AcDbLine
 10
154.7361343013172
 20
224.0878555611809
 30
0.0
 11
151.4361343013171
 21
224.0878555611809
 31
0.0
  0
LINE
  5
22C1
330
2
100
AcDbEntity
  8
0
100
AcDbLine
 10
154.7361343013172
 20
226.0878555611809
 30
0.0
 11
151.4361343013171
 21
226.0878555611809
 31
0.0
  0
LINE
  5
22C2
330
2
100
AcDbEntity
  8
0
100
AcDbLine
 10
154.7361343013172
 20
218.5878555611809
 30
0.0
 11
151.4361343013171
 21
218.5878555611809
 31
0.0
  0
LINE
  5
22C3
330
2
100
AcDbEntity
  8
0
100
AcDbLine
 10
154.7361343013172
 20
216.5878555611809
 30
0.0
 11
151.4361343013171
 21
216.5878555611809
 31
0.0
  0
LINE
  5
22C4
330
2
100
AcDbEntity
  8
0
100
AcDbLine
 10
158.3361343013172
 20
216.3378555611809
 30
0.0
 11
146.8361343013172
 21
216.3378555611809
 31
0.0
  0
LINE
  5
22C5
330
2
100
AcDbEntity
  8
0
100
AcDbLine
 10
146.8361343013172
 20
219.4878555611808
 30
0.0
 11
138.9811392141228
 21
219.4878555611808
 31
0.0
  0
LINE
  5
22C6
330
2
100
AcDbEntity
  8
0
100
AcDbLine
 10
146.8361343013172
 20
220.687855561181
 30
0.0
 11
139.0335323456143
 21
220.6878555611808
 31
0.0
  0
LINE
  5
22C7
330
2
100
AcDbEntity
  8
0
100
AcDbLine
 10
146.8361343013172
 20
218.187855561181
 30
0.0
 11
140.574903145895
 21
218.1878555611808
 31
0.0
  0
LINE
  5
22C8
330
2
100
AcDbEntity
  8
0
100
AcDbLine
 10
146.8361343013172
 20
216.987855561181
 30
0.0
 11
140.4699167496634
 21
216.9878555611808
 31
0.0
  0
LINE
  5
22C9
330
2
100
AcDbEntity
  8
0
100
AcDbLine
 10
151.3361343013172
 20
218.8378555611809
 30
0.0
 11
151.3361343013172
 21
218.9878555611808
 31
0.0
  0
ARC
  5
22CA
330
2
100
AcDbEntity
  8
0
100
AcDbCircle
 10
151.4361343013171
 20
218.9878555611808
 30
0.0
 40
0.1
100
AcDbArc
 50
90.0
 51
180.0
  0
ARC
  5
22CB
330
2
100
AcDbEntity
  8
0
100
AcDbCircle
 10
151.4361343013171
 20
218.687855561181
 30
0.0
 40
0.1
100
AcDbArc
 50
180.0
 51
270.0
  0
LINE
  5
22CC
330
2
100
AcDbEntity
  8
0
100
AcDbLine
 10
151.3361343013172
 20
216.4878555611808
 30
0.0
 11
151.3361343013172
 21
216.3378555611809
 31
0.0
  0
ARC
  5
22CD
330
2
100
AcDbEntity
  8
0
100
AcDbCircle
 10
151.4361343013171
 20
216.4878555611808
 30
0.0
 40
0.1
100
AcDbArc
 50
90.0
 51
180.0
  0
LINE
  5
22CE
330
2
100
AcDbEntity
  8
0
100
AcDbLine
 10
151.3361343013172
 20
218.8378555611809
 30
0.0
 11
151.3361343013172
 21
218.687855561181
 31
0.0
  0
LINE
  5
22CF
330
2
100
AcDbEntity
  8
0
100
AcDbLine
 10
146.8361343013172
 20
224.4878555611808
 30
0.0
 11
139.0335323456098
 21
224.4878555611808
 31
0.0
  0
LINE
  5
22D0
330
2
100
AcDbEntity
  8
0
100
AcDbLine
 10
146.8361343013172
 20
225.6878555611808
 30
0.0
 11
138.9811392141197
 21
225.6878555611808
 31
0.0
  0
ARC
  5
22D1
330
2
100
AcDbEntity
  8
0
100
AcDbCircle
 10
151.4361343013171
 20
221.187855561181
 30
0.0
 40
0.1
100
AcDbArc
 50
180.0
 51
270.0
  0
LINE
  5
22D2
330
2
100
AcDbEntity
  8
0
100
AcDbLine
 10
151.3361343013172
 20
221.187855561181
 30
0.0
 11
151.3361343013172
 21
221.4878555611808
 31
0.0
  0
ARC
  5
22D3
330
2
100
AcDbEntity
  8
0
100
AcDbCircle
 10
151.4361343013171
 20
221.4878555611808
 30
0.0
 40
0.1
100
AcDbArc
 50
90.0
 51
180.0
  0
ARC
  5
22D4
330
2
100
AcDbEntity
  8
0
100
AcDbCircle
 10
151.4361343013171
 20
223.9878555611808
 30
0.0
 40
0.1
100
AcDbArc
 50
90.0
 51
180.0
  0
LINE
  5
22D5
330
2
100
AcDbEntity
  8
0
100
AcDbLine
 10
151.3361343013172
 20
223.9878555611808
 30
0.0
 11
151.3361343013172
 21
223.6878555611811
 31
0.0
  0
ARC
  5
22D6
330
2
100
AcDbEntity
  8
0
100
AcDbCircle
 10
151.4361343013171
 20
223.6878555611811
 30
0.0
 40
0.1
100
AcDbArc
 50
180.0
 51
270.0
  0
LINE
  5
22D7
330
2
100
AcDbEntity
  8
0
100
AcDbLine
 10
156.3361343013172
 20
221.3378555611809
 30
0.0
 11
156.3361343013172
 21
220.9878555611808
 31
0.0
  0
ARC
  5
22D8
330
2
100
AcDbEntity
  8
0
100
AcDbCircle
 10
154.7361343013172
 20
220.9878555611808
 30
0.0
 40
0.1
100
AcDbArc
 50
0.0
 51
90.0
  0
LINE
  5
22D9
330
2
100
AcDbEntity
  8
0
100
AcDbLine
 10
157.2361343013172
 20
220.8878555611809
 30
0.0
 11
156.4361343013171
 21
220.8878555611809
 31
0.0
  0
LINE
  5
22DA
330
2
100
AcDbEntity
  8
0
100
AcDbLine
 10
157.2361343013172
 20
219.287855561181
 30
0.0
 11
156.4361343013171
 21
219.287855561181
 31
0.0
  0
ARC
  5
22DB
330
2
100
AcDbEntity
  8
0
100
AcDbCircle
 10
156.4361343013171
 20
220.9878555611808
 30
0.0
 40
0.1
100
AcDbArc
 50
180.0
 51
270.0
  0
ARC
  5
22DC
330
2
100
AcDbEntity
  8
0
100
AcDbCircle
 10
156.4361343013171
 20
219.1878555611811
 30
0.0
 40
0.1
100
AcDbArc
 50
90.0
 51
180.0
  0
LINE
  5
22DD
330
2
100
AcDbEntity
  8
0
100
AcDbLine
 10
156.3361343013172
 20
218.8378555611809
 30
0.0
 11
156.3361343013172
 21
219.1878555611811
 31
0.0
  0
ARC
  5
22DE
330
2
100
AcDbEntity
  8
0
100
AcDbCircle
 10
157.2361343013172
 20
220.7878555611809
 30
0.0
 40
0.1
100
AcDbArc
 50
0.0
 51
90.0
  0
ARC
  5
22DF
330
2
100
AcDbEntity
  8
0
100
AcDbCircle
 10
157.2361343013172
 20
219.3878555611809
 30
0.0
 40
0.1
100
AcDbArc
 50
270.0
 51
0.0
  0
LINE
  5
22E0
330
2
100
AcDbEntity
  8
0
100
AcDbLine
 10
157.3361343013172
 20
219.3878555611809
 30
0.0
 11
157.3361343013172
 21
220.7878555611809
 31
0.0
  0
ARC
  5
22E1
330
2
100
AcDbEntity
  8
0
100
AcDbCircle
 10
154.7361343013172
 20
219.1878555611811
 30
0.0
 40
0.1
100
AcDbArc
 50
270.0
 51
0.0
  0
LINE
  5
22E2
330
2
100
AcDbEntity
  8
0
100
AcDbLine
 10
154.8361343013171
 20
219.1878555611811
 30
0.0
 11
154.8361343013171
 21
220.9878555611808
 31
0.0
  0
ARC
  5
22E3
330
2
100
AcDbEntity
  8
0
100
AcDbCircle
 10
154.7361343013172
 20
218.4878555611808
 30
0.0
 40
0.1
100
AcDbArc
 50
0.0
 51
90.0
  0
LINE
  5
22E4
330
2
100
AcDbEntity
  8
0
100
AcDbLine
 10
157.2361343013172
 20
218.3878555611808
 30
0.0
 11
156.4361343013171
 21
218.3878555611808
 31
0.0
  0
ARC
  5
22E5
330
2
100
AcDbEntity
  8
0
100
AcDbCircle
 10
156.4361343013171
 20
218.4878555611808
 30
0.0
 40
0.1
100
AcDbArc
 50
180.0
 51
270.0
  0
ARC
  5
22E6
330
2
100
AcDbEntity
  8
0
100
AcDbCircle
 10
157.2361343013172
 20
218.2878555611809
 30
0.0
 40
0.1
100
AcDbArc
 50
0.0
 51
90.0
  0
ARC
  5
22E7
330
2
100
AcDbEntity
  8
0
100
AcDbCircle
 10
154.7361343013172
 20
216.687855561181
 30
0.0
 40
0.1
100
AcDbArc
 50
270.0
 51
0.0
  0
LINE
  5
22E8
330
2
100
AcDbEntity
  8
0
100
AcDbLine
 10
157.2361343013172
 20
216.787855561181
 30
0.0
 11
156.4361343013171
 21
216.787855561181
 31
0.0
  0
ARC
  5
22E9
330
2
100
AcDbEntity
  8
0
100
AcDbCircle
 10
156.4361343013171
 20
216.687855561181
 30
0.0
 40
0.1
100
AcDbArc
 50
90.0
 51
180.0
  0
LINE
  5
22EA
330
2
100
AcDbEntity
  8
0
100
AcDbLine
 10
156.3361343013172
 20
216.3378555611809
 30
0.0
 11
156.3361343013172
 21
216.687855561181
 31
0.0
  0
ARC
  5
22EB
330
2
100
AcDbEntity
  8
0
100
AcDbCircle
 10
157.2361343013172
 20
216.8878555611809
 30
0.0
 40
0.1
100
AcDbArc
 50
270.0
 51
0.0
  0
LINE
  5
22EC
330
2
100
AcDbEntity
  8
0
100
AcDbLine
 10
154.8361343013171
 20
218.4878555611808
 30
0.0
 11
154.8361343013171
 21
216.687855561181
 31
0.0
  0
LINE
  5
22ED
330
2
100
AcDbEntity
  8
0
100
AcDbLine
 10
157.3361343013172
 20
218.2878555611809
 30
0.0
 11
157.3361343013172
 21
216.8878555611809
 31
0.0
  0
LINE
  5
22EE
330
2
100
AcDbEntity
  8
0
100
AcDbLine
 10
156.3361343013172
 20
218.8378555611809
 30
0.0
 11
156.3361343013172
 21
218.4878555611808
 31
0.0
  0
LINE
  5
22EF
330
2
100
AcDbEntity
  8
0
100
AcDbLine
 10
157.3361343013172
 20
222.5878555611809
 30
0.0
 11
157.3361343013172
 21
221.8878555611809
 31
0.0
  0
LINE
  5
22F0
330
2
100
AcDbEntity
  8
0
100
AcDbLine
 10
154.8361343013171
 20
221.6878555611811
 30
0.0
 11
154.8361343013171
 21
222.5878555611809
 31
0.0
  0
LINE
  5
22F1
330
2
100
AcDbEntity
  8
0
100
AcDbLine
 10
157.2361343013172
 20
221.787855561181
 30
0.0
 11
156.4361343013171
 21
221.787855561181
 31
0.0
  0
LINE
  5
22F2
330
2
100
AcDbEntity
  8
0
100
AcDbLine
 10
156.3361343013172
 20
221.3378555611809
 30
0.0
 11
156.3361343013172
 21
221.6878555611811
 31
0.0
  0
ARC
  5
22F3
330
2
100
AcDbEntity
  8
0
100
AcDbCircle
 10
156.4361343013171
 20
221.6878555611811
 30
0.0
 40
0.1
100
AcDbArc
 50
90.0
 51
180.0
  0
ARC
  5
22F4
330
2
100
AcDbEntity
  8
0
100
AcDbCircle
 10
157.2361343013172
 20
221.8878555611809
 30
0.0
 40
0.1
100
AcDbArc
 50
270.0
 51
0.0
  0
ARC
  5
22F5
330
2
100
AcDbEntity
  8
0
100
AcDbCircle
 10
154.7361343013172
 20
221.6878555611811
 30
0.0
 40
0.1
100
AcDbArc
 50
270.0
 51
0.0
  0
LINE
  5
22F6
330
2
100
AcDbEntity
  8
0
100
AcDbLine
 10
156.3361343013172
 20
223.8378555611809
 30
0.0
 11
156.3361343013172
 21
223.4878555611808
 31
0.0
  0
LINE
  5
22F7
330
2
100
AcDbEntity
  8
0
100
AcDbLine
 10
157.2361343013172
 20
223.3878555611809
 30
0.0
 11
156.4361343013171
 21
223.3878555611809
 31
0.0
  0
ARC
  5
22F8
330
2
100
AcDbEntity
  8
0
100
AcDbCircle
 10
156.4361343013171
 20
223.4878555611808
 30
0.0
 40
0.1
100
AcDbArc
 50
180.0
 51
270.0
  0
LINE
  5
22F9
330
2
100
AcDbEntity
  8
0
100
AcDbLine
 10
157.2361343013172
 20
225.8878555611809
 30
0.0
 11
156.4361343013171
 21
225.8878555611809
 31
0.0
  0
LINE
  5
22FA
330
2
100
AcDbEntity
  8
0
100
AcDbLine
 10
157.2361343013172
 20
224.287855561181
 30
0.0
 11
156.4361343013171
 21
224.287855561181
 31
0.0
  0
ARC
  5
22FB
330
2
100
AcDbEntity
  8
0
100
AcDbCircle
 10
156.4361343013171
 20
224.1878555611811
 30
0.0
 40
0.1
100
AcDbArc
 50
90.0
 51
180.0
  0
LINE
  5
22FC
330
2
100
AcDbEntity
  8
0
100
AcDbLine
 10
156.3361343013172
 20
223.8378555611809
 30
0.0
 11
156.3361343013172
 21
224.1878555611811
 31
0.0
  0
ARC
  5
22FD
330
2
100
AcDbEntity
  8
0
100
AcDbCircle
 10
156.4361343013171
 20
225.9878555611808
 30
0.0
 40
0.1
100
AcDbArc
 50
180.0
 51
270.0
  0
ARC
  5
22FE
330
2
100
AcDbEntity
  8
0
100
AcDbCircle
 10
157.2361343013172
 20
225.787855561181
 30
0.0
 40
0.1
100
AcDbArc
 50
0.0
 51
90.0
  0
LINE
  5
22FF
330
2
100
AcDbEntity
  8
0
100
AcDbLine
 10
157.3361343013172
 20
225.787855561181
 30
0.0
 11
157.3361343013172
 21
224.3878555611809
 31
0.0
  0
ARC
  5
2300
330
2
100
AcDbEntity
  8
0
100
AcDbCircle
 10
157.2361343013172
 20
224.3878555611809
 30
0.0
 40
0.1
100
AcDbArc
 50
270.0
 51
0.0
  0
LINE
  5
2301
330
2
100
AcDbEntity
  8
0
100
AcDbLine
 10
157.3361343013172
 20
222.5878555611809
 30
0.0
 11
157.3361343013172
 21
223.287855561181
 31
0.0
  0
ARC
  5
2302
330
2
100
AcDbEntity
  8
0
100
AcDbCircle
 10
157.2361343013172
 20
223.287855561181
 30
0.0
 40
0.1
100
AcDbArc
 50
0.0
 51
90.0
  0
ARC
  5
2303
330
2
100
AcDbEntity
  8
0
100
AcDbCircle
 10
154.7361343013172
 20
223.4878555611808
 30
0.0
 40
0.1
100
AcDbArc
 50
0.0
 51
90.0
  0
ARC
  5
2304
330
2
100
AcDbEntity
  8
0
100
AcDbCircle
 10
154.7361343013172
 20
224.1878555611811
 30
0.0
 40
0.1
100
AcDbArc
 50
270.0
 51
0.0
  0
ARC
  5
2305
330
2
100
AcDbEntity
  8
0
100
AcDbCircle
 10
154.7361343013172
 20
225.9878555611808
 30
0.0
 40
0.1
100
AcDbArc
 50
0.0
 51
90.0
  0
LINE
  5
2306
330
2
100
AcDbEntity
  8
0
100
AcDbLine
 10
154.8361343013171
 20
225.9878555611808
 30
0.0
 11
154.8361343013171
 21
224.1878555611811
 31
0.0
  0
LINE
  5
2307
330
2
100
AcDbEntity
  8
0
100
AcDbLine
 10
154.8361343013171
 20
223.4878555611808
 30
0.0
 11
154.8361343013171
 21
222.5878555611809
 31
0.0
  0
LINE
  5
2308
330
2
100
AcDbEntity
  8
0
100
AcDbLine
 10
154.7361343013172
 20
228.5878555611809
 30
0.0
 11
151.4361343013171
 21
228.5878555611809
 31
0.0
  0
LINE
  5
2309
330
2
100
AcDbEntity
  8
0
100
AcDbLine
 10
154.7361343013172
 20
226.5878555611809
 30
0.0
 11
151.4361343013171
 21
226.5878555611809
 31
0.0
  0
LINE
  5
230A
330
2
100
AcDbEntity
  8
0
100
AcDbLine
 10
158.3361343013172
 20
228.8378555611809
 30
0.0
 11
146.8361343013172
 21
228.8378555611809
 31
0.0
  0
LINE
  5
230B
330
2
100
AcDbEntity
  8
0
100
AcDbLine
 10
146.8361343013172
 20
228.1878555611811
 30
0.0
 11
140.4699167496629
 21
228.1878555611811
 31
0.0
  0
LINE
  5
230C
330
2
100
AcDbEntity
  8
0
100
AcDbLine
 10
146.8361343013172
 20
226.9878555611808
 30
0.0
 11
140.5749031458936
 21
226.9878555611808
 31
0.0
  0
LINE
  5
230D
330
2
100
AcDbEntity
  8
0
100
AcDbLine
 10
151.3361343013172
 20
228.687855561181
 30
0.0
 11
151.3361343013172
 21
228.8378555611809
 31
0.0
  0
ARC
  5
230E
330
2
100
AcDbEntity
  8
0
100
AcDbCircle
 10
151.4361343013171
 20
228.687855561181
 30
0.0
 40
0.1
100
AcDbArc
 50
180.0
 51
270.0
  0
LINE
  5
230F
330
2
100
AcDbEntity
  8
0
100
AcDbLine
 10
151.3361343013172
 20
226.3378555611809
 30
0.0
 11
151.3361343013172
 21
226.1878555611811
 31
0.0
  0
ARC
  5
2310
330
2
100
AcDbEntity
  8
0
100
AcDbCircle
 10
151.4361343013171
 20
226.4878555611808
 30
0.0
 40
0.1
100
AcDbArc
 50
90.0
 51
180.0
  0
LINE
  5
2311
330
2
100
AcDbEntity
  8
0
100
AcDbLine
 10
151.3361343013172
 20
226.3378555611809
 30
0.0
 11
151.3361343013172
 21
226.4878555611808
 31
0.0
  0
LINE
  5
2312
330
2
100
AcDbEntity
  8
0
100
AcDbLine
 10
157.2361343013172
 20
228.3878555611809
 30
0.0
 11
156.4361343013171
 21
228.3878555611809
 31
0.0
  0
LINE
  5
2313
330
2
100
AcDbEntity
  8
0
100
AcDbLine
 10
156.3361343013172
 20
228.8378555611809
 30
0.0
 11
156.3361343013172
 21
228.4878555611808
 31
0.0
  0
ARC
  5
2314
330
2
100
AcDbEntity
  8
0
100
AcDbCircle
 10
156.4361343013171
 20
228.4878555611808
 30
0.0
 40
0.1
100
AcDbArc
 50
180.0
 51
270.0
  0
ARC
  5
2315
330
2
100
AcDbEntity
  8
0
100
AcDbCircle
 10
157.2361343013172
 20
228.287855561181
 30
0.0
 40
0.1
100
AcDbArc
 50
0.0
 51
90.0
  0
ARC
  5
2316
330
2
100
AcDbEntity
  8
0
100
AcDbCircle
 10
154.7361343013172
 20
228.4878555611808
 30
0.0
 40
0.1
100
AcDbArc
 50
0.0
 51
90.0
  0
LINE
  5
2317
330
2
100
AcDbEntity
  8
0
100
AcDbLine
 10
157.2361343013172
 20
226.7878555611809
 30
0.0
 11
156.4361343013171
 21
226.7878555611809
 31
0.0
  0
ARC
  5
2318
330
2
100
AcDbEntity
  8
0
100
AcDbCircle
 10
156.4361343013171
 20
226.687855561181
 30
0.0
 40
0.1
100
AcDbArc
 50
90.0
 51
180.0
  0
LINE
  5
2319
330
2
100
AcDbEntity
  8
0
100
AcDbLine
 10
156.3361343013172
 20
226.3378555611809
 30
0.0
 11
156.3361343013172
 21
226.687855561181
 31
0.0
  0
ARC
  5
231A
330
2
100
AcDbEntity
  8
0
100
AcDbCircle
 10
157.2361343013172
 20
226.8878555611809
 30
0.0
 40
0.1
100
AcDbArc
 50
270.0
 51
0.0
  0
ARC
  5
231B
330
2
100
AcDbEntity
  8
0
100
AcDbCircle
 10
154.7361343013172
 20
226.687855561181
 30
0.0
 40
0.1
100
AcDbArc
 50
270.0
 51
0.0
  0
LINE
  5
231C
330
2
100
AcDbEntity
  8
0
100
AcDbLine
 10
157.3361343013172
 20
226.8878555611809
 30
0.0
 11
157.3361343013172
 21
228.287855561181
 31
0.0
  0
LINE
  5
231D
330
2
100
AcDbEntity
  8
0
100
AcDbLine
 10
154.8361343013171
 20
226.687855561181
 30
0.0
 11
154.8361343013171
 21
228.4878555611808
 31
0.0
  0
LINE
  5
231E
330
2
100
AcDbEntity
  8
0
100
AcDbLine
 10
152.8800510790099
 20
212.0880445435304
 30
0.0
 11
153.0543625645052
 21
210.0956551473468
 31
0.0
  0
LINE
  5
231F
330
2
100
AcDbEntity
  8
0
100
AcDbLine
 10
152.8733224937484
 20
201.818001823827
 30
0.0
 11
153.0476339792437
 21
203.8103912200103
 31
0.0
  0
ARC
  5
2320
330
2
100
AcDbEntity
  8
0
100
AcDbCircle
 10
61.77704298059564
 20
141.5276952682588
 30
0.0
 40
1.0
100
AcDbArc
 50
180.0
 51
0.0
  0
LINE
  5
2321
330
2
100
AcDbEntity
  8
0
100
AcDbLine
 10
74.77698198059556
 20
79.82587174525929
 30
0.0
 11
73.77694398059549
 21
80.49249307590754
 31
0.0
  0
LINE
  5
2322
330
2
100
AcDbEntity
  8
0
100
AcDbLine
 10
74.27698198059539
 20
162.4925254732227
 30
0.0
 11
73.77694398059549
 21
162.1592021425744
 31
0.0
  0
LINE
  5
2323
330
2
100
AcDbEntity
  8
0
100
AcDbLine
 10
73.77694398059549
 20
162.1592021425744
 30
0.0
 11
73.77694398059549
 21
80.49249307590754
 31
0.0
  0
LINE
  5
2324
330
2
100
AcDbEntity
  8
0
100
AcDbLine
 10
74.27698198059545
 20
162.530326609241
 30
0.0
 11
74.27698198059545
 21
123.1307336092409
 31
0.0
  0
ENDSEC
  0
SECTION
  2
OBJECTS
  0
DICTIONARY
  5
7
330
0
100
AcDbDictionary
  3
ACAD_COLOR
350
1DCA
  3
ACAD_GROUP
350
75
  3
ACAD_LAYOUT
350
61
  3
ACAD_MATERIAL
350
1DA0
  3
ACAD_MLEADERSTYLE
350
1DEF
  3
ACAD_MLINESTYLE
350
76
  3
ACAD_PLOTSETTINGS
350
77
  3
ACAD_PLOTSTYLENAME
350
6
  3
ACAD_SCALELIST
350
1DCD
  3
ACAD_TABLESTYLE
350
1DCB
  3
ACAD_VISUALSTYLE
350
1DB9
  3
ACADDIM
350
480
  3
ACDB_RECOMPOSE_DATA
350
2378
  3
ACDBHEADERROUNDTRIPXREC
350
23F9
  3
ACDBVARIABLEDICTIONARY
350
102
  3
DWGPROPS
350
2379
  0
DICTIONARY
  5
2380
330
6E
100
AcDbDictionary
280
     1
  3
ACAD_XREC_ROUNDTRIP
360
2381
  0
DICTIONARY
  5
1DF4
330
66
100
AcDbDictionary
280
     1
  3
ACAD_LAYERSTATES
360
1DF5
  0
DICTIONARY
  5
233D
330
5E
100
AcDbDictionary
280
     1
  3
ACAD_XREC_ROUNDTRIP
360
237C
  3
ADSK_XREC_LAYER_RECONCILED
360
233E
  0
DICTIONARY
  5
233F
330
3E
100
AcDbDictionary
280
     1
  3
ACAD_XREC_ROUNDTRIP
360
237B
  3
ADSK_XREC_LAYER_RECONCILED
360
2340
  0
DICTIONARY
  5
2345
330
2B5
100
AcDbDictionary
280
     1
  3
ACAD_XREC_ROUNDTRIP
360
2387
  3
ADSK_XREC_LAYER_RECONCILED
360
2346
  0
DICTIONARY
  5
2347
330
2BA
100
AcDbDictionary
280
     1
  3
ACAD_XREC_ROUNDTRIP
360
2388
  3
ADSK_XREC_LAYER_RECONCILED
360
2348
  0
DICTIONARY
  5
234B
330
3FA
100
AcDbDictionary
280
     1
  3
ACAD_XREC_ROUNDTRIP
360
238A
  3
ADSK_XREC_LAYER_RECONCILED
360
234C
  0
DICTIONARY
  5
241A
330
2
100
AcDbDictionary
280
     1
  3
ACAD_LAYOUTSELFREF
360
241B
  0
DICTIONARY
  5
241C
330
23F3
100
AcDbDictionary
280
     1
  3
ACAD_LAYOUTSELFREF
360
241D
  0
DICTIONARY
  5
1DCA
102
{ACAD_REACTORS
330
7
102
}
330
7
100
AcDbDictionary
  0
DICTIONARY
  5
75
102
{ACAD_REACTORS
330
7
102
}
330
7
100
AcDbDictionary
  0
DICTIONARY
  5
61
102
{ACAD_REACTORS
330
7
102
}
330
7
100
AcDbDictionary
  0
DICTIONARY
  5
1DA0
102
{ACAD_REACTORS
330
7
102
}
330
7
100
AcDbDictionary
  3
BYBLOCK
350
1DA9
  3
BYLAYER
350
1DA1
  3
GLOBAL
350
1DB1
  0
DICTIONARY
  5
1DEF
102
{ACAD_REACTORS
330
7
102
}
330
7
100
AcDbDictionary
  3
STANDARD
350
1DF0
  0
DICTIONARY
  5
76
102
{ACAD_REACTORS
330
7
102
}
330
7
100
AcDbDictionary
  3
STANDARD
350
78
  0
DICTIONARY
  5
77
102
{ACAD_REACTORS
330
7
102
}
330
7
100
AcDbDictionary
  0
ACDBDICTIONARYWDFLT
  5
6
102
{ACAD_REACTORS
330
7
102
}
330
7
100
AcDbDictionary
281
     1
  3
Normal
350
5
100
AcDbDictionaryWithDefault
340
5
  0
DICTIONARY
  5
1DCD
102
{ACAD_REACTORS
330
7
102
}
330
7
100
AcDbDictionary
  3
A0
350
1DCE
  3
A1
350
1DCF
  3
A2
350
1DD0
  3
A3
350
1DD1
  3
A4
350
1DD2
  3
A5
350
1DD3
  3
A6
350
1DD4
  3
A7
350
1DD5
  3
A8
350
1DD6
  3
A9
350
1DD7
  3
B0
350
1DD8
  3
B1
350
1DD9
  3
B2
350
1DDA
  3
B3
350
1DDB
  3
B4
350
1DDC
  3
B5
350
1DDD
  3
B6
350
1DDE
  3
B7
350
1DDF
  3
B8
350
1DE0
  3
B9
350
1DE1
  3
C0
350
1DE2
  3
C1
350
1DE3
  3
C2
350
1DE4
  3
C3
350
1DE5
  3
C4
350
1DE6
  3
C5
350
1DE7
  3
C6
350
1DE8
  3
C7
350
1DE9
  3
C8
350
1DEA
  3
C9
350
1DEB
  3
D0
350
1DEC
  3
D1
350
1DED
  3
D2
350
1DEE
  0
DICTIONARY
  5
1DCB
102
{ACAD_REACTORS
330
7
102
}
330
7
100
AcDbDictionary
  3
STANDARD
350
1DCC
  0
DICTIONARY
  5
1DB9
102
{ACAD_REACTORS
330
7
102
}
330
7
100
AcDbDictionary
  3
2DWIREFRAME
350
1DBF
  3
3D_HIDDEN
350
1DC1
  3
3DWIREFRAME
350
1DC0
  3
BASIC
350
1DBE
  3
BRIGHTEN
350
1DC5
  3
COLORCHANGE
350
1DC9
  3
CONCEPTUAL
350
1DC2
  3
DIM
350
1DC4
  3
FACEPATTERN
350
1DC8
  3
FLAT
350
1DBA
  3
FLATWITHEDGES
350
1DBB
  3
GOURAUD
350
1DBC
  3
GOURAUDWITHEDGES
350
1DBD
  3
LINEPATTERN
350
1DC7
  3
REALISTIC
350
1DC3
  3
THICKEN
350
1DC6
  0
XRECORD
  5
480
102
{ACAD_REACTORS
330
7
102
}
330
7
100
AcDbXrecord
 90
   990106
  3

 60
     0
 61
     0
 62
     1
 63
     3
 64
     1
 65
     0
 66
     0
 67
     3
 68
     1
 69
     0
 70
     0
 71
     0
 72
     0
 40
0.0
170
     2
340
0
  0
XRECORD
  5
2378
102
{ACAD_REACTORS
330
7
102
}
330
7
100
AcDbXrecord
 90
        1
330
1DCC
  0
DICTIONARY
  5
23F9
102
{ACAD_REACTORS
330
7
102
}
330
7
100
AcDbDictionary
  3
CEPSNTYPE
350
2403
  3
DIMSTYLEDATA
350
2407
  3
FINGERPRINTGUID
350
2404
  3
HYPERLINKBASE
350
23FC
  3
INSUNITS
350
2402
  3
LAYOUTDICT
350
23FE
  3
LWETCUNION
350
2401
  3
PLOTSETDICT
350
23FF
  3
PLOTSTYLNAMDICT
350
2400
  3
PSVPSCALE
350
2406
  3
PUCSBASE
350
240A
  3
PUCSORGBACK
350
2410
  3
PUCSORGBOTTOM
350
240C
  3
PUCSORGFRONT
350
240F
  3
PUCSORGLEFT
350
240D
  3
PUCSORGRIGHT
350
240E
  3
PUCSORGTOP
350
240B
  3
PUCSORTHOREF
350
2408
  3
PUCSORTHOVIEW
350
2409
  3
STYLESHEET
350
23FD
  3
TSTACKALIGN
350
23FA
  3
TSTACKSIZE
350
23FB
  3
UCSBASE
350
2413
  3
UCSORGBACK
350
2419
  3
UCSORGBOTTOM
350
2415
  3
UCSORGFRONT
350
2418
  3
UCSORGLEFT
350
2416
  3
UCSORGRIGHT
350
2417
  3
UCSORGTOP
350
2414
  3
UCSORTHOREF
350
2411
  3
UCSORTHOVIEW
350
2412
  3
VERSIONGUID
350
2405
  0
DICTIONARY
  5
102
102
{ACAD_REACTORS
330
7
102
}
330
7
100
AcDbDictionary
  3
CANNOSCALE
350
2393
  3
CMLEADERSTYLE
350
2392
  3
CTABLESTYLE
350
2391
  3
DIMASSOC
350
103
  3
INDEXCTL
350
2395
  3
SORTENTS
350
2394
  0
XRECORD
  5
2379
102
{ACAD_REACTORS
330
7
102
}
330
7
100
AcDbXrecord
  1
DWGPROPS COOKIE
  2

  3

  4

  6

  7

  8
ymorima
  9

300
=
301
=
302
=
303
=
304
=
305
=
306
=
307
=
308
=
309
=
 40
0.0854994791666667
 41
2453692.651683298
 42
2454501.410328588
  1

 90
        0
  0
XRECORD
  5
2381
102
{ACAD_REACTORS
330
2380
102
}
330
2380
100
AcDbXrecord
102
VTR_0.000_0.000_1.000_1.000_VISUALSTYLE
340
1DBF
102
VTR_0.000_0.000_1.000_1.000_GRIDDISPLAY
 70
     3
102
VTR_0.000_0.000_1.000_1.000_GRIDMAJOR
 70
     5
102
VTR_0.000_0.000_1.000_1.000_DEFAULTLIGHTING
280
     1
102
VTR_0.000_0.000_1.000_1.000_DEFAULTLIGHTINGTYPE
 70
     1
102
VTR_0.000_0.000_1.000_1.000_BRIGHTNESS
141
0.0
102
VTR_0.000_0.000_1.000_1.000_CONTRAST
142
0.0
  0
DICTIONARY
  5
1DF5
102
{ACAD_REACTORS
330
1DF4
102
}
330
1DF4
100
AcDbDictionary
  0
XRECORD
  5
237C
102
{ACAD_REACTORS
330
233D
102
}
330
233D
100
AcDbXrecord
102
MATERIAL
340
1DB1
  0
XRECORD
  5
233E
102
{ACAD_REACTORS
330
233D
102
}
330
233D
100
AcDbXrecord
290
     1
  0
XRECORD
  5
237B
102
{ACAD_REACTORS
330
233F
102
}
330
233F
100
AcDbXrecord
102
MATERIAL
340
1DB1
  0
XRECORD
  5
2340
102
{ACAD_REACTORS
330
233F
102
}
330
233F
100
AcDbXrecord
290
     1
  0
XRECORD
  5
2387
102
{ACAD_REACTORS
330
2345
102
}
330
2345
100
AcDbXrecord
102
MATERIAL
340
1DB1
  0
XRECORD
  5
2346
102
{ACAD_REACTORS
330
2345
102
}
330
2345
100
AcDbXrecord
290
     1
  0
XRECORD
  5
2388
102
{ACAD_REACTORS
330
2347
102
}
330
2347
100
AcDbXrecord
102
MATERIAL
340
1DB1
  0
XRECORD
  5
2348
102
{ACAD_REACTORS
330
2347
102
}
330
2347
100
AcDbXrecord
290
     1
  0
XRECORD
  5
238A
102
{ACAD_REACTORS
330
234B
102
}
330
234B
100
AcDbXrecord
102
MATERIAL
340
1DB1
  0
XRECORD
  5
234C
102
{ACAD_REACTORS
330
234B
102
}
330
234B
100
AcDbXrecord
290
     1
  0
XRECORD
  5
241B
102
{ACAD_REACTORS
330
241A
102
}
330
241A
100
AcDbXrecord
340
2
  0
XRECORD
  5
241D
102
{ACAD_REACTORS
330
241C
102
}
330
241C
100
AcDbXrecord
340
23F3
  0
ACAD_PROXY_OBJECT
  5
1DA9
102
{ACAD_XDICTIONARY
360
1DAA
102
}
102
{ACAD_REACTORS
330
1DA0
102
}
330
1DA0
100
AcDbProxyObject
 90
      499
 91
      511
 93
     1340
310
42109E509B1BD8DAC02004014080404555555555555953FAA155555555555654FEA9AA400014080404555555555555953FAA155555555555654FEA9AA400000000000000E03F4080404555555555555953FAA155555555555654FEA9AA4014080404555555555555953FAA155555555555654FEA9AA4010201011555555555
310
55654FEA8555555555555953FAA6A9005020101155555555555654FEA8555555555555953FAA6A9000
 94
        0
1001
ACAD
1000
AcadProxyRoundTripData
1071
      504
1071
   655383
1070
     0
  0
ACAD_PROXY_OBJECT
  5
1DA1
102
{ACAD_XDICTIONARY
360
1DA2
102
}
102
{ACAD_REACTORS
330
1DA0
102
}
330
1DA0
100
AcDbProxyObject
 90
      499
 91
      511
 93
     1340
310
42109E53185E595C802004014080404555555555555953FAA155555555555654FEA9AA400014080404555555555555953FAA155555555555654FEA9AA400000000000000E03F4080404555555555555953FAA155555555555654FEA9AA4014080404555555555555953FAA155555555555654FEA9AA4010201011555555555
310
55654FEA8555555555555953FAA6A9005020101155555555555654FEA8555555555555953FAA6A9000
 94
        0
1001
ACAD
1000
AcadProxyRoundTripData
1071
      504
1071
   655383
1070
     0
  0
ACAD_PROXY_OBJECT
  5
1DB1
102
{ACAD_XDICTIONARY
360
1DB2
102
}
102
{ACAD_REACTORS
330
1DA0
102
}
330
1DA0
100
AcDbProxyObject
 90
      499
 91
      511
 93
     1332
310
41D1DB1BD8985B002004014080404555555555555953FAA155555555555654FEA9AA400014080404555555555555953FAA155555555555654FEA9AA400000000000000E03F4080404555555555555953FAA155555555555654FEA9AA4014080404555555555555953FAA155555555555654FEA9AA401020101155555555555
310
654FEA8555555555555953FAA6A9005020101155555555555654FEA8555555555555953FAA6A9000
 94
        0
1001
ACAD
1000
AcadProxyRoundTripData
1071
      504
1071
   655383
1070
     0
  0
ACAD_PROXY_OBJECT
  5
1DF0
102
{ACAD_REACTORS
330
1DEF
102
}
330
1DEF
100
AcDbProxyObject
 90
      499
 91
      511
 93
      618
310
40901902A4063FBFFFFFE056BD1B81E855B9FC0AD7A3703D0AD73F4254DD185B99185C990000AD7A3703D0AC73F90141901A02B5E8DC0F42B1CFC02B5E8DC0F42B1CFE5764000000000000300FC0
340
6A
340
0
340
16
340
0
 94
        0
1001
ACAD_MLEADERVER
1070
     2
1001
ACAD
1000
AcadProxyRoundTripData
1071
      508
1071
   655383
1070
     0
  0
MLINESTYLE
  5
78
102
{ACAD_REACTORS
330
76
102
}
330
76
100
AcDbMlineStyle
  2
STANDARD
 70
     0
  3

 62
     0
 51
90.0
 52
90.0
 71
     2
 49
0.5
 62
   256
  6
BYLAYER
 49
-0.5
 62
   256
  6
BYLAYER
  0
ACDBPLACEHOLDER
  5
5
102
{ACAD_REACTORS
330
6
102
}
330
6
100
AcDbPlaceHolder
280
     0
  0
ACAD_PROXY_OBJECT
  5
1DCE
102
{ACAD_REACTORS
330
1DCD
102
}
330
1DCD
100
AcDbProxyObject
 90
      499
 91
      511
 93
       49
310
904313A3100598
 94
        0
1001
ACAD
1000
AcadProxyRoundTripData
1071
      507
1071
   655383
1070
     0
  0
ACAD_PROXY_OBJECT
  5
1DCF
102
{ACAD_REACTORS
330
1DCD
102
}
330
1DCD
100
AcDbProxyObject
 90
      499
 91
      511
 93
      113
310
904313A3200400000000000000406B
 94
        0
1001
ACAD
1000
AcadProxyRoundTripData
1071
      507
1071
   655383
1070
     0
  0
ACAD_PROXY_OBJECT
  5
1DD0
102
{ACAD_REACTORS
330
1DCD
102
}
330
1DCD
100
AcDbProxyObject
 90
      499
 91
      511
 93
      113
310
904313A3400400000000000010406B
 94
        0
1001
ACAD
1000
AcadProxyRoundTripData
1071
      507
1071
   655383
1070
     0
  0
ACAD_PROXY_OBJECT
  5
1DD1
102
{ACAD_REACTORS
330
1DCD
102
}
330
1DCD
100
AcDbProxyObject
 90
      499
 91
      511
 93
      113
310
904313A3500400000000000014406B
 94
        0
1001
ACAD
1000
AcadProxyRoundTripData
1071
      507
1071
   655383
1070
     0
  0
ACAD_PROXY_OBJECT
  5
1DD2
102
{ACAD_REACTORS
330
1DCD
102
}
330
1DCD
100
AcDbProxyObject
 90
      499
 91
      511
 93
      113
310
904313A3800400000000000020406B
 94
        0
1001
ACAD
1000
AcadProxyRoundTripData
1071
      507
1071
   655383
1070
     0
  0
ACAD_PROXY_OBJECT
  5
1DD3
102
{ACAD_REACTORS
330
1DCD
102
}
330
1DCD
100
AcDbProxyObject
 90
      499
 91
      511
 93
      121
310
905313A3130004000000000000244051
 94
        0
1001
ACAD
1000
AcadProxyRoundTripData
1071
      507
1071
   655383
1070
     0
  0
ACAD_PROXY_OBJECT
  5
1DD4
102
{ACAD_REACTORS
330
1DCD
102
}
330
1DCD
100
AcDbProxyObject
 90
      499
 91
      511
 93
      121
310
905313A3136004000000000000304051
 94
        0
1001
ACAD
1000
AcadProxyRoundTripData
1071
      507
1071
   655383
1070
     0
  0
ACAD_PROXY_OBJECT
  5
1DD5
102
{ACAD_REACTORS
330
1DCD
102
}
330
1DCD
100
AcDbProxyObject
 90
      499
 91
      511
 93
      121
310
905313A3230004000000000000344051
 94
        0
1001
ACAD
1000
AcadProxyRoundTripData
1071
      507
1071
   655383
1070
     0
  0
ACAD_PROXY_OBJECT
  5
1DD6
102
{ACAD_REACTORS
330
1DCD
102
}
330
1DCD
100
AcDbProxyObject
 90
      499
 91
      511
 93
      121
310
905313A33300040000000000003E4051
 94
        0
1001
ACAD
1000
AcadProxyRoundTripData
1071
      507
1071
   655383
1070
     0
  0
ACAD_PROXY_OBJECT
  5
1DD7
102
{ACAD_REACTORS
330
1DCD
102
}
330
1DCD
100
AcDbProxyObject
 90
      499
 91
      511
 93
      121
310
905313A3430004000000000000444051
 94
        0
1001
ACAD
1000
AcadProxyRoundTripData
1071
      507
1071
   655383
1070
     0
  0
ACAD_PROXY_OBJECT
  5
1DD8
102
{ACAD_REACTORS
330
1DCD
102
}
330
1DCD
100
AcDbProxyObject
 90
      499
 91
      511
 93
      121
310
905313A3530004000000000000494051
 94
        0
1001
ACAD
1000
AcadProxyRoundTripData
1071
      507
1071
   655383
1070
     0
  0
ACAD_PROXY_OBJECT
  5
1DD9
102
{ACAD_REACTORS
330
1DCD
102
}
330
1DCD
100
AcDbProxyObject
 90
      499
 91
      511
 93
      129
310
906313A313030004000000000000594038
 94
        0
1001
ACAD
1000
AcadProxyRoundTripData
1071
      507
1071
   655383
1070
     0
  0
ACAD_PROXY_OBJECT
  5
1DDA
102
{ACAD_REACTORS
330
1DCD
102
}
330
1DCD
100
AcDbProxyObject
 90
      499
 91
      511
 93
      113
310
904323A31000000000000000010159
 94
        0
1001
ACAD
1000
AcadProxyRoundTripData
1071
      507
1071
   655383
1070
     0
  0
ACAD_PROXY_OBJECT
  5
1DDB
102
{ACAD_REACTORS
330
1DCD
102
}
330
1DCD
100
AcDbProxyObject
 90
      499
 91
      511
 93
      113
310
904343A31000000000000000410159
 94
        0
1001
ACAD
1000
AcadProxyRoundTripData
1071
      507
1071
   655383
1070
     0
  0
ACAD_PROXY_OBJECT
  5
1DDC
102
{ACAD_REACTORS
330
1DCD
102
}
330
1DCD
100
AcDbProxyObject
 90
      499
 91
      511
 93
      113
310
904383A31000000000000000810159
 94
        0
1001
ACAD
1000
AcadProxyRoundTripData
1071
      507
1071
   655383
1070
     0
  0
ACAD_PROXY_OBJECT
  5
1DDD
102
{ACAD_REACTORS
330
1DCD
102
}
330
1DCD
100
AcDbProxyObject
 90
      499
 91
      511
 93
      121
310
90531303A31000000000000000910140
 94
        0
1001
ACAD
1000
AcadProxyRoundTripData
1071
      507
1071
   655383
1070
     0
  0
ACAD_PROXY_OBJECT
  5
1DDE
102
{ACAD_REACTORS
330
1DCD
102
}
330
1DCD
100
AcDbProxyObject
 90
      499
 91
      511
 93
      129
310
9063130303A31000000000000001650138
 94
        0
1001
ACAD
1000
AcadProxyRoundTripData
1071
      507
1071
   655383
1070
     0
  0
ACAD_PROXY_OBJECT
  5
1DDF
102
{ACAD_REACTORS
330
1DCD
102
}
330
1DCD
100
AcDbProxyObject
 90
      499
 91
      511
 93
      265
310
90F312F31323822203D2031272D302200000000000000200FC000000000000284000
 94
        0
1001
ACAD
1000
AcadProxyRoundTripData
1071
      507
1071
   655383
1070
     0
  0
ACAD_PROXY_OBJECT
  5
1DE0
102
{ACAD_REACTORS
330
1DCD
102
}
330
1DCD
100
AcDbProxyObject
 90
      499
 91
      511
 93
      257
310
90E312F363422203D2031272D302200000000000000240FC000000000000284000
 94
        0
1001
ACAD
1000
AcadProxyRoundTripData
1071
      507
1071
   655383
1070
     0
  0
ACAD_PROXY_OBJECT
  5
1DE1
102
{ACAD_REACTORS
330
1DCD
102
}
330
1DCD
100
AcDbProxyObject
 90
      499
 91
      511
 93
      257
310
90E312F333222203D2031272D302200000000000000280FC000000000000284000
 94
        0
1001
ACAD
1000
AcadProxyRoundTripData
1071
      507
1071
   655383
1070
     0
  0
ACAD_PROXY_OBJECT
  5
1DE2
102
{ACAD_REACTORS
330
1DCD
102
}
330
1DCD
100
AcDbProxyObject
 90
      499
 91
      511
 93
      257
310
90E312F313622203D2031272D3022000000000000002C0FC000000000000284000
 94
        0
1001
ACAD
1000
AcadProxyRoundTripData
1071
      507
1071
   655383
1070
     0
  0
ACAD_PROXY_OBJECT
  5
1DE3
102
{ACAD_REACTORS
330
1DCD
102
}
330
1DCD
100
AcDbProxyObject
 90
      499
 91
      511
 93
      257
310
90E332F333222203D2031272D3022000000000000002E0FC000000000000284000
 94
        0
1001
ACAD
1000
AcadProxyRoundTripData
1071
      507
1071
   655383
1070
     0
  0
ACAD_PROXY_OBJECT
  5
1DE4
102
{ACAD_REACTORS
330
1DCD
102
}
330
1DCD
100
AcDbProxyObject
 90
      499
 91
      511
 93
      249
310
90D312F3822203D2031272D302200000000000000300FC000000000000284000
 94
        0
1001
ACAD
1000
AcadProxyRoundTripData
1071
      507
1071
   655383
1070
     0
  0
ACAD_PROXY_OBJECT
  5
1DE5
102
{ACAD_REACTORS
330
1DCD
102
}
330
1DCD
100
AcDbProxyObject
 90
      499
 91
      511
 93
      257
310
90E332F313622203D2031272D302200000000000000320FC000000000000284000
 94
        0
1001
ACAD
1000
AcadProxyRoundTripData
1071
      507
1071
   655383
1070
     0
  0
ACAD_PROXY_OBJECT
  5
1DE6
102
{ACAD_REACTORS
330
1DCD
102
}
330
1DCD
100
AcDbProxyObject
 90
      499
 91
      511
 93
      249
310
90D312F3422203D2031272D302200000000000000340FC000000000000284000
 94
        0
1001
ACAD
1000
AcadProxyRoundTripData
1071
      507
1071
   655383
1070
     0
  0
ACAD_PROXY_OBJECT
  5
1DE7
102
{ACAD_REACTORS
330
1DCD
102
}
330
1DCD
100
AcDbProxyObject
 90
      499
 91
      511
 93
      249
310
90D332F3822203D2031272D302200000000000000360FC000000000000284000
 94
        0
1001
ACAD
1000
AcadProxyRoundTripData
1071
      507
1071
   655383
1070
     0
  0
ACAD_PROXY_OBJECT
  5
1DE8
102
{ACAD_REACTORS
330
1DCD
102
}
330
1DCD
100
AcDbProxyObject
 90
      499
 91
      511
 93
      249
310
90D312F3222203D2031272D302200000000000000380FC000000000000284000
 94
        0
1001
ACAD
1000
AcadProxyRoundTripData
1071
      507
1071
   655383
1070
     0
  0
ACAD_PROXY_OBJECT
  5
1DE9
102
{ACAD_REACTORS
330
1DCD
102
}
330
1DCD
100
AcDbProxyObject
 90
      499
 91
      511
 93
      249
310
90D332F3422203D2031272D3022000000000000003A0FC000000000000284000
 94
        0
1001
ACAD
1000
AcadProxyRoundTripData
1071
      507
1071
   655383
1070
     0
  0
ACAD_PROXY_OBJECT
  5
1DEA
102
{ACAD_REACTORS
330
1DCD
102
}
330
1DCD
100
AcDbProxyObject
 90
      499
 91
      511
 93
      169
310
90B3122203D2031272D3022004000000000000284020
 94
        0
1001
ACAD
1000
AcadProxyRoundTripData
1071
      507
1071
   655383
1070
     0
  0
ACAD_PROXY_OBJECT
  5
1DEB
102
{ACAD_REACTORS
330
1DCD
102
}
330
1DCD
100
AcDbProxyObject
 90
      499
 91
      511
 93
      265
310
90F312D312F3222203D2031272D3022000000000000003E0FC000000000000284000
 94
        0
1001
ACAD
1000
AcadProxyRoundTripData
1071
      507
1071
   655383
1070
     0
  0
ACAD_PROXY_OBJECT
  5
1DEC
102
{ACAD_REACTORS
330
1DCD
102
}
330
1DCD
100
AcDbProxyObject
 90
      499
 91
      511
 93
      233
310
90B3322203D2031272D30220000000000000002100000000000000284000
 94
        0
1001
ACAD
1000
AcadProxyRoundTripData
1071
      507
1071
   655383
1070
     0
  0
ACAD_PROXY_OBJECT
  5
1DED
102
{ACAD_REACTORS
330
1DCD
102
}
330
1DCD
100
AcDbProxyObject
 90
      499
 91
      511
 93
      233
310
90B3622203D2031272D30220000000000000006100000000000000284000
 94
        0
1001
ACAD
1000
AcadProxyRoundTripData
1071
      507
1071
   655383
1070
     0
  0
ACAD_PROXY_OBJECT
  5
1DEE
102
{ACAD_REACTORS
330
1DCD
102
}
330
1DCD
100
AcDbProxyObject
 90
      499
 91
      511
 93
      257
310
90E31272D3022203D2031272D3022000000000000000A100000000000000284000
 94
        0
1001
ACAD
1000
AcadProxyRoundTripData
1071
      507
1071
   655383
1070
     0
  0
ACAD_PROXY_OBJECT
  5
1DCC
102
{ACAD_XDICTIONARY
360
2376
102
}
102
{ACAD_REACTORS
330
1DCB
102
}
330
1DCB
100
AcDbProxyObject
 90
      499
 91
      511
 93
     1849
310
4254DD185B99185C990028B81E85EB51B8AE3F2E07A17AD46E2B8FC02B5E8DC0F42B1CFD028000000C1008070000C3001FDFF8000000C1003FBFF000000182007F7FE00000030400FEFFC00000060801FDFF8000000C1003FBFF00000018200000000000000681FA0B0000001820100E000186003FBFF000000182007F7FE0
310
0000030400FEFFC00000060801FDFF8000000C1003FBFF000000182007F7FE000000304000AD7A3703D0AC73F4160000003040201C00030C007F7FE00000030400FEFFC00000060801FDFF8000000C1003FBFF000000182007F7FE00000030400FEFFC000000608000
340
16
340
16
340
16
 94
        0
1001
ACAD
1000
AcadProxyRoundTripData
1071
      506
1071
   655383
1070
     0
  0
ACAD_PROXY_OBJECT
  5
1DBF
102
{ACAD_REACTORS
330
1DB9
102
}
330
1DB9
100
AcDbProxyObject
 90
      499
 91
      511
 93
      444
310
430C9915DA5C99599C985B59401049028333333333333E3BF0000000000000FB0107901411070040501600405405064090741402480A0340
 94
        0
1001
ACAD
1000
AcDbSavedByObjectVersion
1070
     0
1000
AcadProxyRoundTripData
1071
      505
1071
   655383
1070
     0
  0
ACAD_PROXY_OBJECT
  5
1DC1
102
{ACAD_REACTORS
330
1DB9
102
}
330
1DB9
100
AcDbProxyObject
 90
      499
 91
      511
 93
      508
310
428CD108121A5919195B8010640502408333333333333E3BF0000000000000FB01079024090700405020000000000001110200405405064090740C02480A0340
 94
        0
1001
ACAD
1000
AcDbSavedByObjectVersion
1070
     0
1000
AcadProxyRoundTripData
1071
      505
1071
   655383
1070
     0
  0
ACAD_PROXY_OBJECT
  5
1DC0
102
{ACAD_REACTORS
330
1DB9
102
}
330
1DB9
100
AcDbProxyObject
 90
      499
 91
      511
 93
      444
310
430CD915DA5C99599C985B59401059028333333333333E3BF0000000000000FB0107901411070040501600405405064090741402480A0340
 94
        0
1001
ACAD
1000
AcDbSavedByObjectVersion
1070
     0
1000
AcadProxyRoundTripData
1071
      505
1071
   655383
1070
     0
  0
ACAD_PROXY_OBJECT
  5
1DBE
102
{ACAD_REACTORS
330
1DB9
102
}
330
1DB9
100
AcDbProxyObject
 90
      499
 91
      511
 93
      396
310
4190985CDA58C0107406404333333333333E3BF0000000000000FB0107A41107004050150841D405064090741402480A0350
 94
        0
1001
ACAD
1000
AcDbSavedByObjectVersion
1070
     0
1000
AcadProxyRoundTripData
1071
      505
1071
   655383
1070
     0
  0
ACAD_PROXY_OBJECT
  5
1DC5
102
{ACAD_REACTORS
330
1DB9
102
}
330
1DB9
100
AcDbProxyObject
 90
      499
 91
      511
 93
      436
310
42509C9A59DA1D195B8010C409028333333333333E3BF0000000000000FB010790141107004050150841D405064090741402480A029950
 94
        0
1001
ACAD
1000
AcDbSavedByObjectVersion
1070
     0
1000
AcadProxyRoundTripData
1071
      505
1071
   655383
1070
     0
  0
ACAD_PROXY_OBJECT
  5
1DC9
102
{ACAD_REACTORS
330
1DB9
102
}
330
1DB9
100
AcDbProxyObject
 90
      499
 91
      511
 93
      460
310
4310DBDB1BDC90DA185B99D9401104090240C333333333333E3BF0000000000000FB0108901411070040501508421405064090741402480A0350
 94
        0
1001
ACAD
1000
AcDbSavedByObjectVersion
1070
     0
1000
AcadProxyRoundTripData
1071
      505
1071
   655383
1070
     0
  0
ACAD_PROXY_OBJECT
  5
1DC2
102
{ACAD_REACTORS
330
1DB9
102
}
330
1DB9
100
AcDbProxyObject
 90
      499
 91
      511
 93
      508
310
42D0DBDB98D95C1D1D585B0010940D028333333333333E3BF0000000000000FB0107902409070040501000000000000111010841D405064090740C02480A0340
 94
        0
1001
ACAD
1000
AcDbSavedByObjectVersion
1070
     0
1000
AcadProxyRoundTripData
1071
      505
1071
   655383
1070
     0
  0
ACAD_PROXY_OBJECT
  5
1DC4
102
{ACAD_REACTORS
330
1DB9
102
}
330
1DB9
100
AcDbProxyObject
 90
      499
 91
      511
 93
      420
310
41111A5B4010B409028333333333333E3BF0000000000000FB010790141107004050150841D405064090741402480A02677FFFFFD0
 94
        0
1001
ACAD
1000
AcDbSavedByObjectVersion
1070
     0
1000
AcadProxyRoundTripData
1071
      505
1071
   655383
1070
     0
  0
ACAD_PROXY_OBJECT
  5
1DC8
102
{ACAD_REACTORS
330
1DB9
102
}
330
1DB9
100
AcDbProxyObject
 90
      499
 91
      511
 93
      452
310
43119858D95C185D1D195C9B8010F409028333333333333E3BF0000000000000FB010790141107004050150841D405064090741402480A0350
 94
        0
1001
ACAD
1000
AcDbSavedByObjectVersion
1070
     0
1000
AcadProxyRoundTripData
1071
      505
1071
   655383
1070
     0
  0
ACAD_PROXY_OBJECT
  5
1DBA
102
{ACAD_REACTORS
330
1DB9
102
}
330
1DB9
100
AcDbProxyObject
 90
      499
 91
      511
 93
      396
310
41519B185D00240901404333333333333E3BF0000000000000F9010740A41107004050150841D405064090741402480A1B50
 94
        0
1001
ACAD
1000
AcDbSavedByObjectVersion
1070
     0
1000
AcadProxyRoundTripData
1071
      505
1071
   655383
1070
     0
  0
ACAD_PROXY_OBJECT
  5
1DBB
102
{ACAD_REACTORS
330
1DB9
102
}
330
1DB9
100
AcDbProxyObject
 90
      499
 91
      511
 93
      484
310
43919B185D15DA5D1A115919D95CC010140901404333333333333E3BF0000000000000F9010740901411070040501600405405064090741402480A1B50
 94
        0
1001
ACAD
1000
AcDbSavedByObjectVersion
1070
     0
1000
AcadProxyRoundTripData
1071
      505
1071
   655383
1070
     0
  0
ACAD_PROXY_OBJECT
  5
1DBC
102
{ACAD_REACTORS
330
1DB9
102
}
330
1DB9
100
AcDbProxyObject
 90
      499
 91
      511
 93
      420
310
4211DBDD5C985D590010240902404333333333333E3BF0000000000000F9010740A411070040501641D405064090741402480A1B50
 94
        0
1001
ACAD
1000
AcDbSavedByObjectVersion
1070
     0
1000
AcadProxyRoundTripData
1071
      505
1071
   655383
1070
     0
  0
ACAD_PROXY_OBJECT
  5
1DBD
102
{ACAD_REACTORS
330
1DB9
102
}
330
1DB9
100
AcDbProxyObject
 90
      499
 91
      511
 93
      508
310
4451DBDD5C985D5915DA5D1A115919D95CC010340902404333333333333E3BF0000000000000F9010740901411070040501600405405064090741402480A1B50
 94
        0
1001
ACAD
1000
AcDbSavedByObjectVersion
1070
     0
1000
AcadProxyRoundTripData
1071
      505
1071
   655383
1070
     0
  0
ACAD_PROXY_OBJECT
  5
1DC7
102
{ACAD_REACTORS
330
1DB9
102
}
330
1DB9
100
AcDbProxyObject
 90
      499
 91
      511
 93
      452
310
43131A5B995C185D1D195C9B8010E409028333333333333E3BF0000000000000FB010790141107004050750841D405064090741402483A0350
 94
        0
1001
ACAD
1000
AcDbSavedByObjectVersion
1070
     0
1000
AcadProxyRoundTripData
1071
      505
1071
   655383
1070
     0
  0
ACAD_PROXY_OBJECT
  5
1DC3
102
{ACAD_REACTORS
330
1DB9
102
}
330
1DB9
100
AcDbProxyObject
 90
      499
 91
      511
 93
      428
310
429499585B1A5CDD1A58C0108409028333333333333E3BF0000000000000FB01079019070040501508421405064090741402480A1B40
 94
        0
1001
ACAD
1000
AcDbSavedByObjectVersion
1070
     0
1000
AcadProxyRoundTripData
1071
      505
1071
   655383
1070
     0
  0
ACAD_PROXY_OBJECT
  5
1DC6
102
{ACAD_REACTORS
330
1DB9
102
}
330
1DB9
100
AcDbProxyObject
 90
      499
 91
      511
 93
      420
310
42151A1A58DAD95B8010D409028333333333333E3BF0000000000000FB010790141107004050150C41D405064090741402480A0350
 94
        0
1001
ACAD
1000
AcDbSavedByObjectVersion
1070
     0
1000
AcadProxyRoundTripData
1071
      505
1071
   655383
1070
     0
  0
XRECORD
  5
2403
102
{ACAD_REACTORS
330
23F9
102
}
330
23F9
100
AcDbXrecord
 90
        0
  0
XRECORD
  5
2407
102
{ACAD_REACTORS
330
23F9
102
}
330
23F9
100
AcDbXrecord
1000
DSTYLE
1002
{
1070
   179
 70
     2
1070
   277
 70
     6
1002
}
  0
XRECORD
  5
2404
102
{ACAD_REACTORS
330
23F9
102
}
330
23F9
100
AcDbXrecord
  1
{6385560B-F4B1-4644-A7C2-A3E32AC3D232}
  0
XRECORD
  5
23FC
102
{ACAD_REACTORS
330
23F9
102
}
330
23F9
100
AcDbXrecord
  1

  0
XRECORD
  5
2402
102
{ACAD_REACTORS
330
23F9
102
}
330
23F9
100
AcDbXrecord
 90
        0
  0
XRECORD
  5
23FE
102
{ACAD_REACTORS
330
23F9
102
}
330
23F9
100
AcDbXrecord
340
61
  0
XRECORD
  5
2401
102
{ACAD_REACTORS
330
23F9
102
}
330
23F9
100
AcDbXrecord
 90
    10781
  0
XRECORD
  5
23FF
102
{ACAD_REACTORS
330
23F9
102
}
330
23F9
100
AcDbXrecord
340
77
  0
XRECORD
  5
2400
102
{ACAD_REACTORS
330
23F9
102
}
330
23F9
100
AcDbXrecord
340
6
  0
XRECORD
  5
2406
102
{ACAD_REACTORS
330
23F9
102
}
330
23F9
100
AcDbXrecord
 40
0.0
  0
XRECORD
  5
240A
102
{ACAD_REACTORS
330
23F9
102
}
330
23F9
100
AcDbXrecord
340
0
  0
XRECORD
  5
2410
102
{ACAD_REACTORS
330
23F9
102
}
330
23F9
100
AcDbXrecord
 10
0.0
 20
0.0
 30
0.0
  0
XRECORD
  5
240C
102
{ACAD_REACTORS
330
23F9
102
}
330
23F9
100
AcDbXrecord
 10
0.0
 20
0.0
 30
0.0
  0
XRECORD
  5
240F
102
{ACAD_REACTORS
330
23F9
102
}
330
23F9
100
AcDbXrecord
 10
0.0
 20
0.0
 30
0.0
  0
XRECORD
  5
240D
102
{ACAD_REACTORS
330
23F9
102
}
330
23F9
100
AcDbXrecord
 10
0.0
 20
0.0
 30
0.0
  0
XRECORD
  5
240E
102
{ACAD_REACTORS
330
23F9
102
}
330
23F9
100
AcDbXrecord
 10
0.0
 20
0.0
 30
0.0
  0
XRECORD
  5
240B
102
{ACAD_REACTORS
330
23F9
102
}
330
23F9
100
AcDbXrecord
 10
0.0
 20
0.0
 30
0.0
  0
XRECORD
  5
2408
102
{ACAD_REACTORS
330
23F9
102
}
330
23F9
100
AcDbXrecord
340
0
  0
XRECORD
  5
2409
102
{ACAD_REACTORS
330
23F9
102
}
330
23F9
100
AcDbXrecord
 70
     0
  0
XRECORD
  5
23FD
102
{ACAD_REACTORS
330
23F9
102
}
330
23F9
100
AcDbXrecord
  1
Sekkei.ctb
  0
XRECORD
  5
23FA
102
{ACAD_REACTORS
330
23F9
102
}
330
23F9
100
AcDbXrecord
 90
        1
  0
XRECORD
  5
23FB
102
{ACAD_REACTORS
330
23F9
102
}
330
23F9
100
AcDbXrecord
 90
       70
  0
XRECORD
  5
2413
102
{ACAD_REACTORS
330
23F9
102
}
330
23F9
100
AcDbXrecord
340
0
  0
XRECORD
  5
2419
102
{ACAD_REACTORS
330
23F9
102
}
330
23F9
100
AcDbXrecord
 10
0.0
 20
0.0
 30
0.0
  0
XRECORD
  5
2415
102
{ACAD_REACTORS
330
23F9
102
}
330
23F9
100
AcDbXrecord
 10
0.0
 20
0.0
 30
0.0
  0
XRECORD
  5
2418
102
{ACAD_REACTORS
330
23F9
102
}
330
23F9
100
AcDbXrecord
 10
0.0
 20
0.0
 30
0.0
  0
XRECORD
  5
2416
102
{ACAD_REACTORS
330
23F9
102
}
330
23F9
100
AcDbXrecord
 10
0.0
 20
0.0
 30
0.0
  0
XRECORD
  5
2417
102
{ACAD_REACTORS
330
23F9
102
}
330
23F9
100
AcDbXrecord
 10
0.0
 20
0.0
 30
0.0
  0
XRECORD
  5
2414
102
{ACAD_REACTORS
330
23F9
102
}
330
23F9
100
AcDbXrecord
 10
0.0
 20
0.0
 30
0.0
  0
XRECORD
  5
2411
102
{ACAD_REACTORS
330
23F9
102
}
330
23F9
100
AcDbXrecord
340
0
  0
XRECORD
  5
2412
102
{ACAD_REACTORS
330
23F9
102
}
330
23F9
100
AcDbXrecord
 70
     0
  0
XRECORD
  5
2405
102
{ACAD_REACTORS
330
23F9
102
}
330
23F9
100
AcDbXrecord
  1
{F817A471-65A1-4B30-A615-7D6F4C47781C}
  0
DICTIONARYVAR
  5
2393
102
{ACAD_REACTORS
330
102
102
}
330
102
100
DictionaryVariables
280
     0
  1
1:1
  0
DICTIONARYVAR
  5
2392
102
{ACAD_REACTORS
330
102
102
}
330
102
100
DictionaryVariables
280
     0
  1
STANDARD
  0
DICTIONARYVAR
  5
2391
102
{ACAD_REACTORS
330
102
102
}
330
102
100
DictionaryVariables
280
     0
  1
STANDARD
  0
DICTIONARYVAR
  5
103
102
{ACAD_REACTORS
330
102
102
}
330
102
100
DictionaryVariables
280
     0
  1
1
  0
DICTIONARYVAR
  5
2395
102
{ACAD_REACTORS
330
102
102
}
330
102
100
DictionaryVariables
280
     0
  1
0
  0
DICTIONARYVAR
  5
2394
102
{ACAD_REACTORS
330
102
102
}
330
102
100
DictionaryVariables
280
     0
  1
127
  0
DICTIONARY
  5
1DAA
330
1DA9
100
AcDbDictionary
280
     1
  3
ACAD_XREC_ROUNDTRIP
360
238E
  3
BUMPTILE
360
1DAC
  3
DIFFUSETILE
360
1DAB
  3
OPACITYTILE
360
1DAF
  3
REFLECTIONTILE
360
1DAE
  3
REFRACTIONTILE
360
1DB0
  3
SPECULARTILE
360
1DAD
  0
DICTIONARY
  5
1DA2
330
1DA1
100
AcDbDictionary
280
     1
  3
ACAD_XREC_ROUNDTRIP
360
238D
  3
BUMPTILE
360
1DA4
  3
DIFFUSETILE
360
1DA3
  3
OPACITYTILE
360
1DA7
  3
REFLECTIONTILE
360
1DA6
  3
REFRACTIONTILE
360
1DA8
  3
SPECULARTILE
360
1DA5
  0
DICTIONARY
  5
1DB2
330
1DB1
100
AcDbDictionary
280
     1
  3
ACAD_XREC_ROUNDTRIP
360
238F
  3
BUMPTILE
360
1DB4
  3
DIFFUSETILE
360
1DB3
  3
OPACITYTILE
360
1DB7
  3
REFLECTIONTILE
360
1DB6
  3
REFRACTIONTILE
360
1DB8
  3
SPECULARTILE
360
1DB5
  0
DICTIONARY
  5
2376
330
1DCC
100
AcDbDictionary
280
     1
  3
ACAD_ROUNDTRIP_2008_TABLES
360
2377
  3
ACAD_XREC_ROUNDTRIP
360
2390
  0
XRECORD
  5
238E
102
{ACAD_REACTORS
330
1DAA
102
}
330
1DAA
100
AcDbXrecord
102
MATERIAL
148
0.0
149
0.0
149
0.0
 93
        0
 94
      127
282
     0
 72
     0
 77
     0
171
     0
175
     0
179
     0
273
     0
  0
XRECORD
  5
1DAC
102
{ACAD_REACTORS
330
1DAA
102
}
330
1DAA
100
AcDbXrecord
270
     1
271
     1
  0
XRECORD
  5
1DAB
102
{ACAD_REACTORS
330
1DAA
102
}
330
1DAA
100
AcDbXrecord
270
     1
271
     1
  0
XRECORD
  5
1DAF
102
{ACAD_REACTORS
330
1DAA
102
}
330
1DAA
100
AcDbXrecord
270
     1
271
     1
  0
XRECORD
  5
1DAE
102
{ACAD_REACTORS
330
1DAA
102
}
330
1DAA
100
AcDbXrecord
270
     1
271
     1
  0
XRECORD
  5
1DB0
102
{ACAD_REACTORS
330
1DAA
102
}
330
1DAA
100
AcDbXrecord
270
     1
271
     1
  0
XRECORD
  5
1DAD
102
{ACAD_REACTORS
330
1DAA
102
}
330
1DAA
100
AcDbXrecord
270
     1
271
     1
  0
XRECORD
  5
238D
102
{ACAD_REACTORS
330
1DA2
102
}
330
1DA2
100
AcDbXrecord
102
MATERIAL
148
0.0
149
0.0
149
0.0
 93
        0
 94
      127
282
     0
 72
     0
 77
     0
171
     0
175
     0
179
     0
273
     0
  0
XRECORD
  5
1DA4
102
{ACAD_REACTORS
330
1DA2
102
}
330
1DA2
100
AcDbXrecord
270
     1
271
     1
  0
XRECORD
  5
1DA3
102
{ACAD_REACTORS
330
1DA2
102
}
330
1DA2
100
AcDbXrecord
270
     1
271
     1
  0
XRECORD
  5
1DA7
102
{ACAD_REACTORS
330
1DA2
102
}
330
1DA2
100
AcDbXrecord
270
     1
271
     1
  0
XRECORD
  5
1DA6
102
{ACAD_REACTORS
330
1DA2
102
}
330
1DA2
100
AcDbXrecord
270
     1
271
     1
  0
XRECORD
  5
1DA8
102
{ACAD_REACTORS
330
1DA2
102
}
330
1DA2
100
AcDbXrecord
270
     1
271
     1
  0
XRECORD
  5
1DA5
102
{ACAD_REACTORS
330
1DA2
102
}
330
1DA2
100
AcDbXrecord
270
     1
271
     1
  0
XRECORD
  5
238F
102
{ACAD_REACTORS
330
1DB2
102
}
330
1DB2
100
AcDbXrecord
102
MATERIAL
148
0.0
149
0.0
149
0.0
 93
        0
 94
      127
282
     0
 72
     0
 77
     0
171
     0
175
     0
179
     0
273
     0
  0
XRECORD
  5
1DB4
102
{ACAD_REACTORS
330
1DB2
102
}
330
1DB2
100
AcDbXrecord
270
     1
271
     1
  0
XRECORD
  5
1DB3
102
{ACAD_REACTORS
330
1DB2
102
}
330
1DB2
100
AcDbXrecord
270
     1
271
     1
  0
XRECORD
  5
1DB7
102
{ACAD_REACTORS
330
1DB2
102
}
330
1DB2
100
AcDbXrecord
270
     1
271
     1
  0
XRECORD
  5
1DB6
102
{ACAD_REACTORS
330
1DB2
102
}
330
1DB2
100
AcDbXrecord
270
     1
271
     1
  0
XRECORD
  5
1DB8
102
{ACAD_REACTORS
330
1DB2
102
}
330
1DB2
100
AcDbXrecord
270
     1
271
     1
  0
XRECORD
  5
1DB5
102
{ACAD_REACTORS
330
1DB2
102
}
330
1DB2
100
AcDbXrecord
270
     1
271
     1
  0
ACAD_PROXY_OBJECT
  5
2377
102
{ACAD_REACTORS
330
2376
102
}
330
2376
100
AcDbProxyObject
 90
      499
 91
      511
 93
     1044
310
40D054060020000020000003200101A000080002A5058000000C100000000000000340FE901405075F5449544C450041501A8000000C800406800020000A9416000000304000AD7A3703D0AC73FA409014217D2115051115480105406A0000003200101A000080002A5028000000C10002B5E8DC0F42B1CFE903409065F444
310
15441000
340
16
340
16
340
16
 94
        0
1001
ACAD
1000
AcadProxyRoundTripData
1071
      510
1071
   655383
1070
     0
  0
XRECORD
  5
2390
102
{ACAD_REACTORS
330
2376
102
}
330
2376
100
AcDbXrecord
102
ACAD_ROUNDTRIP_PRE2007_TABLESTYLE
 90
      512
 91
        0
  1

 92
      512
 93
        0
  2

 94
      512
 95
        0
  3

  0
ENDSEC
  0
EOF
