  0
SECTION
  2
HEADER
  9
$ACADVER
  1
AC1014
  9
$ACADMAINTVER
 70
     9
  9
$DWGCODEPAGE
  3
ANSI_932
  9
$INSBASE
 10
0.0
 20
0.0
 30
0.0
  9
$EXTMIN
 10
31.10633984570426
 20
10.42198823585117
 30
0.0
  9
$EXTMAX
 10
524.7773374169128
 20
500.7315439072774
 30
0.0
  9
$LIMMIN
 10
0.0
 20
0.0
  9
$LIMMAX
 10
297.0
 20
210.0
  9
$ORTHOMODE
 70
     1
  9
$REGENMODE
 70
     1
  9
$FILLMODE
 70
     1
  9
$QTEXTMODE
 70
     0
  9
$MIRRTEXT
 70
     0
  9
$DRAGMODE
 70
     2
  9
$LTSCALE
 40
3.0
  9
$OSMODE
 70
    37
  9
$ATTMODE
 70
     1
  9
$TEXTSIZE
 40
9.0
  9
$TRACEWID
 40
1.0
  9
$TEXTSTYLE
  7
STANDARD
  9
$CLAYER
  8
0
  9
$CELTYPE
  6
BYLAYER
  9
$CECOLOR
 62
   256
  9
$CELTSCALE
 40
1.0
  9
$DELOBJ
 70
     1
  9
$DISPSILH
 70
     0
  9
$DIMSCALE
 40
3.0
  9
$DIMASZ
 40
1.8
  9
$DIMEXO
 40
0.625
  9
$DIMDLI
 40
3.75
  9
$DIMRND
 40
0.0
  9
$DIMDLE
 40
0.0
  9
$DIMEXE
 40
0.8
  9
$DIMTP
 40
0.0
  9
$DIMTM
 40
0.0
  9
$DIMTXT
 40
1.8
  9
$DIMCEN
 40
2.5
  9
$DIMTSZ
 40
0.0
  9
$DIMTOL
 70
     0
  9
$DIMLIM
 70
     0
  9
$DIMTIH
 70
     0
  9
$DIMTOH
 70
     0
  9
$DIMSE1
 70
     0
  9
$DIMSE2
 70
     0
  9
$DIMTAD
 70
     1
  9
$DIMZIN
 70
     8
  9
$DIMBLK
  1

  9
$DIMASO
 70
     1
  9
$DIMSHO
 70
     1
  9
$DIMPOST
  1

  9
$DIMAPOST
  1

  9
$DIMALT
 70
     0
  9
$DIMALTD
 70
     4
  9
$DIMALTF
 40
0.0394
  9
$DIMLFAC
 40
1.0
  9
$DIMTOFL
 70
     1
  9
$DIMTVP
 40
0.0
  9
$DIMTIX
 70
     0
  9
$DIMSOXD
 70
     0
  9
$DIMSAH
 70
     0
  9
$DIMBLK1
  1

  9
$DIMBLK2
  1

  9
$DIMSTYLE
  2
STANDARD
  9
$DIMCLRD
 70
     0
  9
$DIMCLRE
 70
     0
  9
$DIMCLRT
 70
     0
  9
$DIMTFAC
 40
1.0
  9
$DIMGAP
 40
0.75
  9
$DIMJUST
 70
     0
  9
$DIMSD1
 70
     0
  9
$DIMSD2
 70
     0
  9
$DIMTOLJ
 70
     1
  9
$DIMTZIN
 70
     0
  9
$DIMALTZ
 70
     0
  9
$DIMALTTZ
 70
     0
  9
$DIMFIT
 70
     3
  9
$DIMUPT
 70
     0
  9
$DIMUNIT
 70
     8
  9
$DIMDEC
 70
     2
  9
$DIMTDEC
 70
     2
  9
$DIMALTU
 70
     8
  9
$DIMALTTD
 70
     4
  9
$DIMTXSTY
  7
STANDARD
  9
$DIMAUNIT
 70
     0
  9
$LUNITS
 70
     2
  9
$LUPREC
 70
     3
  9
$SKETCHINC
 40
1.0
  9
$FILLETRAD
 40
10.0
  9
$AUNITS
 70
     0
  9
$AUPREC
 70
     2
  9
$MENU
  1
.
  9
$ELEVATION
 40
0.0
  9
$PELEVATION
 40
0.0
  9
$THICKNESS
 40
0.0
  9
$LIMCHECK
 70
     0
  9
$BLIPMODE
 70
     0
  9
$CHAMFERA
 40
0.0
  9
$CHAMFERB
 40
0.0
  9
$CHAMFERC
 40
20.0
  9
$CHAMFERD
 40
0.0
  9
$SKPOLY
 70
     0
  9
$TDCREATE
 40
2453692.643204745
  9
$TDUPDATE
 40
2453928.620564409
  9
$TDINDWG
 40
0.0533566782
  9
$TDUSRTIMER
 40
0.0533566782
  9
$USRTIMER
 70
     1
  9
$ANGBASE
 50
0.0
  9
$ANGDIR
 70
     0
  9
$PDMODE
 70
     0
  9
$PDSIZE
 40
-10.0
  9
$PLINEWID
 40
0.0
  9
$COORDS
 70
     0
  9
$SPLFRAME
 70
     0
  9
$SPLINETYPE
 70
     6
  9
$SPLINESEGS
 70
     8
  9
$ATTDIA
 70
     0
  9
$ATTREQ
 70
     1
  9
$HANDLING
 70
-16383
  9
$HANDSEED
  5
3032
  9
$SURFTAB1
 70
     6
  9
$SURFTAB2
 70
     6
  9
$SURFTYPE
 70
     6
  9
$SURFU
 70
     6
  9
$SURFV
 70
     6
  9
$UCSNAME
  2

  9
$UCSORG
 10
0.0
 20
0.0
 30
0.0
  9
$UCSXDIR
 10
1.0
 20
0.0
 30
0.0
  9
$UCSYDIR
 10
0.0
 20
1.0
 30
0.0
  9
$PUCSNAME
  2

  9
$PUCSORG
 10
0.0
 20
0.0
 30
0.0
  9
$PUCSXDIR
 10
1.0
 20
0.0
 30
0.0
  9
$PUCSYDIR
 10
0.0
 20
1.0
 30
0.0
  9
$USERI1
 70
     0
  9
$USERI2
 70
     0
  9
$USERI3
 70
     0
  9
$USERI4
 70
     0
  9
$USERI5
 70
     0
  9
$USERR1
 40
0.0
  9
$USERR2
 40
0.0
  9
$USERR3
 40
0.0
  9
$USERR4
 40
0.0
  9
$USERR5
 40
0.0
  9
$WORLDVIEW
 70
     1
  9
$SHADEDGE
 70
     3
  9
$SHADEDIF
 70
    70
  9
$TILEMODE
 70
     1
  9
$MAXACTVP
 70
    48
  9
$PINSBASE
 10
0.0
 20
0.0
 30
0.0
  9
$PLIMCHECK
 70
     0
  9
$PEXTMIN
 10
0.0
 20
0.0
 30
0.0
  9
$PEXTMAX
 10
0.0
 20
0.0
 30
0.0
  9
$PLIMMIN
 10
0.0
 20
0.0
  9
$PLIMMAX
 10
12.0
 20
9.0
  9
$UNITMODE
 70
     0
  9
$VISRETAIN
 70
     1
  9
$PLINEGEN
 70
     0
  9
$PSLTSCALE
 70
     1
  9
$TREEDEPTH
 70
  3020
  9
$PICKSTYLE
 70
     1
  9
$CMLSTYLE
  2
STANDARD
  9
$CMLJUST
 70
     0
  9
$CMLSCALE
 40
1.0
  9
$PROXYGRAPHICS
 70
     1
  9
$MEASUREMENT
 70
     0
  0
ENDSEC
  0
SECTION
  2
CLASSES
  0
CLASS
  1
DICTIONARYVAR
  2
AcDbDictionaryVar
  3
AutoCAD 2000
 90
        0
280
     0
281
     0
  0
CLASS
  1
ACDBDICTIONARYWDFLT
  2
AcDbDictionaryWithDefault
  3
AutoCAD 2000
 90
        0
280
     0
281
     0
  0
CLASS
  1
ACDBPLACEHOLDER
  2
AcDbPlaceHolder
  3
AutoCAD 2000
 90
        0
280
     0
281
     0
  0
CLASS
  1
LAYOUT
  2
AcDbLayout
  3
AutoCAD 2000
 90
        0
280
     0
281
     0
  0
CLASS
  1
LONG_TRANSACTION
  2
AcDbLongTransaction
  3
AutoCAD 2000
 90
        0
280
     0
281
     0
  0
CLASS
  1
LWPOLYLINE
  2
AcDbPolyline
  3
AutoCAD 2000
 90
        0
280
     0
281
     1
  0
CLASS
  1
HATCH
  2
AcDbHatch
  3
AutoCAD 2000
 90
        0
280
     0
281
     1
  0
CLASS
  1
XRECORD
  2
AcDbXrecord
  3
AutoCAD 2000
 90
        0
280
     0
281
     0
  0
ENDSEC
  0
SECTION
  2
TABLES
  0
TABLE
  2
VPORT
  5
6E
330
0
100
AcDbSymbolTable
 70
     2
  0
VPORT
  5
300C
330
6E
100
AcDbSymbolTableRecord
100
AcDbViewportTableRecord
  2
*ACTIVE
 70
     0
 10
0.0
 20
0.0
 11
1.0
 21
1.0
 12
310.5506157653564
 22
255.5804532817657
 13
0.0
 23
0.0
 14
10.0
 24
10.0
 15
10.0
 25
10.0
 16
0.0
 26
0.0
 36
1.0
 17
0.0
 27
0.0
 37
0.0
 40
494.1535204534749
 41
1.566970091027308
 42
50.0
 43
0.0
 44
0.0
 50
0.0
 51
0.0
 71
     0
 72
   100
 73
     1
 74
     3
 75
     0
 76
     0
 77
     0
 78
     0
  0
ENDTAB
  0
TABLE
  2
LTYPE
  5
69
330
0
100
AcDbSymbolTable
 70
     5
  0
LTYPE
  5
6A
330
69
100
AcDbSymbolTableRecord
100
AcDbLinetypeTableRecord
  2
BYBLOCK
 70
     0
  3

 72
    65
 73
     0
 40
0.0
  0
LTYPE
  5
6B
330
69
100
AcDbSymbolTableRecord
100
AcDbLinetypeTableRecord
  2
BYLAYER
 70
     0
  3

 72
    65
 73
     0
 40
0.0
  0
LTYPE
  5
8
330
69
100
AcDbSymbolTableRecord
100
AcDbLinetypeTableRecord
  2
CONTINUOUS
 70
     0
  3
Solid line
 72
    65
 73
     0
 40
0.0
  0
LTYPE
  5
27C
330
69
100
AcDbSymbolTableRecord
100
AcDbLinetypeTableRecord
  2
SEKKEI_A2_
 70
     0
  3
center(A2)  ____ _ ____ _ ____ _ ____ _ ____ _ 
 72
    65
 73
     4
 40
14.28749999999999
 49
9.525
 74
     0
 49
-1.587499999999999
 74
     0
 49
1.587499999999999
 74
     0
 49
-1.587499999999999
 74
     0
  0
LTYPE
  5
2B4
330
69
100
AcDbSymbolTableRecord
100
AcDbLinetypeTableRecord
  2
HIDDEN2
 70
     0
  3
Hidden (.5x) _ _ _ _ _ _ _ _ _ _ _ _ _ _ _ _ _
 72
    65
 73
     2
 40
4.762499999999999
 49
3.174999999999999
 74
     0
 49
-1.587499999999999
 74
     0
  0
LTYPE
  5
48F
330
69
100
AcDbSymbolTableRecord
100
AcDbLinetypeTableRecord
  2
SEKKEI_H
 70
     0
  3
Hidden-S _ _ _ _ _ _ _ _ _ _ _ _ _ _ _ _ _
 72
    65
 73
     2
 40
2.381249999999999
 49
1.587499999999999
 74
     0
 49
-0.79375
 74
     0
  0
ENDTAB
  0
TABLE
  2
LAYER
  5
66
330
0
100
AcDbSymbolTable
 70
    10
  0
LAYER
  5
5E
330
66
100
AcDbSymbolTableRecord
100
AcDbLayerTableRecord
  2
0
 70
     0
 62
     7
  6
CONTINUOUS
  0
LAYER
  5
3E
330
66
100
AcDbSymbolTableRecord
100
AcDbLayerTableRecord
  2
CENTER
 70
     0
 62
     3
  6
SEKKEI_A2_
  0
LAYER
  5
2B5
330
66
100
AcDbSymbolTableRecord
100
AcDbLayerTableRecord
  2
HIDS
 70
     0
 62
     1
  6
HIDDEN2
  0
LAYER
  5
2BA
330
66
100
AcDbSymbolTableRecord
100
AcDbLayerTableRecord
  2
HOJO
 70
     0
 62
     4
  6
CONTINUOUS
  0
LAYER
  5
3FA
330
66
100
AcDbSymbolTableRecord
100
AcDbLayerTableRecord
  2
TITLE
 70
     0
 62
     4
  6
CONTINUOUS
  0
ENDTAB
  0
TABLE
  2
STYLE
  5
67
330
0
100
AcDbSymbolTable
 70
     1
  0
STYLE
  5
16
330
67
100
AcDbSymbolTableRecord
100
AcDbTextStyleTableRecord
  2
STANDARD
 70
     0
 40
0.0
 41
1.0
 50
0.0
 71
     0
 42
9.0
  3
simplex.shx
  4
extfont.shx
  0
ENDTAB
  0
TABLE
  2
VIEW
  5
6C
330
0
100
AcDbSymbolTable
 70
     0
  0
ENDTAB
  0
TABLE
  2
UCS
  5
6D
330
0
100
AcDbSymbolTable
 70
     0
  0
ENDTAB
  0
TABLE
  2
APPID
  5
70
330
0
100
AcDbSymbolTable
 70
     4
  0
APPID
  5
71
330
70
100
AcDbSymbolTableRecord
100
AcDbRegAppTableRecord
  2
ACAD
 70
     0
  0
APPID
  5
A4B
330
70
100
AcDbSymbolTableRecord
100
AcDbRegAppTableRecord
  2
CONTENTBLOCKICON
 70
     0
  0
APPID
  5
A4C
330
70
100
AcDbSymbolTableRecord
100
AcDbRegAppTableRecord
  2
CONTENTTABDATA
 70
     0
  0
APPID
  5
A4D
330
70
100
AcDbSymbolTableRecord
100
AcDbRegAppTableRecord
  2
CONTENTCURRENTTAB
 70
     0
  0
ENDTAB
  0
TABLE
  2
DIMSTYLE
  5
72
330
0
100
AcDbSymbolTable
 70
     1
  0
DIMSTYLE
105
73
330
72
100
AcDbSymbolTableRecord
100
AcDbDimStyleTableRecord
  2
STANDARD
 70
     0
  3

  4

  5

  6

  7

 40
3.0
 41
1.8
 42
0.625
 43
3.75
 44
0.8
 45
0.0
 46
0.0
 47
0.0
 48
0.0
140
1.8
141
2.5
142
0.0
143
0.0394
144
1.0
145
0.0
146
1.0
147
0.75
 71
     0
 72
     0
 73
     0
 74
     0
 75
     0
 76
     0
 77
     1
 78
     8
170
     0
171
     4
172
     1
173
     0
174
     0
175
     0
176
     0
177
     0
178
     0
270
     8
271
     2
272
     2
273
     8
274
     4
340
16
275
     0
280
     0
281
     0
282
     0
283
     1
284
     0
285
     0
286
     0
287
     3
288
     0
  0
ENDTAB
  0
TABLE
  2
BLOCK_RECORD
  5
1
330
0
100
AcDbSymbolTable
 70
    35
  0
BLOCK_RECORD
  5
2
102
{ACAD_XDICTIONARY
360
302E
102
}
330
1
100
AcDbSymbolTableRecord
100
AcDbBlockTableRecord
  2
*MODEL_SPACE
  0
BLOCK_RECORD
  5
3007
102
{ACAD_XDICTIONARY
360
3030
102
}
330
1
100
AcDbSymbolTableRecord
100
AcDbBlockTableRecord
  2
*PAPER_SPACE
  0
ENDTAB
  0
ENDSEC
  0
SECTION
  2
BLOCKS
  0
BLOCK
  5
5D
330
2
100
AcDbEntity
  8
0
100
AcDbBlockBegin
  2
*MODEL_SPACE
 70
     0
 10
0.0
 20
0.0
 30
0.0
  3
*MODEL_SPACE
  1

  0
ENDBLK
  5
5F
330
2
100
AcDbEntity
  8
0
100
AcDbBlockEnd
  0
BLOCK
  5
3009
330
3007
100
AcDbEntity
 67
     1
  8
0
100
AcDbBlockBegin
  2
*PAPER_SPACE
 70
     0
 10
0.0
 20
0.0
 30
0.0
  3
*PAPER_SPACE
  1

  0
ENDBLK
  5
300A
330
3007
100
AcDbEntity
 67
     1
  8
0
100
AcDbBlockEnd
  0
ENDSEC
  0
SECTION
  2
ENTITIES
  0
LINE
  5
6C7
330
2
100
AcDbEntity
  8
CENTER
100
AcDbLine
 10
31.10633984570426
 20
153.4061604586545
 30
0.0
 11
187.1697374127686
 21
153.4061604586545
 31
0.0
  0
LINE
  5
70F
330
2
100
AcDbEntity
  8
0
100
AcDbLine
 10
274.1697294127686
 20
183.4061604586542
 30
0.0
 11
274.1697294127686
 21
161.4061604586542
 31
0.0
  0
LINE
  5
710
330
2
100
AcDbEntity
  8
0
100
AcDbLine
 10
232.1697294127686
 20
194.9061604586542
 30
0.0
 11
232.1697294127686
 21
149.9061584586542
 31
0.0
  0
LINE
  5
711
330
2
100
AcDbEntity
  8
0
100
AcDbLine
 10
234.1697294127687
 20
184.4061604586542
 30
0.0
 11
234.1697294127687
 21
160.4061604586542
 31
0.0
  0
ARC
  5
712
330
2
100
AcDbEntity
  8
0
100
AcDbCircle
 10
326.1697144127688
 20
146.4061604586541
 30
0.0
 40
130.0
100
AcDbArc
 50
147.7115939999997
 51
180.0
  0
LINE
  5
714
330
2
100
AcDbEntity
  8
0
100
AcDbLine
 10
151.1697374127686
 20
94.50562145865422
 30
0.0
 11
151.1697374127686
 21
219.4061984586542
 31
0.0
  0
LINE
  5
715
330
2
100
AcDbEntity
  8
0
100
AcDbLine
 10
143.6697334127686
 20
210.9061604586542
 30
0.0
 11
143.6697334127686
 21
95.9061604586542
 31
0.0
  0
ARC
  5
716
330
2
100
AcDbEntity
  8
0
100
AcDbCircle
 10
-70.83027058723132
 20
95.19051945865419
 30
0.0
 40
240.0
100
AcDbArc
 50
1.107463999999678
 51
18.19492899999975
  0
ARC
  5
717
330
2
100
AcDbEntity
  8
0
100
AcDbCircle
 10
-469.8307125872311
 20
153.4061604586542
 30
0.0
 40
700.0
100
AcDbArc
 50
356.6426090000003
 51
3.603821000000682
  0
LINE
  5
718
330
2
100
AcDbEntity
  8
0
100
AcDbLine
 10
157.1697374127686
 20
221.4060004586542
 30
0.0
 11
157.1697374127686
 21
94.6103424586542
 31
0.0
  0
LINE
  5
719
330
2
100
AcDbEntity
  8
0
100
AcDbLine
 10
234.1697294127687
 20
161.4061604586542
 30
0.0
 11
274.1697294127686
 21
161.4061604586542
 31
0.0
  0
LINE
  5
71A
330
2
100
AcDbEntity
  8
0
100
AcDbLine
 10
141.6697334127686
 20
82.40609945865418
 30
0.0
 11
231.6697294127686
 21
82.40609945865418
 31
0.0
  0
LINE
  5
71B
330
2
100
AcDbEntity
  8
0
100
AcDbLine
 10
156.5447374127686
 20
100.0892624586542
 30
0.0
 11
152.0447374127686
 21
100.0892624586542
 31
0.0
  0
LINE
  5
71C
330
2
100
AcDbEntity
  8
0
100
AcDbLine
 10
145.4685344127688
 20
94.40609945865423
 30
0.0
 11
164.2130954127687
 21
94.73328245865422
 31
0.0
  0
LINE
  5
71D
330
2
100
AcDbEntity
  8
HIDS
  6
SEKKEI_H
100
AcDbLine
 10
148.6697374127686
 20
94.46198045865418
 30
0.0
 11
148.6697374127686
 21
82.40609945865418
 31
0.0
  0
LINE
  5
71E
330
2
100
AcDbEntity
  8
CENTER
100
AcDbLine
 10
154.1697374127686
 20
97.15397894759764
 30
0.0
 11
154.1697374127686
 21
79.90609945865421
 31
0.0
  0
ARC
  5
71F
330
2
100
AcDbEntity
  8
0
100
AcDbCircle
 10
145.4685344127688
 20
91.40609945865424
 30
0.0
 40
3.0
100
AcDbArc
 50
90.0
 51
175.0005039999996
  0
LINE
  5
720
330
2
100
AcDbEntity
  8
0
100
AcDbLine
 10
142.4799564127688
 20
91.66753945865423
 30
0.0
 11
141.6697334127686
 21
82.40609945865418
 31
0.0
  0
LINE
  5
725
330
2
100
AcDbEntity
  8
0
100
AcDbLine
 10
143.6697334127686
 20
95.9061604586542
 30
0.0
 11
148.1697524127687
 21
95.9061604586542
 31
0.0
  0
ARC
  5
726
330
2
100
AcDbEntity
  8
0
100
AcDbCircle
 10
148.1697524127687
 20
92.90614145865419
 30
0.0
 40
3.0
100
AcDbArc
 50
32.03855900000005
 51
90.0
  0
LINE
  5
727
330
2
100
AcDbEntity
  8
HIDS
  6
SEKKEI_H
100
AcDbLine
 10
159.6697374127686
 20
94.65398245865419
 30
0.0
 11
159.6697374127686
 21
82.40609945865418
 31
0.0
  0
LINE
  5
728
330
2
100
AcDbEntity
  8
0
100
AcDbLine
 10
158.2496934127686
 20
100.0892624586542
 30
0.0
 11
166.4996934127686
 21
100.0892624586542
 31
0.0
  0
LINE
  5
729
330
2
100
AcDbEntity
  8
0
100
AcDbLine
 10
159.1697374127686
 20
94.6939414586542
 30
0.0
 11
159.1697374127686
 21
100.0892624586542
 31
0.0
  0
ARC
  5
72A
330
2
100
AcDbEntity
  8
0
100
AcDbCircle
 10
164.1258374127687
 20
99.73254245865417
 30
0.0
 40
5.0
100
AcDbArc
 50
271.0000920000003
 51
1.107672999999401
  0
LINE
  5
72B
330
2
100
AcDbEntity
  8
0
100
AcDbLine
 10
156.5447374127686
 20
116.9092804586541
 30
0.0
 11
152.0447374127686
 21
116.9092804586541
 31
0.0
  0
LINE
  5
737
330
2
100
AcDbEntity
  8
0
100
AcDbLine
 10
158.2496934127686
 20
116.9092804586541
 30
0.0
 11
166.4996934127686
 21
116.9092804586541
 31
0.0
  0
ARC
  5
738
330
2
100
AcDbEntity
  8
0
100
AcDbCircle
 10
224.6695314127687
 20
114.4083804586541
 30
0.0
 40
3.0
100
AcDbArc
 50
129.0888060000006
 51
180.0
  0
ARC
  5
739
330
2
100
AcDbEntity
  8
0
100
AcDbCircle
 10
366.1697144127688
 20
146.4061604586541
 30
0.0
 40
170.0
100
AcDbArc
 50
180.0
 51
196.4234919999992
  0
ARC
  5
73A
330
2
100
AcDbEntity
  8
0
100
AcDbCircle
 10
194.9449374127686
 20
254.2678014586542
 30
0.0
 40
142.392197
100
AcDbArc
 50
273.5635990000005
 51
280.3001100000004
  0
LINE
  5
73B
330
2
100
AcDbEntity
  8
0
100
AcDbLine
 10
207.8147344127687
 20
94.75612045865421
 30
0.0
 11
227.8709324127687
 21
94.40609945865423
 31
0.0
  0
LINE
  5
73C
330
2
100
AcDbEntity
  8
HIDS
  6
SEKKEI_H
100
AcDbLine
 10
213.6697294127686
 20
94.65394045865423
 30
0.0
 11
213.6697294127686
 21
82.40609945865418
 31
0.0
  0
LINE
  5
73D
330
2
100
AcDbEntity
  8
CENTER
100
AcDbLine
 10
219.1697294127686
 20
97.15397894759764
 30
0.0
 11
219.1697294127686
 21
79.90609945865418
 31
0.0
  0
ARC
  5
73E
330
2
100
AcDbEntity
  8
0
100
AcDbCircle
 10
207.9019384127686
 20
99.75530045865424
 30
0.0
 40
5.0
100
AcDbArc
 50
196.4232940000012
 51
269.0006099999996
  0
LINE
  5
73F
330
2
100
AcDbEntity
  8
HIDS
  6
SEKKEI_H
100
AcDbLine
 10
224.6697294127686
 20
94.46196145865418
 30
0.0
 11
224.6697294127686
 21
82.40609945865418
 31
0.0
  0
ARC
  5
740
330
2
100
AcDbEntity
  8
0
100
AcDbCircle
 10
227.8709324127687
 20
91.40608045865418
 30
0.0
 40
3.0
100
AcDbArc
 50
5.000380000000087
 51
90.0
  0
LINE
  5
741
330
2
100
AcDbEntity
  8
0
100
AcDbLine
 10
230.8595334127687
 20
91.66758145865419
 30
0.0
 11
231.6697294127686
 21
82.40609945865418
 31
0.0
  0
ARC
  5
742
330
2
100
AcDbEntity
  8
0
100
AcDbCircle
 10
301.4729214127687
 20
120.0158594586541
 30
0.0
 40
80.0
100
AcDbArc
 50
184.0191039999992
 51
197.075302
  0
ARC
  5
743
330
2
100
AcDbEntity
  8
0
100
AcDbCircle
 10
211.9969394127688
 20
113.4062214586541
 30
0.0
 40
17.0
100
AcDbArc
 50
313.6499940000001
 51
356.6427919999989
  0
ARC
  5
744
330
2
100
AcDbEntity
  8
0
100
AcDbCircle
 10
227.8669344127688
 20
97.40664145865423
 30
0.0
 40
3.0
100
AcDbArc
 50
197.0751950000009
 51
269.0006099999996
  0
ARC
  5
745
330
2
100
AcDbEntity
  8
0
100
AcDbCircle
 10
229.6697294127686
 20
149.9061584586542
 30
0.0
 40
2.5
100
AcDbArc
 50
280.9344790000002
 51
0.0
  0
LINE
  5
746
330
2
100
AcDbEntity
  8
0
100
AcDbLine
 10
232.1697294127686
 20
160.4061604586542
 30
0.0
 11
234.1697294127687
 21
160.4061604586542
 31
0.0
  0
LINE
  5
747
330
2
100
AcDbEntity
  8
0
100
AcDbLine
 10
242.1697294127686
 20
169.4061604586542
 30
0.0
 11
274.1697294127686
 21
169.4061604586542
 31
0.0
  0
LINE
  5
748
330
2
100
AcDbEntity
  8
0
100
AcDbLine
 10
242.1697294127686
 20
175.4061604586541
 30
0.0
 11
274.1697294127686
 21
175.4061604586541
 31
0.0
  0
LINE
  5
749
330
2
100
AcDbEntity
  8
0
100
AcDbLine
 10
234.1697294127687
 20
183.4061604586542
 30
0.0
 11
274.1697294127686
 21
183.4061604586542
 31
0.0
  0
LINE
  5
74A
330
2
100
AcDbEntity
  8
CENTER
100
AcDbLine
 10
281.7501869793118
 20
172.4061604586542
 30
0.0
 11
189.7501949793118
 21
172.4061604586542
 31
0.0
  0
ARC
  5
752
330
2
100
AcDbEntity
  8
0
100
AcDbCircle
 10
157.1697374127686
 20
-308.6746505413458
 30
0.0
 40
530.0
100
AcDbArc
 50
83.71740700000026
 51
89.00066399999984
  0
LINE
  5
76A
330
2
100
AcDbEntity
  8
0
100
AcDbLine
 10
153.1697374127686
 20
221.4061604586542
 30
0.0
 11
157.1697374127686
 21
221.4060004586542
 31
0.0
  0
ARC
  5
773
330
2
100
AcDbEntity
  8
0
100
AcDbCircle
 10
153.1697374127686
 20
219.4061984586542
 30
0.0
 40
2.0
100
AcDbArc
 50
90.0
 51
180.0
  0
LINE
  5
774
330
2
100
AcDbEntity
  8
0
100
AcDbLine
 10
143.6697334127686
 20
210.9061604586542
 30
0.0
 11
148.1697144127688
 21
210.9061604586542
 31
0.0
  0
ARC
  5
775
330
2
100
AcDbEntity
  8
0
100
AcDbCircle
 10
148.1697374127686
 20
213.9061604586542
 30
0.0
 40
3.0
100
AcDbArc
 50
270.0
 51
0.0
  0
LINE
  5
793
330
2
100
AcDbEntity
  8
0
100
AcDbLine
 10
157.1697374127686
 20
221.4060004586542
 30
0.0
 11
166.4125584127686
 21
221.2447224586542
 31
0.0
  0
ARC
  5
7F8
330
2
100
AcDbEntity
  8
0
100
AcDbCircle
 10
211.6195284127686
 20
199.3917604586541
 30
0.0
 40
17.0
100
AcDbArc
 50
5.316978000000066
 51
66.96292900000024
  0
LINE
  5
7F9
330
2
100
AcDbEntity
  8
0
100
AcDbLine
 10
232.1697294127686
 20
184.4061604586542
 30
0.0
 11
234.1697294127687
 21
184.4061604586542
 31
0.0
  0
ARC
  5
7FA
330
2
100
AcDbEntity
  8
0
100
AcDbCircle
 10
242.1697294127686
 20
172.4061604586542
 30
0.0
 40
3.0
100
AcDbArc
 50
90.0
 51
270.0
  0
ARC
  5
7FB
330
2
100
AcDbEntity
  8
0
100
AcDbCircle
 10
229.6697294127686
 20
194.9061604586542
 30
0.0
 40
2.5
100
AcDbArc
 50
0.0
 51
90.0
  0
ARC
  5
7FC
330
2
100
AcDbEntity
  8
0
100
AcDbCircle
 10
-469.8307125872311
 20
153.4061604586542
 30
0.0
 40
700.0
100
AcDbArc
 50
3.603821000000682
 51
3.895951999998907
  0
LINE
  5
7FD
330
2
100
AcDbEntity
  8
0
100
AcDbLine
 10
228.7849334127686
 20
197.4061604586541
 30
0.0
 11
229.6697294127686
 21
197.4061604586541
 31
0.0
  0
ARC
  5
7FE
330
2
100
AcDbEntity
  8
0
100
AcDbCircle
 10
215.0039274127686
 20
216.6514414586541
 30
0.0
 40
1.5
100
AcDbArc
 50
327.7117880000002
 51
83.71753699999969
  0
ARC
  5
7FF
330
2
100
AcDbEntity
  8
0
100
AcDbCircle
 10
216.9327304127687
 20
216.1229004586542
 30
0.0
 40
0.5
100
AcDbArc
 50
164.676604999999
 51
248.6154019999998
  0
ARC
  5
800
330
2
100
AcDbEntity
  8
0
100
AcDbCircle
 10
195.9665364127686
 20
162.5816404586541
 30
0.0
 40
57.0
100
AcDbArc
 50
66.9629209999999
 51
68.61509700000003
  0
ARC
  5
80C
330
2
100
AcDbEntity
  8
0
100
AcDbCircle
 10
423.2077264169126
 20
158.9061604586541
 30
0.0
 40
84.0
100
AcDbArc
 50
354.3693079999997
 51
27.31318099999862
  0
ARC
  5
80D
330
2
100
AcDbEntity
  8
0
100
AcDbCircle
 10
472.2077264169127
 20
158.9061604586541
 30
0.0
 40
84.0
100
AcDbArc
 50
152.6869050000003
 51
185.6307069999993
  0
ARC
  5
80E
330
2
100
AcDbEntity
  8
0
100
AcDbCircle
 10
447.7077264169126
 20
172.4061604586542
 30
0.0
 40
11.0
100
AcDbArc
 50
195.8265990000011
 51
164.1734009999988
  0
CIRCLE
  5
80F
330
2
100
AcDbEntity
  8
0
100
AcDbCircle
 10
447.7077264169126
 20
172.4061604586542
 30
0.0
 40
25.0
  0
LINE
  5
810
330
2
100
AcDbEntity
  8
0
100
AcDbLine
 10
512.5559324169127
 20
170.1303424586541
 30
0.0
 11
524.7773374169128
 21
82.40609945865418
 31
0.0
  0
LINE
  5
811
330
2
100
AcDbEntity
  8
0
100
AcDbLine
 10
382.8595214169126
 20
170.1299154586541
 30
0.0
 11
370.6381164169129
 21
82.4061604586542
 31
0.0
  0
LINE
  5
812
330
2
100
AcDbEntity
  8
CENTER
100
AcDbLine
 10
447.7077264169126
 20
244.1023114260481
 30
0.0
 11
447.7077264169126
 21
73.52999096290876
 31
0.0
  0
LINE
  5
813
330
2
100
AcDbEntity
  8
0
100
AcDbLine
 10
485.9739314169128
 20
94.4061604586542
 30
0.0
 11
501.2087334169128
 21
94.4061604586542
 31
0.0
  0
LINE
  5
814
330
2
100
AcDbEntity
  8
0
100
AcDbLine
 10
524.7773374169128
 20
82.40609945865418
 30
0.0
 11
481.7079094169128
 21
82.40609945865418
 31
0.0
  0
ARC
  5
815
330
2
100
AcDbEntity
  8
0
100
AcDbCircle
 10
383.7077264169126
 20
172.4061604586542
 30
0.0
 40
125.0
100
AcDbArc
 50
331.0027600000005
 51
349.9835800000004
  0
LINE
  5
816
330
2
100
AcDbEntity
  8
0
100
AcDbLine
 10
433.0077144169126
 20
112.4061604586541
 30
0.0
 11
442.8079154169126
 21
112.4061604586541
 31
0.0
  0
ARC
  5
817
330
2
100
AcDbEntity
  8
0
100
AcDbCircle
 10
438.3079154169126
 20
116.1691604586542
 30
0.0
 40
6.5
100
AcDbArc
 50
112.352501
 51
215.3744959999995
  0
ARC
  5
818
330
2
100
AcDbEntity
  8
0
100
AcDbCircle
 10
447.7077264169126
 20
-113.5938395413458
 30
0.0
 40
200.0
100
AcDbArc
 50
80.18475300000012
 51
99.81522400000041
  0
ARC
  5
819
330
2
100
AcDbEntity
  8
0
100
AcDbCircle
 10
447.7077264169126
 20
219.4061604586542
 30
0.0
 40
123.0
100
AcDbArc
 50
255.7680050000001
 51
270.0
  0
ARC
  5
81A
330
2
100
AcDbEntity
  8
0
100
AcDbCircle
 10
511.7077264169129
 20
172.4061604586542
 30
0.0
 40
125.0
100
AcDbArc
 50
190.0164029999988
 51
208.9069059999992
  0
LINE
  5
81B
330
2
100
AcDbEntity
  8
0
100
AcDbLine
 10
409.4419184169128
 20
94.4061604586542
 30
0.0
 11
394.2067194169126
 21
94.4061604586542
 31
0.0
  0
LINE
  5
81C
330
2
100
AcDbEntity
  8
0
100
AcDbLine
 10
398.9047174169127
 20
97.69595945865422
 30
0.0
 11
404.2955254169128
 21
112.5062614586541
 31
0.0
  0
LINE
  5
81D
330
2
100
AcDbEntity
  8
0
100
AcDbLine
 10
370.6381164169129
 20
82.4061604586542
 30
0.0
 11
413.7075134169126
 21
82.4061604586542
 31
0.0
  0
LINE
  5
81E
330
2
100
AcDbEntity
  8
CENTER
100
AcDbLine
 10
382.7077264169126
 20
79.9061604586542
 30
0.0
 11
382.7077264169129
 21
96.9061604586542
 31
0.0
  0
LINE
  5
81F
330
2
100
AcDbEntity
  8
HIDS
  6
SEKKEI_H
100
AcDbLine
 10
388.2077264169126
 20
94.4061604586542
 30
0.0
 11
388.2077264169126
 21
82.4061604586542
 31
0.0
  0
ARC
  5
820
330
2
100
AcDbEntity
  8
0
100
AcDbCircle
 10
374.9209224169128
 20
91.40627845865424
 30
0.0
 40
3.0
100
AcDbArc
 50
90.0
 51
172.0691070000002
  0
LINE
  5
821
330
2
100
AcDbEntity
  8
HIDS
  6
SEKKEI_H
100
AcDbLine
 10
377.2077264169126
 20
94.4061604586542
 30
0.0
 11
377.2077264169126
 21
82.4061604586542
 31
0.0
  0
LINE
  5
822
330
2
100
AcDbEntity
  8
0
100
AcDbLine
 10
374.9209224169128
 20
94.4061604586542
 30
0.0
 11
394.2067194169126
 21
94.4061604586542
 31
0.0
  0
ARC
  5
823
330
2
100
AcDbEntity
  8
0
100
AcDbCircle
 10
394.2067194169126
 20
99.4061604586542
 30
0.0
 40
5.0
100
AcDbArc
 50
270.0
 51
339.9986880000003
  0
ARC
  5
824
330
2
100
AcDbEntity
  8
0
100
AcDbCircle
 10
409.9087154169128
 20
91.40616045865419
 30
0.0
 40
3.0
100
AcDbArc
 50
5.00044800000072
 51
90.0
  0
LINE
  5
825
330
2
100
AcDbEntity
  8
0
100
AcDbLine
 10
412.8977294169128
 20
91.66769945865416
 30
0.0
 11
413.7075134169126
 21
82.4061604586542
 31
0.0
  0
LINE
  5
826
330
2
100
AcDbEntity
  8
0
100
AcDbLine
 10
406.6217284169126
 20
98.43221845865423
 30
0.0
 11
409.1317374169127
 21
105.3265014586542
 31
0.0
  0
ARC
  5
827
330
2
100
AcDbEntity
  8
0
100
AcDbCircle
 10
410.3159114169127
 20
99.80941945865419
 30
0.0
 40
3.0
100
AcDbArc
 50
61.08962999999956
 51
159.9962009999998
  0
ARC
  5
828
330
2
100
AcDbEntity
  8
0
100
AcDbCircle
 10
409.4419184169128
 20
97.4061604586542
 30
0.0
 40
3.0
100
AcDbArc
 50
159.9989929999993
 51
270.0
  0
LINE
  5
829
330
2
100
AcDbEntity
  8
0
100
AcDbLine
 10
409.9087154169128
 20
94.4061604586542
 30
0.0
 11
409.4419184169128
 21
94.4061604586542
 31
0.0
  0
ARC
  5
82A
330
2
100
AcDbEntity
  8
0
100
AcDbCircle
 10
423.3689204169126
 20
123.4445614586542
 30
0.0
 40
24.0
100
AcDbArc
 50
241.0894009999994
 51
255.7678989999997
  0
ARC
  5
82B
330
2
100
AcDbEntity
  8
0
100
AcDbCircle
 10
411.0107354169127
 20
104.6423014586541
 30
0.0
 40
2.0
100
AcDbArc
 50
56.68413900000014
 51
159.9963069999997
  0
ARC
  5
82C
330
2
100
AcDbEntity
  8
0
100
AcDbCircle
 10
397.9047174169127
 20
109.5658814586542
 30
0.0
 40
5.0
100
AcDbArc
 50
339.998469999999
 51
28.90654899999915
  0
ARC
  5
82D
330
2
100
AcDbEntity
  8
0
100
AcDbCircle
 10
399.5967344169128
 20
114.2166384586541
 30
0.0
 40
5.0
100
AcDbArc
 50
339.997649999999
 51
21.21484900000033
  0
ARC
  5
82E
330
2
100
AcDbEntity
  8
0
100
AcDbCircle
 10
459.1079344169127
 20
118.2602214586542
 30
0.0
 40
4.5
100
AcDbArc
 50
311.8104209999998
 51
59.13299199999959
  0
LINE
  5
82F
330
2
100
AcDbEntity
  8
0
100
AcDbLine
 10
445.8079154169126
 20
118.9061604586542
 30
0.0
 11
445.8079154169126
 21
112.4061604586541
 31
0.0
  0
LINE
  5
830
330
2
100
AcDbEntity
  8
0
100
AcDbLine
 10
452.3079154169127
 20
122.4061604586542
 30
0.0
 11
452.3079154169127
 21
112.4061604586541
 31
0.0
  0
LINE
  5
831
330
2
100
AcDbEntity
  8
0
100
AcDbLine
 10
456.8079154169127
 20
117.4061604586541
 30
0.0
 11
459.8079154169126
 21
112.4061604586541
 31
0.0
  0
LINE
  5
832
330
2
100
AcDbEntity
  8
0
100
AcDbLine
 10
455.5579154169127
 20
118.9061604586542
 30
0.0
 11
455.5579154169127
 21
112.4061604586541
 31
0.0
  0
LINE
  5
833
330
2
100
AcDbEntity
  8
0
100
AcDbLine
 10
449.3079154169127
 20
118.9061604586542
 30
0.0
 11
449.3079154169127
 21
112.4061604586541
 31
0.0
  0
LINE
  5
834
330
2
100
AcDbEntity
  8
0
100
AcDbLine
 10
442.8079154169126
 20
117.4061604586541
 30
0.0
 11
442.8079154169126
 21
112.4061604586541
 31
0.0
  0
ARC
  5
835
330
2
100
AcDbEntity
  8
0
100
AcDbCircle
 10
438.8079154169126
 20
115.8556804586541
 30
0.0
 40
3.5
100
AcDbArc
 50
135.5460969999996
 51
220.5290069999997
  0
LINE
  5
836
330
2
100
AcDbEntity
  8
0
100
AcDbLine
 10
439.5579154169126
 20
117.4061604586541
 30
0.0
 11
439.5579154169126
 21
113.4061604586541
 31
0.0
  0
ARC
  5
837
330
2
100
AcDbEntity
  8
0
100
AcDbCircle
 10
447.7077264169126
 20
219.4061604586542
 30
0.0
 40
123.0
100
AcDbArc
 50
270.0
 51
284.2320860000003
  0
LINE
  5
838
330
2
100
AcDbEntity
  8
0
100
AcDbLine
 10
436.5275204169129
 20
113.4061604586541
 30
0.0
 11
439.5579154169126
 21
113.4061604586541
 31
0.0
  0
ARC
  5
839
330
2
100
AcDbEntity
  8
0
100
AcDbCircle
 10
436.5275204169129
 20
113.9061604586542
 30
0.0
 40
0.5
100
AcDbArc
 50
220.5301969999998
 51
270.0
  0
LINE
  5
83A
330
2
100
AcDbEntity
  8
0
100
AcDbLine
 10
445.8079154169126
 20
112.4061604586541
 30
0.0
 11
449.3079154169127
 21
112.4061604586541
 31
0.0
  0
LINE
  5
83B
330
2
100
AcDbEntity
  8
0
100
AcDbLine
 10
452.3079154169127
 20
112.4061604586541
 30
0.0
 11
455.5579154169127
 21
112.4061604586541
 31
0.0
  0
LINE
  5
83C
330
2
100
AcDbEntity
  8
0
100
AcDbLine
 10
463.6079344169127
 20
112.4061604586541
 30
0.0
 11
462.1079344169126
 21
114.9061604586542
 31
0.0
  0
LINE
  5
83D
330
2
100
AcDbEntity
  8
0
100
AcDbLine
 10
459.8079154169126
 20
112.4061604586541
 30
0.0
 11
463.6079344169127
 21
112.4061604586541
 31
0.0
  0
ARC
  5
83E
330
2
100
AcDbEntity
  8
0
100
AcDbCircle
 10
485.5067374169127
 20
91.40616045865419
 30
0.0
 40
3.0
100
AcDbArc
 50
90.0
 51
175.0000000000001
  0
LINE
  5
83F
330
2
100
AcDbEntity
  8
0
100
AcDbLine
 10
482.5177244169126
 20
91.66769945865416
 30
0.0
 11
481.7079094169128
 21
82.40609945865418
 31
0.0
  0
ARC
  5
840
330
2
100
AcDbEntity
  8
0
100
AcDbCircle
 10
484.4047174169126
 20
104.6423014586541
 30
0.0
 40
2.0
100
AcDbArc
 50
20.00369099999963
 51
123.3159029999997
  0
ARC
  5
841
330
2
100
AcDbEntity
  8
0
100
AcDbCircle
 10
485.0997244169128
 20
99.80930145865421
 30
0.0
 40
3.0
100
AcDbArc
 50
20.00012000000029
 51
118.9102020000003
  0
ARC
  5
842
330
2
100
AcDbEntity
  8
0
100
AcDbCircle
 10
472.0469294169126
 20
123.4446814586542
 30
0.0
 40
24.0
100
AcDbArc
 50
284.2320860000003
 51
298.9096979999993
  0
LINE
  5
843
330
2
100
AcDbEntity
  8
0
100
AcDbLine
 10
488.7927184169127
 20
98.43221845865423
 30
0.0
 11
486.2837154169128
 21
105.3258994586542
 31
0.0
  0
LINE
  5
844
330
2
100
AcDbEntity
  8
0
100
AcDbLine
 10
497.0447324169127
 20
96.22628245865417
 30
0.0
 11
491.1197134169128
 21
112.5055794586542
 31
0.0
  0
ARC
  5
845
330
2
100
AcDbEntity
  8
0
100
AcDbCircle
 10
485.9739314169128
 20
97.4061604586542
 30
0.0
 40
3.0
100
AcDbArc
 50
270.0
 51
20.00141000000021
  0
LINE
  5
846
330
2
100
AcDbEntity
  8
0
100
AcDbLine
 10
485.5067374169127
 20
94.4061604586542
 30
0.0
 11
485.9739314169128
 21
94.4061604586542
 31
0.0
  0
ARC
  5
847
330
2
100
AcDbEntity
  8
0
100
AcDbCircle
 10
499.8085264169128
 20
97.4063394586542
 30
0.0
 40
3.0
100
AcDbArc
 50
199.9996950000008
 51
270.0
  0
ARC
  5
848
330
2
100
AcDbEntity
  8
0
100
AcDbCircle
 10
495.8187194169126
 20
114.2166384586541
 30
0.0
 40
5.0
100
AcDbArc
 50
158.7852019999987
 51
200.0023040000004
  0
ARC
  5
849
330
2
100
AcDbEntity
  8
0
100
AcDbCircle
 10
497.5107354169126
 20
109.5656414586542
 30
0.0
 40
5.0
100
AcDbArc
 50
151.0935059999987
 51
199.9996030000001
  0
LINE
  5
84A
330
2
100
AcDbEntity
  8
0
100
AcDbLine
 10
442.8079154169126
 20
118.9061604586542
 30
0.0
 11
442.8079154169126
 21
122.4061604586542
 31
0.0
  0
ARC
  5
84B
330
2
100
AcDbEntity
  8
0
100
AcDbCircle
 10
436.9767084169127
 20
119.4061604586541
 30
0.0
 40
3.0
100
AcDbArc
 50
90.0
 51
112.352699
  0
LINE
  5
84C
330
2
100
AcDbEntity
  8
0
100
AcDbLine
 10
437.7371154169127
 20
118.9061604586542
 30
0.0
 11
442.8079154169126
 21
118.9061604586542
 31
0.0
  0
ARC
  5
84D
330
2
100
AcDbEntity
  8
0
100
AcDbCircle
 10
437.7371154169127
 20
116.9061604586542
 30
0.0
 40
2.0
100
AcDbArc
 50
90.0
 51
135.5462040000001
  0
LINE
  5
84E
330
2
100
AcDbEntity
  8
0
100
AcDbLine
 10
439.5579154169126
 20
117.4061604586541
 30
0.0
 11
442.8079154169126
 21
117.4061604586541
 31
0.0
  0
LINE
  5
84F
330
2
100
AcDbEntity
  8
0
100
AcDbLine
 10
436.9767084169127
 20
122.4061604586542
 30
0.0
 11
442.8079154169126
 21
122.4061604586542
 31
0.0
  0
LINE
  5
850
330
2
100
AcDbEntity
  8
0
100
AcDbLine
 10
444.0579154169126
 20
122.4061604586542
 30
0.0
 11
444.0579154169126
 21
118.9061604586542
 31
0.0
  0
LINE
  5
851
330
2
100
AcDbEntity
  8
0
100
AcDbLine
 10
451.0579154169127
 20
122.4061604586542
 30
0.0
 11
451.0579154169127
 21
118.9061604586542
 31
0.0
  0
LINE
  5
852
330
2
100
AcDbEntity
  8
0
100
AcDbLine
 10
444.0579154169126
 20
118.9061604586542
 30
0.0
 11
445.8079154169126
 21
118.9061604586542
 31
0.0
  0
LINE
  5
853
330
2
100
AcDbEntity
  8
0
100
AcDbLine
 10
449.3079154169127
 20
118.9061604586542
 30
0.0
 11
451.0579154169127
 21
118.9061604586542
 31
0.0
  0
LINE
  5
854
330
2
100
AcDbEntity
  8
0
100
AcDbLine
 10
444.0579154169126
 20
122.4061604586542
 30
0.0
 11
451.0579154169127
 21
122.4061604586542
 31
0.0
  0
ARC
  5
855
330
2
100
AcDbEntity
  8
0
100
AcDbCircle
 10
459.0579154169127
 20
118.1561604586542
 30
0.0
 40
0.75
100
AcDbArc
 50
270.0
 51
90.0
  0
LINE
  5
856
330
2
100
AcDbEntity
  8
0
100
AcDbLine
 10
460.3903134169127
 20
122.4061604586542
 30
0.0
 11
452.3079154169127
 21
122.4061604586542
 31
0.0
  0
LINE
  5
857
330
2
100
AcDbEntity
  8
0
100
AcDbLine
 10
456.8079154169127
 20
117.4061604586541
 30
0.0
 11
459.0579154169127
 21
117.4061604586541
 31
0.0
  0
LINE
  5
858
330
2
100
AcDbEntity
  8
0
100
AcDbLine
 10
455.5579154169127
 20
118.9061604586542
 30
0.0
 11
459.0579154169127
 21
118.9061604586542
 31
0.0
  0
ARC
  5
859
330
2
100
AcDbEntity
  8
0
100
AcDbCircle
 10
460.3903134169127
 20
120.4061604586541
 30
0.0
 40
2.0
100
AcDbArc
 50
59.13309899999954
 51
90.0
  0
ARC
  5
85A
330
2
100
AcDbEntity
  8
0
100
AcDbCircle
 10
520.4945304169127
 20
91.4063394586542
 30
0.0
 40
3.0
100
AcDbArc
 50
7.931652000001105
 51
90.0
  0
LINE
  5
85B
330
2
100
AcDbEntity
  8
HIDS
  6
SEKKEI_H
100
AcDbLine
 10
518.2077264169129
 20
94.4061604586542
 30
0.0
 11
518.2077264169129
 21
82.4061604586542
 31
0.0
  0
LINE
  5
85C
330
2
100
AcDbEntity
  8
CENTER
100
AcDbLine
 10
512.7077264169129
 20
96.9061604586542
 30
0.0
 11
512.7077264169129
 21
79.90609945865418
 31
0.0
  0
LINE
  5
85D
330
2
100
AcDbEntity
  8
HIDS
  6
SEKKEI_H
100
AcDbLine
 10
507.2077264169129
 20
94.4061604586542
 30
0.0
 11
507.2077264169129
 21
82.4061604586542
 31
0.0
  0
LINE
  5
85E
330
2
100
AcDbEntity
  8
0
100
AcDbLine
 10
520.4945304169127
 20
94.4061604586542
 30
0.0
 11
501.2087334169128
 21
94.4061604586542
 31
0.0
  0
ARC
  5
85F
330
2
100
AcDbEntity
  8
0
100
AcDbCircle
 10
477.9377374169127
 20
185.4744584586542
 30
0.0
 40
30.0
100
AcDbArc
 50
20.39996900000022
 51
67.79795100000017
  0
LINE
  5
860
330
2
100
AcDbEntity
  8
0
100
AcDbLine
 10
434.2077264169127
 20
175.4061604586541
 30
0.0
 11
440.2077264169126
 21
175.4061604586541
 31
0.0
  0
LINE
  5
861
330
2
100
AcDbEntity
  8
0
100
AcDbLine
 10
434.2077264169127
 20
169.4061604586542
 30
0.0
 11
440.2077264169126
 21
169.4061604586542
 31
0.0
  0
LINE
  5
862
330
2
100
AcDbEntity
  8
CENTER
100
AcDbLine
 10
413.1956648655646
 20
172.4061604586542
 30
0.0
 11
482.2197879682607
 21
172.4061604586542
 31
0.0
  0
ARC
  5
863
330
2
100
AcDbEntity
  8
0
100
AcDbCircle
 10
447.7077264169126
 20
111.4059814586541
 30
0.0
 40
104.4999999999999
100
AcDbArc
 50
90.0
 51
110.7677989999995
  0
ARC
  5
864
330
2
100
AcDbEntity
  8
0
100
AcDbCircle
 10
447.7077264169126
 20
111.4058594586541
 30
0.0
 40
110.0
100
AcDbArc
 50
90.0
 51
112.2024
  0
ARC
  5
865
330
2
100
AcDbEntity
  8
0
100
AcDbCircle
 10
419.3417294169128
 20
186.2079794586542
 30
0.0
 40
24.5
100
AcDbArc
 50
110.7676009999999
 51
152.6867069999992
  0
ARC
  5
866
330
2
100
AcDbEntity
  8
0
100
AcDbCircle
 10
417.4777154169127
 20
185.4744584586542
 30
0.0
 40
30.0
100
AcDbArc
 50
112.2020030000003
 51
159.6000060000005
  0
ARC
  5
867
330
2
100
AcDbEntity
  8
0
100
AcDbCircle
 10
503.7077264169129
 20
153.4061604586542
 30
0.0
 40
122.0
100
AcDbArc
 50
159.6002959999994
 51
172.1208950000001
  0
LINE
  5
868
330
2
100
AcDbEntity
  8
0
100
AcDbLine
 10
434.2077264169127
 20
175.4061604586541
 30
0.0
 11
434.2077264169127
 21
169.4061604586542
 31
0.0
  0
ARC
  5
869
330
2
100
AcDbEntity
  8
0
100
AcDbCircle
 10
476.0747314169127
 20
186.2079794586542
 30
0.0
 40
24.5
100
AcDbArc
 50
27.31327099999928
 51
69.23240699999952
  0
ARC
  5
86A
330
2
100
AcDbEntity
  8
0
100
AcDbCircle
 10
447.7077264169126
 20
111.4059814586541
 30
0.0
 40
104.4999999999999
100
AcDbArc
 50
69.23223100000003
 51
90.0
  0
LINE
  5
86B
330
2
100
AcDbEntity
  8
0
100
AcDbLine
 10
440.2077264169126
 20
175.4061604586541
 30
0.0
 11
440.2077264169126
 21
169.4061604586542
 31
0.0
  0
ARC
  5
86C
330
2
100
AcDbEntity
  8
0
100
AcDbCircle
 10
447.7077264169126
 20
111.4058594586541
 30
0.0
 40
110.0
100
AcDbArc
 50
67.79785899999963
 51
90.0
  0
LINE
  5
86D
330
2
100
AcDbEntity
  8
0
100
AcDbLine
 10
449.2075134169126
 20
237.6103615173076
 30
0.0
 11
449.2075134169126
 21
221.3956346150506
 31
0.0
  0
LINE
  5
86E
330
2
100
AcDbEntity
  8
0
100
AcDbLine
 10
444.2079394169127
 20
237.1891118802245
 30
0.0
 11
444.2079394169127
 21
221.3501703208112
 31
0.0
  0
LINE
  5
86F
330
2
100
AcDbEntity
  8
0
100
AcDbLine
 10
442.2079394169127
 20
238.0312525792593
 30
0.0
 11
442.2079394169127
 21
221.2682840766947
 31
0.0
  0
LINE
  5
870
330
2
100
AcDbEntity
  8
0
100
AcDbLine
 10
446.2075134169128
 20
237.6103151727933
 30
0.0
 11
446.2075134169126
 21
221.3956288054195
 31
0.0
  0
LINE
  5
871
330
2
100
AcDbEntity
  8
0
100
AcDbLine
 10
455.2075134169126
 20
237.6103615173075
 30
0.0
 11
455.2075134169126
 21
221.1498943532881
 31
0.0
  0
LINE
  5
872
330
2
100
AcDbEntity
  8
0
100
AcDbLine
 10
440.2075134169126
 20
237.6103165835347
 30
0.0
 11
440.2075134169126
 21
221.1498652400845
 31
0.0
  0
ARC
  5
873
330
2
100
AcDbEntity
  8
HOJO
100
AcDbCircle
 10
450.9575142082253
 20
238.6103146561724
 30
0.0
 40
1.600781
100
AcDbArc
 50
247.1647029999997
 51
321.3401944016234
  0
LINE
  5
874
330
2
100
AcDbEntity
  8
HOJO
100
AcDbLine
 10
442.0788054169129
 20
238.0856270777738
 30
0.0
 11
444.3364044169127
 21
237.1350190777738
 31
0.0
  0
ARC
  5
875
330
2
100
AcDbEntity
  8
HOJO
100
AcDbCircle
 10
441.4575134169126
 20
236.6103150777738
 30
0.0
 40
1.600781999999999
100
AcDbArc
 50
67.16467299999876
 51
141.3401949999987
  0
ARC
  5
876
330
2
100
AcDbEntity
  8
HOJO
100
AcDbCircle
 10
444.9575134169126
 20
238.6103150777738
 30
0.0
 40
1.600781
100
AcDbArc
 50
247.1647029999997
 51
321.3401944016234
  0
LINE
  5
877
330
2
100
AcDbEntity
  8
HOJO
100
AcDbLine
 10
449.2075134169126
 20
237.6103615173076
 30
0.0
 11
450.3364052082251
 21
237.1350186561723
 31
0.0
  0
ARC
  5
878
330
2
100
AcDbEntity
  8
HOJO
100
AcDbCircle
 10
453.4575142082253
 20
236.6103146561723
 30
0.0
 40
1.600781999999999
100
AcDbArc
 50
67.16467299999876
 51
141.3401949999987
  0
LINE
  5
879
330
2
100
AcDbEntity
  8
HOJO
100
AcDbLine
 10
454.0788062082251
 20
238.0856266561723
 30
0.0
 11
455.2075134169126
 21
237.6103615173075
 31
0.0
  0
LINE
  5
87A
330
2
100
AcDbEntity
  8
0
100
AcDbLine
 10
483.5094726507772
 20
215.4166039353957
 30
0.0
 11
496.183849670276
 21
237.3692688874512
 31
0.0
  0
LINE
  5
87B
330
2
100
AcDbEntity
  8
0
100
AcDbLine
 10
484.4703432225762
 20
215.0808805852495
 30
0.0
 11
496.7593055037239
 21
236.3659876284951
 31
0.0
  0
LINE
  5
87C
330
2
100
AcDbEntity
  8
0
100
AcDbLine
 10
482.5437961776649
 20
215.7440032202913
 30
0.0
 11
495.2378130431707
 21
237.7306853834841
 31
0.0
  0
ARC
  5
87D
330
2
100
AcDbEntity
  8
HOJO
100
AcDbCircle
 10
495.1767728053862
 20
236.1249621729599
 30
0.0
 40
1.600781999999999
100
AcDbArc
 50
8.659805000000465
 51
82.83532700000217
  0
LINE
  5
87E
330
2
100
AcDbEntity
  8
HOJO
100
AcDbLine
 10
495.376374150218
 20
237.7132658434679
 30
0.0
 11
495.2378130431707
 21
237.7306853834841
 31
0.0
  0
ARC
  5
87F
330
2
100
AcDbEntity
  8
0
100
AcDbCircle
 10
391.7077264169126
 20
153.4061604586542
 30
0.0
 40
122.0
100
AcDbArc
 50
7.879120000000896
 51
20.39979899999992
  0
TEXT
  5
880
330
2
100
AcDbEntity
  8
TITLE
100
AcDbText
 10
38.59236388284955
 20
16.61663979828676
 30
0.0
 40
9.0
  1
VGLD22-80～200N100
100
AcDbText
  0
MTEXT
  5
892
330
2
100
AcDbEntity
  8
TITLE
100
AcDbMText
 10
189.3077203964363
 20
30.84932156918451
 30
0.0
 40
4.714000000000001
 41
19.4629275
 71
     1
 72
     5
  1
L1\PL2\PL4
1001
ACAD
1000
MTEXTBEGIN
1070
    73
1070
     1
1070
    44
1040
1.0
1070
    74
1070
     0
1000
MTEXTEND
  0
ARC
  5
982
330
2
100
AcDbEntity
  8
0
100
AcDbCircle
 10
628.9138704127687
 20
422.1933901538618
 30
0.0
 40
400.0
100
AcDbArc
 50
180.0605930000017
 51
183.6439970000011
  0
LINE
  5
983
330
2
100
AcDbEntity
  8
0
100
AcDbLine
 10
232.1697294127686
 20
444.2704161538618
 30
0.0
 11
232.1697294127686
 21
399.2704161538619
 31
0.0
  0
ARC
  5
984
330
2
100
AcDbEntity
  8
0
100
AcDbCircle
 10
113.1196194127686
 20
417.8146061538618
 30
0.0
 40
103.7254029999999
100
AcDbArc
 50
323.256470000001
 51
2.18563499999837
  0
LINE
  5
985
330
2
100
AcDbEntity
  8
0
100
AcDbLine
 10
151.1695924127683
 20
485.6650081538617
 30
0.0
 11
151.1693784127684
 21
357.9113921538618
 31
0.0
  0
LINE
  5
986
330
2
100
AcDbEntity
  8
0
100
AcDbLine
 10
143.6695924127683
 20
364.2704471538619
 30
0.0
 11
143.6695924127683
 21
479.2703551538618
 31
0.0
  0
LINE
  5
987
330
2
100
AcDbEntity
  8
0
100
AcDbLine
 10
157.1696534127686
 20
355.7704161538619
 30
0.0
 11
157.1696534127686
 21
487.7704161538619
 31
0.0
  0
LINE
  5
988
330
2
100
AcDbEntity
  8
0
100
AcDbLine
 10
169.1757564127686
 20
344.7406311538618
 30
0.0
 11
219.8790194127687
 21
345.6258851538618
 31
0.0
  0
CIRCLE
  5
989
330
2
100
AcDbEntity
  8
0
100
AcDbCircle
 10
219.1696684127687
 20
356.7704161538618
 30
0.0
 40
5.5
  0
LINE
  5
98A
330
2
100
AcDbEntity
  8
CENTER
100
AcDbLine
 10
210.4681764127685
 20
356.7704161538618
 30
0.0
 11
227.8711604127686
 21
356.7704161538618
 31
0.0
  0
ARC
  5
98B
330
2
100
AcDbEntity
  8
0
100
AcDbCircle
 10
196.1696534127686
 20
418.2704161538619
 30
0.0
 40
57.0
100
AcDbArc
 50
277.531097000001
 51
293.2874150000005
  0
ARC
  5
98C
330
2
100
AcDbEntity
  8
0
100
AcDbCircle
 10
154.1696534127686
 20
356.7704161538618
 30
0.0
 40
5.5
100
AcDbArc
 50
123.1975860000005
 51
349.5242919999993
  0
LINE
  5
98D
330
2
100
AcDbEntity
  8
CENTER
100
AcDbLine
 10
154.1696534127686
 20
348.0689241538617
 30
0.0
 11
154.1696534127686
 21
365.4719081538618
 31
0.0
  0
ARC
  5
98E
330
2
100
AcDbEntity
  8
0
100
AcDbCircle
 10
153.6696534127686
 20
357.1806951538618
 30
0.0
 40
12.0
100
AcDbArc
 50
180.0
 51
268.4996949999983
  0
ARC
  5
98F
330
2
100
AcDbEntity
  8
0
100
AcDbCircle
 10
154.1696534127686
 20
343.0890201538618
 30
0.0
 40
15.0
100
AcDbArc
 50
6.430361000000786
 51
78.46295900000057
  0
LINE
  5
990
330
2
100
AcDbEntity
  8
0
100
AcDbLine
 10
169.1752684127686
 20
344.7706301538618
 30
0.0
 11
153.3555664127686
 21
345.1850591538617
 31
0.0
  0
LINE
  5
991
330
2
100
AcDbEntity
  8
CENTER
100
AcDbLine
 10
145.4681614127686
 20
356.7704161538618
 30
0.0
 11
162.8711454127686
 21
356.7704161538618
 31
0.0
  0
LINE
  5
992
330
2
100
AcDbEntity
  8
0
100
AcDbLine
 10
153.1172394127685
 20
355.8765411538619
 30
0.0
 11
157.1696534127685
 21
355.7704311538619
 31
0.0
  0
ARC
  5
993
330
2
100
AcDbEntity
  8
HIDS
100
AcDbCircle
 10
154.1696534127686
 20
356.7704161538618
 30
0.0
 40
5.5
100
AcDbArc
 50
349.5243000000006
 51
123.1975860000005
  0
LINE
  5
994
330
2
100
AcDbEntity
  8
0
100
AcDbLine
 10
141.6695924127684
 20
364.5204161538619
 30
0.0
 11
141.6695924127684
 21
357.180695153862
 31
0.0
  0
ARC
  5
995
330
2
100
AcDbEntity
  8
0
100
AcDbCircle
 10
153.1695924127683
 20
357.8758541538619
 30
0.0
 40
2.0
100
AcDbArc
 50
180.0
 51
268.5000000000038
  0
LINE
  5
996
330
2
100
AcDbEntity
  8
0
100
AcDbLine
 10
148.2743594127683
 20
364.1096341538619
 30
0.0
 11
143.6695924127683
 21
364.2704471538619
 31
0.0
  0
ARC
  5
997
330
2
100
AcDbEntity
  8
0
100
AcDbCircle
 10
148.1696534127685
 20
361.1114351538618
 30
0.0
 40
3.0
100
AcDbArc
 50
0.0
 51
88.00054900000329
  0
LINE
  5
998
330
2
100
AcDbEntity
  8
0
100
AcDbLine
 10
157.1696534127686
 20
355.7704161538619
 30
0.0
 11
162.1810664127687
 21
355.7704161538619
 31
0.0
  0
ARC
  5
999
330
2
100
AcDbEntity
  8
0
100
AcDbCircle
 10
207.1688444127687
 20
356.9807441538618
 30
0.0
 40
11.0
100
AcDbArc
 50
186.3612979999983
 51
220.5068049999992
  0
ARC
  5
99A
330
2
100
AcDbEntity
  8
0
100
AcDbCircle
 10
208.1103424127686
 20
357.4131171538618
 30
0.0
 40
12.0
100
AcDbArc
 50
219.1566009999989
 51
273.238892
  0
ARC
  5
99B
330
2
100
AcDbEntity
  8
0
100
AcDbCircle
 10
196.1696534127686
 20
418.2705391538619
 30
0.0
 40
57.0
100
AcDbArc
 50
274.0237119999986
 51
277.5307010000007
  0
LINE
  5
99C
330
2
100
AcDbEntity
  8
0
100
AcDbLine
 10
231.6697294127686
 20
375.7704161538619
 30
0.0
 11
231.6697294127686
 21
357.6240541538618
 31
0.0
  0
ARC
  5
99D
330
2
100
AcDbEntity
  8
0
100
AcDbCircle
 10
211.9832674127686
 20
381.5290221538619
 30
0.0
 40
17.0
100
AcDbArc
 50
293.2874150000005
 51
356.6224979999989
  0
LINE
  5
99E
330
2
100
AcDbEntity
  8
CENTER
100
AcDbLine
 10
219.1696684127687
 20
348.0689241538617
 30
0.0
 11
219.1696684127687
 21
365.4719081538618
 31
0.0
  0
ARC
  5
99F
330
2
100
AcDbEntity
  8
0
100
AcDbCircle
 10
219.6696684127687
 20
357.6240541538618
 30
0.0
 40
12.0
100
AcDbArc
 50
271.0003130000003
 51
0.0
  0
ARC
  5
9A0
330
2
100
AcDbEntity
  8
0
100
AcDbCircle
 10
-469.8307285872315
 20
421.7704161538619
 30
0.0
 40
700.0
100
AcDbArc
 50
356.6170959999985
 51
357.9533080000006
  0
ARC
  5
9A1
330
2
100
AcDbEntity
  8
0
100
AcDbCircle
 10
219.6697904127686
 20
375.7704161538619
 30
0.0
 40
12.0
100
AcDbArc
 50
0.0
 51
38.15891999999913
  0
ARC
  5
9A2
330
2
100
AcDbEntity
  8
0
100
AcDbCircle
 10
229.6697294127686
 20
399.2704161538619
 30
0.0
 40
2.5
100
AcDbArc
 50
271.2145080000007
 51
0.0
  0
LINE
  5
9A3
330
2
100
AcDbEntity
  8
CENTER
100
AcDbLine
 10
31.10633984570426
 20
421.7704161538619
 30
0.0
 11
279.1697294127686
 21
421.7704161538619
 31
0.0
  0
ARC
  5
9A4
330
2
100
AcDbEntity
  8
0
100
AcDbCircle
 10
219.6697904127686
 20
467.7704161538619
 30
0.0
 40
12.0
100
AcDbArc
 50
321.8410800000008
 51
0.0
  0
ARC
  5
9A5
330
2
100
AcDbEntity
  8
0
100
AcDbCircle
 10
211.9832674127686
 20
462.0118721538618
 30
0.0
 40
17.0
100
AcDbArc
 50
3.377502000001053
 51
66.71258499999942
  0
ARC
  5
9A6
330
2
100
AcDbEntity
  8
0
100
AcDbCircle
 10
113.1196194127686
 20
425.7262271538618
 30
0.0
 40
103.7254029999999
100
AcDbArc
 50
357.8143649999983
 51
36.74352999999896
  0
ARC
  5
9A7
330
2
100
AcDbEntity
  8
0
100
AcDbCircle
 10
628.9138704127687
 20
421.3474431538618
 30
0.0
 40
400.0
100
AcDbArc
 50
176.3560029999988
 51
179.9394069999982
  0
LINE
  5
9A8
330
2
100
AcDbEntity
  8
0
100
AcDbLine
 10
234.1697294127687
 20
432.7704161538618
 30
0.0
 11
274.1697294127686
 21
432.7704161538618
 31
0.0
  0
LINE
  5
9A9
330
2
100
AcDbEntity
  8
0
100
AcDbLine
 10
239.1697294127686
 20
408.2704161538619
 30
0.0
 11
274.1697294127686
 21
408.2704161538619
 31
0.0
  0
LINE
  5
9AA
330
2
100
AcDbEntity
  8
0
100
AcDbLine
 10
239.1697294127686
 20
411.1874391538618
 30
0.0
 11
274.1697294127686
 21
411.1874391538618
 31
0.0
  0
LINE
  5
9AB
330
2
100
AcDbEntity
  8
0
100
AcDbLine
 10
234.1697294127687
 20
433.7704161538619
 30
0.0
 11
234.1697294127687
 21
409.7704161538619
 31
0.0
  0
LINE
  5
9AC
330
2
100
AcDbEntity
  8
0
100
AcDbLine
 10
234.1697294127687
 20
409.7704161538619
 30
0.0
 11
232.1697294127686
 21
409.7704161538619
 31
0.0
  0
LINE
  5
9AD
330
2
100
AcDbEntity
  8
0
100
AcDbLine
 10
239.1697294127686
 20
411.1874391538618
 30
0.0
 11
239.1697294127686
 21
408.2704161538619
 31
0.0
  0
LINE
  5
9AE
330
2
100
AcDbEntity
  8
0
100
AcDbLine
 10
234.1697294127687
 20
410.7704161538618
 30
0.0
 11
239.1697294127686
 21
410.7704161538618
 31
0.0
  0
LINE
  5
9AF
330
2
100
AcDbEntity
  8
0
100
AcDbLine
 10
234.1697294127687
 20
433.7704161538619
 30
0.0
 11
232.1697294127686
 21
433.7704161538619
 31
0.0
  0
LINE
  5
9B0
330
2
100
AcDbEntity
  8
0
100
AcDbLine
 10
274.1697294127686
 20
432.7704161538618
 30
0.0
 11
274.1697294127686
 21
410.7704161538618
 31
0.0
  0
LINE
  5
9B1
330
2
100
AcDbEntity
  8
0
100
AcDbLine
 10
274.1697294127686
 20
410.7704161538618
 30
0.0
 11
274.1697294127686
 21
408.2704161538619
 31
0.0
  0
ARC
  5
9B2
330
2
100
AcDbEntity
  8
0
100
AcDbCircle
 10
-469.8307285872315
 20
421.7704161538619
 30
0.0
 40
700.0
100
AcDbArc
 50
2.046958000000382
 51
3.377728999999253
  0
ARC
  5
9B3
330
2
100
AcDbEntity
  8
0
100
AcDbCircle
 10
229.6697294127686
 20
444.2704161538618
 30
0.0
 40
2.5
100
AcDbArc
 50
0.0
 51
88.78549199999923
  0
LINE
  5
9B4
330
2
100
AcDbEntity
  8
CENTER
100
AcDbLine
 10
210.4681764127685
 20
486.7704161538618
 30
0.0
 11
227.8711604127686
 21
486.7704161538618
 31
0.0
  0
CIRCLE
  5
9B5
330
2
100
AcDbEntity
  8
0
100
AcDbCircle
 10
219.1696684127687
 20
486.7704161538618
 30
0.0
 40
5.5
  0
ARC
  5
9B6
330
2
100
AcDbEntity
  8
0
100
AcDbCircle
 10
196.1696534127686
 20
425.2704161538619
 30
0.0
 40
57.0
100
AcDbArc
 50
66.71258499999942
 51
82.46890299999899
  0
LINE
  5
9B7
330
2
100
AcDbEntity
  8
0
100
AcDbLine
 10
169.1757564127686
 20
498.8001711538617
 30
0.0
 11
219.8790194127687
 21
497.9149781538618
 31
0.0
  0
ARC
  5
9B8
330
2
100
AcDbEntity
  8
0
100
AcDbCircle
 10
153.6696534127686
 20
486.3601381538618
 30
0.0
 40
12.0
100
AcDbArc
 50
91.50030499999841
 51
180.0
  0
LINE
  5
9B9
330
2
100
AcDbEntity
  8
0
100
AcDbLine
 10
141.6695924127684
 20
479.0204161538619
 30
0.0
 11
141.6695924127684
 21
486.3601381538621
 31
0.0
  0
ARC
  5
9BA
330
2
100
AcDbEntity
  8
0
100
AcDbCircle
 10
154.1696534127686
 20
486.7704161538618
 30
0.0
 40
5.5
100
AcDbArc
 50
10.47567000000058
 51
236.8025209999983
  0
ARC
  5
9BB
330
2
100
AcDbEntity
  8
HIDS
100
AcDbCircle
 10
154.1696534127686
 20
486.7704161538618
 30
0.0
 40
5.5
100
AcDbArc
 50
236.8025129999998
 51
10.47567000000058
  0
ARC
  5
9BC
330
2
100
AcDbEntity
  8
0
100
AcDbCircle
 10
154.2797604127686
 20
500.4829101538617
 30
0.0
 40
15.0
100
AcDbArc
 50
281.1073000000007
 51
353.4448849999999
  0
LINE
  5
9BD
330
2
100
AcDbEntity
  8
CENTER
100
AcDbLine
 10
154.1696534127686
 20
478.0689241538617
 30
0.0
 11
154.1696534127686
 21
495.4719081538618
 31
0.0
  0
LINE
  5
9BE
330
2
100
AcDbEntity
  8
0
100
AcDbLine
 10
148.2743594127683
 20
479.4312131538618
 30
0.0
 11
143.6695924127683
 21
479.2703551538618
 31
0.0
  0
ARC
  5
9BF
330
2
100
AcDbEntity
  8
0
100
AcDbCircle
 10
148.1696534127685
 20
482.4293211538619
 30
0.0
 40
3.0
100
AcDbArc
 50
272.0003659999951
 51
0.0
  0
LINE
  5
9C0
330
2
100
AcDbEntity
  8
0
100
AcDbLine
 10
169.1752684127686
 20
498.7701721538618
 30
0.0
 11
153.3555664127686
 21
498.3558661538619
 31
0.0
  0
LINE
  5
9C1
330
2
100
AcDbEntity
  8
0
100
AcDbLine
 10
153.1172394127685
 20
487.664306153862
 30
0.0
 11
157.1696534127685
 21
487.7704161538619
 31
0.0
  0
LINE
  5
9C2
330
2
100
AcDbEntity
  8
CENTER
100
AcDbLine
 10
145.4681614127686
 20
486.7704161538618
 30
0.0
 11
162.8711454127686
 21
486.7704161538618
 31
0.0
  0
ARC
  5
9C3
330
2
100
AcDbEntity
  8
0
100
AcDbCircle
 10
153.1695924127683
 20
485.6650081538617
 30
0.0
 40
2.0
100
AcDbArc
 50
91.49999999999618
 51
180.0
  0
LINE
  5
9C4
330
2
100
AcDbEntity
  8
0
100
AcDbLine
 10
157.1694094127686
 20
487.7704161538619
 30
0.0
 11
162.2416744127687
 21
487.7704161538619
 31
0.0
  0
ARC
  5
9C5
330
2
100
AcDbEntity
  8
0
100
AcDbCircle
 10
196.1696534127686
 20
425.2702941538617
 30
0.0
 40
57.0
100
AcDbArc
 50
82.46929899999928
 51
85.97628799999808
  0
ARC
  5
9C6
330
2
100
AcDbEntity
  8
0
100
AcDbCircle
 10
207.1688444127687
 20
486.5601201538619
 30
0.0
 40
11.0
100
AcDbArc
 50
139.4931950000007
 51
173.6387020000016
  0
ARC
  5
9C7
330
2
100
AcDbEntity
  8
0
100
AcDbCircle
 10
208.1103424127686
 20
486.1277161538618
 30
0.0
 40
12.0
100
AcDbArc
 50
86.76110800000001
 51
140.843399000001
  0
LINE
  5
9C8
330
2
100
AcDbEntity
  8
CENTER
100
AcDbLine
 10
219.1696684127687
 20
478.0689241538617
 30
0.0
 11
219.1696684127687
 21
495.4719081538618
 31
0.0
  0
LINE
  5
9C9
330
2
100
AcDbEntity
  8
0
100
AcDbLine
 10
231.6697294127686
 20
467.7704161538619
 30
0.0
 11
231.6697294127686
 21
485.9167791538618
 31
0.0
  0
ARC
  5
9CA
330
2
100
AcDbEntity
  8
0
100
AcDbCircle
 10
219.6696684127687
 20
485.9167791538618
 30
0.0
 40
12.0
100
AcDbArc
 50
0.0
 51
88.99968699999964
  0
LINE
  5
1E6F
330
2
100
AcDbEntity
  8
0
100
AcDbLine
 10
38.16147741485304
 20
458.9168027731786
 30
0.0
 11
38.16147741485304
 21
384.6239075345451
 31
0.0
  0
LINE
  5
1E70
330
2
100
AcDbEntity
  8
0
100
AcDbLine
 10
81.66959241276856
 20
379.16949211214
 30
0.0
 11
81.66959241276879
 21
402.9043907500771
 31
0.0
  0
LINE
  5
1E71
330
2
100
AcDbEntity
  8
0
100
AcDbLine
 10
81.16959241276834
 20
462.7704541538618
 30
0.0
 11
81.16959241276834
 21
380.7704161538619
 31
0.0
  0
LINE
  5
1E72
330
2
100
AcDbEntity
  8
0
100
AcDbLine
 10
134.6695924127683
 20
366.0204161538619
 30
0.0
 11
134.6695924127683
 21
477.5204161538619
 31
0.0
  0
LINE
  5
1E74
330
2
100
AcDbEntity
  8
0
100
AcDbLine
 10
81.16147741485304
 20
381.2747185877543
 30
0.0
 11
41.13529780835563
 21
381.6240217653518
 31
0.0
  0
LINE
  5
1E75
330
2
100
AcDbEntity
  8
0
100
AcDbLine
 10
81.17784441068465
 20
193.9018068432734
 30
0.0
 11
41.14354980627354
 21
193.5524328471644
 31
0.0
  0
LINE
  5
1E77
330
2
100
AcDbEntity
  8
0
100
AcDbLine
 10
81.16972941276889
 20
112.910462892547
 30
0.0
 11
41.14354980627126
 21
113.2597660701444
 31
0.0
  0
LINE
  5
1E78
330
2
100
AcDbEntity
  8
0
100
AcDbLine
 10
38.16972941276867
 20
190.5525470779712
 30
0.0
 11
38.16972941276867
 21
116.2596518393377
 31
0.0
  0
ARC
  5
1E79
330
2
100
AcDbEntity
  8
0
100
AcDbCircle
 10
41.16972941276663
 20
116.2596518393369
 30
0.0
 40
3.0
100
AcDbArc
 50
179.9999999999967
 51
269.4999999999954
  0
LINE
  5
1E7A
330
2
100
AcDbEntity
  8
0
100
AcDbLine
 10
70.16972941276867
 20
193.8057404790611
 30
0.0
 11
70.16972941276867
 21
234.0245225348163
 31
0.0
  0
LINE
  5
1E7B
330
2
100
AcDbEntity
  8
0
100
AcDbLine
 10
68.16972941276867
 20
193.7882867434796
 30
0.0
 11
68.16972941276867
 21
233.6102560028903
 31
0.0
  0
LINE
  5
1E7C
330
2
100
AcDbEntity
  8
0
100
AcDbLine
 10
69.16972941276867
 20
193.7970136112703
 30
0.0
 11
69.16972941276867
 21
234.1914270369322
 31
0.0
  0
ARC
  5
1E7D
330
2
100
AcDbEntity
  8
0
100
AcDbCircle
 10
41.16972941276867
 20
190.5525470779719
 30
0.0
 40
3.0
100
AcDbArc
 50
90.49999999999155
 51
180.0
  0
LINE
  5
1E7E
330
2
100
AcDbEntity
  8
0
100
AcDbLine
 10
63.16972941276867
 20
251.3724701576044
 30
0.0
 11
55.0963612967546
 21
251.3724701576044
 31
0.0
  0
LINE
  5
1E7F
330
2
100
AcDbEntity
  8
0
100
AcDbLine
 10
63.16972941276867
 20
252.3724701576044
 30
0.0
 11
55.12708289985244
 21
253.0761105522308
 31
0.0
  0
LINE
  5
1E80
330
2
100
AcDbEntity
  8
0
100
AcDbLine
 10
63.16972941276867
 20
252.3724701576044
 30
0.0
 11
55.0963612967546
 21
252.3724701576044
 31
0.0
  0
LINE
  5
1E81
330
2
100
AcDbEntity
  8
0
100
AcDbLine
 10
63.21506867099401
 20
253.3723233240404
 30
0.0
 11
55.21423864260032
 21
254.0723052503226
 31
0.0
  0
LINE
  5
1E82
330
2
100
AcDbEntity
  8
0
100
AcDbLine
 10
45.23486051313329
 20
254.7446237381809
 30
0.0
 11
55.19680749405075
 21
253.8730663107043
 31
0.0
  0
LINE
  5
1E83
330
2
100
AcDbEntity
  8
0
100
AcDbLine
 10
55.0963612967546
 20
251.8724701576044
 30
0.0
 11
45.09636129675459
 21
251.8724701576044
 31
0.0
  0
LINE
  5
1E84
330
2
100
AcDbEntity
  8
0
100
AcDbLine
 10
55.0963612967546
 20
252.1724701576044
 30
0.0
 11
45.09636129675459
 21
252.1724701576044
 31
0.0
  0
LINE
  5
1E85
330
2
100
AcDbEntity
  8
0
100
AcDbLine
 10
55.0963612967546
 20
251.5724701576043
 30
0.0
 11
45.09636129675459
 21
251.5724701576043
 31
0.0
  0
LINE
  5
1E86
330
2
100
AcDbEntity
  8
0
100
AcDbLine
 10
45.20871379030904
 20
254.4457653287534
 30
0.0
 11
55.17066077122627
 21
253.5742079012767
 31
0.0
  0
LINE
  5
1E87
330
2
100
AcDbEntity
  8
0
100
AcDbLine
 10
45.18256706748457
 20
254.1469069193258
 30
0.0
 11
55.14451404840201
 21
253.2753494918493
 31
0.0
  0
LINE
  5
1E88
330
2
100
AcDbEntity
  8
0
100
AcDbLine
 10
55.0963612967546
 20
251.3724701576043
 30
0.0
 11
55.0963612967546
 21
252.3724701576044
 31
0.0
  0
LINE
  5
1E89
330
2
100
AcDbEntity
  8
0
100
AcDbLine
 10
55.12708289985244
 20
253.076110552231
 30
0.0
 11
55.21423864260032
 21
254.0723052503226
 31
0.0
  0
LINE
  5
1E8A
330
2
100
AcDbEntity
  8
0
100
AcDbLine
 10
70.16972941276867
 20
236.0245225348161
 30
0.0
 11
70.16972941276867
 21
246.3724701576044
 31
0.0
  0
LINE
  5
1E8B
330
2
100
AcDbEntity
  8
0
100
AcDbLine
 10
69.16972941276867
 20
236.1914270369321
 30
0.0
 11
69.16972941276867
 21
246.3724701576044
 31
0.0
  0
LINE
  5
1E8C
330
2
100
AcDbEntity
  8
0
100
AcDbLine
 10
68.16972941276867
 20
235.6102560028902
 30
0.0
 11
68.16972941276867
 21
246.3724701576044
 31
0.0
  0
ARC
  5
1E8D
330
2
100
AcDbEntity
  8
HOJO
100
AcDbCircle
 10
69.41975941276883
 20
232.6102919982261
 30
0.0
 40
1.600781999999999
100
AcDbArc
 50
62.06288054473443
 51
141.341868564176
  0
ARC
  5
1E8E
330
2
100
AcDbEntity
  8
HOJO
100
AcDbCircle
 10
69.41975941276883
 20
234.610291998226
 30
0.0
 40
1.600781999999999
100
AcDbArc
 50
62.06288054473443
 51
141.3418685642152
  0
LINE
  5
1E8F
330
2
100
AcDbEntity
  8
HOJO
100
AcDbLine
 10
70.04105141276887
 20
236.085603998226
 30
0.0
 11
70.16972941276867
 21
236.0314215077909
 31
0.0
  0
LINE
  5
1E90
330
2
100
AcDbEntity
  8
HOJO
100
AcDbLine
 10
70.04105141276887
 20
234.0856039982261
 30
0.0
 11
70.16972941276867
 21
234.0314215077909
 31
0.0
  0
ARC
  5
1E91
330
2
100
AcDbEntity
  8
0
100
AcDbCircle
 10
63.16972941276867
 20
246.3724701576044
 30
0.0
 40
6.0
100
AcDbArc
 50
0.0
 51
90.0
  0
ARC
  5
1E92
330
2
100
AcDbEntity
  8
0
100
AcDbCircle
 10
63.16972941276867
 20
246.3724701576044
 30
0.0
 40
7.0
100
AcDbArc
 50
0.0
 51
89.62889052766749
  0
ARC
  5
1E93
330
2
100
AcDbEntity
  8
0
100
AcDbCircle
 10
63.16972941276867
 20
246.3724701576044
 30
0.0
 40
5.0
100
AcDbArc
 50
0.0
 51
90.0
  0
ARC
  5
1E94
330
2
100
AcDbEntity
  8
0
100
AcDbCircle
 10
41.16147741485076
 20
384.6239075345442
 30
0.0
 40
3.0
100
AcDbArc
 50
179.9999999999967
 51
269.4999999999954
  0
LINE
  5
1E95
330
2
100
AcDbEntity
  8
0
100
AcDbLine
 10
81.66971441276883
 20
195.5155014586545
 30
0.0
 11
81.66971441276883
 21
111.2965984586544
 31
0.0
  0
LINE
  5
1E96
330
2
100
AcDbEntity
  8
0
100
AcDbLine
 10
81.17784441068465
 20
200.94119923917
 30
0.0
 11
81.17784441068351
 21
112.2340127933778
 31
0.0
  0
LINE
  5
1E97
330
2
100
AcDbEntity
  8
0
100
AcDbLine
 10
134.6697334127686
 20
97.29586245865455
 30
0.0
 11
134.6697334127686
 21
209.0249384586545
 31
0.0
  0
LINE
  5
1E99
330
2
100
AcDbEntity
  8
0
100
AcDbLine
 10
133.6871364127687
 20
108.4232004586545
 30
0.0
 11
83.63481441276872
 21
109.2968994586545
 31
0.0
  0
LINE
  5
1E9A
330
2
100
AcDbEntity
  8
0
100
AcDbLine
 10
81.66971441276883
 20
111.9060994586545
 30
0.0
 11
81.16972941276889
 21
112.2394227919876
 31
0.0
  0
LINE
  5
1E9B
330
2
100
AcDbEntity
  8
0
100
AcDbLine
 10
81.66971441276883
 20
111.9060994586545
 30
0.0
 11
81.16971441276882
 21
112.2394014586545
 31
0.0
  0
ARC
  5
1E9C
330
2
100
AcDbEntity
  8
0
100
AcDbCircle
 10
83.66971441276882
 20
111.2965984586544
 30
0.0
 40
2.0
100
AcDbArc
 50
180.0
 51
268.9999999999982
  0
LINE
  5
1E9D
330
2
100
AcDbEntity
  8
0
100
AcDbLine
 10
143.6697334127686
 20
96.15616045865454
 30
0.0
 11
135.6522354127687
 21
96.29606045865456
 31
0.0
  0
ARC
  5
1E9E
330
2
100
AcDbEntity
  8
0
100
AcDbCircle
 10
135.6697334127686
 20
97.29586245865455
 30
0.0
 40
1.0
100
AcDbArc
 50
180.0
 51
268.9999999999982
  0
ARC
  5
1E9F
330
2
100
AcDbEntity
  8
0
100
AcDbCircle
 10
133.6697334127686
 20
107.4233994586545
 30
0.0
 40
1.0
100
AcDbArc
 50
0.0
 51
88.99999999999824
  0
LINE
  5
1EA0
330
2
100
AcDbEntity
  8
0
100
AcDbLine
 10
134.6697334127686
 20
188.1104984586544
 30
0.0
 11
81.66971441276883
 21
187.1854194586545
 31
0.0
  0
LINE
  5
1EA1
330
2
100
AcDbEntity
  8
0
100
AcDbLine
 10
134.6697334127686
 20
118.7016014586545
 30
0.0
 11
81.66971441276883
 21
119.6266804586545
 31
0.0
  0
LINE
  5
1EA2
330
2
100
AcDbEntity
  8
CENTER
100
AcDbLine
 10
127.1697334127686
 20
127.9499604586545
 30
0.0
 11
137.1697334127686
 21
127.9499604586545
 31
0.0
  0
LINE
  5
1EA3
330
2
100
AcDbEntity
  8
0
100
AcDbLine
 10
133.3697344127686
 20
123.3499604586545
 30
0.0
 11
134.6697334127686
 21
123.3499604586545
 31
0.0
  0
LINE
  5
1EA4
330
2
100
AcDbEntity
  8
0
100
AcDbLine
 10
133.3697344127686
 20
132.5500604586545
 30
0.0
 11
134.6697334127686
 21
132.5500604586545
 31
0.0
  0
ARC
  5
1EA5
330
2
100
AcDbEntity
  8
0
100
AcDbCircle
 10
137.6697334127686
 20
127.9499604586545
 30
0.0
 40
8.0
100
AcDbArc
 50
147.6076050000002
 51
212.3923949999997
  0
LINE
  5
1EA6
330
2
100
AcDbEntity
  8
0
100
AcDbLine
 10
133.3697344127686
 20
132.6999604586545
 30
0.0
 11
133.3697344127686
 21
123.1999604586545
 31
0.0
  0
LINE
  5
1EA7
330
2
100
AcDbEntity
  8
0
100
AcDbLine
 10
133.3697344127686
 20
123.1999604586545
 30
0.0
 11
131.7589324127686
 21
123.1999604586545
 31
0.0
  0
ARC
  5
1EA8
330
2
100
AcDbEntity
  8
0
100
AcDbCircle
 10
131.7589324127686
 20
124.1999604586545
 30
0.0
 40
1.0
100
AcDbArc
 50
212.3923949999997
 51
270.0
  0
LINE
  5
1EA9
330
2
100
AcDbEntity
  8
0
100
AcDbLine
 10
133.3697344127686
 20
132.6999604586545
 30
0.0
 11
131.7589324127686
 21
132.6999604586545
 31
0.0
  0
ARC
  5
1EAA
330
2
100
AcDbEntity
  8
0
100
AcDbCircle
 10
131.7589324127686
 20
131.6999604586545
 30
0.0
 40
1.0
100
AcDbArc
 50
90.0
 51
147.6076050000002
  0
LINE
  5
1EAB
330
2
100
AcDbEntity
  8
0
100
AcDbLine
 10
166.6289515509229
 20
256.3718097208718
 30
0.0
 11
163.3289515509227
 21
256.3718097208718
 31
0.0
  0
LINE
  5
1EAC
330
2
100
AcDbEntity
  8
0
100
AcDbLine
 10
170.2289515509228
 20
256.6218097208718
 30
0.0
 11
158.7289515509228
 21
256.6218097208718
 31
0.0
  0
LINE
  5
1EAD
330
2
100
AcDbEntity
  8
0
100
AcDbLine
 10
166.6289515509229
 20
254.3718097208718
 30
0.0
 11
163.3289515509227
 21
254.3718097208718
 31
0.0
  0
LINE
  5
1EAE
330
2
100
AcDbEntity
  8
0
100
AcDbLine
 10
166.6289515509229
 20
253.8718097208718
 30
0.0
 11
163.3289515509227
 21
253.8718097208718
 31
0.0
  0
LINE
  5
1EAF
330
2
100
AcDbEntity
  8
0
100
AcDbLine
 10
166.6289515509229
 20
251.8718097208718
 30
0.0
 11
163.3289515509227
 21
251.8718097208718
 31
0.0
  0
LINE
  5
1EB0
330
2
100
AcDbEntity
  8
0
100
AcDbLine
 10
166.6289515509229
 20
251.3718097208717
 30
0.0
 11
163.3289515509227
 21
251.3718097208717
 31
0.0
  0
LINE
  5
1EB1
330
2
100
AcDbEntity
  8
0
100
AcDbLine
 10
166.6289515509229
 20
246.8718097208717
 30
0.0
 11
163.3289515509227
 21
246.8718097208717
 31
0.0
  0
LINE
  5
1EB2
330
2
100
AcDbEntity
  8
0
100
AcDbLine
 10
166.6289515509229
 20
246.3718097208718
 30
0.0
 11
163.3289515509227
 21
246.3718097208718
 31
0.0
  0
LINE
  5
1EB3
330
2
100
AcDbEntity
  8
0
100
AcDbLine
 10
166.6289515509229
 20
249.3718097208717
 30
0.0
 11
163.3289515509227
 21
249.3718097208717
 31
0.0
  0
LINE
  5
1EB4
330
2
100
AcDbEntity
  8
0
100
AcDbLine
 10
166.6289515509229
 20
248.8718097208717
 30
0.0
 11
163.3289515509227
 21
248.8718097208717
 31
0.0
  0
LINE
  5
1EB5
330
2
100
AcDbEntity
  8
0
100
AcDbLine
 10
166.6289515509229
 20
244.3718097208718
 30
0.0
 11
163.3289515509227
 21
244.3718097208718
 31
0.0
  0
LINE
  5
1EB6
330
2
100
AcDbEntity
  8
0
100
AcDbLine
 10
169.7914665423188
 20
240.096029576938
 30
0.0
 11
164.81049305186
 21
239.6602508631997
 31
0.0
  0
LINE
  5
1EB7
330
2
100
AcDbEntity
  8
0
100
AcDbLine
 10
169.8219710522803
 20
239.7473614326059
 30
0.0
 11
164.8409975618217
 21
239.3115827188676
 31
0.0
  0
LINE
  5
1EB8
330
2
100
AcDbEntity
  8
0
100
AcDbLine
 10
169.8998619190401
 20
239.0515021141593
 30
0.0
 11
164.9020065817451
 21
238.6142464302034
 31
0.0
  0
LINE
  5
1EB9
330
2
100
AcDbEntity
  8
0
100
AcDbLine
 10
169.852475562242
 20
239.3986932882738
 30
0.0
 11
164.8715020717834
 21
238.9629145745355
 31
0.0
  0
LINE
  5
1EBA
330
2
100
AcDbEntity
  8
0
100
AcDbLine
 10
169.7609620323571
 20
240.4446977212701
 30
0.0
 11
164.7799885418983
 21
240.0089190075319
 31
0.0
  0
LINE
  5
1EBB
330
2
100
AcDbEntity
  8
0
100
AcDbLine
 10
169.8660982253675
 20
235.4366830059035
 30
0.0
 11
164.8660982253675
 21
235.4366830059035
 31
0.0
  0
LINE
  5
1EBC
330
2
100
AcDbEntity
  8
0
100
AcDbLine
 10
170.2289515509228
 20
244.1218097208718
 30
0.0
 11
158.7289515509228
 21
244.1218097208718
 31
0.0
  0
LINE
  5
1EBD
330
2
100
AcDbEntity
  8
0
100
AcDbLine
 10
169.8219710522803
 20
229.726004579201
 30
0.0
 11
164.8409975618217
 21
230.1617832929393
 31
0.0
  0
LINE
  5
1EBE
330
2
100
AcDbEntity
  8
0
100
AcDbLine
 10
169.7914665423188
 20
229.3773364348689
 30
0.0
 11
164.81049305186
 21
229.8131151486072
 31
0.0
  0
LINE
  5
1EBF
330
2
100
AcDbEntity
  8
0
100
AcDbLine
 10
169.7609620323571
 20
229.0286682905368
 30
0.0
 11
164.7799885418983
 21
229.464447004275
 31
0.0
  0
LINE
  5
1EC0
330
2
100
AcDbEntity
  8
0
100
AcDbLine
 10
169.8998619190399
 20
230.4218638976477
 30
0.0
 11
164.9020065817451
 21
230.8591195816034
 31
0.0
  0
LINE
  5
1EC1
330
2
100
AcDbEntity
  8
0
100
AcDbLine
 10
169.852475562242
 20
230.0746727235331
 30
0.0
 11
164.8715020717834
 21
230.5104514372713
 31
0.0
  0
LINE
  5
1EC2
330
2
100
AcDbEntity
  8
0
100
AcDbLine
 10
169.8660982253675
 20
235.0866830059034
 30
0.0
 11
164.8660982253675
 21
235.0866830059034
 31
0.0
  0
LINE
  5
1EC3
330
2
100
AcDbEntity
  8
0
100
AcDbLine
 10
169.8660982253675
 20
234.7366830059035
 30
0.0
 11
164.8660982253675
 21
234.7366830059035
 31
0.0
  0
LINE
  5
1EC4
330
2
100
AcDbEntity
  8
0
100
AcDbLine
 10
169.8660982253675
 20
234.0366830059035
 30
0.0
 11
164.8660982253675
 21
234.0366830059035
 31
0.0
  0
LINE
  5
1EC5
330
2
100
AcDbEntity
  8
0
100
AcDbLine
 10
169.8660982253675
 20
234.3866830059035
 30
0.0
 11
164.8660982253675
 21
234.3866830059035
 31
0.0
  0
ARC
  5
1EC6
330
2
100
AcDbEntity
  8
0
100
AcDbCircle
 10
134.9754537881181
 20
277.7366830059035
 30
0.0
 40
40.0
100
AcDbArc
 50
250.5608481874013
 51
270.0
  0
ARC
  5
1EC7
330
2
100
AcDbEntity
  8
0
100
AcDbCircle
 10
134.9754537881181
 20
277.7366830059035
 30
0.0
 40
44.0
100
AcDbArc
 50
250.5608481874013
 51
270.0
  0
ARC
  5
1EC8
330
2
100
AcDbEntity
  8
0
100
AcDbCircle
 10
134.9754537881181
 20
277.7366830059035
 30
0.0
 40
42.0
100
AcDbArc
 50
250.5608481874013
 51
270.0
  0
ARC
  5
1EC9
330
2
100
AcDbEntity
  8
0
100
AcDbCircle
 10
134.9754537881181
 20
277.7366830059035
 30
0.0
 40
46.0
100
AcDbArc
 50
250.5608481874013
 51
270.0
  0
LINE
  5
1ECA
330
2
100
AcDbEntity
  8
0
100
AcDbLine
 10
94.66978900891513
 20
253.3724701576044
 30
0.0
 11
133.090414739453
 21
253.3724701576044
 31
0.0
  0
LINE
  5
1ECB
330
2
100
AcDbEntity
  8
0
100
AcDbLine
 10
94.66976900891518
 20
247.3724701576045
 30
0.0
 11
133.0898913360551
 21
247.3724701576045
 31
0.0
  0
LINE
  5
1ECC
330
2
100
AcDbEntity
  8
0
100
AcDbLine
 10
133.6871364127687
 20
198.3888994586545
 30
0.0
 11
83.63481441276872
 21
197.5152184586544
 31
0.0
  0
LINE
  5
1ECD
330
2
100
AcDbEntity
  8
0
100
AcDbLine
 10
83.66973900891503
 20
233.6102560028902
 30
0.0
 11
83.66973900891526
 21
201.9411992391701
 31
0.0
  0
LINE
  5
1ECE
330
2
100
AcDbEntity
  8
0
100
AcDbLine
 10
85.66973900891481
 20
234.031421507791
 30
0.0
 11
85.66973900891525
 21
201.9411992391701
 31
0.0
  0
LINE
  5
1ECF
330
2
100
AcDbEntity
  8
0
100
AcDbLine
 10
87.6697390089148
 20
233.196094413353
 30
0.0
 11
87.66973900891526
 21
201.9411992391701
 31
0.0
  0
LINE
  5
1ED0
330
2
100
AcDbEntity
  8
0
100
AcDbLine
 10
89.66973900891526
 20
233.6102545943949
 30
0.0
 11
89.66973900891479
 21
201.9411992391701
 31
0.0
  0
LINE
  5
1ED1
330
2
100
AcDbEntity
  8
0
100
AcDbLine
 10
82.17784441068465
 20
201.9411992391701
 30
0.0
 11
91.17785400682988
 21
201.9411992391701
 31
0.0
  0
ARC
  5
1ED2
330
2
100
AcDbEntity
  8
0
100
AcDbCircle
 10
83.66971441276882
 20
195.5155014586545
 30
0.0
 40
2.0
100
AcDbArc
 50
91.00000000000177
 51
180.0
  0
LINE
  5
1ED3
330
2
100
AcDbEntity
  8
0
100
AcDbLine
 10
81.66971441276883
 20
194.9061184586545
 30
0.0
 11
81.1697281247425
 21
194.572794266637
 31
0.0
  0
ARC
  5
1ED4
330
2
100
AcDbEntity
  8
0
100
AcDbCircle
 10
82.17784441068465
 20
200.94119923917
 30
0.0
 40
1.0
100
AcDbArc
 50
90.0
 51
180.0
  0
LINE
  5
1ED5
330
2
100
AcDbEntity
  8
0
100
AcDbLine
 10
92.17785400682988
 20
200.94119923917
 30
0.0
 11
92.17785400682988
 21
197.6643402391701
 31
0.0
  0
ARC
  5
1ED6
330
2
100
AcDbEntity
  8
0
100
AcDbCircle
 10
91.17785400682988
 20
200.94119923917
 30
0.0
 40
1.0
100
AcDbArc
 50
0.0
 51
90.0
  0
ARC
  5
1ED7
330
2
100
AcDbEntity
  8
0
100
AcDbCircle
 10
95.10214580230899
 20
200.6101820916723
 30
0.0
 40
40.0
100
AcDbArc
 50
70.56084818740129
 51
90.0
  0
ARC
  5
1ED8
330
2
100
AcDbEntity
  8
0
100
AcDbCircle
 10
95.10214580230899
 20
200.6101820916723
 30
0.0
 40
42.0
100
AcDbArc
 50
70.56084818740129
 51
90.0
  0
ARC
  5
1ED9
330
2
100
AcDbEntity
  8
0
100
AcDbCircle
 10
95.10214580230899
 20
200.6101820916723
 30
0.0
 40
46.0
100
AcDbArc
 50
70.56084818740129
 51
90.0
  0
ARC
  5
1EDA
330
2
100
AcDbEntity
  8
0
100
AcDbCircle
 10
95.10214580230899
 20
200.6101820916723
 30
0.0
 40
44.0
100
AcDbArc
 50
70.56084818740129
 51
90.0
  0
ARC
  5
1EDB
330
2
100
AcDbEntity
  8
0
100
AcDbCircle
 10
94.66978900891513
 20
242.3724701576044
 30
0.0
 40
11.0
100
AcDbArc
 50
90.0
 51
180.0
  0
ARC
  5
1EDC
330
2
100
AcDbEntity
  8
0
100
AcDbCircle
 10
94.66979022210011
 20
235.6102408800866
 30
0.0
 40
9.000051213203853
100
AcDbArc
 50
90.0002430826947
 51
177.3436678381892
  0
ARC
  5
1EDD
330
2
100
AcDbEntity
  8
0
100
AcDbCircle
 10
94.66979022210011
 20
235.6102408800866
 30
0.0
 40
11.00005121320385
100
AcDbArc
 50
90.0002430826947
 51
179.999842847214
  0
ARC
  5
1EDE
330
2
100
AcDbEntity
  8
0
100
AcDbCircle
 10
94.66979022210011
 20
235.6102408800866
 30
0.0
 40
7.000051213203854
100
AcDbArc
 50
90.0002430826947
 51
179.999842847214
  0
ARC
  5
1EDF
330
2
100
AcDbEntity
  8
0
100
AcDbCircle
 10
94.66979022210011
 20
235.6102408800866
 30
0.0
 40
5.000051213203854
100
AcDbArc
 50
90.0002430826947
 51
179.999842847214
  0
ARC
  5
1EE0
330
2
100
AcDbEntity
  8
0
100
AcDbCircle
 10
94.66976900891518
 20
235.6102920932455
 30
0.0
 40
9.0
100
AcDbArc
 50
90.0
 51
123.3057915968515
  0
LINE
  5
1EE1
330
2
100
AcDbEntity
  8
0
100
AcDbLine
 10
83.66978900891513
 20
242.3724701576044
 30
0.0
 11
83.66973900891526
 21
235.6102560028901
 31
0.0
  0
ARC
  5
1EE2
330
2
100
AcDbEntity
  8
HOJO
100
AcDbCircle
 10
84.91976900891518
 20
234.610291998226
 30
0.0
 40
1.600781999999999
100
AcDbArc
 50
67.16467300000603
 51
141.3418685642152
  0
ARC
  5
1EE3
330
2
100
AcDbEntity
  8
HOJO
100
AcDbCircle
 10
84.91976900891518
 20
232.610291998226
 30
0.0
 40
1.600781999999999
100
AcDbArc
 50
67.16467300000603
 51
141.3418685641897
  0
LINE
  5
1EE4
330
2
100
AcDbEntity
  8
HOJO
100
AcDbLine
 10
83.66973900891503
 20
233.6103279935619
 30
0.0
 11
83.66973900891503
 21
233.3714956742255
 31
0.0
  0
LINE
  5
1EE5
330
2
100
AcDbEntity
  8
HOJO
100
AcDbLine
 10
85.54106100891521
 20
234.085603998226
 30
0.0
 11
87.79866000891525
 21
233.1349959982261
 31
0.0
  0
ARC
  5
1EE6
330
2
100
AcDbEntity
  8
HOJO
100
AcDbCircle
 10
88.41976900891518
 20
234.610291998226
 30
0.0
 40
1.600781
100
AcDbArc
 50
247.1647030000061
 51
321.3401944016193
  0
LINE
  5
1EE7
330
2
100
AcDbEntity
  8
HOJO
100
AcDbLine
 10
85.54106100891521
 20
236.085603998226
 30
0.0
 11
87.79866000891525
 21
235.1349959982261
 31
0.0
  0
LINE
  5
1EE8
330
2
100
AcDbEntity
  8
0
100
AcDbLine
 10
87.66973900891503
 20
235.6102408800866
 30
0.0
 11
87.6697390089148
 21
235.1892808087563
 31
0.0
  0
ARC
  5
1EE9
330
2
100
AcDbEntity
  8
HOJO
100
AcDbCircle
 10
88.41976900891518
 20
236.610291998226
 30
0.0
 40
1.600781
100
AcDbArc
 50
247.1647030000061
 51
321.3401944016193
  0
LINE
  5
1EEA
330
2
100
AcDbEntity
  8
0
100
AcDbLine
 10
94.66960297427021
 20
240.6101820916723
 30
0.0
 11
95.10214580230899
 21
240.6101820916723
 31
0.0
  0
LINE
  5
1EEB
330
2
100
AcDbEntity
  8
0
100
AcDbLine
 10
94.66960297427021
 20
244.6101820916723
 30
0.0
 11
95.10214580230899
 21
244.6101820916723
 31
0.0
  0
LINE
  5
1EEC
330
2
100
AcDbEntity
  8
0
100
AcDbLine
 10
94.66960297427021
 20
242.6101820916723
 30
0.0
 11
95.10214580230899
 21
242.6101820916723
 31
0.0
  0
LINE
  5
1EED
330
2
100
AcDbEntity
  8
0
100
AcDbLine
 10
94.66960297427021
 20
246.6101820916723
 30
0.0
 11
95.10214580230899
 21
246.6101820916723
 31
0.0
  0
ARC
  5
1EEE
330
2
100
AcDbEntity
  8
0
100
AcDbCircle
 10
94.66976900891518
 20
242.3724701576044
 30
0.0
 40
5.0
100
AcDbArc
 50
90.0
 51
131.974563421098
  0
LINE
  5
1EEF
330
2
100
AcDbEntity
  8
0
100
AcDbLine
 10
108.4143691932069
 20
238.3300006011883
 30
0.0
 11
119.6663968885852
 21
234.3588917199603
 31
0.0
  0
LINE
  5
1EF0
330
2
100
AcDbEntity
  8
0
100
AcDbLine
 10
110.4112027018413
 20
243.9879733776157
 30
0.0
 11
121.6632303972201
 21
240.0168644963877
 31
0.0
  0
LINE
  5
1EF1
330
2
100
AcDbEntity
  8
0
100
AcDbLine
 10
109.7455915322966
 20
242.1019824521398
 30
0.0
 11
120.9976192276749
 21
238.1308735709118
 31
0.0
  0
LINE
  5
1EF2
330
2
100
AcDbEntity
  8
0
100
AcDbLine
 10
109.0799803627514
 20
240.2159915266641
 30
0.0
 11
120.3320080581302
 21
236.2448826454361
 31
0.0
  0
LINE
  5
1EF3
330
2
100
AcDbEntity
  8
0
100
AcDbLine
 10
133.3697344127686
 20
209.1999414586545
 30
0.0
 11
133.3697344127686
 21
199.6999414586545
 31
0.0
  0
ARC
  5
1EF4
330
2
100
AcDbEntity
  8
0
100
AcDbCircle
 10
137.6697334127686
 20
204.4499414586545
 30
0.0
 40
8.0
100
AcDbArc
 50
147.6076050000002
 51
212.3923949999997
  0
LINE
  5
1EF5
330
2
100
AcDbEntity
  8
CENTER
100
AcDbLine
 10
127.1697334127686
 20
204.4499414586545
 30
0.0
 11
137.1697334127686
 21
204.4499414586545
 31
0.0
  0
LINE
  5
1EF6
330
2
100
AcDbEntity
  8
0
100
AcDbLine
 10
133.3697344127686
 20
199.8499814586545
 30
0.0
 11
134.6697334127686
 21
199.8499814586545
 31
0.0
  0
LINE
  5
1EF7
330
2
100
AcDbEntity
  8
0
100
AcDbLine
 10
133.3697344127686
 20
199.6999414586545
 30
0.0
 11
131.7589324127686
 21
199.6999414586545
 31
0.0
  0
ARC
  5
1EF8
330
2
100
AcDbEntity
  8
0
100
AcDbCircle
 10
131.7589324127686
 20
200.6999414586545
 30
0.0
 40
1.0
100
AcDbArc
 50
212.3923949999997
 51
270.0
  0
ARC
  5
1EF9
330
2
100
AcDbEntity
  8
0
100
AcDbCircle
 10
133.6697334127686
 20
199.3886774586545
 30
0.0
 40
1.0
100
AcDbArc
 50
271.0000000000017
 51
0.0
  0
LINE
  5
1EFA
330
2
100
AcDbEntity
  8
0
100
AcDbLine
 10
133.3697344127686
 20
209.0499824586545
 30
0.0
 11
134.6697334127686
 21
209.0499824586545
 31
0.0
  0
ARC
  5
1EFB
330
2
100
AcDbEntity
  8
0
100
AcDbCircle
 10
131.7589324127686
 20
208.1999414586545
 30
0.0
 40
1.0
100
AcDbArc
 50
90.0
 51
147.6076050000002
  0
LINE
  5
1EFC
330
2
100
AcDbEntity
  8
0
100
AcDbLine
 10
133.3697344127686
 20
209.1999414586545
 30
0.0
 11
131.7589324127686
 21
209.1999414586545
 31
0.0
  0
LINE
  5
1EFD
330
2
100
AcDbEntity
  8
0
100
AcDbLine
 10
143.6697334127686
 20
210.6561984586545
 30
0.0
 11
136.1435344127687
 21
210.5247594586545
 31
0.0
  0
ARC
  5
1EFE
330
2
100
AcDbEntity
  8
0
100
AcDbCircle
 10
136.1697334127686
 20
209.0249384586545
 30
0.0
 40
1.5
100
AcDbArc
 50
91.00000000000177
 51
180.0
  0
LINE
  5
1EFF
330
2
100
AcDbEntity
  8
0
100
AcDbLine
 10
142.8506845625713
 20
253.3845990668012
 30
0.0
 11
148.9947568421609
 21
254.4679647811158
 31
0.0
  0
LINE
  5
1F00
330
2
100
AcDbEntity
  8
0
100
AcDbLine
 10
142.8506845625713
 20
247.3590203749423
 30
0.0
 11
148.9947568421616
 21
246.2756546606275
 31
0.0
  0
LINE
  5
1F01
330
2
100
AcDbEntity
  8
0
100
AcDbLine
 10
142.8476461131738
 20
246.1410442012878
 30
0.0
 11
148.88977044593
 21
245.0756546606276
 31
0.0
  0
LINE
  5
1F02
330
2
100
AcDbEntity
  8
0
100
AcDbLine
 10
149.1308416087724
 20
253.3957036827067
 30
0.0
 11
142.8506845625713
 21
252.8462611360016
 31
0.0
  0
LINE
  5
1F03
330
2
100
AcDbEntity
  8
0
100
AcDbLine
 10
149.1832347402623
 20
252.1957036827066
 30
0.0
 11
142.8506845625713
 21
251.6416773309496
 31
0.0
  0
LINE
  5
1F04
330
2
100
AcDbEntity
  8
0
100
AcDbLine
 10
149.1308416087752
 20
247.3479157590368
 30
0.0
 11
142.8506845625713
 21
247.897358305742
 31
0.0
  0
LINE
  5
1F05
330
2
100
AcDbEntity
  8
0
100
AcDbLine
 10
149.1832347402662
 20
248.5479157590368
 30
0.0
 11
142.8506845625713
 21
249.1019421107941
 31
0.0
  0
LINE
  5
1F06
330
2
100
AcDbEntity
  8
0
100
AcDbLine
 10
142.8476461131738
 20
254.602575240456
 30
0.0
 11
148.8897704459297
 21
255.667964781116
 31
0.0
  0
LINE
  5
1F07
330
2
100
AcDbEntity
  8
0
100
AcDbLine
 10
158.7289515509228
 20
250.9718097208718
 30
0.0
 11
142.8506845625713
 21
250.9718097208718
 31
0.0
  0
LINE
  5
1F08
330
2
100
AcDbEntity
  8
0
100
AcDbLine
 10
158.7289515509228
 20
249.7718097208718
 30
0.0
 11
142.8506845625713
 21
249.7718097208716
 31
0.0
  0
LINE
  5
1F09
330
2
100
AcDbEntity
  8
0
100
AcDbLine
 10
135.4534201111846
 20
233.7366830059035
 30
0.0
 11
164.9214247193078
 21
231.158566665963
 31
0.0
  0
LINE
  5
1F0A
330
2
100
AcDbEntity
  8
0
100
AcDbLine
 10
135.3660982253675
 20
231.7366830059035
 30
0.0
 11
164.7471132338125
 21
229.1661772697795
 31
0.0
  0
LINE
  5
1F0B
330
2
100
AcDbEntity
  8
0
100
AcDbLine
 10
135.4534201111846
 20
235.7366830059035
 30
0.0
 11
164.9281533045693
 21
238.3153880207759
 31
0.0
  0
LINE
  5
1F0C
330
2
100
AcDbEntity
  8
0
100
AcDbLine
 10
135.3660982253675
 20
237.7366830059035
 30
0.0
 11
164.753841819074
 21
240.3077774169594
 31
0.0
  0
LINE
  5
1F0D
330
2
100
AcDbEntity
  8
0
100
AcDbLine
 10
164.8660982253675
 20
235.7366830059035
 30
0.0
 11
134.9754537881094
 21
235.7366830059035
 31
0.0
  0
LINE
  5
1F0E
330
2
100
AcDbEntity
  8
0
100
AcDbLine
 10
164.8660982253675
 20
233.7366830059035
 30
0.0
 11
134.975453788109
 21
233.7366830059035
 31
0.0
  0
LINE
  5
1F0F
330
2
100
AcDbEntity
  8
0
100
AcDbLine
 10
135.3660982253675
 20
231.7366830059035
 30
0.0
 11
134.9754537881085
 21
231.7366830059035
 31
0.0
  0
LINE
  5
1F10
330
2
100
AcDbEntity
  8
0
100
AcDbLine
 10
135.3660982253675
 20
237.7366830059035
 30
0.0
 11
134.9754537881181
 21
237.7366830059035
 31
0.0
  0
LINE
  5
1F11
330
2
100
AcDbEntity
  8
0
100
AcDbLine
 10
133.2840639067633
 20
253.6224701576045
 30
0.0
 11
136.0191135399518
 21
253.6224701576045
 31
0.0
  0
LINE
  5
1F12
330
2
100
AcDbEntity
  8
0
100
AcDbLine
 10
133.2840639067633
 20
247.1224701576044
 30
0.0
 11
135.9940938026763
 21
247.1224701576044
 31
0.0
  0
ARC
  5
1F13
330
2
100
AcDbEntity
  8
0
100
AcDbCircle
 10
133.2840639067633
 20
253.4224701576045
 30
0.0
 40
0.2
100
AcDbArc
 50
90.0
 51
180.0
  0
LINE
  5
1F14
330
2
100
AcDbEntity
  8
0
100
AcDbLine
 10
133.0840639067632
 20
247.3224701576045
 30
0.0
 11
133.0840639067632
 21
253.4224701576045
 31
0.0
  0
ARC
  5
1F15
330
2
100
AcDbEntity
  8
0
100
AcDbCircle
 10
133.2840639067633
 20
247.3224701576045
 30
0.0
 40
0.2
100
AcDbArc
 50
180.0
 51
270.0
  0
LINE
  5
1F16
330
2
100
AcDbEntity
  8
0
100
AcDbLine
 10
142.8506845625713
 20
246.1757738368211
 30
0.0
 11
142.8506845625713
 21
254.5678456049227
 31
0.0
  0
LINE
  5
1F17
330
2
100
AcDbEntity
  8
0
100
AcDbLine
 10
141.0646099239043
 20
254.7342388117087
 30
0.0
 11
136.0191135399518
 21
253.6224701576045
 31
0.0
  0
LINE
  5
1F18
330
2
100
AcDbEntity
  8
0
100
AcDbLine
 10
140.0611794747035
 20
246.1887318105496
 30
0.0
 11
135.9940938026766
 21
247.1224701576044
 31
0.0
  0
ARC
  5
1F19
330
2
100
AcDbEntity
  8
0
100
AcDbCircle
 10
140.1506845625715
 20
246.5785892707139
 30
0.0
 40
0.4
100
AcDbArc
 50
257.0698677002801
 51
326.0187104207537
  0
LINE
  5
1F1A
330
2
100
AcDbEntity
  8
0
100
AcDbLine
 10
140.4823726175768
 20
246.355020412939
 30
0.0
 11
142.615954927038
 21
245.9788122862186
 31
0.0
  0
ARC
  5
1F1B
330
2
100
AcDbEntity
  8
0
100
AcDbCircle
 10
142.6506845625713
 20
246.1757738368211
 30
0.0
 40
0.2
100
AcDbArc
 50
259.9999999999949
 51
0.0
  0
LINE
  5
1F1C
330
2
100
AcDbEntity
  8
0
100
AcDbLine
 10
141.4837216676562
 20
254.5651638834405
 30
0.0
 11
142.615954927038
 21
254.7648071555251
 31
0.0
  0
ARC
  5
1F1D
330
2
100
AcDbEntity
  8
0
100
AcDbCircle
 10
141.1506845625715
 20
254.3436096313107
 30
0.0
 40
0.4
100
AcDbArc
 50
33.63399402200727
 51
102.4264747477321
  0
ARC
  5
1F1E
330
2
100
AcDbEntity
  8
0
100
AcDbCircle
 10
142.6506845625713
 20
254.5678456049227
 30
0.0
 40
0.2
100
AcDbArc
 50
0.0
 51
100.000000000005
  0
LINE
  5
1F1F
330
2
100
AcDbEntity
  8
0
100
AcDbLine
 10
160.7289515509228
 20
256.6218097208718
 30
0.0
 11
160.7289515509228
 21
244.1218097208718
 31
0.0
  0
LINE
  5
1F20
330
2
100
AcDbEntity
  8
0
100
AcDbLine
 10
158.7289515509228
 20
256.6218097208718
 30
0.0
 11
158.7289515509228
 21
244.1218097208718
 31
0.0
  0
LINE
  5
1F21
330
2
100
AcDbEntity
  8
0
100
AcDbLine
 10
158.7289515509228
 20
244.7718097208718
 30
0.0
 11
152.3627339992688
 21
244.7718097208717
 31
0.0
  0
ARC
  5
1F22
330
2
100
AcDbEntity
  8
0
100
AcDbCircle
 10
152.3627339992688
 20
264.7718097208719
 30
0.0
 40
20.0
100
AcDbArc
 50
259.9999999999949
 51
270.0
  0
LINE
  5
1F23
330
2
100
AcDbEntity
  8
0
100
AcDbLine
 10
164.7471132338125
 20
229.1661772697795
 30
0.0
 11
164.9214247193078
 21
231.1585666659629
 31
0.0
  0
LINE
  5
1F24
330
2
100
AcDbEntity
  8
0
100
AcDbLine
 10
164.8660982253675
 20
233.7366830059035
 30
0.0
 11
164.8660982253675
 21
235.7366830059035
 31
0.0
  0
LINE
  5
1F25
330
2
100
AcDbEntity
  8
0
100
AcDbLine
 10
164.753841819074
 20
240.3077774169594
 30
0.0
 11
164.9281533045693
 21
238.3153880207759
 31
0.0
  0
ARC
  5
1F26
330
2
100
AcDbEntity
  8
0
100
AcDbCircle
 10
163.3289515509227
 20
244.2718097208717
 30
0.0
 40
0.1
100
AcDbArc
 50
90.0
 51
180.0
  0
LINE
  5
1F27
330
2
100
AcDbEntity
  8
0
100
AcDbLine
 10
163.2289515509228
 20
244.2718097208717
 30
0.0
 11
163.2289515509228
 21
244.1218097208718
 31
0.0
  0
LINE
  5
1F28
330
2
100
AcDbEntity
  8
0
100
AcDbLine
 10
158.7289515509228
 20
255.9718097208718
 30
0.0
 11
152.3627339992683
 21
255.9718097208718
 31
0.0
  0
LINE
  5
1F29
330
2
100
AcDbEntity
  8
0
100
AcDbLine
 10
158.7289515509228
 20
254.7718097208717
 30
0.0
 11
152.4677203954993
 21
254.7718097208717
 31
0.0
  0
LINE
  5
1F2A
330
2
100
AcDbEntity
  8
0
100
AcDbLine
 10
158.7289515509228
 20
253.4718097208718
 30
0.0
 11
150.8739564637253
 21
253.4718097208716
 31
0.0
  0
LINE
  5
1F2B
330
2
100
AcDbEntity
  8
0
100
AcDbLine
 10
158.7289515509228
 20
252.2718097208719
 30
0.0
 11
150.9263495952154
 21
252.2718097208717
 31
0.0
  0
LINE
  5
1F2C
330
2
100
AcDbEntity
  8
0
100
AcDbLine
 10
158.7289515509228
 20
248.4718097208718
 30
0.0
 11
150.9263495952195
 21
248.4718097208717
 31
0.0
  0
LINE
  5
1F2D
330
2
100
AcDbEntity
  8
0
100
AcDbLine
 10
158.7289515509228
 20
247.2718097208717
 30
0.0
 11
150.8739564637285
 21
247.2718097208717
 31
0.0
  0
LINE
  5
1F2E
330
2
100
AcDbEntity
  8
0
100
AcDbLine
 10
158.7289515509228
 20
245.9718097208718
 30
0.0
 11
152.4677203955006
 21
245.9718097208717
 31
0.0
  0
ARC
  5
1F2F
330
2
100
AcDbEntity
  8
0
100
AcDbCircle
 10
150.9263495952156
 20
232.2718097208717
 30
0.0
 40
20.0
100
AcDbArc
 50
90.0
 51
94.99999999999975
  0
ARC
  5
1F30
330
2
100
AcDbEntity
  8
0
100
AcDbCircle
 10
150.8739564637255
 20
233.4718097208717
 30
0.0
 40
20.0
100
AcDbArc
 50
90.0
 51
94.99999999999975
  0
ARC
  5
1F31
330
2
100
AcDbEntity
  8
0
100
AcDbCircle
 10
150.8739564637285
 20
267.2718097208717
 30
0.0
 40
20.0
100
AcDbArc
 50
265.0000000000003
 51
270.0
  0
ARC
  5
1F32
330
2
100
AcDbEntity
  8
0
100
AcDbCircle
 10
150.9263495952195
 20
268.4718097208717
 30
0.0
 40
20.0
100
AcDbArc
 50
265.0000000000003
 51
270.0
  0
ARC
  5
1F33
330
2
100
AcDbEntity
  8
0
100
AcDbCircle
 10
152.4677203955004
 20
265.9718097208718
 30
0.0
 40
20.0
100
AcDbArc
 50
259.9999999999949
 51
270.0
  0
ARC
  5
1F34
330
2
100
AcDbEntity
  8
0
100
AcDbCircle
 10
152.3627339992683
 20
235.9718097208718
 30
0.0
 40
20.0
100
AcDbArc
 50
90.0
 51
100.000000000005
  0
ARC
  5
1F35
330
2
100
AcDbEntity
  8
0
100
AcDbCircle
 10
152.4677203954995
 20
234.7718097208716
 30
0.0
 40
20.0
100
AcDbArc
 50
90.0
 51
100.000000000005
  0
ARC
  5
1F36
330
2
100
AcDbEntity
  8
0
100
AcDbCircle
 10
163.3289515509227
 20
253.9718097208718
 30
0.0
 40
0.1
100
AcDbArc
 50
180.0
 51
270.0
  0
LINE
  5
1F37
330
2
100
AcDbEntity
  8
0
100
AcDbLine
 10
163.2289515509228
 20
251.7718097208717
 30
0.0
 11
163.2289515509228
 21
251.4718097208718
 31
0.0
  0
ARC
  5
1F38
330
2
100
AcDbEntity
  8
0
100
AcDbCircle
 10
163.3289515509227
 20
251.7718097208717
 30
0.0
 40
0.1
100
AcDbArc
 50
90.0
 51
180.0
  0
ARC
  5
1F39
330
2
100
AcDbEntity
  8
0
100
AcDbCircle
 10
163.3289515509227
 20
251.4718097208718
 30
0.0
 40
0.1
100
AcDbArc
 50
180.0
 51
270.0
  0
LINE
  5
1F3A
330
2
100
AcDbEntity
  8
0
100
AcDbLine
 10
163.2289515509228
 20
254.1218097208718
 30
0.0
 11
163.2289515509228
 21
254.2718097208717
 31
0.0
  0
ARC
  5
1F3B
330
2
100
AcDbEntity
  8
0
100
AcDbCircle
 10
163.3289515509227
 20
254.2718097208717
 30
0.0
 40
0.1
100
AcDbArc
 50
90.0
 51
180.0
  0
LINE
  5
1F3C
330
2
100
AcDbEntity
  8
0
100
AcDbLine
 10
163.2289515509228
 20
254.1218097208718
 30
0.0
 11
163.2289515509228
 21
253.9718097208718
 31
0.0
  0
ARC
  5
1F3D
330
2
100
AcDbEntity
  8
0
100
AcDbCircle
 10
163.3289515509227
 20
246.7718097208717
 30
0.0
 40
0.1
100
AcDbArc
 50
90.0
 51
180.0
  0
LINE
  5
1F3E
330
2
100
AcDbEntity
  8
0
100
AcDbLine
 10
163.2289515509228
 20
246.6218097208717
 30
0.0
 11
163.2289515509228
 21
246.7718097208717
 31
0.0
  0
ARC
  5
1F3F
330
2
100
AcDbEntity
  8
0
100
AcDbCircle
 10
163.3289515509227
 20
246.4718097208718
 30
0.0
 40
0.1
100
AcDbArc
 50
180.0
 51
270.0
  0
LINE
  5
1F40
330
2
100
AcDbEntity
  8
0
100
AcDbLine
 10
163.2289515509228
 20
246.6218097208717
 30
0.0
 11
163.2289515509228
 21
246.4718097208718
 31
0.0
  0
ARC
  5
1F41
330
2
100
AcDbEntity
  8
0
100
AcDbCircle
 10
163.3289515509227
 20
249.2718097208717
 30
0.0
 40
0.1
100
AcDbArc
 50
90.0
 51
180.0
  0
LINE
  5
1F42
330
2
100
AcDbEntity
  8
0
100
AcDbLine
 10
163.2289515509228
 20
248.9718097208718
 30
0.0
 11
163.2289515509228
 21
249.2718097208717
 31
0.0
  0
ARC
  5
1F43
330
2
100
AcDbEntity
  8
0
100
AcDbCircle
 10
163.3289515509227
 20
248.9718097208718
 30
0.0
 40
0.1
100
AcDbArc
 50
180.0
 51
270.0
  0
ARC
  5
1F44
330
2
100
AcDbEntity
  8
0
100
AcDbCircle
 10
163.3289515509227
 20
256.4718097208718
 30
0.0
 40
0.1
100
AcDbArc
 50
180.0
 51
270.0
  0
LINE
  5
1F45
330
2
100
AcDbEntity
  8
0
100
AcDbLine
 10
163.2289515509228
 20
256.4718097208718
 30
0.0
 11
163.2289515509228
 21
256.6218097208718
 31
0.0
  0
LINE
  5
1F46
330
2
100
AcDbEntity
  8
0
100
AcDbLine
 10
134.6695924127683
 20
392.770408153862
 30
0.0
 11
81.66959241276833
 21
393.6955061538619
 31
0.0
  0
LINE
  5
1F47
330
2
100
AcDbEntity
  8
0
100
AcDbLine
 10
133.1957684508025
 20
376.7961393189111
 30
0.0
 11
83.14341637473432
 21
377.6697205245198
 31
0.0
  0
ARC
  5
1F48
330
2
100
AcDbEntity
  8
0
100
AcDbCircle
 10
83.16959241276856
 20
379.16949211214
 30
0.0
 40
1.5
100
AcDbArc
 50
180.0
 51
269.0000982436657
  0
LINE
  5
1F49
330
2
100
AcDbEntity
  8
0
100
AcDbLine
 10
81.66959241276833
 20
380.2704161538619
 30
0.0
 11
81.16959241276834
 21
380.6037371538619
 31
0.0
  0
LINE
  5
1F4A
330
2
100
AcDbEntity
  8
0
100
AcDbLine
 10
81.66959241276833
 20
380.2704161538619
 30
0.0
 11
81.16959241276834
 21
380.6037371538619
 31
0.0
  0
LINE
  5
1F4B
330
2
100
AcDbEntity
  8
0
100
AcDbLine
 10
134.6695924127683
 20
373.0031111538619
 30
0.0
 11
134.6695924127683
 21
377.6031111538619
 31
0.0
  0
LINE
  5
1F4C
330
2
100
AcDbEntity
  8
0
100
AcDbLine
 10
133.3695894127682
 20
373.0031111538619
 30
0.0
 11
134.6695924127683
 21
373.0031111538619
 31
0.0
  0
ARC
  5
1F4D
330
2
100
AcDbEntity
  8
0
100
AcDbCircle
 10
133.1695924127683
 20
375.2963677312909
 30
0.0
 40
1.5
100
AcDbArc
 50
0.0
 51
89.00009824366568
  0
ARC
  5
1F4E
330
2
100
AcDbEntity
  8
0
100
AcDbCircle
 10
137.6695924127683
 20
377.6031111538619
 30
0.0
 40
8.0
100
AcDbArc
 50
185.3508690710036
 51
212.3923949999997
  0
LINE
  5
1F4F
330
2
100
AcDbEntity
  8
0
100
AcDbLine
 10
133.3695894127682
 20
376.7931055608714
 30
0.0
 11
133.3695894127682
 21
372.8531111538619
 31
0.0
  0
LINE
  5
1F50
330
2
100
AcDbEntity
  8
0
100
AcDbLine
 10
133.3695894127682
 20
372.8531111538619
 30
0.0
 11
131.7587954127683
 21
372.8531111538619
 31
0.0
  0
ARC
  5
1F51
330
2
100
AcDbEntity
  8
0
100
AcDbCircle
 10
131.7587954127683
 20
373.8531111538619
 30
0.0
 40
1.0
100
AcDbArc
 50
212.3923949999997
 51
270.0
  0
LINE
  5
1F52
330
2
100
AcDbEntity
  8
0
100
AcDbLine
 10
136.1695924127683
 20
364.5204161538618
 30
0.0
 11
143.6695924127683
 21
364.5204161538618
 31
0.0
  0
ARC
  5
1F53
330
2
100
AcDbEntity
  8
0
100
AcDbCircle
 10
136.1695924127683
 20
366.0204161538619
 30
0.0
 40
1.5
100
AcDbArc
 50
180.0
 51
270.0
  0
LINE
  5
1F54
330
2
100
AcDbEntity
  8
CENTER
100
AcDbLine
 10
127.8385914127683
 20
377.6031111538619
 30
0.0
 11
139.6695924127683
 21
377.603111153862
 31
0.0
  0
LINE
  5
1F55
330
2
100
AcDbEntity
  8
0
100
AcDbLine
 10
134.6695924127683
 20
382.2032111538619
 30
0.0
 11
134.6695924127683
 21
377.6031111538619
 31
0.0
  0
LINE
  5
1F56
330
2
100
AcDbEntity
  8
0
100
AcDbLine
 10
166.7289515509228
 20
246.2718097208717
 30
0.0
 11
166.7289515509228
 21
244.4718097208718
 31
0.0
  0
LINE
  5
1F57
330
2
100
AcDbEntity
  8
0
100
AcDbLine
 10
170.2289515509228
 20
256.6218097208718
 30
0.0
 11
170.2289515509228
 21
244.1218097208718
 31
0.0
  0
LINE
  5
1F58
330
2
100
AcDbEntity
  8
0
100
AcDbLine
 10
170.2289515509228
 20
256.6218097208718
 30
0.0
 11
170.2289515509228
 21
244.1218097208718
 31
0.0
  0
LINE
  5
1F59
330
2
100
AcDbEntity
  8
0
100
AcDbLine
 10
169.2289515509228
 20
246.0718097208718
 30
0.0
 11
169.2289515509228
 21
244.6718097208718
 31
0.0
  0
ARC
  5
1F5A
330
2
100
AcDbEntity
  8
0
100
AcDbCircle
 10
169.1289515509226
 20
244.6718097208718
 30
0.0
 40
0.1
100
AcDbArc
 50
270.0
 51
0.0
  0
LINE
  5
1F5B
330
2
100
AcDbEntity
  8
0
100
AcDbLine
 10
168.2289515509228
 20
244.1218097208718
 30
0.0
 11
168.2289515509228
 21
244.4718097208718
 31
0.0
  0
ARC
  5
1F5C
330
2
100
AcDbEntity
  8
0
100
AcDbCircle
 10
168.3289515509227
 20
244.4718097208718
 30
0.0
 40
0.1
100
AcDbArc
 50
90.0
 51
180.0
  0
ARC
  5
1F5D
330
2
100
AcDbEntity
  8
0
100
AcDbCircle
 10
166.6289515509229
 20
244.4718097208718
 30
0.0
 40
0.1
100
AcDbArc
 50
270.0
 51
0.0
  0
LINE
  5
1F5E
330
2
100
AcDbEntity
  8
0
100
AcDbLine
 10
169.1289515509226
 20
244.5718097208718
 30
0.0
 11
168.3289515509227
 21
244.5718097208718
 31
0.0
  0
LINE
  5
1F5F
330
2
100
AcDbEntity
  8
0
100
AcDbLine
 10
168.2289515509228
 20
254.1218097208718
 30
0.0
 11
168.2289515509228
 21
254.4718097208718
 31
0.0
  0
ARC
  5
1F60
330
2
100
AcDbEntity
  8
0
100
AcDbCircle
 10
166.6289515509229
 20
254.4718097208718
 30
0.0
 40
0.1
100
AcDbArc
 50
270.0
 51
0.0
  0
ARC
  5
1F61
330
2
100
AcDbEntity
  8
0
100
AcDbCircle
 10
169.1289515509226
 20
249.6718097208717
 30
0.0
 40
0.1
100
AcDbArc
 50
270.0
 51
0.0
  0
LINE
  5
1F62
330
2
100
AcDbEntity
  8
0
100
AcDbLine
 10
169.2289515509228
 20
250.3718097208718
 30
0.0
 11
169.2289515509228
 21
249.6718097208717
 31
0.0
  0
ARC
  5
1F63
330
2
100
AcDbEntity
  8
0
100
AcDbCircle
 10
169.1289515509226
 20
252.1718097208718
 30
0.0
 40
0.1
100
AcDbArc
 50
270.0
 51
0.0
  0
LINE
  5
1F64
330
2
100
AcDbEntity
  8
0
100
AcDbLine
 10
169.2289515509228
 20
253.5718097208718
 30
0.0
 11
169.2289515509228
 21
252.1718097208718
 31
0.0
  0
ARC
  5
1F65
330
2
100
AcDbEntity
  8
0
100
AcDbCircle
 10
169.1289515509226
 20
253.5718097208718
 30
0.0
 40
0.1
100
AcDbArc
 50
0.0
 51
90.0
  0
ARC
  5
1F66
330
2
100
AcDbEntity
  8
0
100
AcDbCircle
 10
169.1289515509226
 20
251.0718097208718
 30
0.0
 40
0.1
100
AcDbArc
 50
0.0
 51
90.0
  0
LINE
  5
1F67
330
2
100
AcDbEntity
  8
0
100
AcDbLine
 10
169.2289515509228
 20
250.3718097208718
 30
0.0
 11
169.2289515509228
 21
251.0718097208718
 31
0.0
  0
LINE
  5
1F68
330
2
100
AcDbEntity
  8
0
100
AcDbLine
 10
169.2289515509228
 20
247.1718097208717
 30
0.0
 11
169.2289515509228
 21
248.5718097208718
 31
0.0
  0
ARC
  5
1F69
330
2
100
AcDbEntity
  8
0
100
AcDbCircle
 10
169.1289515509226
 20
247.1718097208717
 30
0.0
 40
0.1
100
AcDbArc
 50
270.0
 51
0.0
  0
ARC
  5
1F6A
330
2
100
AcDbEntity
  8
0
100
AcDbCircle
 10
169.1289515509226
 20
246.0718097208718
 30
0.0
 40
0.1
100
AcDbArc
 50
0.0
 51
90.0
  0
ARC
  5
1F6B
330
2
100
AcDbEntity
  8
0
100
AcDbCircle
 10
169.1289515509226
 20
248.5718097208718
 30
0.0
 40
0.1
100
AcDbArc
 50
0.0
 51
90.0
  0
ARC
  5
1F6C
330
2
100
AcDbEntity
  8
0
100
AcDbCircle
 10
168.3289515509227
 20
249.4718097208718
 30
0.0
 40
0.1
100
AcDbArc
 50
90.0
 51
180.0
  0
LINE
  5
1F6D
330
2
100
AcDbEntity
  8
0
100
AcDbLine
 10
168.2289515509228
 20
249.1218097208717
 30
0.0
 11
168.2289515509228
 21
249.4718097208718
 31
0.0
  0
ARC
  5
1F6E
330
2
100
AcDbEntity
  8
0
100
AcDbCircle
 10
166.6289515509229
 20
249.4718097208718
 30
0.0
 40
0.1
100
AcDbArc
 50
270.0
 51
0.0
  0
LINE
  5
1F6F
330
2
100
AcDbEntity
  8
0
100
AcDbLine
 10
166.7289515509228
 20
249.4718097208718
 30
0.0
 11
166.7289515509228
 21
250.3718097208718
 31
0.0
  0
ARC
  5
1F70
330
2
100
AcDbEntity
  8
0
100
AcDbCircle
 10
168.3289515509227
 20
253.7718097208717
 30
0.0
 40
0.1
100
AcDbArc
 50
180.0
 51
270.0
  0
LINE
  5
1F71
330
2
100
AcDbEntity
  8
0
100
AcDbLine
 10
166.7289515509228
 20
253.7718097208717
 30
0.0
 11
166.7289515509228
 21
251.9718097208718
 31
0.0
  0
ARC
  5
1F72
330
2
100
AcDbEntity
  8
0
100
AcDbCircle
 10
166.6289515509229
 20
253.7718097208717
 30
0.0
 40
0.1
100
AcDbArc
 50
0.0
 51
90.0
  0
LINE
  5
1F73
330
2
100
AcDbEntity
  8
0
100
AcDbLine
 10
168.2289515509228
 20
251.6218097208717
 30
0.0
 11
168.2289515509228
 21
251.2718097208717
 31
0.0
  0
LINE
  5
1F74
330
2
100
AcDbEntity
  8
0
100
AcDbLine
 10
168.2289515509228
 20
251.6218097208717
 30
0.0
 11
168.2289515509228
 21
251.9718097208718
 31
0.0
  0
ARC
  5
1F75
330
2
100
AcDbEntity
  8
0
100
AcDbCircle
 10
168.3289515509227
 20
251.9718097208718
 30
0.0
 40
0.1
100
AcDbArc
 50
90.0
 51
180.0
  0
ARC
  5
1F76
330
2
100
AcDbEntity
  8
0
100
AcDbCircle
 10
168.3289515509227
 20
251.2718097208717
 30
0.0
 40
0.1
100
AcDbArc
 50
180.0
 51
270.0
  0
ARC
  5
1F77
330
2
100
AcDbEntity
  8
0
100
AcDbCircle
 10
166.6289515509229
 20
251.9718097208718
 30
0.0
 40
0.1
100
AcDbArc
 50
270.0
 51
0.0
  0
ARC
  5
1F78
330
2
100
AcDbEntity
  8
0
100
AcDbCircle
 10
166.6289515509229
 20
251.2718097208717
 30
0.0
 40
0.1
100
AcDbArc
 50
0.0
 51
90.0
  0
LINE
  5
1F79
330
2
100
AcDbEntity
  8
0
100
AcDbLine
 10
168.2289515509228
 20
254.1218097208718
 30
0.0
 11
168.2289515509228
 21
253.7718097208717
 31
0.0
  0
LINE
  5
1F7A
330
2
100
AcDbEntity
  8
0
100
AcDbLine
 10
166.7289515509228
 20
251.2718097208717
 30
0.0
 11
166.7289515509228
 21
250.3718097208718
 31
0.0
  0
LINE
  5
1F7B
330
2
100
AcDbEntity
  8
0
100
AcDbLine
 10
168.2289515509228
 20
249.1218097208717
 30
0.0
 11
168.2289515509228
 21
248.7718097208717
 31
0.0
  0
ARC
  5
1F7C
330
2
100
AcDbEntity
  8
0
100
AcDbCircle
 10
166.6289515509229
 20
248.7718097208717
 30
0.0
 40
0.1
100
AcDbArc
 50
0.0
 51
90.0
  0
LINE
  5
1F7D
330
2
100
AcDbEntity
  8
0
100
AcDbLine
 10
166.7289515509228
 20
246.9718097208718
 30
0.0
 11
166.7289515509228
 21
248.7718097208717
 31
0.0
  0
LINE
  5
1F7E
330
2
100
AcDbEntity
  8
0
100
AcDbLine
 10
168.2289515509228
 20
246.6218097208717
 30
0.0
 11
168.2289515509228
 21
246.9718097208718
 31
0.0
  0
ARC
  5
1F7F
330
2
100
AcDbEntity
  8
0
100
AcDbCircle
 10
168.3289515509227
 20
246.9718097208718
 30
0.0
 40
0.1
100
AcDbArc
 50
90.0
 51
180.0
  0
ARC
  5
1F80
330
2
100
AcDbEntity
  8
0
100
AcDbCircle
 10
168.3289515509227
 20
246.2718097208717
 30
0.0
 40
0.1
100
AcDbArc
 50
180.0
 51
270.0
  0
LINE
  5
1F81
330
2
100
AcDbEntity
  8
0
100
AcDbLine
 10
168.2289515509228
 20
246.6218097208717
 30
0.0
 11
168.2289515509228
 21
246.2718097208717
 31
0.0
  0
ARC
  5
1F82
330
2
100
AcDbEntity
  8
0
100
AcDbCircle
 10
166.6289515509229
 20
246.9718097208718
 30
0.0
 40
0.1
100
AcDbArc
 50
270.0
 51
0.0
  0
ARC
  5
1F83
330
2
100
AcDbEntity
  8
0
100
AcDbCircle
 10
166.6289515509229
 20
246.2718097208717
 30
0.0
 40
0.1
100
AcDbArc
 50
0.0
 51
90.0
  0
ARC
  5
1F84
330
2
100
AcDbEntity
  8
0
100
AcDbCircle
 10
168.3289515509227
 20
248.7718097208717
 30
0.0
 40
0.1
100
AcDbArc
 50
180.0
 51
270.0
  0
LINE
  5
1F85
330
2
100
AcDbEntity
  8
0
100
AcDbLine
 10
169.1289515509226
 20
249.5718097208718
 30
0.0
 11
168.3289515509227
 21
249.5718097208718
 31
0.0
  0
LINE
  5
1F86
330
2
100
AcDbEntity
  8
0
100
AcDbLine
 10
169.1289515509226
 20
251.1718097208718
 30
0.0
 11
168.3289515509227
 21
251.1718097208718
 31
0.0
  0
LINE
  5
1F87
330
2
100
AcDbEntity
  8
0
100
AcDbLine
 10
169.1289515509226
 20
252.0718097208718
 30
0.0
 11
168.3289515509227
 21
252.0718097208718
 31
0.0
  0
LINE
  5
1F88
330
2
100
AcDbEntity
  8
0
100
AcDbLine
 10
169.1289515509226
 20
253.6718097208718
 30
0.0
 11
168.3289515509227
 21
253.6718097208718
 31
0.0
  0
LINE
  5
1F89
330
2
100
AcDbEntity
  8
0
100
AcDbLine
 10
169.1289515509226
 20
247.0718097208718
 30
0.0
 11
168.3289515509227
 21
247.0718097208718
 31
0.0
  0
LINE
  5
1F8A
330
2
100
AcDbEntity
  8
0
100
AcDbLine
 10
169.1289515509226
 20
246.1718097208718
 30
0.0
 11
168.3289515509227
 21
246.1718097208718
 31
0.0
  0
LINE
  5
1F8B
330
2
100
AcDbEntity
  8
0
100
AcDbLine
 10
169.1289515509226
 20
248.6718097208718
 30
0.0
 11
168.3289515509227
 21
248.6718097208718
 31
0.0
  0
ARC
  5
1F8C
330
2
100
AcDbEntity
  8
0
100
AcDbCircle
 10
169.1289515509226
 20
256.0718097208718
 30
0.0
 40
0.1
100
AcDbArc
 50
0.0
 51
90.0
  0
ARC
  5
1F8D
330
2
100
AcDbEntity
  8
0
100
AcDbCircle
 10
168.3289515509227
 20
256.2718097208717
 30
0.0
 40
0.1
100
AcDbArc
 50
180.0
 51
270.0
  0
ARC
  5
1F8E
330
2
100
AcDbEntity
  8
0
100
AcDbCircle
 10
166.6289515509229
 20
256.2718097208717
 30
0.0
 40
0.1
100
AcDbArc
 50
0.0
 51
90.0
  0
LINE
  5
1F8F
330
2
100
AcDbEntity
  8
0
100
AcDbLine
 10
168.2289515509228
 20
256.6218097208718
 30
0.0
 11
168.2289515509228
 21
256.2718097208717
 31
0.0
  0
LINE
  5
1F90
330
2
100
AcDbEntity
  8
0
100
AcDbLine
 10
169.1289515509226
 20
256.1718097208718
 30
0.0
 11
168.3289515509227
 21
256.1718097208718
 31
0.0
  0
ARC
  5
1F91
330
2
100
AcDbEntity
  8
0
100
AcDbCircle
 10
169.1289515509226
 20
254.6718097208717
 30
0.0
 40
0.1
100
AcDbArc
 50
270.0
 51
0.0
  0
ARC
  5
1F92
330
2
100
AcDbEntity
  8
0
100
AcDbCircle
 10
168.3289515509227
 20
254.4718097208718
 30
0.0
 40
0.1
100
AcDbArc
 50
90.0
 51
180.0
  0
LINE
  5
1F93
330
2
100
AcDbEntity
  8
0
100
AcDbLine
 10
169.1289515509226
 20
254.5718097208718
 30
0.0
 11
168.3289515509227
 21
254.5718097208718
 31
0.0
  0
LINE
  5
1F94
330
2
100
AcDbEntity
  8
0
100
AcDbLine
 10
169.2289515509228
 20
254.6718097208717
 30
0.0
 11
169.2289515509228
 21
256.0718097208718
 31
0.0
  0
LINE
  5
1F95
330
2
100
AcDbEntity
  8
0
100
AcDbLine
 10
166.7289515509228
 20
254.4718097208718
 30
0.0
 11
166.7289515509228
 21
256.2718097208717
 31
0.0
  0
LINE
  5
1F96
330
2
100
AcDbEntity
  8
0
100
AcDbLine
 10
81.16959241276902
 20
462.2660625384808
 30
0.0
 11
70.16147741485361
 21
462.1699961742685
 31
0.0
  0
ARC
  5
1FA2
330
2
100
AcDbEntity
  8
0
100
AcDbCircle
 10
41.16147741485304
 20
458.9168027731793
 30
0.0
 40
3.0
100
AcDbArc
 50
90.49999999999155
 51
180.0
  0
ARC
  5
1FA3
330
2
100
AcDbEntity
  8
0
100
AcDbCircle
 10
137.6695924127683
 20
465.9377211538618
 30
0.0
 40
8.0
100
AcDbArc
 50
147.6076050000002
 51
174.6491309289963
  0
LINE
  5
1FA4
330
2
100
AcDbEntity
  8
0
100
AcDbLine
 10
133.3695894127682
 20
466.7477267468523
 30
0.0
 11
133.3695894127682
 21
470.6877211538618
 31
0.0
  0
LINE
  5
1FA5
330
2
100
AcDbEntity
  8
0
100
AcDbLine
 10
134.6695924127683
 20
450.7704241538617
 30
0.0
 11
81.66959241276833
 21
449.8453261538618
 31
0.0
  0
LINE
  5
1FA6
330
2
100
AcDbEntity
  8
0
100
AcDbLine
 10
133.1957684508025
 20
466.7446929888127
 30
0.0
 11
83.14341637473409
 21
465.871111783204
 31
0.0
  0
ARC
  5
1FA7
330
2
100
AcDbEntity
  8
0
100
AcDbCircle
 10
91.16959241276834
 20
431.6126720324388
 30
0.0
 40
1.0
100
AcDbArc
 50
0.0
 51
87.9999999999964
  0
LINE
  5
1FA8
330
2
100
AcDbEntity
  8
0
100
AcDbLine
 10
86.66959241276833
 20
432.7704161538618
 30
0.0
 11
86.66959241276833
 21
429.2704161538619
 31
0.0
  0
LINE
  5
1FA9
330
2
100
AcDbEntity
  8
0
100
AcDbLine
 10
92.16959241276857
 20
414.8704161538616
 30
0.0
 11
92.16959241276834
 21
411.9281691608736
 31
0.0
  0
ARC
  5
1FAA
330
2
100
AcDbEntity
  8
0
100
AcDbCircle
 10
86.66959241276833
 20
415.8704161538618
 30
0.0
 40
2.0
100
AcDbArc
 50
235.2729312954272
 51
304.7270687045728
  0
ARC
  5
1FAB
330
2
100
AcDbEntity
  8
0
100
AcDbCircle
 10
86.66959241276833
 20
417.2704161538617
 30
0.0
 40
3.25
100
AcDbArc
 50
290.521867400023
 51
312.3994733644488
  0
ARC
  5
1FAC
330
2
100
AcDbEntity
  8
0
100
AcDbCircle
 10
86.66959241276833
 20
417.2704161538617
 30
0.0
 40
3.25
100
AcDbArc
 50
176.1778378686729
 51
249.4781325999769
  0
LINE
  5
1FAD
330
2
100
AcDbEntity
  8
0
100
AcDbLine
 10
86.66959241276833
 20
410.7704161538618
 30
0.0
 11
91.20449190947113
 21
410.9287783338544
 31
0.0
  0
LINE
  5
1FAE
330
2
100
AcDbEntity
  8
0
100
AcDbLine
 10
85.16959241276834
 20
410.7442335564695
 30
0.0
 11
85.16959241276834
 21
402.7704161538618
 31
0.0
  0
LINE
  5
1FAF
330
2
100
AcDbEntity
  8
0
100
AcDbLine
 10
85.16959241276834
 20
402.7704161538618
 30
0.0
 11
82.16959241276857
 21
402.7704161538618
 31
0.0
  0
ARC
  5
1FB0
330
2
100
AcDbEntity
  8
0
100
AcDbCircle
 10
82.16959241276834
 20
403.7704161538618
 30
0.0
 40
1.0
100
AcDbArc
 50
180.0
 51
270.0
  0
LINE
  5
1FB1
330
2
100
AcDbEntity
  8
0
100
AcDbLine
 10
86.66959241276833
 20
410.7704161538618
 30
0.0
 11
82.16959241276834
 21
410.6918683616848
 31
0.0
  0
LINE
  5
1FB2
330
2
100
AcDbEntity
  8
0
100
AcDbLine
 10
86.66959241276833
 20
413.8704161538617
 30
0.0
 11
86.66959241276833
 21
410.7704161538618
 31
0.0
  0
ARC
  5
1FB3
330
2
100
AcDbEntity
  8
0
100
AcDbCircle
 10
91.16959241276834
 20
411.9281691608734
 30
0.0
 40
1.0
100
AcDbArc
 50
272.0000000000035
 51
0.0
  0
LINE
  5
1FB4
330
2
100
AcDbEntity
  8
0
100
AcDbLine
 10
86.66959241276833
 20
423.2704161538618
 30
0.0
 11
97.79497185200568
 21
423.2704161538617
 31
0.0
  0
LINE
  5
1FB5
330
2
100
AcDbEntity
  8
0
100
AcDbLine
 10
86.66959241276833
 20
429.2704161538619
 30
0.0
 11
97.71718150814479
 21
429.2704161538619
 31
0.0
  0
LINE
  5
1FB6
330
2
100
AcDbEntity
  8
0
100
AcDbLine
 10
86.66959241276833
 20
414.8704161538618
 30
0.0
 11
97.49254842396148
 21
414.8704161538618
 31
0.0
  0
LINE
  5
1FB7
330
2
100
AcDbEntity
  8
0
100
AcDbLine
 10
86.66959241276833
 20
416.8704161538618
 30
0.0
 11
97.39828883050165
 21
416.8704161538618
 31
0.0
  0
LINE
  5
1FB8
330
2
100
AcDbEntity
  8
0
100
AcDbLine
 10
84.86959241276839
 20
419.9704161538618
 30
0.0
 11
95.59828883050171
 21
419.9704161538618
 31
0.0
  0
LINE
  5
1FB9
330
2
100
AcDbEntity
  8
0
100
AcDbLine
 10
84.86959241276839
 20
417.9704161538618
 30
0.0
 11
95.69254842396151
 21
417.9704161538618
 31
0.0
  0
ARC
  5
1FBA
330
2
100
AcDbEntity
  8
0
100
AcDbCircle
 10
86.66959241276833
 20
426.2704161538619
 30
0.0
 40
3.0
100
AcDbArc
 50
90.0
 51
270.0
  0
LINE
  5
1FBB
330
2
100
AcDbEntity
  8
0
100
AcDbLine
 10
84.86959241276929
 20
420.9704161538618
 30
0.0
 11
88.46959241276739
 21
420.9704161538618
 31
0.0
  0
LINE
  5
1FBC
330
2
100
AcDbEntity
  8
0
100
AcDbLine
 10
83.05125455724249
 20
418.1375611585823
 30
0.0
 11
83.42682119679409
 21
417.4870606572511
 31
0.0
  0
ARC
  5
1FBD
330
2
100
AcDbEntity
  8
0
100
AcDbCircle
 10
84.86959241276839
 20
418.9704161538618
 30
0.0
 40
1.0
100
AcDbArc
 50
90.0
 51
270.0
  0
ARC
  5
1FBE
330
2
100
AcDbEntity
  8
0
100
AcDbCircle
 10
84.86959241276839
 20
418.9704161538618
 30
0.0
 40
2.0
100
AcDbArc
 50
89.99999999997395
 51
204.6092450239408
  0
LINE
  5
1FBF
330
2
100
AcDbEntity
  8
0
100
AcDbLine
 10
90.19142905482487
 20
417.9704161538618
 30
0.0
 11
89.91236362874259
 21
417.4870606572511
 31
0.0
  0
LINE
  5
1FC0
330
2
100
AcDbEntity
  8
0
100
AcDbLine
 10
90.19142905482487
 20
417.9704161538618
 30
0.0
 11
89.91236362874259
 21
417.4870606572511
 31
0.0
  0
ARC
  5
1FC1
330
2
100
AcDbEntity
  8
0
100
AcDbCircle
 10
88.46959241276829
 20
418.9704161538618
 30
0.0
 40
2.0
100
AcDbArc
 50
29.99999999999609
 51
90.00000000002605
  0
ARC
  5
1FC2
330
2
100
AcDbEntity
  8
0
100
AcDbCircle
 10
86.66959241276833
 20
417.2704161538617
 30
0.0
 40
3.25
100
AcDbArc
 50
352.930285957695
 51
3.822162131327067
  0
LINE
  5
1FC3
330
2
100
AcDbEntity
  8
0
100
AcDbLine
 10
86.66959241276833
 20
423.2704161538619
 30
0.0
 11
86.66959241276833
 21
420.9704161538619
 31
0.0
  0
ARC
  5
1FC4
330
2
100
AcDbEntity
  8
0
100
AcDbCircle
 10
86.66959241276833
 20
415.8704161538618
 30
0.0
 40
1.0
100
AcDbArc
 50
90.0
 51
270.0
  0
SPLINE
  5
1FC5
330
2
100
AcDbEntity
  8
HOJO
100
AcDbSpline
210
0.0
220
0.0
230
1.0
 70
     8
 71
     3
 72
    12
 73
     8
 74
     6
 42
0.0000000001
 43
0.0000000001
 44
0.0000000001
 40
0.0
 40
0.0
 40
0.0
 40
0.0
 40
1.684659730310349
 40
2.786160565551575
 40
4.550934817628674
 40
5.718899366607204
 40
6.335570522767257
 40
6.335570522767257
 40
6.335570522767257
 40
6.335570522767257
 10
97.79497185200568
 20
423.2704161538617
 30
0.0
 10
97.51806024373198
 20
423.8213759675451
 30
0.0
 10
97.06009227000144
 20
424.7325762998555
 30
0.0
 10
97.94271688793905
 20
426.0695775318779
 30
0.0
 10
98.50479472578635
 20
427.3953969983478
 30
0.0
 10
98.00738523430808
 20
428.5295902069569
 30
0.0
 10
97.79170770478353
 20
429.0801672520851
 30
0.0
 10
97.71718150814479
 20
429.2704161538619
 30
0.0
 11
97.79497185200568
 21
423.2704161538617
 31
0.0
 11
97.32922996812398
 21
424.8894167420417
 31
0.0
 11
97.7909598044904
 21
425.8894715646621
 31
0.0
 11
98.29116737977905
 21
427.5818723866952
 31
0.0
 11
97.94486974994619
 21
428.6973180999608
 31
0.0
 11
97.71718150814479
 21
429.2704161538619
 31
0.0
  0
SPLINE
  5
1FC6
330
2
100
AcDbEntity
  8
HOJO
100
AcDbSpline
210
0.0
220
0.0
230
1.0
 70
     8
 71
     3
 72
    10
 73
     6
 74
     4
 42
0.0000000001
 43
0.0000000001
 44
0.0000000001
 40
0.0
 40
0.0
 40
0.0
 40
0.0
 40
0.697190763405494
 40
1.694952319108353
 40
2.335350738679082
 40
2.335350738679082
 40
2.335350738679082
 40
2.335350738679082
 10
95.69254842396151
 20
417.9704161538618
 30
0.0
 10
95.85976256606969
 20
418.1914011659854
 30
0.0
 10
96.26627971005712
 20
418.7286415863227
 30
0.0
 10
95.08997059927386
 20
419.2390886319956
 30
0.0
 10
95.45542385383321
 20
419.7648734781721
 30
0.0
 10
95.59828883050171
 20
419.9704161538618
 30
0.0
 11
95.69254842396151
 21
417.9704161538618
 31
0.0
 11
95.98096087309079
 21
418.6051548558213
 31
0.0
 11
95.35164300559802
 21
419.3794204069682
 31
0.0
 11
95.59828883050171
 21
419.9704161538618
 31
0.0
  0
LINE
  5
1FC7
330
2
100
AcDbEntity
  8
0
100
AcDbLine
 10
92.16959241276834
 20
417.9704161538617
 30
0.0
 11
92.16959241276857
 21
416.8704161538618
 31
0.0
  0
LINE
  5
1FC8
330
2
100
AcDbEntity
  8
0
100
AcDbLine
 10
92.16959241276766
 20
423.2704161538618
 30
0.0
 11
92.16959241276857
 21
419.9704161538618
 31
0.0
  0
SPLINE
  5
1FC9
330
2
100
AcDbEntity
  8
HOJO
100
AcDbSpline
210
0.0
220
0.0
230
1.0
 70
     8
 71
     3
 72
    10
 73
     6
 74
     4
 42
0.0000000001
 43
0.0000000001
 44
0.0000000001
 40
0.0
 40
0.0
 40
0.0
 40
0.0
 40
0.697190763405494
 40
1.694952319108353
 40
2.335350738679082
 40
2.335350738679082
 40
2.335350738679082
 40
2.335350738679082
 10
97.49254842396148
 20
414.8704161538618
 30
0.0
 10
97.65976256606965
 20
415.0914011659854
 30
0.0
 10
98.06627971005706
 20
415.6286415863228
 30
0.0
 10
96.88997059927382
 20
416.1390886319956
 30
0.0
 10
97.25542385383313
 20
416.6648734781721
 30
0.0
 10
97.39828883050165
 20
416.8704161538618
 30
0.0
 11
97.49254842396148
 21
414.8704161538618
 31
0.0
 11
97.78096087309075
 21
415.5051548558212
 31
0.0
 11
97.15164300559798
 21
416.2794204069682
 31
0.0
 11
97.39828883050165
 21
416.8704161538618
 31
0.0
  0
LINE
  5
1FCA
330
2
100
AcDbEntity
  8
0
100
AcDbLine
 10
92.16959241276834
 20
431.6126720324388
 30
0.0
 11
92.16959241276857
 21
429.2704161538619
 31
0.0
  0
LINE
  5
1FCB
330
2
100
AcDbEntity
  8
0
100
AcDbLine
 10
81.66959241276879
 20
440.6364415576466
 30
0.0
 11
81.66959241276833
 21
464.3713401955838
 31
0.0
  0
LINE
  5
1FCC
330
2
100
AcDbEntity
  8
0
100
AcDbLine
 10
86.6701011577012
 20
432.770407273686
 30
0.0
 11
91.20449190947089
 21
432.6120628594579
 31
0.0
  0
LINE
  5
1FCD
330
2
100
AcDbEntity
  8
0
100
AcDbLine
 10
86.66959241276833
 20
432.7704161538618
 30
0.0
 11
82.16959241276834
 21
432.8489639460388
 31
0.0
  0
ARC
  5
1FCE
330
2
100
AcDbEntity
  8
0
100
AcDbCircle
 10
82.16959241276834
 20
439.7704161538618
 30
0.0
 40
1.0
100
AcDbArc
 50
90.0
 51
180.0
  0
LINE
  5
1FCF
330
2
100
AcDbEntity
  8
0
100
AcDbLine
 10
85.16959241276834
 20
440.7704161538618
 30
0.0
 11
82.16959241276834
 21
440.7704161538618
 31
0.0
  0
LINE
  5
1FD0
330
2
100
AcDbEntity
  8
0
100
AcDbLine
 10
85.16959241276834
 20
432.7965987512542
 30
0.0
 11
85.16959241276834
 21
440.7704161538618
 31
0.0
  0
ARC
  5
1FD1
330
2
100
AcDbEntity
  8
0
100
AcDbCircle
 10
83.16959241276833
 20
464.3713401955838
 30
0.0
 40
1.5
100
AcDbArc
 50
90.99990175633431
 51
180.0
  0
LINE
  5
1FD2
330
2
100
AcDbEntity
  8
0
100
AcDbLine
 10
81.66959241276833
 20
463.2704161538619
 30
0.0
 11
81.16959241276834
 21
462.9370951538618
 31
0.0
  0
LINE
  5
1FD3
330
2
100
AcDbEntity
  8
0
100
AcDbLine
 10
81.66959241276833
 20
463.2704161538619
 30
0.0
 11
81.16959241276834
 21
462.9370951538618
 31
0.0
  0
LINE
  5
1FD4
330
2
100
AcDbEntity
  8
0
100
AcDbLine
 10
133.3695894127682
 20
426.3705161538618
 30
0.0
 11
134.6695924127683
 21
426.3705161538618
 31
0.0
  0
LINE
  5
1FD5
330
2
100
AcDbEntity
  8
0
100
AcDbLine
 10
133.3695894127682
 20
417.1704161538619
 30
0.0
 11
134.6695924127683
 21
417.1704161538619
 31
0.0
  0
ARC
  5
1FD6
330
2
100
AcDbEntity
  8
0
100
AcDbCircle
 10
137.6695924127683
 20
421.7704161538619
 30
0.0
 40
8.0
100
AcDbArc
 50
147.6076050000002
 51
212.3923949999997
  0
LINE
  5
1FD7
330
2
100
AcDbEntity
  8
0
100
AcDbLine
 10
133.3695894127682
 20
426.5204161538618
 30
0.0
 11
133.3695894127682
 21
417.0204161538618
 31
0.0
  0
LINE
  5
1FD8
330
2
100
AcDbEntity
  8
0
100
AcDbLine
 10
133.3695894127682
 20
417.0204161538618
 30
0.0
 11
131.7587954127683
 21
417.0204161538618
 31
0.0
  0
ARC
  5
1FD9
330
2
100
AcDbEntity
  8
0
100
AcDbCircle
 10
131.7587954127683
 20
418.0204161538618
 30
0.0
 40
1.0
100
AcDbArc
 50
212.3923949999997
 51
270.0
  0
LINE
  5
1FDA
330
2
100
AcDbEntity
  8
0
100
AcDbLine
 10
133.3695894127682
 20
426.5204161538618
 30
0.0
 11
131.7587954127683
 21
426.5204161538618
 31
0.0
  0
ARC
  5
1FDB
330
2
100
AcDbEntity
  8
0
100
AcDbCircle
 10
131.7587954127683
 20
425.5204161538618
 30
0.0
 40
1.0
100
AcDbArc
 50
90.0
 51
147.6076050000002
  0
ARC
  5
1FDC
330
2
100
AcDbEntity
  8
0
100
AcDbCircle
 10
133.1695924127683
 20
468.2444645764329
 30
0.0
 40
1.5
100
AcDbArc
 50
270.9999017563343
 51
0.0
  0
LINE
  5
1FDD
330
2
100
AcDbEntity
  8
CENTER
100
AcDbLine
 10
127.8385914127683
 20
465.9377211538618
 30
0.0
 11
139.6695924127683
 21
465.9377211538617
 31
0.0
  0
LINE
  5
1FDF
330
2
100
AcDbEntity
  8
0
100
AcDbLine
 10
133.3695894127682
 20
470.5377211538618
 30
0.0
 11
134.6695924127683
 21
470.5377211538618
 31
0.0
  0
LINE
  5
1FE0
330
2
100
AcDbEntity
  8
0
100
AcDbLine
 10
133.3695894127682
 20
470.6877211538618
 30
0.0
 11
131.7587954127683
 21
470.6877211538618
 31
0.0
  0
ARC
  5
1FE1
330
2
100
AcDbEntity
  8
0
100
AcDbCircle
 10
131.7587954127683
 20
469.6877211538618
 30
0.0
 40
1.0
100
AcDbArc
 50
90.0
 51
147.6076050000002
  0
ARC
  5
1FE2
330
2
100
AcDbEntity
  8
0
100
AcDbCircle
 10
136.1695924127683
 20
477.5204161538619
 30
0.0
 40
1.5
100
AcDbArc
 50
90.0
 51
180.0
  0
LINE
  5
1FE3
330
2
100
AcDbEntity
  8
0
100
AcDbLine
 10
136.1695924127683
 20
479.0204161538619
 30
0.0
 11
143.6695924127683
 21
479.0204161538619
 31
0.0
  0
LINE
  5
2F86
330
2
100
AcDbEntity
  8
0
100
AcDbLine
 10
70.16147741485361
 20
466.6156681014089
 30
0.0
 11
70.16147741485361
 21
441.965885241017
 31
0.0
  0
LINE
  5
2F87
330
2
100
AcDbEntity
  8
0
100
AcDbLine
 10
68.16147741485361
 20
467.7059581378749
 30
0.0
 11
68.16147741485361
 21
441.965885241017
 31
0.0
  0
LINE
  5
2F88
330
2
100
AcDbEntity
  8
0
100
AcDbLine
 10
69.1614774148536
 20
467.686738886316
 30
0.0
 11
69.1614774148536
 21
440.9658852410169
 31
0.0
  0
ARC
  5
2F8A
330
2
100
AcDbEntity
  8
0
100
AcDbCircle
 10
69.16147741485372
 20
441.965885241017
 30
0.0
 40
1.0
100
AcDbArc
 50
180.0
 51
0.0
  0
SPLINE
  5
2F8D
330
2
100
AcDbEntity
  8
HOJO
100
AcDbSpline
210
0.0
220
0.0
230
1.0
 70
     8
 71
     3
 72
    10
 73
     6
 74
     0
 42
0.0000000001
 43
0.0000000001
 40
0.0613843116224887
 40
0.0613843116224887
 40
0.0613843116224887
 40
0.0613843116224887
 40
0.4721425064489786
 40
1.037679944361044
 40
1.199019778825058
 40
1.199019778825058
 40
1.199019778825058
 40
1.199019778825058
 10
70.16147741485361
 20
466.6156681014089
 30
0.0
 10
70.04693308586411
 20
466.4811634244718
 30
0.0
 10
69.77945744791259
 20
466.2052628501957
 30
0.0
 10
69.56949674021155
 20
466.8166503293235
 30
0.0
 10
69.23278476625148
 20
466.6764747142439
 30
0.0
 10
69.16147741485622
 20
466.6348873529694
 30
0.0
  0
SPLINE
  5
2F8E
330
2
100
AcDbEntity
  8
HOJO
100
AcDbSpline
210
0.0
220
0.0
230
1.0
 70
     8
 71
     3
 72
    10
 73
     6
 74
     0
 42
0.0000000001
 43
0.0000000001
 40
0.0613843116224887
 40
0.0613843116224887
 40
0.0613843116224887
 40
0.0613843116224887
 40
0.4721425064489786
 40
1.037679944361044
 40
1.199019778825058
 40
1.199019778825058
 40
1.199019778825058
 40
1.199019778825058
 10
69.1614774148536
 20
467.686738886316
 30
0.0
 10
69.04693308586411
 20
467.5522342093787
 30
0.0
 10
68.77945744791259
 20
467.2763336351026
 30
0.0
 10
68.56949674021155
 20
467.8877211142306
 30
0.0
 10
68.23278476625148
 20
467.7475454991508
 30
0.0
 10
68.16147741485622
 20
467.7059581378764
 30
0.0
  0
LINE
  5
2FC6
330
2
100
AcDbEntity
  8
0
100
AcDbLine
 10
68.16147741485361
 20
462.1525424386869
 30
0.0
 11
41.1352978083579
 21
461.9166885423717
 31
0.0
  0
ENDSEC
  0
SECTION
  2
OBJECTS
  0
DICTIONARY
  5
7
330
0
100
AcDbDictionary
  3
ACAD_GROUP
350
75
  3
ACAD_LAYOUT
350
61
  3
ACAD_MLINESTYLE
350
76
  3
ACAD_PLOTSETTINGS
350
77
  3
ACAD_PLOTSTYLENAME
350
6
  3
ACADDIM
350
480
  3
ACDBHEADERROUNDTRIPXREC
350
300D
  3
ACDBVARIABLEDICTIONARY
350
102
  3
DWGPROPS
350
3D2
  0
DICTIONARY
  5
302E
330
2
100
AcDbDictionary
280
     1
  3
ACAD_LAYOUTSELFREF
360
302F
  0
DICTIONARY
  5
3030
330
3007
100
AcDbDictionary
280
     1
  3
ACAD_LAYOUTSELFREF
360
3031
  0
DICTIONARY
  5
75
102
{ACAD_REACTORS
330
7
102
}
330
7
100
AcDbDictionary
  0
DICTIONARY
  5
61
102
{ACAD_REACTORS
330
7
102
}
330
7
100
AcDbDictionary
  0
DICTIONARY
  5
76
102
{ACAD_REACTORS
330
7
102
}
330
7
100
AcDbDictionary
  3
STANDARD
350
78
  0
DICTIONARY
  5
77
102
{ACAD_REACTORS
330
7
102
}
330
7
100
AcDbDictionary
  0
ACDBDICTIONARYWDFLT
  5
6
102
{ACAD_REACTORS
330
7
102
}
330
7
100
AcDbDictionary
281
     1
  3
Normal
350
5
100
AcDbDictionaryWithDefault
340
5
  0
XRECORD
  5
480
102
{ACAD_REACTORS
330
7
102
}
330
7
100
AcDbXrecord
 90
   990106
  3

 60
     0
 61
     0
 62
     1
 63
     3
 64
     1
 65
     0
 66
     0
 67
     3
 68
     1
 69
     0
 70
     0
 71
     0
 72
     0
 40
0.0
170
     2
340
0
  0
DICTIONARY
  5
300D
102
{ACAD_REACTORS
330
7
102
}
330
7
100
AcDbDictionary
  3
CEPSNTYPE
350
3017
  3
DIMSTYLEDATA
350
301B
  3
FINGERPRINTGUID
350
3018
  3
HYPERLINKBASE
350
3010
  3
INSUNITS
350
3016
  3
LAYOUTDICT
350
3012
  3
LWETCUNION
350
3015
  3
PLOTSETDICT
350
3013
  3
PLOTSTYLNAMDICT
350
3014
  3
PSVPSCALE
350
301A
  3
PUCSBASE
350
301E
  3
PUCSORGBACK
350
3024
  3
PUCSORGBOTTOM
350
3020
  3
PUCSORGFRONT
350
3023
  3
PUCSORGLEFT
350
3021
  3
PUCSORGRIGHT
350
3022
  3
PUCSORGTOP
350
301F
  3
PUCSORTHOREF
350
301C
  3
PUCSORTHOVIEW
350
301D
  3
STYLESHEET
350
3011
  3
TSTACKALIGN
350
300E
  3
TSTACKSIZE
350
300F
  3
UCSBASE
350
3027
  3
UCSORGBACK
350
302D
  3
UCSORGBOTTOM
350
3029
  3
UCSORGFRONT
350
302C
  3
UCSORGLEFT
350
302A
  3
UCSORGRIGHT
350
302B
  3
UCSORGTOP
350
3028
  3
UCSORTHOREF
350
3025
  3
UCSORTHOVIEW
350
3026
  3
VERSIONGUID
350
3019
  0
DICTIONARY
  5
102
102
{ACAD_REACTORS
330
7
102
}
330
7
100
AcDbDictionary
  3
DIMASSOC
350
103
  0
XRECORD
  5
3D2
102
{ACAD_REACTORS
330
7
102
}
330
7
100
AcDbXrecord
  1
DWGPROPS COOKIE
  2

  3

  4

  6

  7

  8

  9

300
=
301
=
302
=
303
=
304
=
305
=
306
=
307
=
308
=
309
=
 40
0.5353330671296296
 41
2452052.431989363
 42
2453406.550756377
  1

 90
        0
  0
XRECORD
  5
302F
102
{ACAD_REACTORS
330
302E
102
}
330
302E
100
AcDbXrecord
340
2
  0
XRECORD
  5
3031
102
{ACAD_REACTORS
330
3030
102
}
330
3030
100
AcDbXrecord
340
3007
  0
MLINESTYLE
  5
78
102
{ACAD_REACTORS
330
76
102
}
330
76
100
AcDbMlineStyle
  2
STANDARD
 70
     0
  3

 62
     0
 51
90.0
 52
90.0
 71
     2
 49
0.5
 62
   256
  6
BYLAYER
 49
-0.5
 62
   256
  6
BYLAYER
  0
ACDBPLACEHOLDER
  5
5
102
{ACAD_REACTORS
330
6
102
}
330
6
100
AcDbPlaceHolder
280
     0
  0
XRECORD
  5
3017
102
{ACAD_REACTORS
330
300D
102
}
330
300D
100
AcDbXrecord
 90
        0
  0
XRECORD
  5
301B
102
{ACAD_REACTORS
330
300D
102
}
330
300D
100
AcDbXrecord
1000
DSTYLE
1002
{
1070
   179
 70
     2
1070
   277
 70
     6
1002
}
  0
XRECORD
  5
3018
102
{ACAD_REACTORS
330
300D
102
}
330
300D
100
AcDbXrecord
  1
{6385560B-F4B1-4644-A7C2-A3E32AC3D232}
  0
XRECORD
  5
3010
102
{ACAD_REACTORS
330
300D
102
}
330
300D
100
AcDbXrecord
  1

  0
XRECORD
  5
3016
102
{ACAD_REACTORS
330
300D
102
}
330
300D
100
AcDbXrecord
 90
        0
  0
XRECORD
  5
3012
102
{ACAD_REACTORS
330
300D
102
}
330
300D
100
AcDbXrecord
340
61
  0
XRECORD
  5
3015
102
{ACAD_REACTORS
330
300D
102
}
330
300D
100
AcDbXrecord
 90
    10781
  0
XRECORD
  5
3013
102
{ACAD_REACTORS
330
300D
102
}
330
300D
100
AcDbXrecord
340
77
  0
XRECORD
  5
3014
102
{ACAD_REACTORS
330
300D
102
}
330
300D
100
AcDbXrecord
340
6
  0
XRECORD
  5
301A
102
{ACAD_REACTORS
330
300D
102
}
330
300D
100
AcDbXrecord
 40
0.0
  0
XRECORD
  5
301E
102
{ACAD_REACTORS
330
300D
102
}
330
300D
100
AcDbXrecord
340
0
  0
XRECORD
  5
3024
102
{ACAD_REACTORS
330
300D
102
}
330
300D
100
AcDbXrecord
 10
0.0
 20
0.0
 30
0.0
  0
XRECORD
  5
3020
102
{ACAD_REACTORS
330
300D
102
}
330
300D
100
AcDbXrecord
 10
0.0
 20
0.0
 30
0.0
  0
XRECORD
  5
3023
102
{ACAD_REACTORS
330
300D
102
}
330
300D
100
AcDbXrecord
 10
0.0
 20
0.0
 30
0.0
  0
XRECORD
  5
3021
102
{ACAD_REACTORS
330
300D
102
}
330
300D
100
AcDbXrecord
 10
0.0
 20
0.0
 30
0.0
  0
XRECORD
  5
3022
102
{ACAD_REACTORS
330
300D
102
}
330
300D
100
AcDbXrecord
 10
0.0
 20
0.0
 30
0.0
  0
XRECORD
  5
301F
102
{ACAD_REACTORS
330
300D
102
}
330
300D
100
AcDbXrecord
 10
0.0
 20
0.0
 30
0.0
  0
XRECORD
  5
301C
102
{ACAD_REACTORS
330
300D
102
}
330
300D
100
AcDbXrecord
340
0
  0
XRECORD
  5
301D
102
{ACAD_REACTORS
330
300D
102
}
330
300D
100
AcDbXrecord
 70
     0
  0
XRECORD
  5
3011
102
{ACAD_REACTORS
330
300D
102
}
330
300D
100
AcDbXrecord
  1
Sekkei.ctb
  0
XRECORD
  5
300E
102
{ACAD_REACTORS
330
300D
102
}
330
300D
100
AcDbXrecord
 90
        1
  0
XRECORD
  5
300F
102
{ACAD_REACTORS
330
300D
102
}
330
300D
100
AcDbXrecord
 90
       70
  0
XRECORD
  5
3027
102
{ACAD_REACTORS
330
300D
102
}
330
300D
100
AcDbXrecord
340
0
  0
XRECORD
  5
302D
102
{ACAD_REACTORS
330
300D
102
}
330
300D
100
AcDbXrecord
 10
0.0
 20
0.0
 30
0.0
  0
XRECORD
  5
3029
102
{ACAD_REACTORS
330
300D
102
}
330
300D
100
AcDbXrecord
 10
0.0
 20
0.0
 30
0.0
  0
XRECORD
  5
302C
102
{ACAD_REACTORS
330
300D
102
}
330
300D
100
AcDbXrecord
 10
0.0
 20
0.0
 30
0.0
  0
XRECORD
  5
302A
102
{ACAD_REACTORS
330
300D
102
}
330
300D
100
AcDbXrecord
 10
0.0
 20
0.0
 30
0.0
  0
XRECORD
  5
302B
102
{ACAD_REACTORS
330
300D
102
}
330
300D
100
AcDbXrecord
 10
0.0
 20
0.0
 30
0.0
  0
XRECORD
  5
3028
102
{ACAD_REACTORS
330
300D
102
}
330
300D
100
AcDbXrecord
 10
0.0
 20
0.0
 30
0.0
  0
XRECORD
  5
3025
102
{ACAD_REACTORS
330
300D
102
}
330
300D
100
AcDbXrecord
340
0
  0
XRECORD
  5
3026
102
{ACAD_REACTORS
330
300D
102
}
330
300D
100
AcDbXrecord
 70
     0
  0
XRECORD
  5
3019
102
{ACAD_REACTORS
330
300D
102
}
330
300D
100
AcDbXrecord
  1
{19585358-81EC-4DA8-8CCB-19E1ACEC6CBF}
  0
DICTIONARYVAR
  5
103
102
{ACAD_REACTORS
330
102
102
}
330
102
100
DictionaryVariables
280
     0
  1
1
  0
ENDSEC
  0
EOF
